  0
SECTION
  2
HEADER
  9
$ACADVER
  1
AC1012
  9
$DWGCODEPAGE
  3
ANSI_1252
  9
$INSBASE
 10
0.0
 20
0.0
 30
0.0
  9
$EXTMIN
 10
0.7476196577162711
 20
3.490631128534012
 30
-0.0000000349181948
  9
$EXTMAX
 10
6.031127950678495
 20
7.550766010478564
 30
0.0000000814935746
  9
$LIMMIN
 10
0.0
 20
0.0
  9
$LIMMAX
 10
12.0
 20
9.0
  9
$ORTHOMODE
 70
     0
  9
$REGENMODE
 70
     1
  9
$FILLMODE
 70
     1
  9
$QTEXTMODE
 70
     0
  9
$MIRRTEXT
 70
     1
  9
$DRAGMODE
 70
     2
  9
$LTSCALE
 40
1.0
  9
$OSMODE
 70
    33
  9
$ATTMODE
 70
     1
  9
$TEXTSIZE
 40
0.2
  9
$TRACEWID
 40
0.05
  9
$TEXTSTYLE
  7
STANDARD
  9
$CLAYER
  8
0
  9
$CELTYPE
  6
BYLAYER
  9
$CECOLOR
 62
   256
  9
$CELTSCALE
 40
1.0
  9
$DELOBJ
 70
     1
  9
$DISPSILH
 70
     0
  9
$DIMSCALE
 40
1.0
  9
$DIMASZ
 40
0.18
  9
$DIMEXO
 40
0.0625
  9
$DIMDLI
 40
0.38
  9
$DIMRND
 40
0.0
  9
$DIMDLE
 40
0.0
  9
$DIMEXE
 40
0.18
  9
$DIMTP
 40
0.0
  9
$DIMTM
 40
0.0
  9
$DIMTXT
 40
0.18
  9
$DIMCEN
 40
0.09
  9
$DIMTSZ
 40
0.0
  9
$DIMTOL
 70
     0
  9
$DIMLIM
 70
     0
  9
$DIMTIH
 70
     1
  9
$DIMTOH
 70
     1
  9
$DIMSE1
 70
     0
  9
$DIMSE2
 70
     0
  9
$DIMTAD
 70
     0
  9
$DIMZIN
 70
     0
  9
$DIMBLK
  1

  9
$DIMASO
 70
     1
  9
$DIMSHO
 70
     1
  9
$DIMPOST
  1

  9
$DIMAPOST
  1

  9
$DIMALT
 70
     0
  9
$DIMALTD
 70
     2
  9
$DIMALTF
 40
25.4
  9
$DIMLFAC
 40
1.0
  9
$DIMTOFL
 70
     0
  9
$DIMTVP
 40
0.0
  9
$DIMTIX
 70
     0
  9
$DIMSOXD
 70
     0
  9
$DIMSAH
 70
     0
  9
$DIMBLK1
  1

  9
$DIMBLK2
  1

  9
$DIMSTYLE
  2
STANDARD
  9
$DIMCLRD
 70
     0
  9
$DIMCLRE
 70
     0
  9
$DIMCLRT
 70
     0
  9
$DIMTFAC
 40
1.0
  9
$DIMGAP
 40
0.09
  9
$DIMJUST
 70
     0
  9
$DIMSD1
 70
     0
  9
$DIMSD2
 70
     0
  9
$DIMTOLJ
 70
     1
  9
$DIMTZIN
 70
     0
  9
$DIMALTZ
 70
     0
  9
$DIMALTTZ
 70
     0
  9
$DIMFIT
 70
     5
  9
$DIMUPT
 70
     0
  9
$DIMUNIT
 70
     2
  9
$DIMDEC
 70
     4
  9
$DIMTDEC
 70
     4
  9
$DIMALTU
 70
     2
  9
$DIMALTTD
 70
     2
  9
$DIMTXSTY
  7
STANDARD
  9
$DIMAUNIT
 70
     0
  9
$LUNITS
 70
     2
  9
$LUPREC
 70
     4
  9
$SKETCHINC
 40
0.1
  9
$FILLETRAD
 40
0.0
  9
$AUNITS
 70
     0
  9
$AUPREC
 70
     0
  9
$MENU
  1
acad
  9
$ELEVATION
 40
0.0
  9
$PELEVATION
 40
0.0
  9
$THICKNESS
 40
0.0
  9
$LIMCHECK
 70
     0
  9
$BLIPMODE
 70
     0
  9
$CHAMFERA
 40
0.0
  9
$CHAMFERB
 40
0.0
  9
$CHAMFERC
 40
0.0
  9
$CHAMFERD
 40
0.0
  9
$SKPOLY
 70
     0
  9
$TDCREATE
 40
2452221.588668981
  9
$TDUPDATE
 40
2452338.610343472
  9
$TDINDWG
 40
0.0016174769
  9
$TDUSRTIMER
 40
0.0016174769
  9
$USRTIMER
 70
     1
  9
$ANGBASE
 50
0.0
  9
$ANGDIR
 70
     0
  9
$PDMODE
 70
     0
  9
$PDSIZE
 40
0.0
  9
$PLINEWID
 40
0.0
  9
$COORDS
 70
     2
  9
$SPLFRAME
 70
     0
  9
$SPLINETYPE
 70
     6
  9
$SPLINESEGS
 70
     8
  9
$ATTDIA
 70
     0
  9
$ATTREQ
 70
     1
  9
$HANDLING
 70
  4097
  9
$HANDSEED
  5
4D27
  9
$SURFTAB1
 70
     6
  9
$SURFTAB2
 70
     6
  9
$SURFTYPE
 70
     6
  9
$SURFU
 70
     6
  9
$SURFV
 70
     6
  9
$UCSNAME
  2

  9
$UCSORG
 10
0.0
 20
0.0
 30
0.0
  9
$UCSXDIR
 10
1.0
 20
0.0
 30
0.0
  9
$UCSYDIR
 10
0.0
 20
1.0
 30
0.0
  9
$PUCSNAME
  2

  9
$PUCSORG
 10
0.0
 20
0.0
 30
0.0
  9
$PUCSXDIR
 10
1.0
 20
0.0
 30
0.0
  9
$PUCSYDIR
 10
0.0
 20
1.0
 30
0.0
  9
$USERI1
 70
     0
  9
$USERI2
 70
     0
  9
$USERI3
 70
     0
  9
$USERI4
 70
     0
  9
$USERI5
 70
     0
  9
$USERR1
 40
0.0
  9
$USERR2
 40
0.0
  9
$USERR3
 40
0.0
  9
$USERR4
 40
0.0
  9
$USERR5
 40
0.0
  9
$WORLDVIEW
 70
     1
  9
$SHADEDGE
 70
     3
  9
$SHADEDIF
 70
    70
  9
$TILEMODE
 70
     1
  9
$MAXACTVP
 70
    16
  9
$PINSBASE
 10
0.0
 20
0.0
 30
0.0
  9
$PLIMCHECK
 70
     0
  9
$PEXTMIN
 10
1.000000000000000E+20
 20
1.000000000000000E+20
 30
1.000000000000000E+20
  9
$PEXTMAX
 10
-1.000000000000000E+20
 20
-1.000000000000000E+20
 30
-1.000000000000000E+20
  9
$PLIMMIN
 10
0.0
 20
0.0
  9
$PLIMMAX
 10
12.0
 20
9.0
  9
$UNITMODE
 70
     0
  9
$VISRETAIN
 70
     0
  9
$PLINEGEN
 70
     0
  9
$PSLTSCALE
 70
     1
  9
$TREEDEPTH
 70
  3020
  9
$PICKSTYLE
 70
     1
  9
$CMLSTYLE
  2
STANDARD
  9
$CMLJUST
 70
     0
  9
$CMLSCALE
 40
1.0
  9
$SAVEIMAGES
 70
     1
  0
ENDSEC
  0
SECTION
  2
CLASSES
  0
CLASS
  1
ACDBDICTIONARYWDFLT
  2
AcDbDictionaryWithDefault
  3
AutoCAD 2000
 90
    32768
280
     0
281
     0
  0
CLASS
  1
ACDBPLACEHOLDER
  2
AcDbPlaceHolder
  3
AutoCAD 2000
 90
    32768
280
     0
281
     0
  0
CLASS
  1
LAYOUT
  2
AcDbLayout
  3
AutoCAD 2000
 90
    32768
280
     0
281
     0
  0
CLASS
  1
LONG_TRANSACTION
  2
AcDbLongTransaction
  3
AutoCAD 2000
 90
    32768
280
     0
281
     0
  0
CLASS
  1
LWPOLYLINE
  2
AcDbPolyline
  3
AutoCAD 2000
 90
    32768
280
     0
281
     1
  0
CLASS
  1
HATCH
  2
AcDbHatch
  3
AutoCAD 2000
 90
    32768
280
     0
281
     1
  0
CLASS
  1
XRECORD
  2
AcDbXrecord
  3
AutoCAD 2000
 90
    32768
280
     0
281
     0
  0
CLASS
  1
LONG_TRANSACTION
  2
AcDbLongTransaction
  3
AutoCAD 2000
 90
    32768
280
     0
281
     0
  0
CLASS
  1
LWPOLYLINE
  2
AcDbPolyline
  3
AutoCAD 2000
 90
    32768
280
     0
281
     1
  0
CLASS
  1
HATCH
  2
AcDbHatch
  3
AutoCAD 2000
 90
    32768
280
     0
281
     1
  0
CLASS
  1
XRECORD
  2
AcDbXrecord
  3
AutoCAD 2000
 90
    32768
280
     0
281
     0
  0
ENDSEC
  0
SECTION
  2
TABLES
  0
TABLE
  2
VPORT
  5
8
330
0
100
AcDbSymbolTable
 70
     3
  0
VPORT
  5
4D24
330
8
100
AcDbSymbolTableRecord
100
AcDbViewportTableRecord
  2
*ACTIVE
 70
     0
 10
0.0
 20
0.0
 11
1.0
 21
1.0
 12
3.389373804197384
 22
5.520698569506288
 13
0.0
 23
0.0
 14
1.0
 24
1.0
 15
0.0
 25
0.0
 16
0.0
 26
0.0
 36
1.0
 17
0.0
 27
0.0
 37
0.0
 40
4.092104447944116
 41
1.601839684625492
 42
50.0
 43
0.0
 44
0.0
 50
0.0
 51
0.0
 71
     0
 72
   100
 73
     1
 74
     1
 75
     0
 76
     0
 77
     0
 78
     0
  0
ENDTAB
  0
TABLE
  2
LTYPE
  5
5
330
0
100
AcDbSymbolTable
 70
    25
  0
LTYPE
  5
13
330
5
100
AcDbSymbolTableRecord
100
AcDbLinetypeTableRecord
  2
BYBLOCK
 70
     0
  3

 72
    65
 73
     0
 40
0.0
  0
LTYPE
  5
14
330
5
100
AcDbSymbolTableRecord
100
AcDbLinetypeTableRecord
  2
BYLAYER
 70
     0
  3

 72
    65
 73
     0
 40
0.0
  0
LTYPE
  5
15
330
5
100
AcDbSymbolTableRecord
100
AcDbLinetypeTableRecord
  2
CONTINUOUS
 70
     0
  3
Solid line
 72
    65
 73
     0
 40
0.0
  0
LTYPE
  5
22
330
5
100
AcDbSymbolTableRecord
100
AcDbLinetypeTableRecord
  2
BORDER
 70
     0
  3
__ __ . __ __ . __ __ . __ __ . __ __ . __ __ .
 72
    65
 73
     6
 40
1.75
 49
0.5
 74
     0
 49
-0.25
 74
     0
 49
0.5
 74
     0
 49
-0.25
 74
     0
 49
0.5
 74
     0
 49
-0.25
 74
     0
  0
LTYPE
  5
23
330
5
100
AcDbSymbolTableRecord
100
AcDbLinetypeTableRecord
  2
BORDER2
 70
     0
  3
__.__.__.__.__.__.__.__.__.__.__.__.__.__.__.__
 72
    65
 73
     6
 40
0.875
 49
0.25
 74
     0
 49
-0.125
 74
     0
 49
0.25
 74
     0
 49
-0.125
 74
     0
 49
0.25
 74
     0
 49
-0.125
 74
     0
  0
LTYPE
  5
24
330
5
100
AcDbSymbolTableRecord
100
AcDbLinetypeTableRecord
  2
BORDERX2
 70
     0
  3
____  ____  .  ____  ____  .  
 72
    65
 73
     6
 40
3.5
 49
1.0
 74
     0
 49
-0.5
 74
     0
 49
1.0
 74
     0
 49
-0.5
 74
     0
 49
1.0
 74
     0
 49
-0.5
 74
     0
  0
LTYPE
  5
25
330
5
100
AcDbSymbolTableRecord
100
AcDbLinetypeTableRecord
  2
CENTER
 70
     0
  3
____ _ ____ _ ____ _ ____ _ ____ _ ____ _ ____
 72
    65
 73
     4
 40
2.0
 49
1.25
 74
     0
 49
-0.25
 74
     0
 49
0.25
 74
     0
 49
-0.25
 74
     0
  0
LTYPE
  5
26
330
5
100
AcDbSymbolTableRecord
100
AcDbLinetypeTableRecord
  2
CENTER2
 70
     0
  3
____ _ ____ _ ____ _ ____ _ ____ _ ____ _ ____
 72
    65
 73
     4
 40
1.125
 49
0.75
 74
     0
 49
-0.125
 74
     0
 49
0.125
 74
     0
 49
-0.125
 74
     0
  0
LTYPE
  5
27
330
5
100
AcDbSymbolTableRecord
100
AcDbLinetypeTableRecord
  2
CENTERX2
 70
     0
  3
________  __  ________  __  ________  __  
 72
    65
 73
     4
 40
4.0
 49
2.5
 74
     0
 49
-0.5
 74
     0
 49
0.5
 74
     0
 49
-0.5
 74
     0
  0
LTYPE
  5
28
330
5
100
AcDbSymbolTableRecord
100
AcDbLinetypeTableRecord
  2
DASHDOT
 70
     0
  3
__ . __ . __ . __ . __ . __ . __ . 
 72
    65
 73
     4
 40
1.0
 49
0.5
 74
     0
 49
-0.25
 74
     0
 49
0.0
 74
     0
 49
-0.25
 74
     0
  0
LTYPE
  5
29
330
5
100
AcDbSymbolTableRecord
100
AcDbLinetypeTableRecord
  2
DASHDOT2
 70
     0
  3
_._._._._._._._._._._._._._._._.
 72
    65
 73
     4
 40
0.5
 49
0.25
 74
     0
 49
-0.125
 74
     0
 49
0.0
 74
     0
 49
-0.125
 74
     0
  0
LTYPE
  5
2A
330
5
100
AcDbSymbolTableRecord
100
AcDbLinetypeTableRecord
  2
DASHDOTX2
 70
     0
  3
____  .  ____  .  ____  .  ____  .  
 72
    65
 73
     4
 40
2.0
 49
1.0
 74
     0
 49
-0.5
 74
     0
 49
0.0
 74
     0
 49
-0.5
 74
     0
  0
LTYPE
  5
2B
330
5
100
AcDbSymbolTableRecord
100
AcDbLinetypeTableRecord
  2
DASHED
 70
     0
  3
__ __ __ __ __ __ __ __ __ __ __ __ 
 72
    65
 73
     2
 40
0.75
 49
0.5
 74
     0
 49
-0.25
 74
     0
  0
LTYPE
  5
2C
330
5
100
AcDbSymbolTableRecord
100
AcDbLinetypeTableRecord
  2
DASHED2
 70
     0
  3
_ _ _ _ _ _ _ _ _ _ _ _ _ _ _ _ _ _ 
 72
    65
 73
     2
 40
0.375
 49
0.25
 74
     0
 49
-0.125
 74
     0
  0
LTYPE
  5
2D
330
5
100
AcDbSymbolTableRecord
100
AcDbLinetypeTableRecord
  2
DASHEDX2
 70
     0
  3
____  ____  ____  ____  ____  ____  
 72
    65
 73
     2
 40
1.5
 49
1.0
 74
     0
 49
-0.5
 74
     0
  0
LTYPE
  5
2E
330
5
100
AcDbSymbolTableRecord
100
AcDbLinetypeTableRecord
  2
DIVIDE
 70
     0
  3
____ . . ____ . . ____ . . ____ . . 
 72
    65
 73
     6
 40
1.25
 49
0.5
 74
     0
 49
-0.25
 74
     0
 49
0.0
 74
     0
 49
-0.25
 74
     0
 49
0.0
 74
     0
 49
-0.25
 74
     0
  0
LTYPE
  5
2F
330
5
100
AcDbSymbolTableRecord
100
AcDbLinetypeTableRecord
  2
DIVIDE2
 70
     0
  3
__..__..__..__..__..__..__..__..__..
 72
    65
 73
     6
 40
0.625
 49
0.25
 74
     0
 49
-0.125
 74
     0
 49
0.0
 74
     0
 49
-0.125
 74
     0
 49
0.0
 74
     0
 49
-0.125
 74
     0
  0
LTYPE
  5
30
330
5
100
AcDbSymbolTableRecord
100
AcDbLinetypeTableRecord
  2
DIVIDEX2
 70
     0
  3
________  .  .  ________  .  .  ________  .  . 
 72
    65
 73
     6
 40
2.5
 49
1.0
 74
     0
 49
-0.5
 74
     0
 49
0.0
 74
     0
 49
-0.5
 74
     0
 49
0.0
 74
     0
 49
-0.5
 74
     0
  0
LTYPE
  5
31
330
5
100
AcDbSymbolTableRecord
100
AcDbLinetypeTableRecord
  2
DOT
 70
     0
  3
. . . . . . . . . . . . . . . . . . 
 72
    65
 73
     2
 40
0.25
 49
0.0
 74
     0
 49
-0.25
 74
     0
  0
LTYPE
  5
32
330
5
100
AcDbSymbolTableRecord
100
AcDbLinetypeTableRecord
  2
DOT2
 70
     0
  3
....................................
 72
    65
 73
     2
 40
0.125
 49
0.0
 74
     0
 49
-0.125
 74
     0
  0
LTYPE
  5
33
330
5
100
AcDbSymbolTableRecord
100
AcDbLinetypeTableRecord
  2
DOTX2
 70
     0
  3
.  .  .  .  .  .  .  .  .  .  .  .  .  
 72
    65
 73
     2
 40
0.5
 49
0.0
 74
     0
 49
-0.5
 74
     0
  0
LTYPE
  5
34
330
5
100
AcDbSymbolTableRecord
100
AcDbLinetypeTableRecord
  2
HIDDEN
 70
     0
  3
__ __ __ __ __ __ __ __ __ __ __ __ 
 72
    65
 73
     2
 40
0.375
 49
0.25
 74
     0
 49
-0.125
 74
     0
  0
LTYPE
  5
35
330
5
100
AcDbSymbolTableRecord
100
AcDbLinetypeTableRecord
  2
HIDDEN2
 70
     0
  3
_ _ _ _ _ _ _ _ _ _ _ _ _ _ _ _ _ _ 
 72
    65
 73
     2
 40
0.1875
 49
0.125
 74
     0
 49
-0.0625
 74
     0
  0
LTYPE
  5
36
330
5
100
AcDbSymbolTableRecord
100
AcDbLinetypeTableRecord
  2
HIDDENX2
 70
     0
  3
____ ____ ____ ____ ____ ____ ____ 
 72
    65
 73
     2
 40
0.75
 49
0.5
 74
     0
 49
-0.25
 74
     0
  0
LTYPE
  5
37
330
5
100
AcDbSymbolTableRecord
100
AcDbLinetypeTableRecord
  2
PHANTOM
 70
     0
  3
______  __  __  ______  __  __  
 72
    65
 73
     6
 40
2.5
 49
1.25
 74
     0
 49
-0.25
 74
     0
 49
0.25
 74
     0
 49
-0.25
 74
     0
 49
0.25
 74
     0
 49
-0.25
 74
     0
  0
LTYPE
  5
38
330
5
100
AcDbSymbolTableRecord
100
AcDbLinetypeTableRecord
  2
PHANTOM2
 70
     0
  3
___ _ _ ___ _ _ ___ _ _ ___ _ _ 
 72
    65
 73
     6
 40
1.25
 49
0.625
 74
     0
 49
-0.125
 74
     0
 49
0.125
 74
     0
 49
-0.125
 74
     0
 49
0.125
 74
     0
 49
-0.125
 74
     0
  0
LTYPE
  5
39
330
5
100
AcDbSymbolTableRecord
100
AcDbLinetypeTableRecord
  2
PHANTOMX2
 70
     0
  3
___ _ _ ___ _ _ ___ _ _ ___ _ _ 
 72
    65
 73
     6
 40
5.0
 49
2.5
 74
     0
 49
-0.5
 74
     0
 49
0.5
 74
     0
 49
-0.5
 74
     0
 49
0.5
 74
     0
 49
-0.5
 74
     0
  0
ENDTAB
  0
TABLE
  2
LAYER
  5
2
330
0
100
AcDbSymbolTable
 70
   257
  0
LAYER
  5
10
330
2
100
AcDbSymbolTableRecord
100
AcDbLayerTableRecord
  2
0
 70
     0
 62
     7
  6
CONTINUOUS
  0
LAYER
  5
3A
330
2
100
AcDbSymbolTableRecord
100
AcDbLayerTableRecord
  2
1
 70
     0
 62
     1
  6
CONTINUOUS
  0
LAYER
  5
3B
330
2
100
AcDbSymbolTableRecord
100
AcDbLayerTableRecord
  2
2
 70
     0
 62
     2
  6
CONTINUOUS
  0
LAYER
  5
3C
330
2
100
AcDbSymbolTableRecord
100
AcDbLayerTableRecord
  2
3
 70
     0
 62
     3
  6
CONTINUOUS
  0
LAYER
  5
3D
330
2
100
AcDbSymbolTableRecord
100
AcDbLayerTableRecord
  2
4
 70
     0
 62
     4
  6
CONTINUOUS
  0
LAYER
  5
3E
330
2
100
AcDbSymbolTableRecord
100
AcDbLayerTableRecord
  2
5
 70
     0
 62
     5
  6
CONTINUOUS
  0
LAYER
  5
3F
330
2
100
AcDbSymbolTableRecord
100
AcDbLayerTableRecord
  2
6
 70
     0
 62
     6
  6
CONTINUOUS
  0
LAYER
  5
40
330
2
100
AcDbSymbolTableRecord
100
AcDbLayerTableRecord
  2
7
 70
     0
 62
     7
  6
CONTINUOUS
  0
LAYER
  5
41
330
2
100
AcDbSymbolTableRecord
100
AcDbLayerTableRecord
  2
8
 70
     0
 62
     8
  6
CONTINUOUS
  0
LAYER
  5
42
330
2
100
AcDbSymbolTableRecord
100
AcDbLayerTableRecord
  2
9
 70
     0
 62
     9
  6
CONTINUOUS
  0
LAYER
  5
43
330
2
100
AcDbSymbolTableRecord
100
AcDbLayerTableRecord
  2
10
 70
     0
 62
    10
  6
CONTINUOUS
  0
LAYER
  5
44
330
2
100
AcDbSymbolTableRecord
100
AcDbLayerTableRecord
  2
11
 70
     0
 62
    11
  6
CONTINUOUS
  0
LAYER
  5
45
330
2
100
AcDbSymbolTableRecord
100
AcDbLayerTableRecord
  2
12
 70
     0
 62
    12
  6
CONTINUOUS
  0
LAYER
  5
46
330
2
100
AcDbSymbolTableRecord
100
AcDbLayerTableRecord
  2
13
 70
     0
 62
    13
  6
CONTINUOUS
  0
LAYER
  5
47
330
2
100
AcDbSymbolTableRecord
100
AcDbLayerTableRecord
  2
14
 70
     0
 62
    14
  6
CONTINUOUS
  0
LAYER
  5
48
330
2
100
AcDbSymbolTableRecord
100
AcDbLayerTableRecord
  2
15
 70
     0
 62
    15
  6
CONTINUOUS
  0
LAYER
  5
49
330
2
100
AcDbSymbolTableRecord
100
AcDbLayerTableRecord
  2
16
 70
     0
 62
    16
  6
CONTINUOUS
  0
LAYER
  5
4A
330
2
100
AcDbSymbolTableRecord
100
AcDbLayerTableRecord
  2
17
 70
     0
 62
    17
  6
CONTINUOUS
  0
LAYER
  5
4B
330
2
100
AcDbSymbolTableRecord
100
AcDbLayerTableRecord
  2
18
 70
     0
 62
    18
  6
CONTINUOUS
  0
LAYER
  5
4C
330
2
100
AcDbSymbolTableRecord
100
AcDbLayerTableRecord
  2
19
 70
     0
 62
    19
  6
CONTINUOUS
  0
LAYER
  5
4D
330
2
100
AcDbSymbolTableRecord
100
AcDbLayerTableRecord
  2
20
 70
     0
 62
    20
  6
CONTINUOUS
  0
LAYER
  5
4E
330
2
100
AcDbSymbolTableRecord
100
AcDbLayerTableRecord
  2
21
 70
     0
 62
    21
  6
CONTINUOUS
  0
LAYER
  5
4F
330
2
100
AcDbSymbolTableRecord
100
AcDbLayerTableRecord
  2
22
 70
     0
 62
    22
  6
CONTINUOUS
  0
LAYER
  5
50
330
2
100
AcDbSymbolTableRecord
100
AcDbLayerTableRecord
  2
23
 70
     0
 62
    23
  6
CONTINUOUS
  0
LAYER
  5
51
330
2
100
AcDbSymbolTableRecord
100
AcDbLayerTableRecord
  2
24
 70
     0
 62
    24
  6
CONTINUOUS
  0
LAYER
  5
52
330
2
100
AcDbSymbolTableRecord
100
AcDbLayerTableRecord
  2
25
 70
     0
 62
    25
  6
CONTINUOUS
  0
LAYER
  5
53
330
2
100
AcDbSymbolTableRecord
100
AcDbLayerTableRecord
  2
26
 70
     0
 62
    26
  6
CONTINUOUS
  0
LAYER
  5
54
330
2
100
AcDbSymbolTableRecord
100
AcDbLayerTableRecord
  2
27
 70
     0
 62
    27
  6
CONTINUOUS
  0
LAYER
  5
55
330
2
100
AcDbSymbolTableRecord
100
AcDbLayerTableRecord
  2
28
 70
     0
 62
    28
  6
CONTINUOUS
  0
LAYER
  5
56
330
2
100
AcDbSymbolTableRecord
100
AcDbLayerTableRecord
  2
29
 70
     0
 62
    29
  6
CONTINUOUS
  0
LAYER
  5
57
330
2
100
AcDbSymbolTableRecord
100
AcDbLayerTableRecord
  2
30
 70
     0
 62
    30
  6
CONTINUOUS
  0
LAYER
  5
58
330
2
100
AcDbSymbolTableRecord
100
AcDbLayerTableRecord
  2
31
 70
     0
 62
    31
  6
CONTINUOUS
  0
LAYER
  5
59
330
2
100
AcDbSymbolTableRecord
100
AcDbLayerTableRecord
  2
32
 70
     0
 62
    32
  6
CONTINUOUS
  0
LAYER
  5
5A
330
2
100
AcDbSymbolTableRecord
100
AcDbLayerTableRecord
  2
33
 70
     0
 62
    33
  6
CONTINUOUS
  0
LAYER
  5
5B
330
2
100
AcDbSymbolTableRecord
100
AcDbLayerTableRecord
  2
34
 70
     0
 62
    34
  6
CONTINUOUS
  0
LAYER
  5
5C
330
2
100
AcDbSymbolTableRecord
100
AcDbLayerTableRecord
  2
35
 70
     0
 62
    35
  6
CONTINUOUS
  0
LAYER
  5
5D
330
2
100
AcDbSymbolTableRecord
100
AcDbLayerTableRecord
  2
36
 70
     0
 62
    36
  6
CONTINUOUS
  0
LAYER
  5
5E
330
2
100
AcDbSymbolTableRecord
100
AcDbLayerTableRecord
  2
37
 70
     0
 62
    37
  6
CONTINUOUS
  0
LAYER
  5
5F
330
2
100
AcDbSymbolTableRecord
100
AcDbLayerTableRecord
  2
38
 70
     0
 62
    38
  6
CONTINUOUS
  0
LAYER
  5
60
330
2
100
AcDbSymbolTableRecord
100
AcDbLayerTableRecord
  2
39
 70
     0
 62
    39
  6
CONTINUOUS
  0
LAYER
  5
61
330
2
100
AcDbSymbolTableRecord
100
AcDbLayerTableRecord
  2
40
 70
     0
 62
    40
  6
CONTINUOUS
  0
LAYER
  5
62
330
2
100
AcDbSymbolTableRecord
100
AcDbLayerTableRecord
  2
41
 70
     0
 62
    41
  6
CONTINUOUS
  0
LAYER
  5
63
330
2
100
AcDbSymbolTableRecord
100
AcDbLayerTableRecord
  2
42
 70
     0
 62
    42
  6
CONTINUOUS
  0
LAYER
  5
64
330
2
100
AcDbSymbolTableRecord
100
AcDbLayerTableRecord
  2
43
 70
     0
 62
    43
  6
CONTINUOUS
  0
LAYER
  5
65
330
2
100
AcDbSymbolTableRecord
100
AcDbLayerTableRecord
  2
44
 70
     0
 62
    44
  6
CONTINUOUS
  0
LAYER
  5
66
330
2
100
AcDbSymbolTableRecord
100
AcDbLayerTableRecord
  2
45
 70
     0
 62
    45
  6
CONTINUOUS
  0
LAYER
  5
67
330
2
100
AcDbSymbolTableRecord
100
AcDbLayerTableRecord
  2
46
 70
     0
 62
    46
  6
CONTINUOUS
  0
LAYER
  5
68
330
2
100
AcDbSymbolTableRecord
100
AcDbLayerTableRecord
  2
47
 70
     0
 62
    47
  6
CONTINUOUS
  0
LAYER
  5
69
330
2
100
AcDbSymbolTableRecord
100
AcDbLayerTableRecord
  2
48
 70
     0
 62
    48
  6
CONTINUOUS
  0
LAYER
  5
6A
330
2
100
AcDbSymbolTableRecord
100
AcDbLayerTableRecord
  2
49
 70
     0
 62
    49
  6
CONTINUOUS
  0
LAYER
  5
6B
330
2
100
AcDbSymbolTableRecord
100
AcDbLayerTableRecord
  2
50
 70
     0
 62
    50
  6
CONTINUOUS
  0
LAYER
  5
6C
330
2
100
AcDbSymbolTableRecord
100
AcDbLayerTableRecord
  2
51
 70
     0
 62
    51
  6
CONTINUOUS
  0
LAYER
  5
6D
330
2
100
AcDbSymbolTableRecord
100
AcDbLayerTableRecord
  2
52
 70
     0
 62
    52
  6
CONTINUOUS
  0
LAYER
  5
6E
330
2
100
AcDbSymbolTableRecord
100
AcDbLayerTableRecord
  2
53
 70
     0
 62
    53
  6
CONTINUOUS
  0
LAYER
  5
6F
330
2
100
AcDbSymbolTableRecord
100
AcDbLayerTableRecord
  2
54
 70
     0
 62
    54
  6
CONTINUOUS
  0
LAYER
  5
70
330
2
100
AcDbSymbolTableRecord
100
AcDbLayerTableRecord
  2
55
 70
     0
 62
    55
  6
CONTINUOUS
  0
LAYER
  5
71
330
2
100
AcDbSymbolTableRecord
100
AcDbLayerTableRecord
  2
56
 70
     0
 62
    56
  6
CONTINUOUS
  0
LAYER
  5
72
330
2
100
AcDbSymbolTableRecord
100
AcDbLayerTableRecord
  2
57
 70
     0
 62
    57
  6
CONTINUOUS
  0
LAYER
  5
73
330
2
100
AcDbSymbolTableRecord
100
AcDbLayerTableRecord
  2
58
 70
     0
 62
    58
  6
CONTINUOUS
  0
LAYER
  5
74
330
2
100
AcDbSymbolTableRecord
100
AcDbLayerTableRecord
  2
59
 70
     0
 62
    59
  6
CONTINUOUS
  0
LAYER
  5
75
330
2
100
AcDbSymbolTableRecord
100
AcDbLayerTableRecord
  2
60
 70
     0
 62
    60
  6
CONTINUOUS
  0
LAYER
  5
76
330
2
100
AcDbSymbolTableRecord
100
AcDbLayerTableRecord
  2
61
 70
     0
 62
    61
  6
CONTINUOUS
  0
LAYER
  5
77
330
2
100
AcDbSymbolTableRecord
100
AcDbLayerTableRecord
  2
62
 70
     0
 62
    62
  6
CONTINUOUS
  0
LAYER
  5
78
330
2
100
AcDbSymbolTableRecord
100
AcDbLayerTableRecord
  2
63
 70
     0
 62
    63
  6
CONTINUOUS
  0
LAYER
  5
79
330
2
100
AcDbSymbolTableRecord
100
AcDbLayerTableRecord
  2
64
 70
     0
 62
    64
  6
CONTINUOUS
  0
LAYER
  5
7A
330
2
100
AcDbSymbolTableRecord
100
AcDbLayerTableRecord
  2
65
 70
     0
 62
    65
  6
CONTINUOUS
  0
LAYER
  5
7B
330
2
100
AcDbSymbolTableRecord
100
AcDbLayerTableRecord
  2
66
 70
     0
 62
    66
  6
CONTINUOUS
  0
LAYER
  5
7C
330
2
100
AcDbSymbolTableRecord
100
AcDbLayerTableRecord
  2
67
 70
     0
 62
    67
  6
CONTINUOUS
  0
LAYER
  5
7D
330
2
100
AcDbSymbolTableRecord
100
AcDbLayerTableRecord
  2
68
 70
     0
 62
    68
  6
CONTINUOUS
  0
LAYER
  5
7E
330
2
100
AcDbSymbolTableRecord
100
AcDbLayerTableRecord
  2
69
 70
     0
 62
    69
  6
CONTINUOUS
  0
LAYER
  5
7F
330
2
100
AcDbSymbolTableRecord
100
AcDbLayerTableRecord
  2
70
 70
     0
 62
    70
  6
CONTINUOUS
  0
LAYER
  5
80
330
2
100
AcDbSymbolTableRecord
100
AcDbLayerTableRecord
  2
71
 70
     0
 62
    71
  6
CONTINUOUS
  0
LAYER
  5
81
330
2
100
AcDbSymbolTableRecord
100
AcDbLayerTableRecord
  2
72
 70
     0
 62
    72
  6
CONTINUOUS
  0
LAYER
  5
82
330
2
100
AcDbSymbolTableRecord
100
AcDbLayerTableRecord
  2
73
 70
     0
 62
    73
  6
CONTINUOUS
  0
LAYER
  5
83
330
2
100
AcDbSymbolTableRecord
100
AcDbLayerTableRecord
  2
74
 70
     0
 62
    74
  6
CONTINUOUS
  0
LAYER
  5
84
330
2
100
AcDbSymbolTableRecord
100
AcDbLayerTableRecord
  2
75
 70
     0
 62
    75
  6
CONTINUOUS
  0
LAYER
  5
85
330
2
100
AcDbSymbolTableRecord
100
AcDbLayerTableRecord
  2
76
 70
     0
 62
    76
  6
CONTINUOUS
  0
LAYER
  5
86
330
2
100
AcDbSymbolTableRecord
100
AcDbLayerTableRecord
  2
77
 70
     0
 62
    77
  6
CONTINUOUS
  0
LAYER
  5
87
330
2
100
AcDbSymbolTableRecord
100
AcDbLayerTableRecord
  2
78
 70
     0
 62
    78
  6
CONTINUOUS
  0
LAYER
  5
88
330
2
100
AcDbSymbolTableRecord
100
AcDbLayerTableRecord
  2
79
 70
     0
 62
    79
  6
CONTINUOUS
  0
LAYER
  5
89
330
2
100
AcDbSymbolTableRecord
100
AcDbLayerTableRecord
  2
80
 70
     0
 62
    80
  6
CONTINUOUS
  0
LAYER
  5
8A
330
2
100
AcDbSymbolTableRecord
100
AcDbLayerTableRecord
  2
81
 70
     0
 62
    81
  6
CONTINUOUS
  0
LAYER
  5
8B
330
2
100
AcDbSymbolTableRecord
100
AcDbLayerTableRecord
  2
82
 70
     0
 62
    82
  6
CONTINUOUS
  0
LAYER
  5
8C
330
2
100
AcDbSymbolTableRecord
100
AcDbLayerTableRecord
  2
83
 70
     0
 62
    83
  6
CONTINUOUS
  0
LAYER
  5
8D
330
2
100
AcDbSymbolTableRecord
100
AcDbLayerTableRecord
  2
84
 70
     0
 62
    84
  6
CONTINUOUS
  0
LAYER
  5
8E
330
2
100
AcDbSymbolTableRecord
100
AcDbLayerTableRecord
  2
85
 70
     0
 62
    85
  6
CONTINUOUS
  0
LAYER
  5
8F
330
2
100
AcDbSymbolTableRecord
100
AcDbLayerTableRecord
  2
86
 70
     0
 62
    86
  6
CONTINUOUS
  0
LAYER
  5
90
330
2
100
AcDbSymbolTableRecord
100
AcDbLayerTableRecord
  2
87
 70
     0
 62
    87
  6
CONTINUOUS
  0
LAYER
  5
91
330
2
100
AcDbSymbolTableRecord
100
AcDbLayerTableRecord
  2
88
 70
     0
 62
    88
  6
CONTINUOUS
  0
LAYER
  5
92
330
2
100
AcDbSymbolTableRecord
100
AcDbLayerTableRecord
  2
89
 70
     0
 62
    89
  6
CONTINUOUS
  0
LAYER
  5
93
330
2
100
AcDbSymbolTableRecord
100
AcDbLayerTableRecord
  2
90
 70
     0
 62
    90
  6
CONTINUOUS
  0
LAYER
  5
94
330
2
100
AcDbSymbolTableRecord
100
AcDbLayerTableRecord
  2
91
 70
     0
 62
    91
  6
CONTINUOUS
  0
LAYER
  5
95
330
2
100
AcDbSymbolTableRecord
100
AcDbLayerTableRecord
  2
92
 70
     0
 62
    92
  6
CONTINUOUS
  0
LAYER
  5
96
330
2
100
AcDbSymbolTableRecord
100
AcDbLayerTableRecord
  2
93
 70
     0
 62
    93
  6
CONTINUOUS
  0
LAYER
  5
97
330
2
100
AcDbSymbolTableRecord
100
AcDbLayerTableRecord
  2
94
 70
     0
 62
    94
  6
CONTINUOUS
  0
LAYER
  5
98
330
2
100
AcDbSymbolTableRecord
100
AcDbLayerTableRecord
  2
95
 70
     0
 62
    95
  6
CONTINUOUS
  0
LAYER
  5
99
330
2
100
AcDbSymbolTableRecord
100
AcDbLayerTableRecord
  2
96
 70
     0
 62
    96
  6
CONTINUOUS
  0
LAYER
  5
9A
330
2
100
AcDbSymbolTableRecord
100
AcDbLayerTableRecord
  2
97
 70
     0
 62
    97
  6
CONTINUOUS
  0
LAYER
  5
9B
330
2
100
AcDbSymbolTableRecord
100
AcDbLayerTableRecord
  2
98
 70
     0
 62
    98
  6
CONTINUOUS
  0
LAYER
  5
9C
330
2
100
AcDbSymbolTableRecord
100
AcDbLayerTableRecord
  2
99
 70
     0
 62
    99
  6
CONTINUOUS
  0
LAYER
  5
9D
330
2
100
AcDbSymbolTableRecord
100
AcDbLayerTableRecord
  2
100
 70
     0
 62
   100
  6
CONTINUOUS
  0
LAYER
  5
9E
330
2
100
AcDbSymbolTableRecord
100
AcDbLayerTableRecord
  2
101
 70
     0
 62
   101
  6
CONTINUOUS
  0
LAYER
  5
9F
330
2
100
AcDbSymbolTableRecord
100
AcDbLayerTableRecord
  2
102
 70
     0
 62
   102
  6
CONTINUOUS
  0
LAYER
  5
A0
330
2
100
AcDbSymbolTableRecord
100
AcDbLayerTableRecord
  2
103
 70
     0
 62
   103
  6
CONTINUOUS
  0
LAYER
  5
A1
330
2
100
AcDbSymbolTableRecord
100
AcDbLayerTableRecord
  2
104
 70
     0
 62
   104
  6
CONTINUOUS
  0
LAYER
  5
A2
330
2
100
AcDbSymbolTableRecord
100
AcDbLayerTableRecord
  2
105
 70
     0
 62
   105
  6
CONTINUOUS
  0
LAYER
  5
A3
330
2
100
AcDbSymbolTableRecord
100
AcDbLayerTableRecord
  2
106
 70
     0
 62
   106
  6
CONTINUOUS
  0
LAYER
  5
A4
330
2
100
AcDbSymbolTableRecord
100
AcDbLayerTableRecord
  2
107
 70
     0
 62
   107
  6
CONTINUOUS
  0
LAYER
  5
A5
330
2
100
AcDbSymbolTableRecord
100
AcDbLayerTableRecord
  2
108
 70
     0
 62
   108
  6
CONTINUOUS
  0
LAYER
  5
A6
330
2
100
AcDbSymbolTableRecord
100
AcDbLayerTableRecord
  2
109
 70
     0
 62
   109
  6
CONTINUOUS
  0
LAYER
  5
A7
330
2
100
AcDbSymbolTableRecord
100
AcDbLayerTableRecord
  2
110
 70
     0
 62
   110
  6
CONTINUOUS
  0
LAYER
  5
A8
330
2
100
AcDbSymbolTableRecord
100
AcDbLayerTableRecord
  2
111
 70
     0
 62
   111
  6
CONTINUOUS
  0
LAYER
  5
A9
330
2
100
AcDbSymbolTableRecord
100
AcDbLayerTableRecord
  2
112
 70
     0
 62
   112
  6
CONTINUOUS
  0
LAYER
  5
AA
330
2
100
AcDbSymbolTableRecord
100
AcDbLayerTableRecord
  2
113
 70
     0
 62
   113
  6
CONTINUOUS
  0
LAYER
  5
AB
330
2
100
AcDbSymbolTableRecord
100
AcDbLayerTableRecord
  2
114
 70
     0
 62
   114
  6
CONTINUOUS
  0
LAYER
  5
AC
330
2
100
AcDbSymbolTableRecord
100
AcDbLayerTableRecord
  2
115
 70
     0
 62
   115
  6
CONTINUOUS
  0
LAYER
  5
AD
330
2
100
AcDbSymbolTableRecord
100
AcDbLayerTableRecord
  2
116
 70
     0
 62
   116
  6
CONTINUOUS
  0
LAYER
  5
AE
330
2
100
AcDbSymbolTableRecord
100
AcDbLayerTableRecord
  2
117
 70
     0
 62
   117
  6
CONTINUOUS
  0
LAYER
  5
AF
330
2
100
AcDbSymbolTableRecord
100
AcDbLayerTableRecord
  2
118
 70
     0
 62
   118
  6
CONTINUOUS
  0
LAYER
  5
B0
330
2
100
AcDbSymbolTableRecord
100
AcDbLayerTableRecord
  2
119
 70
     0
 62
   119
  6
CONTINUOUS
  0
LAYER
  5
B1
330
2
100
AcDbSymbolTableRecord
100
AcDbLayerTableRecord
  2
120
 70
     0
 62
   120
  6
CONTINUOUS
  0
LAYER
  5
B2
330
2
100
AcDbSymbolTableRecord
100
AcDbLayerTableRecord
  2
121
 70
     0
 62
   121
  6
CONTINUOUS
  0
LAYER
  5
B3
330
2
100
AcDbSymbolTableRecord
100
AcDbLayerTableRecord
  2
122
 70
     0
 62
   122
  6
CONTINUOUS
  0
LAYER
  5
B4
330
2
100
AcDbSymbolTableRecord
100
AcDbLayerTableRecord
  2
123
 70
     0
 62
   123
  6
CONTINUOUS
  0
LAYER
  5
B5
330
2
100
AcDbSymbolTableRecord
100
AcDbLayerTableRecord
  2
124
 70
     0
 62
   124
  6
CONTINUOUS
  0
LAYER
  5
B6
330
2
100
AcDbSymbolTableRecord
100
AcDbLayerTableRecord
  2
125
 70
     0
 62
   125
  6
CONTINUOUS
  0
LAYER
  5
B7
330
2
100
AcDbSymbolTableRecord
100
AcDbLayerTableRecord
  2
126
 70
     0
 62
   126
  6
CONTINUOUS
  0
LAYER
  5
B8
330
2
100
AcDbSymbolTableRecord
100
AcDbLayerTableRecord
  2
127
 70
     0
 62
   127
  6
CONTINUOUS
  0
LAYER
  5
B9
330
2
100
AcDbSymbolTableRecord
100
AcDbLayerTableRecord
  2
128
 70
     0
 62
   128
  6
CONTINUOUS
  0
LAYER
  5
BA
330
2
100
AcDbSymbolTableRecord
100
AcDbLayerTableRecord
  2
129
 70
     0
 62
   129
  6
CONTINUOUS
  0
LAYER
  5
BB
330
2
100
AcDbSymbolTableRecord
100
AcDbLayerTableRecord
  2
130
 70
     0
 62
   130
  6
CONTINUOUS
  0
LAYER
  5
BC
330
2
100
AcDbSymbolTableRecord
100
AcDbLayerTableRecord
  2
131
 70
     0
 62
   131
  6
CONTINUOUS
  0
LAYER
  5
BD
330
2
100
AcDbSymbolTableRecord
100
AcDbLayerTableRecord
  2
132
 70
     0
 62
   132
  6
CONTINUOUS
  0
LAYER
  5
BE
330
2
100
AcDbSymbolTableRecord
100
AcDbLayerTableRecord
  2
133
 70
     0
 62
   133
  6
CONTINUOUS
  0
LAYER
  5
BF
330
2
100
AcDbSymbolTableRecord
100
AcDbLayerTableRecord
  2
134
 70
     0
 62
   134
  6
CONTINUOUS
  0
LAYER
  5
C0
330
2
100
AcDbSymbolTableRecord
100
AcDbLayerTableRecord
  2
135
 70
     0
 62
   135
  6
CONTINUOUS
  0
LAYER
  5
C1
330
2
100
AcDbSymbolTableRecord
100
AcDbLayerTableRecord
  2
136
 70
     0
 62
   136
  6
CONTINUOUS
  0
LAYER
  5
C2
330
2
100
AcDbSymbolTableRecord
100
AcDbLayerTableRecord
  2
137
 70
     0
 62
   137
  6
CONTINUOUS
  0
LAYER
  5
C3
330
2
100
AcDbSymbolTableRecord
100
AcDbLayerTableRecord
  2
138
 70
     0
 62
   138
  6
CONTINUOUS
  0
LAYER
  5
C4
330
2
100
AcDbSymbolTableRecord
100
AcDbLayerTableRecord
  2
139
 70
     0
 62
   139
  6
CONTINUOUS
  0
LAYER
  5
C5
330
2
100
AcDbSymbolTableRecord
100
AcDbLayerTableRecord
  2
140
 70
     0
 62
   140
  6
CONTINUOUS
  0
LAYER
  5
C6
330
2
100
AcDbSymbolTableRecord
100
AcDbLayerTableRecord
  2
141
 70
     0
 62
   141
  6
CONTINUOUS
  0
LAYER
  5
C7
330
2
100
AcDbSymbolTableRecord
100
AcDbLayerTableRecord
  2
142
 70
     0
 62
   142
  6
CONTINUOUS
  0
LAYER
  5
C8
330
2
100
AcDbSymbolTableRecord
100
AcDbLayerTableRecord
  2
143
 70
     0
 62
   143
  6
CONTINUOUS
  0
LAYER
  5
C9
330
2
100
AcDbSymbolTableRecord
100
AcDbLayerTableRecord
  2
144
 70
     0
 62
   144
  6
CONTINUOUS
  0
LAYER
  5
CA
330
2
100
AcDbSymbolTableRecord
100
AcDbLayerTableRecord
  2
145
 70
     0
 62
   145
  6
CONTINUOUS
  0
LAYER
  5
CB
330
2
100
AcDbSymbolTableRecord
100
AcDbLayerTableRecord
  2
146
 70
     0
 62
   146
  6
CONTINUOUS
  0
LAYER
  5
CC
330
2
100
AcDbSymbolTableRecord
100
AcDbLayerTableRecord
  2
147
 70
     0
 62
   147
  6
CONTINUOUS
  0
LAYER
  5
CD
330
2
100
AcDbSymbolTableRecord
100
AcDbLayerTableRecord
  2
148
 70
     0
 62
   148
  6
CONTINUOUS
  0
LAYER
  5
CE
330
2
100
AcDbSymbolTableRecord
100
AcDbLayerTableRecord
  2
149
 70
     0
 62
   149
  6
CONTINUOUS
  0
LAYER
  5
CF
330
2
100
AcDbSymbolTableRecord
100
AcDbLayerTableRecord
  2
150
 70
     0
 62
   150
  6
CONTINUOUS
  0
LAYER
  5
D0
330
2
100
AcDbSymbolTableRecord
100
AcDbLayerTableRecord
  2
151
 70
     0
 62
   151
  6
CONTINUOUS
  0
LAYER
  5
D1
330
2
100
AcDbSymbolTableRecord
100
AcDbLayerTableRecord
  2
152
 70
     0
 62
   152
  6
CONTINUOUS
  0
LAYER
  5
D2
330
2
100
AcDbSymbolTableRecord
100
AcDbLayerTableRecord
  2
153
 70
     0
 62
   153
  6
CONTINUOUS
  0
LAYER
  5
D3
330
2
100
AcDbSymbolTableRecord
100
AcDbLayerTableRecord
  2
154
 70
     0
 62
   154
  6
CONTINUOUS
  0
LAYER
  5
D4
330
2
100
AcDbSymbolTableRecord
100
AcDbLayerTableRecord
  2
155
 70
     0
 62
   155
  6
CONTINUOUS
  0
LAYER
  5
D5
330
2
100
AcDbSymbolTableRecord
100
AcDbLayerTableRecord
  2
156
 70
     0
 62
   156
  6
CONTINUOUS
  0
LAYER
  5
D6
330
2
100
AcDbSymbolTableRecord
100
AcDbLayerTableRecord
  2
157
 70
     0
 62
   157
  6
CONTINUOUS
  0
LAYER
  5
D7
330
2
100
AcDbSymbolTableRecord
100
AcDbLayerTableRecord
  2
158
 70
     0
 62
   158
  6
CONTINUOUS
  0
LAYER
  5
D8
330
2
100
AcDbSymbolTableRecord
100
AcDbLayerTableRecord
  2
159
 70
     0
 62
   159
  6
CONTINUOUS
  0
LAYER
  5
D9
330
2
100
AcDbSymbolTableRecord
100
AcDbLayerTableRecord
  2
160
 70
     0
 62
   160
  6
CONTINUOUS
  0
LAYER
  5
DA
330
2
100
AcDbSymbolTableRecord
100
AcDbLayerTableRecord
  2
161
 70
     0
 62
   161
  6
CONTINUOUS
  0
LAYER
  5
DB
330
2
100
AcDbSymbolTableRecord
100
AcDbLayerTableRecord
  2
162
 70
     0
 62
   162
  6
CONTINUOUS
  0
LAYER
  5
DC
330
2
100
AcDbSymbolTableRecord
100
AcDbLayerTableRecord
  2
163
 70
     0
 62
   163
  6
CONTINUOUS
  0
LAYER
  5
DD
330
2
100
AcDbSymbolTableRecord
100
AcDbLayerTableRecord
  2
164
 70
     0
 62
   164
  6
CONTINUOUS
  0
LAYER
  5
DE
330
2
100
AcDbSymbolTableRecord
100
AcDbLayerTableRecord
  2
165
 70
     0
 62
   165
  6
CONTINUOUS
  0
LAYER
  5
DF
330
2
100
AcDbSymbolTableRecord
100
AcDbLayerTableRecord
  2
166
 70
     0
 62
   166
  6
CONTINUOUS
  0
LAYER
  5
E0
330
2
100
AcDbSymbolTableRecord
100
AcDbLayerTableRecord
  2
167
 70
     0
 62
   167
  6
CONTINUOUS
  0
LAYER
  5
E1
330
2
100
AcDbSymbolTableRecord
100
AcDbLayerTableRecord
  2
168
 70
     0
 62
   168
  6
CONTINUOUS
  0
LAYER
  5
E2
330
2
100
AcDbSymbolTableRecord
100
AcDbLayerTableRecord
  2
169
 70
     0
 62
   169
  6
CONTINUOUS
  0
LAYER
  5
E3
330
2
100
AcDbSymbolTableRecord
100
AcDbLayerTableRecord
  2
170
 70
     0
 62
   170
  6
CONTINUOUS
  0
LAYER
  5
E4
330
2
100
AcDbSymbolTableRecord
100
AcDbLayerTableRecord
  2
171
 70
     0
 62
   171
  6
CONTINUOUS
  0
LAYER
  5
E5
330
2
100
AcDbSymbolTableRecord
100
AcDbLayerTableRecord
  2
172
 70
     0
 62
   172
  6
CONTINUOUS
  0
LAYER
  5
E6
330
2
100
AcDbSymbolTableRecord
100
AcDbLayerTableRecord
  2
173
 70
     0
 62
   173
  6
CONTINUOUS
  0
LAYER
  5
E7
330
2
100
AcDbSymbolTableRecord
100
AcDbLayerTableRecord
  2
174
 70
     0
 62
   174
  6
CONTINUOUS
  0
LAYER
  5
E8
330
2
100
AcDbSymbolTableRecord
100
AcDbLayerTableRecord
  2
175
 70
     0
 62
   175
  6
CONTINUOUS
  0
LAYER
  5
E9
330
2
100
AcDbSymbolTableRecord
100
AcDbLayerTableRecord
  2
176
 70
     0
 62
   176
  6
CONTINUOUS
  0
LAYER
  5
EA
330
2
100
AcDbSymbolTableRecord
100
AcDbLayerTableRecord
  2
177
 70
     0
 62
   177
  6
CONTINUOUS
  0
LAYER
  5
EB
330
2
100
AcDbSymbolTableRecord
100
AcDbLayerTableRecord
  2
178
 70
     0
 62
   178
  6
CONTINUOUS
  0
LAYER
  5
EC
330
2
100
AcDbSymbolTableRecord
100
AcDbLayerTableRecord
  2
179
 70
     0
 62
   179
  6
CONTINUOUS
  0
LAYER
  5
ED
330
2
100
AcDbSymbolTableRecord
100
AcDbLayerTableRecord
  2
180
 70
     0
 62
   180
  6
CONTINUOUS
  0
LAYER
  5
EE
330
2
100
AcDbSymbolTableRecord
100
AcDbLayerTableRecord
  2
181
 70
     0
 62
   181
  6
CONTINUOUS
  0
LAYER
  5
EF
330
2
100
AcDbSymbolTableRecord
100
AcDbLayerTableRecord
  2
182
 70
     0
 62
   182
  6
CONTINUOUS
  0
LAYER
  5
F0
330
2
100
AcDbSymbolTableRecord
100
AcDbLayerTableRecord
  2
183
 70
     0
 62
   183
  6
CONTINUOUS
  0
LAYER
  5
F1
330
2
100
AcDbSymbolTableRecord
100
AcDbLayerTableRecord
  2
184
 70
     0
 62
   184
  6
CONTINUOUS
  0
LAYER
  5
F2
330
2
100
AcDbSymbolTableRecord
100
AcDbLayerTableRecord
  2
185
 70
     0
 62
   185
  6
CONTINUOUS
  0
LAYER
  5
F3
330
2
100
AcDbSymbolTableRecord
100
AcDbLayerTableRecord
  2
186
 70
     0
 62
   186
  6
CONTINUOUS
  0
LAYER
  5
F4
330
2
100
AcDbSymbolTableRecord
100
AcDbLayerTableRecord
  2
187
 70
     0
 62
   187
  6
CONTINUOUS
  0
LAYER
  5
F5
330
2
100
AcDbSymbolTableRecord
100
AcDbLayerTableRecord
  2
188
 70
     0
 62
   188
  6
CONTINUOUS
  0
LAYER
  5
F6
330
2
100
AcDbSymbolTableRecord
100
AcDbLayerTableRecord
  2
189
 70
     0
 62
   189
  6
CONTINUOUS
  0
LAYER
  5
F7
330
2
100
AcDbSymbolTableRecord
100
AcDbLayerTableRecord
  2
190
 70
     0
 62
   190
  6
CONTINUOUS
  0
LAYER
  5
F8
330
2
100
AcDbSymbolTableRecord
100
AcDbLayerTableRecord
  2
191
 70
     0
 62
   191
  6
CONTINUOUS
  0
LAYER
  5
F9
330
2
100
AcDbSymbolTableRecord
100
AcDbLayerTableRecord
  2
192
 70
     0
 62
   192
  6
CONTINUOUS
  0
LAYER
  5
FA
330
2
100
AcDbSymbolTableRecord
100
AcDbLayerTableRecord
  2
193
 70
     0
 62
   193
  6
CONTINUOUS
  0
LAYER
  5
FB
330
2
100
AcDbSymbolTableRecord
100
AcDbLayerTableRecord
  2
194
 70
     0
 62
   194
  6
CONTINUOUS
  0
LAYER
  5
FC
330
2
100
AcDbSymbolTableRecord
100
AcDbLayerTableRecord
  2
195
 70
     0
 62
   195
  6
CONTINUOUS
  0
LAYER
  5
FD
330
2
100
AcDbSymbolTableRecord
100
AcDbLayerTableRecord
  2
196
 70
     0
 62
   196
  6
CONTINUOUS
  0
LAYER
  5
FE
330
2
100
AcDbSymbolTableRecord
100
AcDbLayerTableRecord
  2
197
 70
     0
 62
   197
  6
CONTINUOUS
  0
LAYER
  5
FF
330
2
100
AcDbSymbolTableRecord
100
AcDbLayerTableRecord
  2
198
 70
     0
 62
   198
  6
CONTINUOUS
  0
LAYER
  5
100
330
2
100
AcDbSymbolTableRecord
100
AcDbLayerTableRecord
  2
199
 70
     0
 62
   199
  6
CONTINUOUS
  0
LAYER
  5
101
330
2
100
AcDbSymbolTableRecord
100
AcDbLayerTableRecord
  2
200
 70
     0
 62
   200
  6
CONTINUOUS
  0
LAYER
  5
102
330
2
100
AcDbSymbolTableRecord
100
AcDbLayerTableRecord
  2
201
 70
     0
 62
   201
  6
CONTINUOUS
  0
LAYER
  5
103
330
2
100
AcDbSymbolTableRecord
100
AcDbLayerTableRecord
  2
202
 70
     0
 62
   202
  6
CONTINUOUS
  0
LAYER
  5
104
330
2
100
AcDbSymbolTableRecord
100
AcDbLayerTableRecord
  2
203
 70
     0
 62
   203
  6
CONTINUOUS
  0
LAYER
  5
105
330
2
100
AcDbSymbolTableRecord
100
AcDbLayerTableRecord
  2
204
 70
     0
 62
   204
  6
CONTINUOUS
  0
LAYER
  5
106
330
2
100
AcDbSymbolTableRecord
100
AcDbLayerTableRecord
  2
205
 70
     0
 62
   205
  6
CONTINUOUS
  0
LAYER
  5
107
330
2
100
AcDbSymbolTableRecord
100
AcDbLayerTableRecord
  2
206
 70
     0
 62
   206
  6
CONTINUOUS
  0
LAYER
  5
108
330
2
100
AcDbSymbolTableRecord
100
AcDbLayerTableRecord
  2
207
 70
     0
 62
   207
  6
CONTINUOUS
  0
LAYER
  5
109
330
2
100
AcDbSymbolTableRecord
100
AcDbLayerTableRecord
  2
208
 70
     0
 62
   208
  6
CONTINUOUS
  0
LAYER
  5
10A
330
2
100
AcDbSymbolTableRecord
100
AcDbLayerTableRecord
  2
209
 70
     0
 62
   209
  6
CONTINUOUS
  0
LAYER
  5
10B
330
2
100
AcDbSymbolTableRecord
100
AcDbLayerTableRecord
  2
210
 70
     0
 62
   210
  6
CONTINUOUS
  0
LAYER
  5
10C
330
2
100
AcDbSymbolTableRecord
100
AcDbLayerTableRecord
  2
211
 70
     0
 62
   211
  6
CONTINUOUS
  0
LAYER
  5
10D
330
2
100
AcDbSymbolTableRecord
100
AcDbLayerTableRecord
  2
212
 70
     0
 62
   212
  6
CONTINUOUS
  0
LAYER
  5
10E
330
2
100
AcDbSymbolTableRecord
100
AcDbLayerTableRecord
  2
213
 70
     0
 62
   213
  6
CONTINUOUS
  0
LAYER
  5
10F
330
2
100
AcDbSymbolTableRecord
100
AcDbLayerTableRecord
  2
214
 70
     0
 62
   214
  6
CONTINUOUS
  0
LAYER
  5
110
330
2
100
AcDbSymbolTableRecord
100
AcDbLayerTableRecord
  2
215
 70
     0
 62
   215
  6
CONTINUOUS
  0
LAYER
  5
111
330
2
100
AcDbSymbolTableRecord
100
AcDbLayerTableRecord
  2
216
 70
     0
 62
   216
  6
CONTINUOUS
  0
LAYER
  5
112
330
2
100
AcDbSymbolTableRecord
100
AcDbLayerTableRecord
  2
217
 70
     0
 62
   217
  6
CONTINUOUS
  0
LAYER
  5
113
330
2
100
AcDbSymbolTableRecord
100
AcDbLayerTableRecord
  2
218
 70
     0
 62
   218
  6
CONTINUOUS
  0
LAYER
  5
114
330
2
100
AcDbSymbolTableRecord
100
AcDbLayerTableRecord
  2
219
 70
     0
 62
   219
  6
CONTINUOUS
  0
LAYER
  5
115
330
2
100
AcDbSymbolTableRecord
100
AcDbLayerTableRecord
  2
220
 70
     0
 62
   220
  6
CONTINUOUS
  0
LAYER
  5
116
330
2
100
AcDbSymbolTableRecord
100
AcDbLayerTableRecord
  2
221
 70
     0
 62
   221
  6
CONTINUOUS
  0
LAYER
  5
117
330
2
100
AcDbSymbolTableRecord
100
AcDbLayerTableRecord
  2
222
 70
     0
 62
   222
  6
CONTINUOUS
  0
LAYER
  5
118
330
2
100
AcDbSymbolTableRecord
100
AcDbLayerTableRecord
  2
223
 70
     0
 62
   223
  6
CONTINUOUS
  0
LAYER
  5
119
330
2
100
AcDbSymbolTableRecord
100
AcDbLayerTableRecord
  2
224
 70
     0
 62
   224
  6
CONTINUOUS
  0
LAYER
  5
11A
330
2
100
AcDbSymbolTableRecord
100
AcDbLayerTableRecord
  2
225
 70
     0
 62
   225
  6
CONTINUOUS
  0
LAYER
  5
11B
330
2
100
AcDbSymbolTableRecord
100
AcDbLayerTableRecord
  2
226
 70
     0
 62
   226
  6
CONTINUOUS
  0
LAYER
  5
11C
330
2
100
AcDbSymbolTableRecord
100
AcDbLayerTableRecord
  2
227
 70
     0
 62
   227
  6
CONTINUOUS
  0
LAYER
  5
11D
330
2
100
AcDbSymbolTableRecord
100
AcDbLayerTableRecord
  2
228
 70
     0
 62
   228
  6
CONTINUOUS
  0
LAYER
  5
11E
330
2
100
AcDbSymbolTableRecord
100
AcDbLayerTableRecord
  2
229
 70
     0
 62
   229
  6
CONTINUOUS
  0
LAYER
  5
11F
330
2
100
AcDbSymbolTableRecord
100
AcDbLayerTableRecord
  2
230
 70
     0
 62
   230
  6
CONTINUOUS
  0
LAYER
  5
120
330
2
100
AcDbSymbolTableRecord
100
AcDbLayerTableRecord
  2
231
 70
     0
 62
   231
  6
CONTINUOUS
  0
LAYER
  5
121
330
2
100
AcDbSymbolTableRecord
100
AcDbLayerTableRecord
  2
232
 70
     0
 62
   232
  6
CONTINUOUS
  0
LAYER
  5
122
330
2
100
AcDbSymbolTableRecord
100
AcDbLayerTableRecord
  2
233
 70
     0
 62
   233
  6
CONTINUOUS
  0
LAYER
  5
123
330
2
100
AcDbSymbolTableRecord
100
AcDbLayerTableRecord
  2
234
 70
     0
 62
   234
  6
CONTINUOUS
  0
LAYER
  5
124
330
2
100
AcDbSymbolTableRecord
100
AcDbLayerTableRecord
  2
235
 70
     0
 62
   235
  6
CONTINUOUS
  0
LAYER
  5
125
330
2
100
AcDbSymbolTableRecord
100
AcDbLayerTableRecord
  2
236
 70
     0
 62
   236
  6
CONTINUOUS
  0
LAYER
  5
126
330
2
100
AcDbSymbolTableRecord
100
AcDbLayerTableRecord
  2
237
 70
     0
 62
   237
  6
CONTINUOUS
  0
LAYER
  5
127
330
2
100
AcDbSymbolTableRecord
100
AcDbLayerTableRecord
  2
238
 70
     0
 62
   238
  6
CONTINUOUS
  0
LAYER
  5
128
330
2
100
AcDbSymbolTableRecord
100
AcDbLayerTableRecord
  2
239
 70
     0
 62
   239
  6
CONTINUOUS
  0
LAYER
  5
129
330
2
100
AcDbSymbolTableRecord
100
AcDbLayerTableRecord
  2
240
 70
     0
 62
   240
  6
CONTINUOUS
  0
LAYER
  5
12A
330
2
100
AcDbSymbolTableRecord
100
AcDbLayerTableRecord
  2
241
 70
     0
 62
   241
  6
CONTINUOUS
  0
LAYER
  5
12B
330
2
100
AcDbSymbolTableRecord
100
AcDbLayerTableRecord
  2
242
 70
     0
 62
   242
  6
CONTINUOUS
  0
LAYER
  5
12C
330
2
100
AcDbSymbolTableRecord
100
AcDbLayerTableRecord
  2
243
 70
     0
 62
   243
  6
CONTINUOUS
  0
LAYER
  5
12D
330
2
100
AcDbSymbolTableRecord
100
AcDbLayerTableRecord
  2
244
 70
     0
 62
   244
  6
CONTINUOUS
  0
LAYER
  5
12E
330
2
100
AcDbSymbolTableRecord
100
AcDbLayerTableRecord
  2
245
 70
     0
 62
   245
  6
CONTINUOUS
  0
LAYER
  5
12F
330
2
100
AcDbSymbolTableRecord
100
AcDbLayerTableRecord
  2
246
 70
     0
 62
   246
  6
CONTINUOUS
  0
LAYER
  5
130
330
2
100
AcDbSymbolTableRecord
100
AcDbLayerTableRecord
  2
247
 70
     0
 62
   247
  6
CONTINUOUS
  0
LAYER
  5
131
330
2
100
AcDbSymbolTableRecord
100
AcDbLayerTableRecord
  2
248
 70
     0
 62
   248
  6
CONTINUOUS
  0
LAYER
  5
132
330
2
100
AcDbSymbolTableRecord
100
AcDbLayerTableRecord
  2
249
 70
     0
 62
   249
  6
CONTINUOUS
  0
LAYER
  5
133
330
2
100
AcDbSymbolTableRecord
100
AcDbLayerTableRecord
  2
250
 70
     0
 62
   250
  6
CONTINUOUS
  0
LAYER
  5
134
330
2
100
AcDbSymbolTableRecord
100
AcDbLayerTableRecord
  2
251
 70
     0
 62
   251
  6
CONTINUOUS
  0
LAYER
  5
135
330
2
100
AcDbSymbolTableRecord
100
AcDbLayerTableRecord
  2
252
 70
     0
 62
   252
  6
CONTINUOUS
  0
LAYER
  5
136
330
2
100
AcDbSymbolTableRecord
100
AcDbLayerTableRecord
  2
253
 70
     0
 62
   253
  6
CONTINUOUS
  0
LAYER
  5
137
330
2
100
AcDbSymbolTableRecord
100
AcDbLayerTableRecord
  2
254
 70
     0
 62
   254
  6
CONTINUOUS
  0
LAYER
  5
138
330
2
100
AcDbSymbolTableRecord
100
AcDbLayerTableRecord
  2
255
 70
     0
 62
   255
  6
CONTINUOUS
  0
LAYER
  5
4CE2
330
2
100
AcDbSymbolTableRecord
100
AcDbLayerTableRecord
  2
DEFPOINTS
 70
     0
 62
     7
  6
CONTINUOUS
  0
ENDTAB
  0
TABLE
  2
STYLE
  5
3
330
0
100
AcDbSymbolTable
 70
     1
  0
STYLE
  5
11
330
3
100
AcDbSymbolTableRecord
100
AcDbTextStyleTableRecord
  2
STANDARD
 70
     0
 40
0.0
 41
1.0
 50
0.0
 71
     0
 42
0.2
  3
monotxt
  4

  0
ENDTAB
  0
TABLE
  2
VIEW
  5
6
330
0
100
AcDbSymbolTable
 70
     0
  0
ENDTAB
  0
TABLE
  2
UCS
  5
7
330
0
100
AcDbSymbolTable
 70
     0
  0
ENDTAB
  0
TABLE
  2
APPID
  5
9
330
0
100
AcDbSymbolTable
 70
     1
  0
APPID
  5
12
330
9
100
AcDbSymbolTableRecord
100
AcDbRegAppTableRecord
  2
ACAD
 70
     0
  0
ENDTAB
  0
TABLE
  2
DIMSTYLE
  5
A
330
0
100
AcDbSymbolTable
 70
     1
  0
DIMSTYLE
105
3381
102
{ACAD_REACTORS
330
4CE1
102
}
330
A
100
AcDbSymbolTableRecord
100
AcDbDimStyleTableRecord
  2
STANDARD
 70
     0
  3

  4

  5

  6

  7

 40
1.0
 41
0.18
 42
0.0625
 43
0.38
 44
0.18
 45
0.0
 46
0.0
 47
0.0
 48
0.0
140
0.18
141
0.09
142
0.0
143
25.4
144
1.0
145
0.0
146
1.0
147
0.09
 71
     0
 72
     0
 73
     1
 74
     1
 75
     0
 76
     0
 77
     0
 78
     0
170
     0
171
     2
172
     0
173
     0
174
     0
175
     0
176
     0
177
     0
178
     0
270
     2
271
     4
272
     4
273
     2
274
     2
340
11
275
     0
280
     0
281
     0
282
     0
283
     1
284
     0
285
     0
286
     0
287
     3
288
     0
  0
ENDTAB
  0
TABLE
  2
BLOCK_RECORD
  5
1
330
0
100
AcDbSymbolTable
 70
     1
  0
BLOCK_RECORD
  5
1E
102
{ACAD_XDICTIONARY
360
4CAB
102
}
330
1
100
AcDbSymbolTableRecord
100
AcDbBlockTableRecord
  2
*MODEL_SPACE
  0
BLOCK_RECORD
  5
1A
102
{ACAD_XDICTIONARY
360
4CAD
102
}
330
1
100
AcDbSymbolTableRecord
100
AcDbBlockTableRecord
  2
*PAPER_SPACE
  0
BLOCK_RECORD
  5
4CE3
330
1
100
AcDbSymbolTableRecord
100
AcDbBlockTableRecord
  2
*D0
  0
ENDTAB
  0
ENDSEC
  0
SECTION
  2
BLOCKS
  0
BLOCK
  5
13B
330
1E
100
AcDbEntity
  8
0
100
AcDbBlockBegin
  2
*MODEL_SPACE
 70
     0
 10
0.0
 20
0.0
 30
0.0
  3
*MODEL_SPACE
  1

  0
ENDBLK
  5
13C
330
1E
100
AcDbEntity
  8
0
100
AcDbBlockEnd
  0
BLOCK
  5
139
330
1A
100
AcDbEntity
 67
     1
  8
0
100
AcDbBlockBegin
  2
*PAPER_SPACE
 70
     0
 10
0.0
 20
0.0
 30
0.0
  3
*PAPER_SPACE
  1

  0
ENDBLK
  5
13A
330
1A
100
AcDbEntity
 67
     1
  8
0
100
AcDbBlockEnd
  0
BLOCK
  5
4CEE
330
4CE3
100
AcDbEntity
  8
0
100
AcDbBlockBegin
  2
*D0
 70
     1
 10
0.0
 20
0.0
 30
0.0
  3
*D0
  1

  0
LINE
  5
4CE4
330
4CE3
100
AcDbEntity
  8
0
 62
     0
100
AcDbLine
 10
0.0995530300479617
 20
7.425541502746997
 30
0.0
 11
7.325463720894966
 21
7.425541502746995
 31
0.0
  0
LINE
  5
4CE5
330
4CE3
100
AcDbEntity
  8
0
 62
     0
100
AcDbLine
 10
0.0995530300479617
 20
3.615616847235187
 30
0.0
 11
7.325463720894966
 21
3.615616847235184
 31
0.0
  0
LINE
  5
4CE6
330
4CE3
100
AcDbEntity
  8
0
 62
     0
100
AcDbLine
 10
7.145463720894967
 20
7.245541502746996
 30
0.0
 11
7.145463720894966
 21
5.70057917499109
 31
0.0
  0
LINE
  5
4CE7
330
4CE3
100
AcDbEntity
  8
0
 62
     0
100
AcDbLine
 10
7.145463720894966
 20
3.795616847235184
 30
0.0
 11
7.145463720894966
 21
5.34057917499109
 31
0.0
  0
SOLID
  5
4CE8
330
4CE3
100
AcDbEntity
  8
0
 62
     0
100
AcDbTrace
 10
7.115463720894966
 20
7.245541502746996
 30
0.0
 11
7.175463720894967
 21
7.245541502746996
 31
0.0
 12
7.145463720894967
 22
7.425541502746995
 32
0.0
 13
7.145463720894967
 23
7.425541502746995
 33
0.0
  0
SOLID
  5
4CE9
330
4CE3
100
AcDbEntity
  8
0
 62
     0
100
AcDbTrace
 10
7.115463720894966
 20
3.795616847235184
 30
0.0
 11
7.175463720894966
 21
3.795616847235184
 31
0.0
 12
7.145463720894966
 22
3.615616847235184
 32
0.0
 13
7.145463720894966
 23
3.615616847235184
 33
0.0
  0
MTEXT
  5
4CEA
330
4CE3
100
AcDbEntity
  8
0
 62
     0
100
AcDbMText
 10
7.145463720894965
 20
5.520579174991092
 30
0.0
 40
0.18
 41
0.0
 71
     5
 72
     1
  1
\A1;3.8099
1001
ACAD
1000
MTEXTBEGIN
1070
    73
1070
     1
1070
    44
1040
1.0
1070
    74
1070
     0
1000
MTEXTEND
  0
POINT
  5
4CEB
330
4CE3
100
AcDbEntity
  8
DEFPOINTS
 62
     0
100
AcDbPoint
 10
0.0370530300479617
 20
7.425541502746997
 30
0.0
  0
POINT
  5
4CEC
330
4CE3
100
AcDbEntity
  8
DEFPOINTS
 62
     0
100
AcDbPoint
 10
0.0370530300479617
 20
3.615616847235187
 30
0.0
  0
POINT
  5
4CED
330
4CE3
100
AcDbEntity
  8
DEFPOINTS
 62
     0
100
AcDbPoint
 10
7.145463720894966
 20
3.615616847235184
 30
0.0
  0
ENDBLK
  5
4CEF
330
4CE3
100
AcDbEntity
  8
0
100
AcDbBlockEnd
  0
ENDSEC
  0
SECTION
  2
ENTITIES
  0
LINE
  5
2B66
330
1E
100
AcDbEntity
  8
7
100
AcDbLine
 10
1.605614093040087
 20
7.55013456377062
 30
0.0
 11
1.348558935559772
 21
7.55013456377062
 31
0.0
  0
LINE
  5
2B6C
330
1E
100
AcDbEntity
  8
7
100
AcDbLine
 10
1.037732035953474
 20
7.178978392510778
 30
0.0
 11
1.039043541858985
 21
7.178978392510778
 31
0.0
  0
LINE
  5
2B6D
330
1E
100
AcDbEntity
  8
7
100
AcDbLine
 10
1.025928482803867
 20
7.176355380699753
 30
0.0
 11
1.037732035953474
 21
7.178978392510778
 31
0.0
  0
LINE
  5
2B86
330
1E
100
AcDbEntity
  8
7
100
AcDbLine
 10
1.178063167843237
 20
7.439968067707628
 30
0.0
 11
1.17281714422119
 21
7.451771620857233
 31
0.0
  0
LINE
  5
2B8C
330
1E
100
AcDbEntity
  8
7
100
AcDbLine
 10
1.780044378473158
 20
7.451771620857233
 30
0.0
 11
1.776109860756623
 21
7.439968067707628
 31
0.0
  0
LINE
  5
2BA5
330
1E
100
AcDbEntity
  8
7
100
AcDbLine
 10
1.915129486740875
 20
7.178978392510778
 30
0.0
 11
1.926933039890482
 21
7.176355380699753
 31
0.0
  0
LINE
  5
2BA6
330
1E
100
AcDbEntity
  8
7
100
AcDbLine
 10
1.913817980835363
 20
7.178978392510778
 30
0.0
 11
1.915129486740875
 21
7.178978392510778
 31
0.0
  0
LINE
  5
2BA7
330
1E
100
AcDbEntity
  8
7
100
AcDbLine
 10
1.348558935559772
 20
3.491023786211564
 30
0.0
 11
1.605614093040087
 21
3.491023786211564
 31
0.0
  0
LINE
  5
2BAD
330
1E
100
AcDbEntity
  8
7
100
AcDbLine
 10
1.17281714422119
 20
3.58938672912495
 30
0.0
 11
1.178063167843237
 21
3.601190282274556
 31
0.0
  0
LINE
  5
2BC6
330
1E
100
AcDbEntity
  8
7
100
AcDbLine
 10
1.037732035953474
 20
3.862179957471407
 30
0.0
 11
1.025928482803867
 21
3.864802969282431
 31
0.0
  0
LINE
  5
2BC7
330
1E
100
AcDbEntity
  8
7
100
AcDbLine
 10
1.039043541858985
 20
3.862179957471407
 30
0.0
 11
1.037732035953474
 21
3.862179957471407
 31
0.0
  0
LINE
  5
2BCD
330
1E
100
AcDbEntity
  8
7
100
AcDbLine
 10
1.915129486740875
 20
3.862179957471407
 30
0.0
 11
1.913817980835363
 21
3.862179957471407
 31
0.0
  0
LINE
  5
2BCE
330
1E
100
AcDbEntity
  8
7
100
AcDbLine
 10
1.926933039890482
 20
3.864802969282431
 30
0.0
 11
1.915129486740875
 21
3.862179957471407
 31
0.0
  0
LINE
  5
2BE7
330
1E
100
AcDbEntity
  8
7
100
AcDbLine
 10
1.776109860756623
 20
3.601190282274556
 30
0.0
 11
1.780044378473158
 21
3.58938672912495
 31
0.0
  0
LINE
  5
2BE8
330
1E
100
AcDbEntity
  8
7
100
AcDbLine
 10
1.366920018236938
 20
7.207831522432037
 30
0.0
 11
1.58594150445741
 21
7.207831522432037
 31
0.0
  0
LINE
  5
2BE9
330
1E
100
AcDbEntity
  8
7
100
AcDbLine
 10
1.58594150445741
 20
7.112091591329675
 30
0.0
 11
1.366920018236938
 21
7.112091591329675
 31
0.0
  0
LINE
  5
2BEA
330
1E
100
AcDbEntity
  8
7
100
AcDbLine
 10
1.17281714422119
 20
7.451771620857233
 30
0.0
 11
1.025928482803867
 21
7.176355380699753
 31
0.0
  0
LINE
  5
2BEB
330
1E
100
AcDbEntity
  8
7
100
AcDbLine
 10
1.037732035953474
 20
7.178978392510778
 30
0.0
 11
1.178063167843237
 21
7.439968067707628
 31
0.0
  0
LINE
  5
2BF8
330
1E
100
AcDbEntity
  8
7
100
AcDbLine
 10
1.521677715087331
 20
7.003236601172194
 30
0.0
 11
1.432495313512529
 21
7.003236601172194
 31
0.0
  0
LINE
  5
2C08
330
1E
100
AcDbEntity
  8
7
100
AcDbLine
 10
1.521677715087331
 20
7.316686512589517
 30
0.0
 11
1.432495313512529
 21
7.316686512589517
 31
0.0
  0
LINE
  5
2C1B
330
1E
100
AcDbEntity
  8
7
100
AcDbLine
 10
1.926933039890482
 20
7.176355380699753
 30
0.0
 11
1.780044378473158
 21
7.451771620857233
 31
0.0
  0
LINE
  5
2C1C
330
1E
100
AcDbEntity
  8
7
100
AcDbLine
 10
1.915129486740875
 20
7.178978392510778
 30
0.0
 11
1.776109860756623
 21
7.439968067707628
 31
0.0
  0
LINE
  5
2C22
330
1E
100
AcDbEntity
  8
7
100
AcDbLine
 10
1.178063167843237
 20
7.438656561802116
 30
0.0
 11
1.178063167843237
 21
7.437345055896603
 31
0.0
  0
LINE
  5
2C23
330
1E
100
AcDbEntity
  8
7
100
AcDbLine
 10
1.040355047764496
 20
7.178978392510778
 30
0.0
 11
1.040355047764496
 21
7.176355380699753
 31
0.0
  0
LINE
  5
2C36
330
1E
100
AcDbEntity
  8
7
100
AcDbLine
 10
1.521677715087331
 20
7.316686512589517
 30
0.0
 11
1.432495313512529
 21
7.316686512589517
 31
0.0
  0
LINE
  5
2C49
330
1E
100
AcDbEntity
  8
7
100
AcDbLine
 10
1.432495313512529
 20
7.003236601172194
 30
0.0
 11
1.521677715087331
 21
7.003236601172194
 31
0.0
  0
LINE
  5
2C5A
330
1E
100
AcDbEntity
  8
7
100
AcDbLine
 10
1.425937783984969
 20
7.450460114951722
 30
0.0
 11
1.420691760362922
 21
7.425541502746997
 31
0.0
  0
LINE
  5
2C60
330
1E
100
AcDbEntity
  8
7
100
AcDbLine
 10
1.040355047764496
 20
7.176355380699753
 30
0.0
 11
1.039043541858985
 21
7.155371286211565
 31
0.0
  0
LINE
  5
2C67
330
1E
100
AcDbEntity
  8
7
100
AcDbLine
 10
1.913817980835363
 20
7.155371286211565
 30
0.0
 11
1.913817980835363
 21
7.176355380699753
 31
0.0
  0
LINE
  5
2C68
330
1E
100
AcDbEntity
  8
7
100
AcDbLine
 10
1.774798354851111
 20
7.437345055896603
 30
0.0
 11
1.774798354851111
 21
7.438656561802116
 31
0.0
  0
LINE
  5
2C69
330
1E
100
AcDbEntity
  8
7
100
AcDbLine
 10
1.913817980835363
 20
7.176355380699753
 30
0.0
 11
1.913817980835363
 21
7.178978392510778
 31
0.0
  0
LINE
  5
2C6A
330
1E
100
AcDbEntity
  8
7
100
AcDbLine
 10
1.913817980835363
 20
6.991433048022589
 30
0.0
 11
1.913817980835363
 21
7.155371286211565
 31
0.0
  0
LINE
  5
2C6B
330
1E
100
AcDbEntity
  8
7
100
AcDbLine
 10
1.039043541858985
 20
7.155371286211565
 30
0.0
 11
1.039043541858985
 21
6.991433048022589
 31
0.0
  0
LINE
  5
2C6C
330
1E
100
AcDbEntity
  8
7
100
AcDbLine
 10
2.206283797764497
 20
6.991433048022589
 30
0.0
 11
1.913817980835363
 21
6.991433048022589
 31
0.0
  0
LINE
  5
2C6D
330
1E
100
AcDbEntity
  8
7
100
AcDbLine
 10
1.780044378473158
 20
3.58938672912495
 30
0.0
 11
1.926933039890482
 21
3.864802969282431
 31
0.0
  0
LINE
  5
2C6E
330
1E
100
AcDbEntity
  8
7
100
AcDbLine
 10
1.776109860756623
 20
3.601190282274556
 30
0.0
 11
1.915129486740875
 21
3.862179957471407
 31
0.0
  0
LINE
  5
2C6F
330
1E
100
AcDbEntity
  8
7
100
AcDbLine
 10
1.58594150445741
 20
3.833326827550147
 30
0.0
 11
1.366920018236938
 21
3.833326827550147
 31
0.0
  0
LINE
  5
2C70
330
1E
100
AcDbEntity
  8
7
100
AcDbLine
 10
1.366920018236938
 20
3.929066758652509
 30
0.0
 11
1.58594150445741
 21
3.929066758652509
 31
0.0
  0
LINE
  5
2C71
330
1E
100
AcDbEntity
  8
7
100
AcDbLine
 10
1.025928482803867
 20
3.864802969282431
 30
0.0
 11
1.17281714422119
 21
3.58938672912495
 31
0.0
  0
LINE
  5
2C72
330
1E
100
AcDbEntity
  8
7
100
AcDbLine
 10
1.178063167843237
 20
3.601190282274556
 30
0.0
 11
1.037732035953474
 21
3.862179957471407
 31
0.0
  0
LINE
  5
2C79
330
1E
100
AcDbEntity
  8
7
100
AcDbLine
 10
1.584629998551899
 20
3.833326827550147
 30
0.0
 11
1.599056563512529
 21
3.863491463376919
 31
0.0
  0
LINE
  5
2C7F
330
1E
100
AcDbEntity
  8
7
100
AcDbLine
 10
1.521677715087331
 20
3.724471837392667
 30
0.0
 11
1.432495313512529
 21
3.724471837392667
 31
0.0
  0
LINE
  5
2C92
330
1E
100
AcDbEntity
  8
7
100
AcDbLine
 10
1.521677715087331
 20
4.037921748809989
 30
0.0
 11
1.432495313512529
 21
4.037921748809989
 31
0.0
  0
LINE
  5
2CA5
330
1E
100
AcDbEntity
  8
7
100
AcDbLine
 10
1.774798354851111
 20
3.60381329408558
 30
0.0
 11
1.913817980835363
 21
3.864802969282431
 31
0.0
  0
LINE
  5
2CA6
330
1E
100
AcDbEntity
  8
7
100
AcDbLine
 10
1.774798354851111
 20
3.602501788180069
 30
0.0
 11
1.774798354851111
 21
3.60381329408558
 31
0.0
  0
LINE
  5
2CA7
330
1E
100
AcDbEntity
  8
7
100
AcDbLine
 10
1.913817980835363
 20
3.862179957471407
 30
0.0
 11
1.913817980835363
 21
3.864802969282431
 31
0.0
  0
LINE
  5
2CA8
330
1E
100
AcDbEntity
  8
7
100
AcDbLine
 10
1.178063167843237
 20
3.60381329408558
 30
0.0
 11
1.178063167843237
 21
3.602501788180069
 31
0.0
  0
LINE
  5
2CB4
330
1E
100
AcDbEntity
  8
7
100
AcDbLine
 10
1.913817980835363
 20
3.864802969282431
 30
0.0
 11
1.913817980835363
 21
3.88578706377062
 31
0.0
  0
LINE
  5
2CCA
330
1E
100
AcDbEntity
  8
7
100
AcDbLine
 10
1.521677715087331
 20
4.037921748809989
 30
0.0
 11
1.432495313512529
 21
4.037921748809989
 31
0.0
  0
LINE
  5
2CDD
330
1E
100
AcDbEntity
  8
7
100
AcDbLine
 10
1.432495313512529
 20
3.724471837392667
 30
0.0
 11
1.521677715087331
 21
3.724471837392667
 31
0.0
  0
LINE
  5
2CF2
330
1E
100
AcDbEntity
  8
7
100
AcDbLine
 10
1.039043541858985
 20
4.049725301959595
 30
0.0
 11
1.039043541858985
 21
3.88578706377062
 31
0.0
  0
LINE
  5
2CF3
330
1E
100
AcDbEntity
  8
7
100
AcDbLine
 10
1.913817980835363
 20
3.88578706377062
 30
0.0
 11
1.913817980835363
 21
4.049725301959595
 31
0.0
  0
LINE
  5
2CF4
330
1E
100
AcDbEntity
  8
7
100
AcDbLine
 10
0.7478892308353631
 20
4.049725301959595
 30
0.0
 11
1.039043541858985
 21
4.049725301959595
 31
0.0
  0
LINE
  5
2CF5
330
1E
100
AcDbEntity
  8
7
100
AcDbLine
 10
0.7478892308353631
 20
4.141530715345423
 30
0.0
 11
0.7478892308353631
 21
4.049725301959595
 31
0.0
  0
LINE
  5
2CF6
330
1E
100
AcDbEntity
  8
7
100
AcDbLine
 10
0.7478892308353631
 20
4.141530715345423
 30
0.0
 11
0.7478892308353631
 21
6.899627634636761
 31
0.0
  0
LINE
  5
2CF7
330
1E
100
AcDbEntity
  8
7
100
AcDbLine
 10
0.7478892308353631
 20
6.991433048022589
 30
0.0
 11
0.7478892308353631
 21
6.899627634636761
 31
0.0
  0
LINE
  5
2D0D
330
1E
100
AcDbEntity
  8
7
100
AcDbLine
 10
1.605614093040087
 20
3.491023786211564
 30
0.0
 11
1.626598187528276
 21
3.500204327550147
 31
0.0
  0
LINE
  5
2D0E
330
1E
100
AcDbEntity
  8
7
100
AcDbLine
 10
1.721026612725127
 20
3.594632752746998
 30
0.0
 11
1.626598187528276
 21
3.500204327550147
 31
0.0
  0
LINE
  5
2D19
330
1E
100
AcDbEntity
  8
7
100
AcDbLine
 10
1.210850815481032
 20
3.60381329408558
 30
0.0
 11
1.189866720992843
 21
3.60381329408558
 31
0.0
  0
LINE
  5
2D1A
330
1E
100
AcDbEntity
  8
7
100
AcDbLine
 10
1.210850815481032
 20
3.60381329408558
 30
0.0
 11
1.231834909969221
 21
3.594632752746998
 31
0.0
  0
LINE
  5
2D1B
330
1E
100
AcDbEntity
  8
7
100
AcDbLine
 10
2.126281937528276
 20
5.801897191723376
 30
0.0
 11
2.126281937528276
 21
5.319263018495028
 31
0.0
  0
LINE
  5
2D1C
330
1E
100
AcDbEntity
  8
7
100
AcDbLine
 10
2.124970431622765
 20
5.803208697628887
 30
0.0
 11
2.126281937528276
 21
5.801897191723376
 31
0.0
  0
LINE
  5
2D1D
330
1E
100
AcDbEntity
  8
7
100
AcDbLine
 10
2.124970431622765
 20
5.801897191723376
 30
0.0
 11
2.124970431622765
 21
5.803208697628887
 31
0.0
  0
LINE
  5
2D1E
330
1E
100
AcDbEntity
  8
7
100
AcDbLine
 10
2.124970431622765
 20
5.311393983061958
 30
0.0
 11
2.124970431622765
 21
5.801897191723376
 31
0.0
  0
LINE
  5
2D1F
330
1E
100
AcDbEntity
  8
7
100
AcDbLine
 10
2.124970431622765
 20
5.310082477156447
 30
0.0
 11
2.124970431622765
 21
5.311393983061958
 31
0.0
  0
LINE
  5
2D20
330
1E
100
AcDbEntity
  8
7
100
AcDbLine
 10
2.126281937528276
 20
5.319263018495028
 30
0.0
 11
2.124970431622765
 21
5.310082477156447
 31
0.0
  0
LINE
  5
2D21
330
1E
100
AcDbEntity
  8
7
100
AcDbLine
 10
0.8278910910715836
 20
5.803208697628887
 30
0.0
 11
0.8265795851660717
 21
5.801897191723376
 31
0.0
  0
LINE
  5
2D22
330
1E
100
AcDbEntity
  8
7
100
AcDbLine
 10
0.8265795851660717
 20
5.319263018495028
 30
0.0
 11
0.8265795851660717
 21
5.801897191723376
 31
0.0
  0
LINE
  5
2D28
330
1E
100
AcDbEntity
  8
7
100
AcDbLine
 10
0.8292025969770961
 20
5.801897191723376
 30
0.0
 11
0.8292025969770961
 21
5.311393983061958
 31
0.0
  0
LINE
  5
2D29
330
1E
100
AcDbEntity
  8
7
100
AcDbLine
 10
0.8292025969770961
 20
5.801897191723376
 30
0.0
 11
0.8278910910715836
 21
5.803208697628887
 31
0.0
  0
LINE
  5
2D2A
330
1E
100
AcDbEntity
  8
7
100
AcDbLine
 10
0.8265795851660717
 20
6.472076709439911
 30
0.0
 11
0.8265795851660717
 21
6.744869937786368
 31
0.0
  0
LINE
  5
2D30
330
1E
100
AcDbEntity
  8
7
100
AcDbLine
 10
0.8292025969770961
 20
6.743558431880856
 30
0.0
 11
0.8292025969770961
 21
6.464207674006839
 31
0.0
  0
LINE
  5
2D31
330
1E
100
AcDbEntity
  8
7
100
AcDbLine
 10
0.8292025969770961
 20
6.743558431880856
 30
0.0
 11
0.8265795851660717
 21
6.744869937786368
 31
0.0
  0
LINE
  5
2D32
330
1E
100
AcDbEntity
  8
7
100
AcDbLine
 10
0.8396946442211902
 20
5.803208697628887
 30
0.0
 11
0.8396946442211902
 21
6.462896168101329
 31
0.0
  0
LINE
  5
2D33
330
1E
100
AcDbEntity
  8
7
100
AcDbLine
 10
2.126281937528276
 20
4.649083500778495
 30
0.0
 11
2.126281937528276
 21
4.296288412195817
 31
0.0
  0
LINE
  5
2D34
330
1E
100
AcDbEntity
  8
7
100
AcDbLine
 10
2.124970431622765
 20
4.650395006684005
 30
0.0
 11
2.126281937528276
 21
4.649083500778495
 31
0.0
  0
LINE
  5
2D35
330
1E
100
AcDbEntity
  8
7
100
AcDbLine
 10
2.124970431622765
 20
4.649083500778495
 30
0.0
 11
2.124970431622765
 21
4.650395006684005
 31
0.0
  0
LINE
  5
2D36
330
1E
100
AcDbEntity
  8
7
100
AcDbLine
 10
2.124970431622765
 20
4.297599918101328
 30
0.0
 11
2.124970431622765
 21
4.649083500778495
 31
0.0
  0
LINE
  5
2D37
330
1E
100
AcDbEntity
  8
7
100
AcDbLine
 10
2.124970431622765
 20
4.297599918101328
 30
0.0
 11
2.126281937528276
 21
4.296288412195817
 31
0.0
  0
LINE
  5
2D38
330
1E
100
AcDbEntity
  8
7
100
AcDbLine
 10
0.8278910910715836
 20
4.650395006684005
 30
0.0
 11
0.8265795851660717
 21
4.649083500778495
 31
0.0
  0
LINE
  5
2D39
330
1E
100
AcDbEntity
  8
7
100
AcDbLine
 10
0.8265795851660717
 20
4.296288412195817
 30
0.0
 11
0.8265795851660717
 21
4.649083500778495
 31
0.0
  0
LINE
  5
2D3A
330
1E
100
AcDbEntity
  8
7
100
AcDbLine
 10
0.8265795851660717
 20
4.296288412195817
 30
0.0
 11
0.8292025969770961
 21
4.297599918101328
 31
0.0
  0
LINE
  5
2D3B
330
1E
100
AcDbEntity
  8
7
100
AcDbLine
 10
0.8292025969770961
 20
4.649083500778495
 30
0.0
 11
0.8292025969770961
 21
4.297599918101328
 31
0.0
  0
LINE
  5
2D3C
330
1E
100
AcDbEntity
  8
7
100
AcDbLine
 10
0.8292025969770961
 20
4.649083500778495
 30
0.0
 11
0.8278910910715836
 21
4.650395006684005
 31
0.0
  0
LINE
  5
2D3D
330
1E
100
AcDbEntity
  8
7
100
AcDbLine
 10
0.8396946442211902
 20
4.650395006684005
 30
0.0
 11
0.8396946442211902
 21
5.310082477156447
 31
0.0
  0
LINE
  5
2D3E
330
1E
100
AcDbEntity
  8
7
100
AcDbLine
 10
2.126281937528276
 20
6.472076709439911
 30
0.0
 11
2.124970431622765
 21
6.462896168101329
 31
0.0
  0
LINE
  5
2D3F
330
1E
100
AcDbEntity
  8
7
100
AcDbLine
 10
2.126281937528276
 20
6.744869937786368
 30
0.0
 11
2.126281937528276
 21
6.472076709439911
 31
0.0
  0
LINE
  5
2D40
330
1E
100
AcDbEntity
  8
7
100
AcDbLine
 10
2.126281937528276
 20
6.744869937786368
 30
0.0
 11
2.124970431622765
 21
6.743558431880856
 31
0.0
  0
LINE
  5
2D41
330
1E
100
AcDbEntity
  8
7
100
AcDbLine
 10
2.124970431622765
 20
6.464207674006839
 30
0.0
 11
2.124970431622765
 21
6.743558431880856
 31
0.0
  0
LINE
  5
2D42
330
1E
100
AcDbEntity
  8
7
100
AcDbLine
 10
2.124970431622765
 20
6.462896168101329
 30
0.0
 11
2.124970431622765
 21
6.464207674006839
 31
0.0
  0
LINE
  5
2D43
330
1E
100
AcDbEntity
  8
7
100
AcDbLine
 10
2.039722547764497
 20
5.801897191723376
 30
0.0
 11
2.124970431622765
 21
5.801897191723376
 31
0.0
  0
LINE
  5
2D44
330
1E
100
AcDbEntity
  8
7
100
AcDbLine
 10
2.039722547764497
 20
5.736321896447786
 30
0.0
 11
2.039722547764497
 21
5.801897191723376
 31
0.0
  0
LINE
  5
2D45
330
1E
100
AcDbEntity
  8
7
100
AcDbLine
 10
1.547907833197568
 20
5.736321896447786
 30
0.0
 11
2.039722547764497
 21
5.736321896447786
 31
0.0
  0
LINE
  5
2D46
330
1E
100
AcDbEntity
  8
7
100
AcDbLine
 10
1.547907833197568
 20
5.801897191723376
 30
0.0
 11
1.547907833197568
 21
5.736321896447786
 31
0.0
  0
LINE
  5
2D47
330
1E
100
AcDbEntity
  8
7
100
AcDbLine
 10
1.40495368949678
 20
5.801897191723376
 30
0.0
 11
1.547907833197568
 21
5.801897191723376
 31
0.0
  0
LINE
  5
2D4F
330
1E
100
AcDbEntity
  8
7
100
AcDbLine
 10
2.124970431622765
 20
5.311393983061958
 30
0.0
 11
0.8292025969770961
 21
5.311393983061958
 31
0.0
  0
LINE
  5
2D5C
330
1E
100
AcDbEntity
  8
7
100
AcDbLine
 10
2.124970431622765
 20
6.464207674006839
 30
0.0
 11
0.8292025969770961
 21
6.464207674006839
 31
0.0
  0
LINE
  5
2D69
330
1E
100
AcDbEntity
  8
7
100
AcDbLine
 10
2.039722547764497
 20
4.649083500778495
 30
0.0
 11
2.124970431622765
 21
4.649083500778495
 31
0.0
  0
LINE
  5
2D6A
330
1E
100
AcDbEntity
  8
7
100
AcDbLine
 10
2.039722547764497
 20
4.583508205502903
 30
0.0
 11
2.039722547764497
 21
4.649083500778495
 31
0.0
  0
LINE
  5
2D6B
330
1E
100
AcDbEntity
  8
7
100
AcDbLine
 10
1.547907833197568
 20
4.583508205502903
 30
0.0
 11
2.039722547764497
 21
4.583508205502903
 31
0.0
  0
LINE
  5
2D6C
330
1E
100
AcDbEntity
  8
7
100
AcDbLine
 10
1.547907833197568
 20
4.649083500778495
 30
0.0
 11
1.547907833197568
 21
4.583508205502903
 31
0.0
  0
LINE
  5
2D6D
330
1E
100
AcDbEntity
  8
7
100
AcDbLine
 10
1.40495368949678
 20
4.649083500778495
 30
0.0
 11
1.547907833197568
 21
4.649083500778495
 31
0.0
  0
LINE
  5
2D6E
330
1E
100
AcDbEntity
  8
7
100
AcDbLine
 10
1.40495368949678
 20
4.649083500778495
 30
0.0
 11
1.40495368949678
 21
4.583508205502903
 31
0.0
  0
LINE
  5
2D75
330
1E
100
AcDbEntity
  8
7
100
AcDbLine
 10
1.246261474929851
 20
6.462896168101329
 30
0.0
 11
1.706600047764497
 21
6.462896168101329
 31
0.0
  0
LINE
  5
2D76
330
1E
100
AcDbEntity
  8
7
100
AcDbLine
 10
1.403642183591268
 20
5.803208697628887
 30
0.0
 11
1.549219339103079
 21
5.803208697628887
 31
0.0
  0
LINE
  5
2D77
330
1E
100
AcDbEntity
  8
7
100
AcDbLine
 10
2.038411041858985
 20
5.803208697628887
 30
0.0
 11
2.124970431622765
 21
5.803208697628887
 31
0.0
  0
LINE
  5
2D7D
330
1E
100
AcDbEntity
  8
7
100
AcDbLine
 10
1.881030333197568
 20
6.462896168101329
 30
0.0
 11
1.881030333197568
 21
6.423550990935974
 31
0.0
  0
LINE
  5
2D7E
330
1E
100
AcDbEntity
  8
7
100
AcDbLine
 10
1.706600047764497
 20
6.462896168101329
 30
0.0
 11
1.706600047764497
 21
6.423550990935974
 31
0.0
  0
LINE
  5
2D7F
330
1E
100
AcDbEntity
  8
7
100
AcDbLine
 10
1.881030333197568
 20
6.462896168101329
 30
0.0
 11
2.124970431622765
 21
6.462896168101329
 31
0.0
  0
LINE
  5
2D80
330
1E
100
AcDbEntity
  8
7
100
AcDbLine
 10
1.667254870599143
 20
5.737633402353297
 30
0.0
 11
1.690861976898355
 21
5.749436955502903
 31
0.0
  0
LINE
  5
2D86
330
1E
100
AcDbEntity
  8
7
100
AcDbLine
 10
2.039722547764497
 20
5.736321896447786
 30
0.0
 11
2.038411041858985
 21
5.737633402353297
 31
0.0
  0
LINE
  5
2D87
330
1E
100
AcDbEntity
  8
7
100
AcDbLine
 10
1.896768404063709
 20
5.749436955502903
 30
0.0
 11
1.921687016268434
 21
5.737633402353297
 31
0.0
  0
LINE
  5
2D88
330
1E
100
AcDbEntity
  8
7
100
AcDbLine
 10
1.896768404063709
 20
5.749436955502903
 30
0.0
 11
1.690861976898355
 21
5.749436955502903
 31
0.0
  0
LINE
  5
2D89
330
1E
100
AcDbEntity
  8
7
100
AcDbLine
 10
1.549219339103079
 20
5.737633402353297
 30
0.0
 11
1.549219339103079
 21
5.803208697628887
 31
0.0
  0
LINE
  5
2D8F
330
1E
100
AcDbEntity
  8
7
100
AcDbLine
 10
1.692173482803867
 20
5.775667073613139
 30
0.0
 11
1.692173482803867
 21
5.765175026369044
 31
0.0
  0
LINE
  5
2D96
330
1E
100
AcDbEntity
  8
7
100
AcDbLine
 10
1.690861976898355
 20
5.846488392510778
 30
0.0
 11
1.690861976898355
 21
5.817635262589517
 31
0.0
  0
LINE
  5
2DA1
330
1E
100
AcDbEntity
  8
7
100
AcDbLine
 10
0.8278910910715836
 20
5.803208697628887
 30
0.0
 11
0.914450480835363
 21
5.803208697628887
 31
0.0
  0
LINE
  5
2DA2
330
1E
100
AcDbEntity
  8
7
100
AcDbLine
 10
0.914450480835363
 20
5.737633402353297
 30
0.0
 11
0.914450480835363
 21
5.803208697628887
 31
0.0
  0
LINE
  5
2DA3
330
1E
100
AcDbEntity
  8
7
100
AcDbLine
 10
1.032486012331426
 20
5.737633402353297
 30
0.0
 11
0.914450480835363
 21
5.737633402353297
 31
0.0
  0
LINE
  5
2DA9
330
1E
100
AcDbEntity
  8
7
100
AcDbLine
 10
1.261999545795993
 20
5.749436955502903
 30
0.0
 11
1.286918158000717
 21
5.737633402353297
 31
0.0
  0
LINE
  5
2DAA
330
1E
100
AcDbEntity
  8
7
100
AcDbLine
 10
1.261999545795993
 20
5.846488392510778
 30
0.0
 11
1.261999545795993
 21
5.817635262589517
 31
0.0
  0
LINE
  5
2DAB
330
1E
100
AcDbEntity
  8
7
100
AcDbLine
 10
1.261999545795993
 20
5.81238923896747
 30
0.0
 11
1.261999545795993
 21
5.817635262589517
 31
0.0
  0
LINE
  5
2DB1
330
1E
100
AcDbEntity
  8
7
100
AcDbLine
 10
1.261999545795993
 20
5.775667073613139
 30
0.0
 11
1.261999545795993
 21
5.765175026369044
 31
0.0
  0
LINE
  5
2DB7
330
1E
100
AcDbEntity
  8
7
100
AcDbLine
 10
1.032486012331426
 20
5.737633402353297
 30
0.0
 11
1.056093118630638
 21
5.749436955502903
 31
0.0
  0
LINE
  5
2DB8
330
1E
100
AcDbEntity
  8
7
100
AcDbLine
 10
1.05740462453615
 20
5.765175026369044
 30
0.0
 11
1.05740462453615
 21
5.75468297912495
 31
0.0
  0
LINE
  5
2DB9
330
1E
100
AcDbEntity
  8
7
100
AcDbLine
 10
1.05740462453615
 20
5.75468297912495
 30
0.0
 11
1.056093118630638
 21
5.749436955502903
 31
0.0
  0
LINE
  5
2DBA
330
1E
100
AcDbEntity
  8
7
100
AcDbLine
 10
1.05740462453615
 20
5.775667073613139
 30
0.0
 11
1.05740462453615
 21
5.765175026369044
 31
0.0
  0
LINE
  5
2DC0
330
1E
100
AcDbEntity
  8
7
100
AcDbLine
 10
1.056093118630638
 20
5.817635262589517
 30
0.0
 11
1.056093118630638
 21
5.81238923896747
 31
0.0
  0
LINE
  5
2DC1
330
1E
100
AcDbEntity
  8
7
100
AcDbLine
 10
1.056093118630638
 20
5.846488392510778
 30
0.0
 11
1.056093118630638
 21
5.817635262589517
 31
0.0
  0
LINE
  5
2DC2
330
1E
100
AcDbEntity
  8
7
100
AcDbLine
 10
0.8278910910715836
 20
6.462896168101329
 30
0.0
 11
1.07183118949678
 21
6.462896168101329
 31
0.0
  0
LINE
  5
2DC3
330
1E
100
AcDbEntity
  8
7
100
AcDbLine
 10
1.07183118949678
 20
6.462896168101329
 30
0.0
 11
1.07183118949678
 21
6.423550990935974
 31
0.0
  0
LINE
  5
2DC4
330
1E
100
AcDbEntity
  8
7
100
AcDbLine
 10
1.246261474929851
 20
6.462896168101329
 30
0.0
 11
1.246261474929851
 21
6.423550990935974
 31
0.0
  0
LINE
  5
2DC5
330
1E
100
AcDbEntity
  8
7
100
AcDbLine
 10
0.913138974929852
 20
5.736321896447786
 30
0.0
 11
0.914450480835363
 21
5.737633402353297
 31
0.0
  0
LINE
  5
2DC6
330
1E
100
AcDbEntity
  8
7
100
AcDbLine
 10
1.403642183591268
 20
5.737633402353297
 30
0.0
 11
1.40495368949678
 21
5.736321896447786
 31
0.0
  0
LINE
  5
2DC7
330
1E
100
AcDbEntity
  8
7
100
AcDbLine
 10
1.056093118630638
 20
5.749436955502903
 30
0.0
 11
1.261999545795993
 21
5.749436955502903
 31
0.0
  0
LINE
  5
2DC8
330
1E
100
AcDbEntity
  8
7
100
AcDbLine
 10
1.246261474929851
 20
5.310082477156447
 30
0.0
 11
1.706600047764497
 21
5.310082477156447
 31
0.0
  0
LINE
  5
2DC9
330
1E
100
AcDbEntity
  8
7
100
AcDbLine
 10
1.403642183591268
 20
4.650395006684005
 30
0.0
 11
1.549219339103079
 21
4.650395006684005
 31
0.0
  0
LINE
  5
2DCA
330
1E
100
AcDbEntity
  8
7
100
AcDbLine
 10
2.038411041858985
 20
4.650395006684005
 30
0.0
 11
2.124970431622765
 21
4.650395006684005
 31
0.0
  0
LINE
  5
2DD0
330
1E
100
AcDbEntity
  8
7
100
AcDbLine
 10
1.881030333197568
 20
5.310082477156447
 30
0.0
 11
1.881030333197568
 21
5.272048805896604
 31
0.0
  0
LINE
  5
2DD1
330
1E
100
AcDbEntity
  8
7
100
AcDbLine
 10
1.706600047764497
 20
5.310082477156447
 30
0.0
 11
1.706600047764497
 21
5.272048805896604
 31
0.0
  0
LINE
  5
2DD2
330
1E
100
AcDbEntity
  8
7
100
AcDbLine
 10
1.881030333197568
 20
5.310082477156447
 30
0.0
 11
2.124970431622765
 21
5.310082477156447
 31
0.0
  0
LINE
  5
2DD3
330
1E
100
AcDbEntity
  8
7
100
AcDbLine
 10
1.667254870599143
 20
4.586131217313927
 30
0.0
 11
1.690861976898355
 21
4.597934770463533
 31
0.0
  0
LINE
  5
2DD9
330
1E
100
AcDbEntity
  8
7
100
AcDbLine
 10
2.039722547764497
 20
4.583508205502903
 30
0.0
 11
2.038411041858985
 21
4.586131217313927
 31
0.0
  0
LINE
  5
2DDA
330
1E
100
AcDbEntity
  8
7
100
AcDbLine
 10
1.896768404063709
 20
4.597934770463533
 30
0.0
 11
1.921687016268434
 21
4.586131217313927
 31
0.0
  0
LINE
  5
2DDB
330
1E
100
AcDbEntity
  8
7
100
AcDbLine
 10
1.896768404063709
 20
4.597934770463533
 30
0.0
 11
1.690861976898355
 21
4.597934770463533
 31
0.0
  0
LINE
  5
2DDC
330
1E
100
AcDbEntity
  8
7
100
AcDbLine
 10
1.549219339103079
 20
4.586131217313927
 30
0.0
 11
1.549219339103079
 21
4.650395006684005
 31
0.0
  0
LINE
  5
2DE2
330
1E
100
AcDbEntity
  8
7
100
AcDbLine
 10
1.692173482803867
 20
4.624164888573769
 30
0.0
 11
1.692173482803867
 21
4.612361335424163
 31
0.0
  0
LINE
  5
2DE9
330
1E
100
AcDbEntity
  8
7
100
AcDbLine
 10
1.690861976898355
 20
4.693674701565895
 30
0.0
 11
1.690861976898355
 21
4.664821571644636
 31
0.0
  0
LINE
  5
2DF4
330
1E
100
AcDbEntity
  8
7
100
AcDbLine
 10
0.8278910910715836
 20
4.650395006684005
 30
0.0
 11
0.914450480835363
 21
4.650395006684005
 31
0.0
  0
LINE
  5
2DF5
330
1E
100
AcDbEntity
  8
7
100
AcDbLine
 10
0.914450480835363
 20
4.586131217313927
 30
0.0
 11
0.914450480835363
 21
4.650395006684005
 31
0.0
  0
LINE
  5
2DF6
330
1E
100
AcDbEntity
  8
7
100
AcDbLine
 10
1.032486012331426
 20
4.586131217313927
 30
0.0
 11
0.914450480835363
 21
4.586131217313927
 31
0.0
  0
LINE
  5
2DFC
330
1E
100
AcDbEntity
  8
7
100
AcDbLine
 10
1.261999545795993
 20
4.597934770463533
 30
0.0
 11
1.286918158000717
 21
4.586131217313927
 31
0.0
  0
LINE
  5
2DFD
330
1E
100
AcDbEntity
  8
7
100
AcDbLine
 10
1.261999545795993
 20
4.693674701565895
 30
0.0
 11
1.261999545795993
 21
4.664821571644636
 31
0.0
  0
LINE
  5
2DFE
330
1E
100
AcDbEntity
  8
7
100
AcDbLine
 10
1.261999545795993
 20
4.659575548022589
 30
0.0
 11
1.261999545795993
 21
4.664821571644636
 31
0.0
  0
LINE
  5
2DFF
330
1E
100
AcDbEntity
  8
7
100
AcDbLine
 10
1.261999545795993
 20
4.624164888573769
 30
0.0
 11
1.261999545795993
 21
4.642525971250934
 31
0.0
  0
LINE
  5
2E00
330
1E
100
AcDbEntity
  8
7
100
AcDbLine
 10
1.261999545795993
 20
4.642525971250934
 30
0.0
 11
1.261999545795993
 21
4.659575548022589
 31
0.0
  0
LINE
  5
2E01
330
1E
100
AcDbEntity
  8
7
100
AcDbLine
 10
1.261999545795993
 20
4.624164888573769
 30
0.0
 11
1.261999545795993
 21
4.612361335424163
 31
0.0
  0
LINE
  5
2E07
330
1E
100
AcDbEntity
  8
7
100
AcDbLine
 10
1.032486012331426
 20
4.586131217313927
 30
0.0
 11
1.056093118630638
 21
4.597934770463533
 31
0.0
  0
LINE
  5
2E0D
330
1E
100
AcDbEntity
  8
7
100
AcDbLine
 10
1.05740462453615
 20
4.624164888573769
 30
0.0
 11
1.05740462453615
 21
4.612361335424163
 31
0.0
  0
LINE
  5
2E13
330
1E
100
AcDbEntity
  8
7
100
AcDbLine
 10
1.056093118630638
 20
4.664821571644636
 30
0.0
 11
1.056093118630638
 21
4.659575548022589
 31
0.0
  0
LINE
  5
2E14
330
1E
100
AcDbEntity
  8
7
100
AcDbLine
 10
1.056093118630638
 20
4.693674701565895
 30
0.0
 11
1.056093118630638
 21
4.664821571644636
 31
0.0
  0
LINE
  5
2E1A
330
1E
100
AcDbEntity
  8
7
100
AcDbLine
 10
1.246261474929851
 20
5.310082477156447
 30
0.0
 11
1.246261474929851
 21
5.272048805896604
 31
0.0
  0
LINE
  5
2E1B
330
1E
100
AcDbEntity
  8
7
100
AcDbLine
 10
0.913138974929852
 20
4.583508205502903
 30
0.0
 11
0.914450480835363
 21
4.586131217313927
 31
0.0
  0
LINE
  5
2E1C
330
1E
100
AcDbEntity
  8
7
100
AcDbLine
 10
1.403642183591268
 20
4.586131217313927
 30
0.0
 11
1.40495368949678
 21
4.583508205502903
 31
0.0
  0
LINE
  5
2E1D
330
1E
100
AcDbEntity
  8
7
100
AcDbLine
 10
1.056093118630638
 20
4.597934770463533
 30
0.0
 11
1.261999545795993
 21
4.597934770463533
 31
0.0
  0
LINE
  5
2E1E
330
1E
100
AcDbEntity
  8
7
100
AcDbLine
 10
2.11447838437867
 20
5.803208697628887
 30
0.0
 11
2.11447838437867
 21
6.462896168101329
 31
0.0
  0
LINE
  5
2E1F
330
1E
100
AcDbEntity
  8
7
100
AcDbLine
 10
1.706600047764497
 20
6.423550990935974
 30
0.0
 11
1.881030333197568
 21
6.423550990935974
 31
0.0
  0
LINE
  5
2E20
330
1E
100
AcDbEntity
  8
7
100
AcDbLine
 10
1.690861976898355
 20
5.846488392510778
 30
0.0
 11
1.896768404063709
 21
5.846488392510778
 31
0.0
  0
LINE
  5
2E21
330
1E
100
AcDbEntity
  8
7
100
AcDbLine
 10
1.690861976898355
 20
5.817635262589517
 30
0.0
 11
1.896768404063709
 21
5.817635262589517
 31
0.0
  0
LINE
  5
2E22
330
1E
100
AcDbEntity
  8
7
100
AcDbLine
 10
1.896768404063709
 20
5.81238923896747
 30
0.0
 11
1.690861976898355
 21
5.81238923896747
 31
0.0
  0
LINE
  5
2E23
330
1E
100
AcDbEntity
  8
7
100
AcDbLine
 10
1.692173482803867
 20
5.775667073613139
 30
0.0
 11
1.896768404063709
 21
5.775667073613139
 31
0.0
  0
LINE
  5
2E24
330
1E
100
AcDbEntity
  8
7
100
AcDbLine
 10
1.692173482803867
 20
5.765175026369044
 30
0.0
 11
1.896768404063709
 21
5.765175026369044
 31
0.0
  0
LINE
  5
2E25
330
1E
100
AcDbEntity
  8
7
100
AcDbLine
 10
1.261999545795993
 20
5.846488392510778
 30
0.0
 11
1.056093118630638
 21
5.846488392510778
 31
0.0
  0
LINE
  5
2E26
330
1E
100
AcDbEntity
  8
7
100
AcDbLine
 10
1.261999545795993
 20
5.817635262589517
 30
0.0
 11
1.056093118630638
 21
5.817635262589517
 31
0.0
  0
LINE
  5
2E27
330
1E
100
AcDbEntity
  8
7
100
AcDbLine
 10
1.056093118630638
 20
5.81238923896747
 30
0.0
 11
1.261999545795993
 21
5.81238923896747
 31
0.0
  0
LINE
  5
2E28
330
1E
100
AcDbEntity
  8
7
100
AcDbLine
 10
1.261999545795993
 20
5.775667073613139
 30
0.0
 11
1.05740462453615
 21
5.775667073613139
 31
0.0
  0
LINE
  5
2E29
330
1E
100
AcDbEntity
  8
7
100
AcDbLine
 10
1.261999545795993
 20
5.765175026369044
 30
0.0
 11
1.05740462453615
 21
5.765175026369044
 31
0.0
  0
LINE
  5
2E2A
330
1E
100
AcDbEntity
  8
7
100
AcDbLine
 10
1.07183118949678
 20
6.423550990935974
 30
0.0
 11
1.246261474929851
 21
6.423550990935974
 31
0.0
  0
LINE
  5
2E2B
330
1E
100
AcDbEntity
  8
7
100
AcDbLine
 10
2.11447838437867
 20
4.650395006684005
 30
0.0
 11
2.11447838437867
 21
5.310082477156447
 31
0.0
  0
LINE
  5
2E2C
330
1E
100
AcDbEntity
  8
7
100
AcDbLine
 10
1.706600047764497
 20
5.272048805896604
 30
0.0
 11
1.881030333197568
 21
5.272048805896604
 31
0.0
  0
LINE
  5
2E2D
330
1E
100
AcDbEntity
  8
7
100
AcDbLine
 10
1.690861976898355
 20
4.693674701565895
 30
0.0
 11
1.896768404063709
 21
4.693674701565895
 31
0.0
  0
LINE
  5
2E2E
330
1E
100
AcDbEntity
  8
7
100
AcDbLine
 10
1.690861976898355
 20
4.664821571644636
 30
0.0
 11
1.896768404063709
 21
4.664821571644636
 31
0.0
  0
LINE
  5
2E2F
330
1E
100
AcDbEntity
  8
7
100
AcDbLine
 10
1.896768404063709
 20
4.659575548022589
 30
0.0
 11
1.690861976898355
 21
4.659575548022589
 31
0.0
  0
LINE
  5
2E30
330
1E
100
AcDbEntity
  8
7
100
AcDbLine
 10
1.692173482803867
 20
4.624164888573769
 30
0.0
 11
1.896768404063709
 21
4.624164888573769
 31
0.0
  0
LINE
  5
2E31
330
1E
100
AcDbEntity
  8
7
100
AcDbLine
 10
1.692173482803867
 20
4.612361335424163
 30
0.0
 11
1.896768404063709
 21
4.612361335424163
 31
0.0
  0
LINE
  5
2E32
330
1E
100
AcDbEntity
  8
7
100
AcDbLine
 10
1.261999545795993
 20
4.693674701565895
 30
0.0
 11
1.056093118630638
 21
4.693674701565895
 31
0.0
  0
LINE
  5
2E33
330
1E
100
AcDbEntity
  8
7
100
AcDbLine
 10
1.261999545795993
 20
4.664821571644636
 30
0.0
 11
1.056093118630638
 21
4.664821571644636
 31
0.0
  0
LINE
  5
2E34
330
1E
100
AcDbEntity
  8
7
100
AcDbLine
 10
1.056093118630638
 20
4.659575548022589
 30
0.0
 11
1.261999545795993
 21
4.659575548022589
 31
0.0
  0
LINE
  5
2E35
330
1E
100
AcDbEntity
  8
7
100
AcDbLine
 10
1.261999545795993
 20
4.624164888573769
 30
0.0
 11
1.05740462453615
 21
4.624164888573769
 31
0.0
  0
LINE
  5
2E36
330
1E
100
AcDbEntity
  8
7
100
AcDbLine
 10
1.261999545795993
 20
4.612361335424163
 30
0.0
 11
1.05740462453615
 21
4.612361335424163
 31
0.0
  0
LINE
  5
2E37
330
1E
100
AcDbEntity
  8
7
100
AcDbLine
 10
1.07183118949678
 20
5.272048805896604
 30
0.0
 11
1.246261474929851
 21
5.272048805896604
 31
0.0
  0
LINE
  5
2E38
330
1E
100
AcDbEntity
  8
7
100
AcDbLine
 10
1.40495368949678
 20
5.801897191723376
 30
0.0
 11
1.403642183591268
 21
5.803208697628887
 31
0.0
  0
LINE
  5
2E39
330
1E
100
AcDbEntity
  8
7
100
AcDbLine
 10
1.547907833197568
 20
5.801897191723376
 30
0.0
 11
1.549219339103079
 21
5.803208697628887
 31
0.0
  0
LINE
  5
2E3A
330
1E
100
AcDbEntity
  8
7
100
AcDbLine
 10
2.039722547764497
 20
5.801897191723376
 30
0.0
 11
2.038411041858985
 21
5.803208697628887
 31
0.0
  0
LINE
  5
2E3B
330
1E
100
AcDbEntity
  8
7
100
AcDbLine
 10
1.706600047764497
 20
6.462896168101329
 30
0.0
 11
1.881030333197568
 21
6.462896168101329
 31
0.0
  0
LINE
  5
2E3C
330
1E
100
AcDbEntity
  8
7
100
AcDbLine
 10
0.913138974929852
 20
5.801897191723376
 30
0.0
 11
0.914450480835363
 21
5.803208697628887
 31
0.0
  0
LINE
  5
2E3D
330
1E
100
AcDbEntity
  8
7
100
AcDbLine
 10
1.07183118949678
 20
6.462896168101329
 30
0.0
 11
1.246261474929851
 21
6.462896168101329
 31
0.0
  0
LINE
  5
2E3E
330
1E
100
AcDbEntity
  8
7
100
AcDbLine
 10
1.40495368949678
 20
4.649083500778495
 30
0.0
 11
1.403642183591268
 21
4.650395006684005
 31
0.0
  0
LINE
  5
2E3F
330
1E
100
AcDbEntity
  8
7
100
AcDbLine
 10
1.547907833197568
 20
4.649083500778495
 30
0.0
 11
1.549219339103079
 21
4.650395006684005
 31
0.0
  0
LINE
  5
2E40
330
1E
100
AcDbEntity
  8
7
100
AcDbLine
 10
2.039722547764497
 20
4.649083500778495
 30
0.0
 11
2.038411041858985
 21
4.650395006684005
 31
0.0
  0
LINE
  5
2E41
330
1E
100
AcDbEntity
  8
7
100
AcDbLine
 10
1.706600047764497
 20
5.310082477156447
 30
0.0
 11
1.881030333197568
 21
5.310082477156447
 31
0.0
  0
LINE
  5
2E42
330
1E
100
AcDbEntity
  8
7
100
AcDbLine
 10
0.913138974929852
 20
4.649083500778495
 30
0.0
 11
0.914450480835363
 21
4.650395006684005
 31
0.0
  0
LINE
  5
2E43
330
1E
100
AcDbEntity
  8
7
100
AcDbLine
 10
1.07183118949678
 20
5.310082477156447
 30
0.0
 11
1.246261474929851
 21
5.310082477156447
 31
0.0
  0
LINE
  5
2E44
330
1E
100
AcDbEntity
  8
7
100
AcDbLine
 10
0.914450480835363
 20
4.213663540148573
 30
0.0
 11
0.9118274690243396
 21
4.211040528337548
 31
0.0
  0
LINE
  5
2E45
330
1E
100
AcDbEntity
  8
7
100
AcDbLine
 10
2.041034053670008
 20
4.211040528337548
 30
0.0
 11
0.9118274690243396
 21
4.211040528337548
 31
0.0
  0
LINE
  5
2E46
330
1E
100
AcDbEntity
  8
7
100
AcDbLine
 10
2.041034053670008
 20
4.211040528337548
 30
0.0
 11
2.039722547764497
 21
4.213663540148573
 31
0.0
  0
LINE
  5
2E47
330
1E
100
AcDbEntity
  8
7
100
AcDbLine
 10
2.039722547764497
 20
6.827494809833612
 30
0.0
 11
2.041034053670008
 21
6.830117821644636
 31
0.0
  0
LINE
  5
2E48
330
1E
100
AcDbEntity
  8
7
100
AcDbLine
 10
0.9118274690243396
 20
6.830117821644636
 30
0.0
 11
2.041034053670008
 21
6.830117821644636
 31
0.0
  0
LINE
  5
2E49
330
1E
100
AcDbEntity
  8
7
100
AcDbLine
 10
0.9118274690243396
 20
6.830117821644636
 30
0.0
 11
0.914450480835363
 21
6.827494809833612
 31
0.0
  0
LINE
  5
2E4A
330
1E
100
AcDbEntity
  8
7
100
AcDbLine
 10
0.7478892308353631
 20
6.879955046054083
 30
0.0
 11
2.204972291858985
 21
6.879955046054083
 31
0.0
  0
LINE
  5
2E4B
330
1E
100
AcDbEntity
  8
7
100
AcDbLine
 10
1.039043541858985
 20
6.991433048022589
 30
0.0
 11
0.7478892308353631
 21
6.991433048022589
 31
0.0
  0
LINE
  5
2E4C
330
1E
100
AcDbEntity
  8
7
100
AcDbLine
 10
2.204972291858985
 20
4.1612033039281
 30
0.0
 11
0.7478892308353631
 21
4.1612033039281
 31
0.0
  0
LINE
  5
2E4D
330
1E
100
AcDbEntity
  8
7
100
AcDbLine
 10
1.348558935559772
 20
7.55013456377062
 30
0.0
 11
1.327574841071583
 21
7.540954022432037
 31
0.0
  0
LINE
  5
2E4E
330
1E
100
AcDbEntity
  8
7
100
AcDbLine
 10
1.231834909969221
 20
7.446525597235186
 30
0.0
 11
1.327574841071583
 21
7.540954022432037
 31
0.0
  0
LINE
  5
2E54
330
1E
100
AcDbEntity
  8
7
100
AcDbLine
 10
2.206283797764497
 20
6.899627634636761
 30
0.0
 11
2.206283797764497
 21
6.991433048022589
 31
0.0
  0
LINE
  5
2E55
330
1E
100
AcDbEntity
  8
7
100
AcDbLine
 10
1.742010707213315
 20
7.437345055896603
 30
0.0
 11
1.762994801701505
 21
7.437345055896603
 31
0.0
  0
LINE
  5
2E81
330
1E
100
AcDbEntity
  8
7
100
AcDbLine
 10
2.206283797764497
 20
6.899627634636761
 30
0.0
 11
0.7478892308353631
 21
6.899627634636761
 31
0.0
  0
LINE
  5
2E82
330
1E
100
AcDbEntity
  8
7
100
AcDbLine
 10
0.7478892308353631
 20
6.879955046054083
 30
0.0
 11
0.7478892308353631
 21
6.885201069676131
 31
0.0
  0
LINE
  5
2E83
330
1E
100
AcDbEntity
  8
7
100
AcDbLine
 10
0.7478892308353631
 20
6.885201069676131
 30
0.0
 11
0.7478892308353631
 21
6.899627634636761
 31
0.0
  0
LINE
  5
2E89
330
1E
100
AcDbEntity
  8
7
100
AcDbLine
 10
0.7478892308353631
 20
4.141530715345423
 30
0.0
 11
2.206283797764497
 21
4.141530715345423
 31
0.0
  0
LINE
  5
3298
330
1E
100
AcDbEntity
  8
7
100
AcDbLine
 10
5.59783806941804
 20
7.548823057865108
 30
0.0
 11
5.509967173748749
 21
7.55013456377062
 31
0.0
  0
LINE
  5
3299
330
1E
100
AcDbEntity
  8
7
100
AcDbLine
 10
5.509967173748749
 20
7.175043874794241
 30
0.0
 11
5.59783806941804
 21
7.177666886605265
 31
0.0
  0
LINE
  5
329A
330
1E
100
AcDbEntity
  8
7
100
AcDbLine
 10
5.59783806941804
 20
3.863491463376919
 30
0.0
 11
5.509967173748749
 21
3.866114475187942
 31
0.0
  0
LINE
  5
329B
330
1E
100
AcDbEntity
  8
7
100
AcDbLine
 10
5.509967173748749
 20
3.491023786211564
 30
0.0
 11
5.59783806941804
 21
3.492335292117076
 31
0.0
  0
LINE
  5
32E7
330
1E
100
AcDbEntity
  8
7
100
AcDbLine
 10
5.509967173748749
 20
6.991433048022589
 30
0.0
 11
5.509967173748749
 21
7.155371286211565
 31
0.0
  0
LINE
  5
32E8
330
1E
100
AcDbEntity
  8
7
100
AcDbLine
 10
5.59783806941804
 20
6.990121542117076
 30
0.0
 11
5.59783806941804
 21
7.177666886605265
 31
0.0
  0
LINE
  5
32E9
330
1E
100
AcDbEntity
  8
7
100
AcDbLine
 10
5.641117764299929
 20
6.990121542117076
 30
0.0
 11
5.509967173748749
 21
6.991433048022589
 31
0.0
  0
LINE
  5
32EA
330
1E
100
AcDbEntity
  8
7
100
AcDbLine
 10
5.509967173748749
 20
3.88578706377062
 30
0.0
 11
5.509967173748749
 21
3.866114475187942
 31
0.0
  0
LINE
  5
32F0
330
1E
100
AcDbEntity
  8
7
100
AcDbLine
 10
5.59783806941804
 20
3.863491463376919
 30
0.0
 11
5.59783806941804
 21
4.051036807865108
 31
0.0
  0
LINE
  5
32F8
330
1E
100
AcDbEntity
  8
7
100
AcDbLine
 10
5.462752961150323
 20
6.879955046054083
 30
0.0
 11
5.479802537921977
 21
6.879955046054083
 31
0.0
  0
LINE
  5
3308
330
1E
100
AcDbEntity
  8
7
100
AcDbLine
 10
5.509967173748749
 20
4.049725301959595
 30
0.0
 11
5.509967173748749
 21
4.141530715345423
 31
0.0
  0
LINE
  5
3309
330
1E
100
AcDbEntity
  8
7
100
AcDbLine
 10
5.399800677685757
 20
5.803208697628887
 30
0.0
 11
5.453572419811741
 21
5.801897191723376
 31
0.0
  0
LINE
  5
330A
330
1E
100
AcDbEntity
  8
7
100
AcDbLine
 10
5.348651947370796
 20
5.801897191723376
 30
0.0
 11
5.399800677685757
 21
5.803208697628887
 31
0.0
  0
LINE
  5
330B
330
1E
100
AcDbEntity
  8
7
100
AcDbLine
 10
5.348651947370796
 20
5.311393983061958
 30
0.0
 11
5.348651947370796
 21
5.801897191723376
 31
0.0
  0
LINE
  5
330C
330
1E
100
AcDbEntity
  8
7
100
AcDbLine
 10
5.399800677685757
 20
5.310082477156447
 30
0.0
 11
5.348651947370796
 21
5.311393983061958
 31
0.0
  0
LINE
  5
330D
330
1E
100
AcDbEntity
  8
7
100
AcDbLine
 10
5.453572419811741
 20
5.319263018495028
 30
0.0
 11
5.399800677685757
 21
5.310082477156447
 31
0.0
  0
LINE
  5
330E
330
1E
100
AcDbEntity
  8
7
100
AcDbLine
 10
5.399800677685757
 20
4.650395006684005
 30
0.0
 11
5.453572419811741
 21
4.649083500778495
 31
0.0
  0
LINE
  5
330F
330
1E
100
AcDbEntity
  8
7
100
AcDbLine
 10
5.348651947370796
 20
4.649083500778495
 30
0.0
 11
5.399800677685757
 21
4.650395006684005
 31
0.0
  0
LINE
  5
3310
330
1E
100
AcDbEntity
  8
7
100
AcDbLine
 10
5.348651947370796
 20
4.297599918101328
 30
0.0
 11
5.348651947370796
 21
4.649083500778495
 31
0.0
  0
LINE
  5
3311
330
1E
100
AcDbEntity
  8
7
100
AcDbLine
 10
5.348651947370796
 20
4.297599918101328
 30
0.0
 11
5.453572419811741
 21
4.296288412195817
 31
0.0
  0
LINE
  5
3312
330
1E
100
AcDbEntity
  8
7
100
AcDbLine
 10
5.453572419811741
 20
6.472076709439911
 30
0.0
 11
5.399800677685757
 21
6.462896168101329
 31
0.0
  0
LINE
  5
3313
330
1E
100
AcDbEntity
  8
7
100
AcDbLine
 10
5.453572419811741
 20
6.744869937786368
 30
0.0
 11
5.348651947370796
 21
6.743558431880856
 31
0.0
  0
LINE
  5
3314
330
1E
100
AcDbEntity
  8
7
100
AcDbLine
 10
5.348651947370796
 20
6.464207674006839
 30
0.0
 11
5.348651947370796
 21
6.743558431880856
 31
0.0
  0
LINE
  5
3315
330
1E
100
AcDbEntity
  8
7
100
AcDbLine
 10
5.399800677685757
 20
6.462896168101329
 30
0.0
 11
5.348651947370796
 21
6.464207674006839
 31
0.0
  0
LINE
  5
3329
330
1E
100
AcDbEntity
  8
7
100
AcDbLine
 10
5.857516238709379
 20
5.749436955502903
 30
0.0
 11
5.690954988709378
 21
5.745502437786368
 31
0.0
  0
LINE
  5
332A
330
1E
100
AcDbEntity
  8
7
100
AcDbLine
 10
6.004404900126701
 20
5.683861660227312
 30
0.0
 11
5.690954988709378
 21
5.661566059833612
 31
0.0
  0
LINE
  5
3332
330
1E
100
AcDbEntity
  8
7
100
AcDbLine
 10
6.022765982803868
 20
5.733698884636761
 30
0.0
 11
5.940141110756623
 21
5.816323756684005
 31
0.0
  0
LINE
  5
3338
330
1E
100
AcDbEntity
  8
7
100
AcDbLine
 10
5.85882774461489
 20
5.846488392510778
 30
0.0
 11
5.878500333197568
 21
5.845176886605265
 31
0.0
  0
LINE
  5
3348
330
1E
100
AcDbEntity
  8
7
100
AcDbLine
 10
5.857516238709379
 20
4.597934770463533
 30
0.0
 11
5.690954988709378
 21
4.592688746841486
 31
0.0
  0
LINE
  5
3349
330
1E
100
AcDbEntity
  8
7
100
AcDbLine
 10
6.004404900126701
 20
4.531047969282431
 30
0.0
 11
5.690954988709378
 21
4.50875236888873
 31
0.0
  0
LINE
  5
3351
330
1E
100
AcDbEntity
  8
7
100
AcDbLine
 10
6.022765982803868
 20
4.58088519369188
 30
0.0
 11
5.940141110756623
 21
4.663510065739123
 31
0.0
  0
LINE
  5
3357
330
1E
100
AcDbEntity
  8
7
100
AcDbLine
 10
5.85882774461489
 20
4.693674701565895
 30
0.0
 11
5.878500333197568
 21
4.692363195660384
 31
0.0
  0
LINE
  5
3362
330
1E
100
AcDbEntity
  8
7
100
AcDbLine
 10
5.690954988709378
 20
5.63140142400684
 30
0.0
 11
5.937518098945599
 21
5.640581965345423
 31
0.0
  0
LINE
  5
3368
330
1E
100
AcDbEntity
  8
7
100
AcDbLine
 10
5.957190687528276
 20
5.679927142510778
 30
0.0
 11
5.957190687528276
 21
5.6602545539281
 31
0.0
  0
LINE
  5
3369
330
1E
100
AcDbEntity
  8
7
100
AcDbLine
 10
5.690954988709378
 20
4.47989923896747
 30
0.0
 11
5.937518098945599
 21
4.487768274400542
 31
0.0
  0
LINE
  5
336F
330
1E
100
AcDbEntity
  8
7
100
AcDbLine
 10
5.957190687528276
 20
4.527113451565895
 30
0.0
 11
5.957190687528276
 21
4.507440862983218
 31
0.0
  0
LINE
  5
3370
330
1E
100
AcDbEntity
  8
7
100
AcDbLine
 10
5.453572419811741
 20
4.211040528337548
 30
0.0
 11
5.348651947370796
 21
4.213663540148573
 31
0.0
  0
LINE
  5
3371
330
1E
100
AcDbEntity
  8
7
100
AcDbLine
 10
5.348651947370796
 20
6.827494809833612
 30
0.0
 11
5.453572419811741
 21
6.830117821644636
 31
0.0
  0
LINE
  5
3372
330
1E
100
AcDbEntity
  8
7
100
AcDbLine
 10
5.509967173748749
 20
4.049725301959595
 30
0.0
 11
5.641117764299929
 21
4.051036807865108
 31
0.0
  0
LINE
  5
3373
330
1E
100
AcDbEntity
  8
7
100
AcDbLine
 10
5.509967173748749
 20
6.899627634636761
 30
0.0
 11
5.509967173748749
 21
6.991433048022589
 31
0.0
  0
LINE
  5
3374
330
1E
100
AcDbEntity
  8
7
100
AcDbLine
 10
5.690954988709378
 20
4.100874032274557
 30
0.0
 11
5.690954988709378
 21
6.940284317707628
 31
0.0
  0
LINE
  5
3384
330
1E
100
AcDbEntity
  8
7
100
AcDbLine
 10
5.641117764299929
 20
4.051036807865108
 30
0.0
 11
5.666036376504655
 21
4.057594337392667
 31
0.0
  0
LINE
  5
3385
330
1E
100
AcDbEntity
  8
7
100
AcDbLine
 10
5.666036376504655
 20
4.057594337392667
 30
0.0
 11
5.68439745918182
 21
4.075955420069833
 31
0.0
  0
LINE
  5
3386
330
1E
100
AcDbEntity
  8
7
100
AcDbLine
 10
5.68439745918182
 20
4.075955420069833
 30
0.0
 11
5.690954988709378
 21
4.100874032274557
 31
0.0
  0
LINE
  5
3387
330
1E
100
AcDbEntity
  8
7
100
AcDbLine
 10
5.690954988709378
 20
6.940284317707628
 30
0.0
 11
5.68439745918182
 21
6.965202929912353
 31
0.0
  0
LINE
  5
3388
330
1E
100
AcDbEntity
  8
7
100
AcDbLine
 10
5.68439745918182
 20
6.965202929912353
 30
0.0
 11
5.666036376504655
 21
6.983564012589517
 31
0.0
  0
LINE
  5
3389
330
1E
100
AcDbEntity
  8
7
100
AcDbLine
 10
5.666036376504655
 20
6.983564012589517
 30
0.0
 11
5.641117764299929
 21
6.990121542117076
 31
0.0
  0
LINE
  5
338A
330
1E
100
AcDbEntity
  8
7
100
AcDbLine
 10
5.957190687528276
 20
4.507440862983218
 30
0.0
 11
5.950633158000718
 21
4.4943258039281
 31
0.0
  0
LINE
  5
338B
330
1E
100
AcDbEntity
  8
7
100
AcDbLine
 10
5.950633158000718
 20
4.4943258039281
 30
0.0
 11
5.937518098945599
 21
4.487768274400542
 31
0.0
  0
LINE
  5
338C
330
1E
100
AcDbEntity
  8
7
100
AcDbLine
 10
5.957190687528276
 20
5.6602545539281
 30
0.0
 11
5.950633158000718
 21
5.647139494872981
 31
0.0
  0
LINE
  5
338D
330
1E
100
AcDbEntity
  8
7
100
AcDbLine
 10
5.950633158000718
 20
5.647139494872981
 30
0.0
 11
5.937518098945599
 21
5.640581965345423
 31
0.0
  0
LINE
  5
338E
330
1E
100
AcDbEntity
  8
7
100
AcDbLine
 10
5.85882774461489
 20
4.693674701565895
 30
0.0
 11
5.85882774461489
 21
4.664821571644636
 31
0.0
  0
LINE
  5
338F
330
1E
100
AcDbEntity
  8
7
100
AcDbLine
 10
5.85882774461489
 20
4.664821571644636
 30
0.0
 11
5.861450756425915
 21
4.659575548022589
 31
0.0
  0
LINE
  5
3390
330
1E
100
AcDbEntity
  8
7
100
AcDbLine
 10
5.861450756425915
 20
4.659575548022589
 30
0.0
 11
5.869319791858985
 21
4.642525971250934
 31
0.0
  0
LINE
  5
3391
330
1E
100
AcDbEntity
  8
7
100
AcDbLine
 10
5.869319791858985
 20
4.642525971250934
 30
0.0
 11
5.871942803670009
 21
4.624164888573769
 31
0.0
  0
LINE
  5
3392
330
1E
100
AcDbEntity
  8
7
100
AcDbLine
 10
5.871942803670009
 20
4.624164888573769
 30
0.0
 11
5.871942803670009
 21
4.612361335424163
 31
0.0
  0
LINE
  5
3393
330
1E
100
AcDbEntity
  8
7
100
AcDbLine
 10
5.871942803670009
 20
4.612361335424163
 30
0.0
 11
5.868008285953473
 21
4.601869288180069
 31
0.0
  0
LINE
  5
3394
330
1E
100
AcDbEntity
  8
7
100
AcDbLine
 10
5.868008285953473
 20
4.601869288180069
 30
0.0
 11
5.857516238709379
 21
4.597934770463533
 31
0.0
  0
LINE
  5
3395
330
1E
100
AcDbEntity
  8
7
100
AcDbLine
 10
5.878500333197568
 20
4.692363195660384
 30
0.0
 11
5.911287980835362
 21
4.6831826543218
 31
0.0
  0
LINE
  5
3396
330
1E
100
AcDbEntity
  8
7
100
AcDbLine
 10
5.911287980835362
 20
4.6831826543218
 30
0.0
 11
5.940141110756623
 21
4.663510065739123
 31
0.0
  0
LINE
  5
3397
330
1E
100
AcDbEntity
  8
7
100
AcDbLine
 10
6.022765982803868
 20
4.58088519369188
 30
0.0
 11
6.030635018236937
 21
4.56645862873125
 31
0.0
  0
LINE
  5
3398
330
1E
100
AcDbEntity
  8
7
100
AcDbLine
 10
6.030635018236937
 20
4.56645862873125
 30
0.0
 11
6.029323512331426
 21
4.549409051959596
 31
0.0
  0
LINE
  5
3399
330
1E
100
AcDbEntity
  8
7
100
AcDbLine
 10
6.029323512331426
 20
4.549409051959596
 30
0.0
 11
6.020142970992843
 21
4.536293992904478
 31
0.0
  0
LINE
  5
339A
330
1E
100
AcDbEntity
  8
7
100
AcDbLine
 10
6.020142970992843
 20
4.536293992904478
 30
0.0
 11
6.004404900126701
 21
4.531047969282431
 31
0.0
  0
LINE
  5
339B
330
1E
100
AcDbEntity
  8
7
100
AcDbLine
 10
5.399800677685757
 20
5.310082477156447
 30
0.0
 11
5.399800677685757
 21
5.272048805896604
 31
0.0
  0
LINE
  5
339C
330
1E
100
AcDbEntity
  8
7
100
AcDbLine
 10
5.399800677685757
 20
5.272048805896604
 30
0.0
 11
5.453572419811741
 21
5.272048805896604
 31
0.0
  0
LINE
  5
339D
330
1E
100
AcDbEntity
  8
7
100
AcDbLine
 10
5.85882774461489
 20
5.846488392510778
 30
0.0
 11
5.85882774461489
 21
5.817635262589517
 31
0.0
  0
LINE
  5
339E
330
1E
100
AcDbEntity
  8
7
100
AcDbLine
 10
5.85882774461489
 20
5.817635262589517
 30
0.0
 11
5.861450756425915
 21
5.81238923896747
 31
0.0
  0
LINE
  5
339F
330
1E
100
AcDbEntity
  8
7
100
AcDbLine
 10
5.861450756425915
 20
5.81238923896747
 30
0.0
 11
5.869319791858985
 21
5.795339662195817
 31
0.0
  0
LINE
  5
33A0
330
1E
100
AcDbEntity
  8
7
100
AcDbLine
 10
5.869319791858985
 20
5.795339662195817
 30
0.0
 11
5.871942803670009
 21
5.775667073613139
 31
0.0
  0
LINE
  5
33A1
330
1E
100
AcDbEntity
  8
7
100
AcDbLine
 10
5.871942803670009
 20
5.775667073613139
 30
0.0
 11
5.871942803670009
 21
5.765175026369044
 31
0.0
  0
LINE
  5
33A2
330
1E
100
AcDbEntity
  8
7
100
AcDbLine
 10
5.871942803670009
 20
5.765175026369044
 30
0.0
 11
5.868008285953473
 21
5.75468297912495
 31
0.0
  0
LINE
  5
33A3
330
1E
100
AcDbEntity
  8
7
100
AcDbLine
 10
5.868008285953473
 20
5.75468297912495
 30
0.0
 11
5.857516238709379
 21
5.749436955502903
 31
0.0
  0
LINE
  5
33A4
330
1E
100
AcDbEntity
  8
7
100
AcDbLine
 10
5.878500333197568
 20
5.845176886605265
 30
0.0
 11
5.911287980835362
 21
5.835996345266683
 31
0.0
  0
LINE
  5
33A5
330
1E
100
AcDbEntity
  8
7
100
AcDbLine
 10
5.911287980835362
 20
5.835996345266683
 30
0.0
 11
5.940141110756623
 21
5.816323756684005
 31
0.0
  0
LINE
  5
33A6
330
1E
100
AcDbEntity
  8
7
100
AcDbLine
 10
6.022765982803868
 20
5.733698884636761
 30
0.0
 11
6.030635018236937
 21
5.719272319676131
 31
0.0
  0
LINE
  5
33A7
330
1E
100
AcDbEntity
  8
7
100
AcDbLine
 10
6.030635018236937
 20
5.719272319676131
 30
0.0
 11
6.029323512331426
 21
5.702222742904478
 31
0.0
  0
LINE
  5
33A8
330
1E
100
AcDbEntity
  8
7
100
AcDbLine
 10
6.029323512331426
 20
5.702222742904478
 30
0.0
 11
6.020142970992843
 21
5.68910768384936
 31
0.0
  0
LINE
  5
33A9
330
1E
100
AcDbEntity
  8
7
100
AcDbLine
 10
6.020142970992843
 20
5.68910768384936
 30
0.0
 11
6.004404900126701
 21
5.683861660227312
 31
0.0
  0
LINE
  5
33AA
330
1E
100
AcDbEntity
  8
7
100
AcDbLine
 10
5.399800677685757
 20
6.462896168101329
 30
0.0
 11
5.399800677685757
 21
6.423550990935974
 31
0.0
  0
LINE
  5
33AB
330
1E
100
AcDbEntity
  8
7
100
AcDbLine
 10
5.399800677685757
 20
6.423550990935974
 30
0.0
 11
5.453572419811741
 21
6.424862496841486
 31
0.0
  0
LINE
  5
33AC
330
1E
100
AcDbEntity
  8
7
100
AcDbLine
 10
5.348651947370796
 20
4.213663540148573
 30
0.0
 11
5.348651947370796
 21
4.220221069676131
 31
0.0
  0
LINE
  5
33AD
330
1E
100
AcDbEntity
  8
7
100
AcDbLine
 10
5.348651947370796
 20
4.220221069676131
 30
0.0
 11
5.348651947370796
 21
4.238582152353297
 31
0.0
  0
LINE
  5
33AE
330
1E
100
AcDbEntity
  8
7
100
AcDbLine
 10
5.348651947370796
 20
4.238582152353297
 30
0.0
 11
5.348651947370796
 21
4.266123776369045
 31
0.0
  0
LINE
  5
33AF
330
1E
100
AcDbEntity
  8
7
100
AcDbLine
 10
5.348651947370796
 20
4.266123776369045
 30
0.0
 11
5.348651947370796
 21
4.297599918101328
 31
0.0
  0
LINE
  5
33B0
330
1E
100
AcDbEntity
  8
7
100
AcDbLine
 10
5.348651947370796
 20
6.743558431880856
 30
0.0
 11
5.348651947370796
 21
6.775034573613139
 31
0.0
  0
LINE
  5
33B1
330
1E
100
AcDbEntity
  8
7
100
AcDbLine
 10
5.348651947370796
 20
6.775034573613139
 30
0.0
 11
5.348651947370796
 21
6.802576197628887
 31
0.0
  0
LINE
  5
33B2
330
1E
100
AcDbEntity
  8
7
100
AcDbLine
 10
5.348651947370796
 20
6.802576197628887
 30
0.0
 11
5.348651947370796
 21
6.820937280306052
 31
0.0
  0
LINE
  5
33B3
330
1E
100
AcDbEntity
  8
7
100
AcDbLine
 10
5.348651947370796
 20
6.820937280306052
 30
0.0
 11
5.348651947370796
 21
6.827494809833612
 31
0.0
  0
LINE
  5
33B4
330
1E
100
AcDbEntity
  8
7
100
AcDbLine
 10
5.479802537921977
 20
4.1612033039281
 30
0.0
 11
5.496852114693631
 21
4.155957280306052
 31
0.0
  0
LINE
  5
33B5
330
1E
100
AcDbEntity
  8
7
100
AcDbLine
 10
5.496852114693631
 20
4.155957280306052
 30
0.0
 11
5.508655667843237
 21
4.141530715345423
 31
0.0
  0
LINE
  5
33B6
330
1E
100
AcDbEntity
  8
7
100
AcDbLine
 10
5.508655667843237
 20
4.141530715345423
 30
0.0
 11
5.509967173748749
 21
4.141530715345423
 31
0.0
  0
LINE
  5
33B7
330
1E
100
AcDbEntity
  8
7
100
AcDbLine
 10
5.462752961150323
 20
6.879955046054083
 30
0.0
 11
5.456195431622765
 21
6.877332034243061
 31
0.0
  0
LINE
  5
33B8
330
1E
100
AcDbEntity
  8
7
100
AcDbLine
 10
5.456195431622765
 20
6.877332034243061
 30
0.0
 11
5.453572419811741
 21
6.869462998809989
 31
0.0
  0
LINE
  5
33B9
330
1E
100
AcDbEntity
  8
7
100
AcDbLine
 10
5.453572419811741
 20
6.869462998809989
 30
0.0
 11
5.453572419811741
 21
4.171695351172195
 31
0.0
  0
LINE
  5
33BA
330
1E
100
AcDbEntity
  8
7
100
AcDbLine
 10
5.453572419811741
 20
4.171695351172195
 30
0.0
 11
5.456195431622765
 21
4.163826315739123
 31
0.0
  0
LINE
  5
33BB
330
1E
100
AcDbEntity
  8
7
100
AcDbLine
 10
5.456195431622765
 20
4.163826315739123
 30
0.0
 11
5.462752961150323
 21
4.1612033039281
 31
0.0
  0
LINE
  5
33BC
330
1E
100
AcDbEntity
  8
7
100
AcDbLine
 10
5.462752961150323
 20
4.1612033039281
 30
0.0
 11
5.479802537921977
 21
4.1612033039281
 31
0.0
  0
LINE
  5
33BD
330
1E
100
AcDbEntity
  8
7
100
AcDbLine
 10
5.509967173748749
 20
4.141530715345423
 30
0.0
 11
5.509967173748749
 21
6.899627634636761
 31
0.0
  0
LINE
  5
33BE
330
1E
100
AcDbEntity
  8
7
100
AcDbLine
 10
5.509967173748749
 20
6.899627634636761
 30
0.0
 11
5.508655667843237
 21
6.899627634636761
 31
0.0
  0
LINE
  5
33BF
330
1E
100
AcDbEntity
  8
7
100
AcDbLine
 10
5.508655667843237
 20
6.899627634636761
 30
0.0
 11
5.496852114693631
 21
6.885201069676131
 31
0.0
  0
LINE
  5
33C0
330
1E
100
AcDbEntity
  8
7
100
AcDbLine
 10
5.496852114693631
 20
6.885201069676131
 30
0.0
 11
5.479802537921977
 21
6.879955046054083
 31
0.0
  0
LINE
  5
33C1
330
1E
100
AcDbEntity
  8
7
100
AcDbLine
 10
5.534885785953473
 20
3.864802969282431
 30
0.0
 11
5.509967173748749
 21
3.88578706377062
 31
0.0
  0
LINE
  5
33C2
330
1E
100
AcDbEntity
  8
7
100
AcDbLine
 10
5.509967173748749
 20
3.88578706377062
 30
0.0
 11
5.509967173748749
 21
4.049725301959595
 31
0.0
  0
LINE
  5
33C3
330
1E
100
AcDbEntity
  8
7
100
AcDbLine
 10
5.509967173748749
 20
7.175043874794241
 30
0.0
 11
5.509967173748749
 21
7.155371286211565
 31
0.0
  0
LINE
  5
33C4
330
1E
100
AcDbEntity
  8
7
100
AcDbLine
 10
5.509967173748749
 20
7.155371286211565
 30
0.0
 11
5.534885785953473
 21
7.176355380699753
 31
0.0
  0
LINE
  5
33C5
330
1E
100
AcDbEntity
  8
7
100
AcDbLine
 10
5.509967173748749
 20
3.512007880699754
 30
0.0
 11
5.509967173748749
 21
3.538237998809989
 31
0.0
  0
LINE
  5
33C6
330
1E
100
AcDbEntity
  8
7
100
AcDbLine
 10
5.509967173748749
 20
3.538237998809989
 30
0.0
 11
5.509967173748749
 21
3.572337152353297
 31
0.0
  0
LINE
  5
33C7
330
1E
100
AcDbEntity
  8
7
100
AcDbLine
 10
5.509967173748749
 20
3.572337152353297
 30
0.0
 11
5.509967173748749
 21
3.611682329518651
 31
0.0
  0
LINE
  5
33C8
330
1E
100
AcDbEntity
  8
7
100
AcDbLine
 10
5.509967173748749
 20
3.611682329518651
 30
0.0
 11
5.509967173748749
 21
3.656273530306053
 31
0.0
  0
LINE
  5
33C9
330
1E
100
AcDbEntity
  8
7
100
AcDbLine
 10
5.509967173748749
 20
3.656273530306053
 30
0.0
 11
5.509967173748749
 21
3.700864731093454
 31
0.0
  0
LINE
  5
33CA
330
1E
100
AcDbEntity
  8
7
100
AcDbLine
 10
5.509967173748749
 20
3.700864731093454
 30
0.0
 11
5.509967173748749
 21
3.744144425975345
 31
0.0
  0
LINE
  5
33CB
330
1E
100
AcDbEntity
  8
7
100
AcDbLine
 10
5.509967173748749
 20
3.744144425975345
 30
0.0
 11
5.509967173748749
 21
3.784801109046211
 31
0.0
  0
LINE
  5
33CC
330
1E
100
AcDbEntity
  8
7
100
AcDbLine
 10
5.509967173748749
 20
3.784801109046211
 30
0.0
 11
5.509967173748749
 21
3.818900262589517
 31
0.0
  0
LINE
  5
33CD
330
1E
100
AcDbEntity
  8
7
100
AcDbLine
 10
5.509967173748749
 20
3.818900262589517
 30
0.0
 11
5.509967173748749
 21
3.843818874794242
 31
0.0
  0
LINE
  5
33CE
330
1E
100
AcDbEntity
  8
7
100
AcDbLine
 10
5.509967173748749
 20
3.843818874794242
 30
0.0
 11
5.509967173748749
 21
3.859556945660384
 31
0.0
  0
LINE
  5
33CF
330
1E
100
AcDbEntity
  8
7
100
AcDbLine
 10
5.509967173748749
 20
3.859556945660384
 30
0.0
 11
5.509967173748749
 21
3.866114475187942
 31
0.0
  0
LINE
  5
33D0
330
1E
100
AcDbEntity
  8
7
100
AcDbLine
 10
5.509967173748749
 20
3.491023786211564
 30
0.0
 11
5.509967173748749
 21
3.496269809833612
 31
0.0
  0
LINE
  5
33D1
330
1E
100
AcDbEntity
  8
7
100
AcDbLine
 10
5.509967173748749
 20
3.496269809833612
 30
0.0
 11
5.509967173748749
 21
3.512007880699754
 31
0.0
  0
LINE
  5
33D2
330
1E
100
AcDbEntity
  8
7
100
AcDbLine
 10
5.59783806941804
 20
3.492335292117076
 30
0.0
 11
5.59783806941804
 21
3.497581315739123
 31
0.0
  0
LINE
  5
33D3
330
1E
100
AcDbEntity
  8
7
100
AcDbLine
 10
5.59783806941804
 20
3.497581315739123
 30
0.0
 11
5.59783806941804
 21
3.513319386605265
 31
0.0
  0
LINE
  5
33D4
330
1E
100
AcDbEntity
  8
7
100
AcDbLine
 10
5.59783806941804
 20
3.513319386605265
 30
0.0
 11
5.59783806941804
 21
3.539549504715501
 31
0.0
  0
LINE
  5
33D5
330
1E
100
AcDbEntity
  8
7
100
AcDbLine
 10
5.59783806941804
 20
3.539549504715501
 30
0.0
 11
5.59783806941804
 21
3.572337152353297
 31
0.0
  0
LINE
  5
33D6
330
1E
100
AcDbEntity
  8
7
100
AcDbLine
 10
5.59783806941804
 20
3.572337152353297
 30
0.0
 11
5.59783806941804
 21
3.612993835424163
 31
0.0
  0
LINE
  5
33D7
330
1E
100
AcDbEntity
  8
7
100
AcDbLine
 10
5.59783806941804
 20
3.612993835424163
 30
0.0
 11
5.59783806941804
 21
3.656273530306053
 31
0.0
  0
LINE
  5
33D8
330
1E
100
AcDbEntity
  8
7
100
AcDbLine
 10
5.59783806941804
 20
3.656273530306053
 30
0.0
 11
5.59783806941804
 21
3.700864731093454
 31
0.0
  0
LINE
  5
33D9
330
1E
100
AcDbEntity
  8
7
100
AcDbLine
 10
5.59783806941804
 20
3.700864731093454
 30
0.0
 11
5.59783806941804
 21
3.744144425975345
 31
0.0
  0
LINE
  5
33DA
330
1E
100
AcDbEntity
  8
7
100
AcDbLine
 10
5.59783806941804
 20
3.744144425975345
 30
0.0
 11
5.59783806941804
 21
3.783489603140698
 31
0.0
  0
LINE
  5
33DB
330
1E
100
AcDbEntity
  8
7
100
AcDbLine
 10
5.59783806941804
 20
3.783489603140698
 30
0.0
 11
5.59783806941804
 21
3.817588756684005
 31
0.0
  0
LINE
  5
33DC
330
1E
100
AcDbEntity
  8
7
100
AcDbLine
 10
5.59783806941804
 20
3.817588756684005
 30
0.0
 11
5.59783806941804
 21
3.84250736888873
 31
0.0
  0
LINE
  5
33DD
330
1E
100
AcDbEntity
  8
7
100
AcDbLine
 10
5.59783806941804
 20
3.84250736888873
 30
0.0
 11
5.59783806941804
 21
3.858245439754872
 31
0.0
  0
LINE
  5
33DE
330
1E
100
AcDbEntity
  8
7
100
AcDbLine
 10
5.59783806941804
 20
3.858245439754872
 30
0.0
 11
5.59783806941804
 21
3.863491463376919
 31
0.0
  0
LINE
  5
33DF
330
1E
100
AcDbEntity
  8
7
100
AcDbLine
 10
5.509967173748749
 20
7.175043874794241
 30
0.0
 11
5.509967173748749
 21
7.181601404321801
 31
0.0
  0
LINE
  5
33E0
330
1E
100
AcDbEntity
  8
7
100
AcDbLine
 10
5.509967173748749
 20
7.181601404321801
 30
0.0
 11
5.509967173748749
 21
7.197339475187942
 31
0.0
  0
LINE
  5
33E1
330
1E
100
AcDbEntity
  8
7
100
AcDbLine
 10
5.509967173748749
 20
7.197339475187942
 30
0.0
 11
5.509967173748749
 21
7.222258087392667
 31
0.0
  0
LINE
  5
33E2
330
1E
100
AcDbEntity
  8
7
100
AcDbLine
 10
5.509967173748749
 20
7.222258087392667
 30
0.0
 11
5.509967173748749
 21
7.256357240935974
 31
0.0
  0
LINE
  5
33E3
330
1E
100
AcDbEntity
  8
7
100
AcDbLine
 10
5.509967173748749
 20
7.256357240935974
 30
0.0
 11
5.509967173748749
 21
7.29701392400684
 31
0.0
  0
LINE
  5
33E4
330
1E
100
AcDbEntity
  8
7
100
AcDbLine
 10
5.509967173748749
 20
7.29701392400684
 30
0.0
 11
5.509967173748749
 21
7.34029361888873
 31
0.0
  0
LINE
  5
33E5
330
1E
100
AcDbEntity
  8
7
100
AcDbLine
 10
5.509967173748749
 20
7.34029361888873
 30
0.0
 11
5.509967173748749
 21
7.384884819676131
 31
0.0
  0
LINE
  5
33E6
330
1E
100
AcDbEntity
  8
7
100
AcDbLine
 10
5.509967173748749
 20
7.384884819676131
 30
0.0
 11
5.509967173748749
 21
7.429476020463534
 31
0.0
  0
LINE
  5
33E7
330
1E
100
AcDbEntity
  8
7
100
AcDbLine
 10
5.509967173748749
 20
7.429476020463534
 30
0.0
 11
5.509967173748749
 21
7.468821197628887
 31
0.0
  0
LINE
  5
33E8
330
1E
100
AcDbEntity
  8
7
100
AcDbLine
 10
5.509967173748749
 20
7.468821197628887
 30
0.0
 11
5.509967173748749
 21
7.502920351172194
 31
0.0
  0
LINE
  5
33E9
330
1E
100
AcDbEntity
  8
7
100
AcDbLine
 10
5.509967173748749
 20
7.502920351172194
 30
0.0
 11
5.509967173748749
 21
7.529150469282431
 31
0.0
  0
LINE
  5
33EA
330
1E
100
AcDbEntity
  8
7
100
AcDbLine
 10
5.509967173748749
 20
7.529150469282431
 30
0.0
 11
5.509967173748749
 21
7.544888540148573
 31
0.0
  0
LINE
  5
33EB
330
1E
100
AcDbEntity
  8
7
100
AcDbLine
 10
5.509967173748749
 20
7.544888540148573
 30
0.0
 11
5.509967173748749
 21
7.55013456377062
 31
0.0
  0
LINE
  5
33EC
330
1E
100
AcDbEntity
  8
7
100
AcDbLine
 10
5.59783806941804
 20
7.468821197628887
 30
0.0
 11
5.59783806941804
 21
7.501608845266683
 31
0.0
  0
LINE
  5
33ED
330
1E
100
AcDbEntity
  8
7
100
AcDbLine
 10
5.59783806941804
 20
7.501608845266683
 30
0.0
 11
5.59783806941804
 21
7.527838963376919
 31
0.0
  0
LINE
  5
33EE
330
1E
100
AcDbEntity
  8
7
100
AcDbLine
 10
5.59783806941804
 20
7.527838963376919
 30
0.0
 11
5.59783806941804
 21
7.543577034243061
 31
0.0
  0
LINE
  5
33EF
330
1E
100
AcDbEntity
  8
7
100
AcDbLine
 10
5.59783806941804
 20
7.543577034243061
 30
0.0
 11
5.59783806941804
 21
7.548823057865108
 31
0.0
  0
LINE
  5
33F0
330
1E
100
AcDbEntity
  8
7
100
AcDbLine
 10
5.59783806941804
 20
7.177666886605265
 30
0.0
 11
5.59783806941804
 21
7.182912910227312
 31
0.0
  0
LINE
  5
33F1
330
1E
100
AcDbEntity
  8
7
100
AcDbLine
 10
5.59783806941804
 20
7.182912910227312
 30
0.0
 11
5.59783806941804
 21
7.198650981093454
 31
0.0
  0
LINE
  5
33F2
330
1E
100
AcDbEntity
  8
7
100
AcDbLine
 10
5.59783806941804
 20
7.198650981093454
 30
0.0
 11
5.59783806941804
 21
7.223569593298178
 31
0.0
  0
LINE
  5
33F3
330
1E
100
AcDbEntity
  8
7
100
AcDbLine
 10
5.59783806941804
 20
7.223569593298178
 30
0.0
 11
5.59783806941804
 21
7.257668746841486
 31
0.0
  0
LINE
  5
33F4
330
1E
100
AcDbEntity
  8
7
100
AcDbLine
 10
5.59783806941804
 20
7.257668746841486
 30
0.0
 11
5.59783806941804
 21
7.29701392400684
 31
0.0
  0
LINE
  5
33F5
330
1E
100
AcDbEntity
  8
7
100
AcDbLine
 10
5.59783806941804
 20
7.29701392400684
 30
0.0
 11
5.59783806941804
 21
7.34029361888873
 31
0.0
  0
LINE
  5
33F6
330
1E
100
AcDbEntity
  8
7
100
AcDbLine
 10
5.59783806941804
 20
7.34029361888873
 30
0.0
 11
5.59783806941804
 21
7.384884819676131
 31
0.0
  0
LINE
  5
33F7
330
1E
100
AcDbEntity
  8
7
100
AcDbLine
 10
5.59783806941804
 20
7.384884819676131
 30
0.0
 11
5.59783806941804
 21
7.428164514558021
 31
0.0
  0
LINE
  5
33F8
330
1E
100
AcDbEntity
  8
7
100
AcDbLine
 10
5.59783806941804
 20
7.428164514558021
 30
0.0
 11
5.59783806941804
 21
7.468821197628887
 31
0.0
  0
LINE
  5
3595
330
1E
100
AcDbEntity
  8
7
100
AcDbLine
 10
0.7478892308353631
 20
6.869462998809989
 30
0.0
 11
0.7478892308353631
 21
6.877332034243061
 31
0.0
  0
LINE
  5
3596
330
1E
100
AcDbEntity
  8
7
100
AcDbLine
 10
0.7478892308353631
 20
6.877332034243061
 30
0.0
 11
0.7478892308353631
 21
6.879955046054083
 31
0.0
  0
LINE
  5
3597
330
1E
100
AcDbEntity
  8
7
100
AcDbLine
 10
0.7478892308353631
 20
4.1612033039281
 30
0.0
 11
0.7478892308353631
 21
4.163826315739123
 31
0.0
  0
LINE
  5
3598
330
1E
100
AcDbEntity
  8
7
100
AcDbLine
 10
0.7478892308353631
 20
4.163826315739123
 30
0.0
 11
0.7478892308353631
 21
4.171695351172195
 31
0.0
  0
LINE
  5
3599
330
1E
100
AcDbEntity
  8
7
100
AcDbLine
 10
0.7478892308353631
 20
4.141530715345423
 30
0.0
 11
0.7478892308353631
 21
4.155957280306052
 31
0.0
  0
LINE
  5
359A
330
1E
100
AcDbEntity
  8
7
100
AcDbLine
 10
0.7478892308353631
 20
4.155957280306052
 30
0.0
 11
0.7478892308353631
 21
4.1612033039281
 31
0.0
  0
LINE
  5
359B
330
1E
100
AcDbEntity
  8
7
100
AcDbLine
 10
2.204972291858985
 20
6.869462998809989
 30
0.0
 11
0.7478892308353631
 21
6.869462998809989
 31
0.0
  0
LINE
  5
359C
330
1E
100
AcDbEntity
  8
7
100
AcDbLine
 10
0.7478892308353631
 20
6.869462998809989
 30
0.0
 11
0.7478892308353631
 21
4.171695351172195
 31
0.0
  0
LINE
  5
359D
330
1E
100
AcDbEntity
  8
7
100
AcDbLine
 10
0.7478892308353631
 20
4.171695351172195
 30
0.0
 11
2.204972291858985
 21
4.171695351172195
 31
0.0
  0
LINE
  5
359E
330
1E
100
AcDbEntity
  8
7
100
AcDbLine
 10
2.041034053670008
 20
6.830117821644636
 30
0.0
 11
2.073821701307804
 21
6.823560292117075
 31
0.0
  0
LINE
  5
359F
330
1E
100
AcDbEntity
  8
7
100
AcDbLine
 10
2.073821701307804
 20
6.823560292117075
 30
0.0
 11
2.101363325323553
 21
6.805199209439911
 31
0.0
  0
LINE
  5
35A0
330
1E
100
AcDbEntity
  8
7
100
AcDbLine
 10
2.101363325323553
 20
6.805199209439911
 30
0.0
 11
2.119724408000718
 21
6.777657585424163
 31
0.0
  0
LINE
  5
35A1
330
1E
100
AcDbEntity
  8
7
100
AcDbLine
 10
2.119724408000718
 20
6.777657585424163
 30
0.0
 11
2.126281937528276
 21
6.744869937786368
 31
0.0
  0
LINE
  5
35A2
330
1E
100
AcDbEntity
  8
7
100
AcDbLine
 10
0.8265795851660717
 20
6.744869937786368
 30
0.0
 11
0.8331371146936312
 21
6.777657585424163
 31
0.0
  0
LINE
  5
35A3
330
1E
100
AcDbEntity
  8
7
100
AcDbLine
 10
0.8331371146936312
 20
6.777657585424163
 30
0.0
 11
0.8514981973707964
 21
6.805199209439911
 31
0.0
  0
LINE
  5
35A4
330
1E
100
AcDbEntity
  8
7
100
AcDbLine
 10
0.8514981973707964
 20
6.805199209439911
 30
0.0
 11
0.8790398213865442
 21
6.823560292117075
 31
0.0
  0
LINE
  5
35A5
330
1E
100
AcDbEntity
  8
7
100
AcDbLine
 10
0.8790398213865442
 20
6.823560292117075
 30
0.0
 11
0.9118274690243396
 21
6.830117821644636
 31
0.0
  0
LINE
  5
35A6
330
1E
100
AcDbEntity
  8
7
100
AcDbLine
 10
0.9118274690243396
 20
4.211040528337548
 30
0.0
 11
0.8790398213865442
 21
4.217598057865108
 31
0.0
  0
LINE
  5
35A7
330
1E
100
AcDbEntity
  8
7
100
AcDbLine
 10
0.8790398213865442
 20
4.217598057865108
 30
0.0
 11
0.8514981973707964
 21
4.235959140542273
 31
0.0
  0
LINE
  5
35A8
330
1E
100
AcDbEntity
  8
7
100
AcDbLine
 10
0.8514981973707964
 20
4.235959140542273
 30
0.0
 11
0.8331371146936312
 21
4.263500764558022
 31
0.0
  0
LINE
  5
35A9
330
1E
100
AcDbEntity
  8
7
100
AcDbLine
 10
0.8331371146936312
 20
4.263500764558022
 30
0.0
 11
0.8265795851660717
 21
4.296288412195817
 31
0.0
  0
LINE
  5
35AA
330
1E
100
AcDbEntity
  8
7
100
AcDbLine
 10
2.101363325323553
 20
4.235959140542273
 30
0.0
 11
2.073821701307804
 21
4.217598057865108
 31
0.0
  0
LINE
  5
35AB
330
1E
100
AcDbEntity
  8
7
100
AcDbLine
 10
2.073821701307804
 20
4.217598057865108
 30
0.0
 11
2.041034053670008
 21
4.211040528337548
 31
0.0
  0
LINE
  5
35AC
330
1E
100
AcDbEntity
  8
7
100
AcDbLine
 10
2.126281937528276
 20
4.296288412195817
 30
0.0
 11
2.119724408000718
 21
4.263500764558022
 31
0.0
  0
LINE
  5
35AD
330
1E
100
AcDbEntity
  8
7
100
AcDbLine
 10
2.119724408000718
 20
4.263500764558022
 30
0.0
 11
2.101363325323553
 21
4.235959140542273
 31
0.0
  0
LINE
  5
35AE
330
1E
100
AcDbEntity
  8
7
100
AcDbLine
 10
1.742010707213315
 20
7.437345055896603
 30
0.0
 11
1.721026612725127
 21
7.446525597235186
 31
0.0
  0
LINE
  5
35AF
330
1E
100
AcDbEntity
  8
7
100
AcDbLine
 10
1.721026612725127
 20
7.446525597235186
 30
0.0
 11
1.626598187528276
 21
7.540954022432037
 31
0.0
  0
LINE
  5
35B0
330
1E
100
AcDbEntity
  8
7
100
AcDbLine
 10
1.626598187528276
 20
7.540954022432037
 30
0.0
 11
1.605614093040087
 21
7.55013456377062
 31
0.0
  0
LINE
  5
35B1
330
1E
100
AcDbEntity
  8
7
100
AcDbLine
 10
1.231834909969221
 20
7.446525597235186
 30
0.0
 11
1.210850815481032
 21
7.437345055896603
 31
0.0
  0
LINE
  5
35B2
330
1E
100
AcDbEntity
  8
7
100
AcDbLine
 10
1.210850815481032
 20
7.437345055896603
 30
0.0
 11
1.189866720992843
 21
7.437345055896603
 31
0.0
  0
LINE
  5
35B3
330
1E
100
AcDbEntity
  8
7
100
AcDbLine
 10
0.8278910910715836
 20
5.310082477156447
 30
0.0
 11
1.07183118949678
 21
5.310082477156447
 31
0.0
  0
LINE
  5
35B4
330
1E
100
AcDbEntity
  8
7
100
AcDbLine
 10
1.07183118949678
 20
5.310082477156447
 30
0.0
 11
1.07183118949678
 21
5.272048805896604
 31
0.0
  0
LINE
  5
35B5
330
1E
100
AcDbEntity
  8
7
100
AcDbLine
 10
1.056093118630638
 20
4.659575548022589
 30
0.0
 11
1.05740462453615
 21
4.642525971250934
 31
0.0
  0
LINE
  5
35B6
330
1E
100
AcDbEntity
  8
7
100
AcDbLine
 10
1.05740462453615
 20
4.642525971250934
 30
0.0
 11
1.05740462453615
 21
4.624164888573769
 31
0.0
  0
LINE
  5
35B7
330
1E
100
AcDbEntity
  8
7
100
AcDbLine
 10
1.05740462453615
 20
4.612361335424163
 30
0.0
 11
1.05740462453615
 21
4.601869288180069
 31
0.0
  0
LINE
  5
35B8
330
1E
100
AcDbEntity
  8
7
100
AcDbLine
 10
1.05740462453615
 20
4.601869288180069
 30
0.0
 11
1.056093118630638
 21
4.597934770463533
 31
0.0
  0
LINE
  5
35B9
330
1E
100
AcDbEntity
  8
7
100
AcDbLine
 10
1.261999545795993
 20
4.597934770463533
 30
0.0
 11
1.261999545795993
 21
4.601869288180069
 31
0.0
  0
LINE
  5
35BA
330
1E
100
AcDbEntity
  8
7
100
AcDbLine
 10
1.261999545795993
 20
4.601869288180069
 30
0.0
 11
1.261999545795993
 21
4.612361335424163
 31
0.0
  0
LINE
  5
35BB
330
1E
100
AcDbEntity
  8
7
100
AcDbLine
 10
1.403642183591268
 20
4.650395006684005
 30
0.0
 11
1.403642183591268
 21
4.586131217313927
 31
0.0
  0
LINE
  5
35BC
330
1E
100
AcDbEntity
  8
7
100
AcDbLine
 10
1.403642183591268
 20
4.586131217313927
 30
0.0
 11
1.286918158000717
 21
4.586131217313927
 31
0.0
  0
LINE
  5
35BD
330
1E
100
AcDbEntity
  8
7
100
AcDbLine
 10
1.896768404063709
 20
4.693674701565895
 30
0.0
 11
1.896768404063709
 21
4.664821571644636
 31
0.0
  0
LINE
  5
35BE
330
1E
100
AcDbEntity
  8
7
100
AcDbLine
 10
1.896768404063709
 20
4.664821571644636
 30
0.0
 11
1.896768404063709
 21
4.659575548022589
 31
0.0
  0
LINE
  5
35BF
330
1E
100
AcDbEntity
  8
7
100
AcDbLine
 10
1.896768404063709
 20
4.659575548022589
 30
0.0
 11
1.896768404063709
 21
4.642525971250934
 31
0.0
  0
LINE
  5
35C0
330
1E
100
AcDbEntity
  8
7
100
AcDbLine
 10
1.896768404063709
 20
4.642525971250934
 30
0.0
 11
1.896768404063709
 21
4.624164888573769
 31
0.0
  0
LINE
  5
35C1
330
1E
100
AcDbEntity
  8
7
100
AcDbLine
 10
1.896768404063709
 20
4.624164888573769
 30
0.0
 11
1.896768404063709
 21
4.612361335424163
 31
0.0
  0
LINE
  5
35C2
330
1E
100
AcDbEntity
  8
7
100
AcDbLine
 10
1.896768404063709
 20
4.612361335424163
 30
0.0
 11
1.896768404063709
 21
4.601869288180069
 31
0.0
  0
LINE
  5
35C3
330
1E
100
AcDbEntity
  8
7
100
AcDbLine
 10
1.896768404063709
 20
4.601869288180069
 30
0.0
 11
1.896768404063709
 21
4.597934770463533
 31
0.0
  0
LINE
  5
35C4
330
1E
100
AcDbEntity
  8
7
100
AcDbLine
 10
1.692173482803867
 20
4.624164888573769
 30
0.0
 11
1.692173482803867
 21
4.642525971250934
 31
0.0
  0
LINE
  5
35C5
330
1E
100
AcDbEntity
  8
7
100
AcDbLine
 10
1.692173482803867
 20
4.642525971250934
 30
0.0
 11
1.690861976898355
 21
4.659575548022589
 31
0.0
  0
LINE
  5
35C6
330
1E
100
AcDbEntity
  8
7
100
AcDbLine
 10
1.690861976898355
 20
4.659575548022589
 30
0.0
 11
1.690861976898355
 21
4.664821571644636
 31
0.0
  0
LINE
  5
35C7
330
1E
100
AcDbEntity
  8
7
100
AcDbLine
 10
1.690861976898355
 20
4.597934770463533
 30
0.0
 11
1.690861976898355
 21
4.601869288180069
 31
0.0
  0
LINE
  5
35C8
330
1E
100
AcDbEntity
  8
7
100
AcDbLine
 10
1.690861976898355
 20
4.601869288180069
 30
0.0
 11
1.692173482803867
 21
4.612361335424163
 31
0.0
  0
LINE
  5
35C9
330
1E
100
AcDbEntity
  8
7
100
AcDbLine
 10
1.667254870599143
 20
4.586131217313927
 30
0.0
 11
1.549219339103079
 21
4.586131217313927
 31
0.0
  0
LINE
  5
35CA
330
1E
100
AcDbEntity
  8
7
100
AcDbLine
 10
1.549219339103079
 20
4.586131217313927
 30
0.0
 11
1.547907833197568
 21
4.583508205502903
 31
0.0
  0
LINE
  5
35CB
330
1E
100
AcDbEntity
  8
7
100
AcDbLine
 10
2.038411041858985
 20
4.650395006684005
 30
0.0
 11
2.038411041858985
 21
4.586131217313927
 31
0.0
  0
LINE
  5
35CC
330
1E
100
AcDbEntity
  8
7
100
AcDbLine
 10
2.038411041858985
 20
4.586131217313927
 30
0.0
 11
1.921687016268434
 21
4.586131217313927
 31
0.0
  0
LINE
  5
35CD
330
1E
100
AcDbEntity
  8
7
100
AcDbLine
 10
1.056093118630638
 20
5.81238923896747
 30
0.0
 11
1.05740462453615
 21
5.795339662195817
 31
0.0
  0
LINE
  5
35CE
330
1E
100
AcDbEntity
  8
7
100
AcDbLine
 10
1.05740462453615
 20
5.795339662195817
 30
0.0
 11
1.05740462453615
 21
5.775667073613139
 31
0.0
  0
LINE
  5
35CF
330
1E
100
AcDbEntity
  8
7
100
AcDbLine
 10
1.261999545795993
 20
5.749436955502903
 30
0.0
 11
1.261999545795993
 21
5.75468297912495
 31
0.0
  0
LINE
  5
35D0
330
1E
100
AcDbEntity
  8
7
100
AcDbLine
 10
1.261999545795993
 20
5.75468297912495
 30
0.0
 11
1.261999545795993
 21
5.765175026369044
 31
0.0
  0
LINE
  5
35D1
330
1E
100
AcDbEntity
  8
7
100
AcDbLine
 10
1.261999545795993
 20
5.775667073613139
 30
0.0
 11
1.261999545795993
 21
5.795339662195817
 31
0.0
  0
LINE
  5
35D2
330
1E
100
AcDbEntity
  8
7
100
AcDbLine
 10
1.261999545795993
 20
5.795339662195817
 30
0.0
 11
1.261999545795993
 21
5.81238923896747
 31
0.0
  0
LINE
  5
35D3
330
1E
100
AcDbEntity
  8
7
100
AcDbLine
 10
1.403642183591268
 20
5.803208697628887
 30
0.0
 11
1.403642183591268
 21
5.737633402353297
 31
0.0
  0
LINE
  5
35D4
330
1E
100
AcDbEntity
  8
7
100
AcDbLine
 10
1.403642183591268
 20
5.737633402353297
 30
0.0
 11
1.286918158000717
 21
5.737633402353297
 31
0.0
  0
LINE
  5
35D5
330
1E
100
AcDbEntity
  8
7
100
AcDbLine
 10
1.896768404063709
 20
5.846488392510778
 30
0.0
 11
1.896768404063709
 21
5.817635262589517
 31
0.0
  0
LINE
  5
35D6
330
1E
100
AcDbEntity
  8
7
100
AcDbLine
 10
1.896768404063709
 20
5.817635262589517
 30
0.0
 11
1.896768404063709
 21
5.81238923896747
 31
0.0
  0
LINE
  5
35D7
330
1E
100
AcDbEntity
  8
7
100
AcDbLine
 10
1.896768404063709
 20
5.81238923896747
 30
0.0
 11
1.896768404063709
 21
5.795339662195817
 31
0.0
  0
LINE
  5
35D8
330
1E
100
AcDbEntity
  8
7
100
AcDbLine
 10
1.896768404063709
 20
5.795339662195817
 30
0.0
 11
1.896768404063709
 21
5.775667073613139
 31
0.0
  0
LINE
  5
35D9
330
1E
100
AcDbEntity
  8
7
100
AcDbLine
 10
1.896768404063709
 20
5.775667073613139
 30
0.0
 11
1.896768404063709
 21
5.765175026369044
 31
0.0
  0
LINE
  5
35DA
330
1E
100
AcDbEntity
  8
7
100
AcDbLine
 10
1.896768404063709
 20
5.765175026369044
 30
0.0
 11
1.896768404063709
 21
5.75468297912495
 31
0.0
  0
LINE
  5
35DB
330
1E
100
AcDbEntity
  8
7
100
AcDbLine
 10
1.896768404063709
 20
5.75468297912495
 30
0.0
 11
1.896768404063709
 21
5.749436955502903
 31
0.0
  0
LINE
  5
35DC
330
1E
100
AcDbEntity
  8
7
100
AcDbLine
 10
1.692173482803867
 20
5.775667073613139
 30
0.0
 11
1.692173482803867
 21
5.795339662195817
 31
0.0
  0
LINE
  5
35DD
330
1E
100
AcDbEntity
  8
7
100
AcDbLine
 10
1.692173482803867
 20
5.795339662195817
 30
0.0
 11
1.690861976898355
 21
5.81238923896747
 31
0.0
  0
LINE
  5
35DE
330
1E
100
AcDbEntity
  8
7
100
AcDbLine
 10
1.690861976898355
 20
5.81238923896747
 30
0.0
 11
1.690861976898355
 21
5.817635262589517
 31
0.0
  0
LINE
  5
35DF
330
1E
100
AcDbEntity
  8
7
100
AcDbLine
 10
1.690861976898355
 20
5.749436955502903
 30
0.0
 11
1.690861976898355
 21
5.75468297912495
 31
0.0
  0
LINE
  5
35E0
330
1E
100
AcDbEntity
  8
7
100
AcDbLine
 10
1.690861976898355
 20
5.75468297912495
 30
0.0
 11
1.692173482803867
 21
5.765175026369044
 31
0.0
  0
LINE
  5
35E1
330
1E
100
AcDbEntity
  8
7
100
AcDbLine
 10
1.667254870599143
 20
5.737633402353297
 30
0.0
 11
1.549219339103079
 21
5.737633402353297
 31
0.0
  0
LINE
  5
35E2
330
1E
100
AcDbEntity
  8
7
100
AcDbLine
 10
1.549219339103079
 20
5.737633402353297
 30
0.0
 11
1.547907833197568
 21
5.736321896447786
 31
0.0
  0
LINE
  5
35E3
330
1E
100
AcDbEntity
  8
7
100
AcDbLine
 10
2.038411041858985
 20
5.803208697628887
 30
0.0
 11
2.038411041858985
 21
5.737633402353297
 31
0.0
  0
LINE
  5
35E4
330
1E
100
AcDbEntity
  8
7
100
AcDbLine
 10
2.038411041858985
 20
5.737633402353297
 30
0.0
 11
1.921687016268434
 21
5.737633402353297
 31
0.0
  0
LINE
  5
35E5
330
1E
100
AcDbEntity
  8
7
100
AcDbLine
 10
1.40495368949678
 20
4.583508205502903
 30
0.0
 11
0.913138974929852
 21
4.583508205502903
 31
0.0
  0
LINE
  5
35E6
330
1E
100
AcDbEntity
  8
7
100
AcDbLine
 10
0.913138974929852
 20
4.583508205502903
 30
0.0
 11
0.913138974929852
 21
4.649083500778495
 31
0.0
  0
LINE
  5
35E7
330
1E
100
AcDbEntity
  8
7
100
AcDbLine
 10
0.913138974929852
 20
4.649083500778495
 30
0.0
 11
0.8292025969770961
 21
4.649083500778495
 31
0.0
  0
LINE
  5
35E8
330
1E
100
AcDbEntity
  8
7
100
AcDbLine
 10
0.8292025969770961
 20
4.297599918101328
 30
0.0
 11
0.8357601265046547
 21
4.266123776369045
 31
0.0
  0
LINE
  5
35E9
330
1E
100
AcDbEntity
  8
7
100
AcDbLine
 10
0.8357601265046547
 20
4.266123776369045
 30
0.0
 11
0.8541212091818199
 21
4.238582152353297
 31
0.0
  0
LINE
  5
35EA
330
1E
100
AcDbEntity
  8
7
100
AcDbLine
 10
0.8541212091818199
 20
4.238582152353297
 30
0.0
 11
0.8816628331975682
 21
4.220221069676131
 31
0.0
  0
LINE
  5
35EB
330
1E
100
AcDbEntity
  8
7
100
AcDbLine
 10
0.8816628331975682
 20
4.220221069676131
 30
0.0
 11
0.914450480835363
 21
4.213663540148573
 31
0.0
  0
LINE
  5
35EC
330
1E
100
AcDbEntity
  8
7
100
AcDbLine
 10
0.914450480835363
 20
4.213663540148573
 30
0.0
 11
2.039722547764497
 21
4.213663540148573
 31
0.0
  0
LINE
  5
35ED
330
1E
100
AcDbEntity
  8
7
100
AcDbLine
 10
2.039722547764497
 20
4.213663540148573
 30
0.0
 11
2.072510195402292
 21
4.220221069676131
 31
0.0
  0
LINE
  5
35EE
330
1E
100
AcDbEntity
  8
7
100
AcDbLine
 10
2.072510195402292
 20
4.220221069676131
 30
0.0
 11
2.10005181941804
 21
4.238582152353297
 31
0.0
  0
LINE
  5
35EF
330
1E
100
AcDbEntity
  8
7
100
AcDbLine
 10
2.10005181941804
 20
4.238582152353297
 30
0.0
 11
2.118412902095205
 21
4.266123776369045
 31
0.0
  0
LINE
  5
35F0
330
1E
100
AcDbEntity
  8
7
100
AcDbLine
 10
2.118412902095205
 20
4.266123776369045
 30
0.0
 11
2.124970431622765
 21
4.297599918101328
 31
0.0
  0
LINE
  5
35F1
330
1E
100
AcDbEntity
  8
7
100
AcDbLine
 10
2.124970431622765
 20
6.743558431880856
 30
0.0
 11
2.118412902095205
 21
6.775034573613139
 31
0.0
  0
LINE
  5
35F2
330
1E
100
AcDbEntity
  8
7
100
AcDbLine
 10
2.118412902095205
 20
6.775034573613139
 30
0.0
 11
2.10005181941804
 21
6.802576197628887
 31
0.0
  0
LINE
  5
35F3
330
1E
100
AcDbEntity
  8
7
100
AcDbLine
 10
2.10005181941804
 20
6.802576197628887
 30
0.0
 11
2.072510195402292
 21
6.820937280306052
 31
0.0
  0
LINE
  5
35F4
330
1E
100
AcDbEntity
  8
7
100
AcDbLine
 10
2.072510195402292
 20
6.820937280306052
 30
0.0
 11
2.039722547764497
 21
6.827494809833612
 31
0.0
  0
LINE
  5
35F5
330
1E
100
AcDbEntity
  8
7
100
AcDbLine
 10
2.039722547764497
 20
6.827494809833612
 30
0.0
 11
0.914450480835363
 21
6.827494809833612
 31
0.0
  0
LINE
  5
35F6
330
1E
100
AcDbEntity
  8
7
100
AcDbLine
 10
0.914450480835363
 20
6.827494809833612
 30
0.0
 11
0.8816628331975682
 21
6.820937280306052
 31
0.0
  0
LINE
  5
35F7
330
1E
100
AcDbEntity
  8
7
100
AcDbLine
 10
0.8816628331975682
 20
6.820937280306052
 30
0.0
 11
0.8541212091818199
 21
6.802576197628887
 31
0.0
  0
LINE
  5
35F8
330
1E
100
AcDbEntity
  8
7
100
AcDbLine
 10
0.8541212091818199
 20
6.802576197628887
 30
0.0
 11
0.8357601265046547
 21
6.775034573613139
 31
0.0
  0
LINE
  5
35F9
330
1E
100
AcDbEntity
  8
7
100
AcDbLine
 10
0.8357601265046547
 20
6.775034573613139
 30
0.0
 11
0.8292025969770961
 21
6.743558431880856
 31
0.0
  0
LINE
  5
35FA
330
1E
100
AcDbEntity
  8
7
100
AcDbLine
 10
1.40495368949678
 20
5.801897191723376
 30
0.0
 11
1.40495368949678
 21
5.736321896447786
 31
0.0
  0
LINE
  5
35FB
330
1E
100
AcDbEntity
  8
7
100
AcDbLine
 10
1.40495368949678
 20
5.736321896447786
 30
0.0
 11
0.913138974929852
 21
5.736321896447786
 31
0.0
  0
LINE
  5
35FC
330
1E
100
AcDbEntity
  8
7
100
AcDbLine
 10
0.913138974929852
 20
5.736321896447786
 30
0.0
 11
0.913138974929852
 21
5.801897191723376
 31
0.0
  0
LINE
  5
35FD
330
1E
100
AcDbEntity
  8
7
100
AcDbLine
 10
0.913138974929852
 20
5.801897191723376
 30
0.0
 11
0.8292025969770961
 21
5.801897191723376
 31
0.0
  0
LINE
  5
35FE
330
1E
100
AcDbEntity
  8
7
100
AcDbLine
 10
0.8265795851660717
 20
6.472076709439911
 30
0.0
 11
0.8278910910715836
 21
6.462896168101329
 31
0.0
  0
LINE
  5
35FF
330
1E
100
AcDbEntity
  8
7
100
AcDbLine
 10
0.8278910910715836
 20
6.462896168101329
 30
0.0
 11
0.8292025969770961
 21
6.464207674006839
 31
0.0
  0
LINE
  5
3600
330
1E
100
AcDbEntity
  8
7
100
AcDbLine
 10
0.8265795851660717
 20
5.319263018495028
 30
0.0
 11
0.8278910910715836
 21
5.310082477156447
 31
0.0
  0
LINE
  5
3601
330
1E
100
AcDbEntity
  8
7
100
AcDbLine
 10
0.8278910910715836
 20
5.310082477156447
 30
0.0
 11
0.8292025969770961
 21
5.311393983061958
 31
0.0
  0
LINE
  5
3602
330
1E
100
AcDbEntity
  8
7
100
AcDbLine
 10
1.913817980835363
 20
4.049725301959595
 30
0.0
 11
2.206283797764497
 21
4.049725301959595
 31
0.0
  0
LINE
  5
3603
330
1E
100
AcDbEntity
  8
7
100
AcDbLine
 10
2.206283797764497
 20
4.049725301959595
 30
0.0
 11
2.206283797764497
 21
4.141530715345423
 31
0.0
  0
LINE
  5
3604
330
1E
100
AcDbEntity
  8
7
100
AcDbLine
 10
1.721026612725127
 20
3.594632752746998
 30
0.0
 11
1.742010707213315
 21
3.60381329408558
 31
0.0
  0
LINE
  5
3605
330
1E
100
AcDbEntity
  8
7
100
AcDbLine
 10
1.742010707213315
 20
3.60381329408558
 30
0.0
 11
1.762994801701505
 21
3.60381329408558
 31
0.0
  0
LINE
  5
3606
330
1E
100
AcDbEntity
  8
7
100
AcDbLine
 10
1.231834909969221
 20
3.594632752746998
 30
0.0
 11
1.327574841071583
 21
3.500204327550147
 31
0.0
  0
LINE
  5
3607
330
1E
100
AcDbEntity
  8
7
100
AcDbLine
 10
1.327574841071583
 20
3.500204327550147
 30
0.0
 11
1.348558935559772
 21
3.491023786211564
 31
0.0
  0
LINE
  5
3608
330
1E
100
AcDbEntity
  8
7
100
AcDbLine
 10
2.204972291858985
 20
6.879955046054083
 30
0.0
 11
2.204972291858985
 21
6.877332034243061
 31
0.0
  0
LINE
  5
3609
330
1E
100
AcDbEntity
  8
7
100
AcDbLine
 10
2.204972291858985
 20
6.877332034243061
 30
0.0
 11
2.204972291858985
 21
6.869462998809989
 31
0.0
  0
LINE
  5
360A
330
1E
100
AcDbEntity
  8
7
100
AcDbLine
 10
2.204972291858985
 20
6.869462998809989
 30
0.0
 11
2.204972291858985
 21
4.171695351172195
 31
0.0
  0
LINE
  5
360B
330
1E
100
AcDbEntity
  8
7
100
AcDbLine
 10
2.204972291858985
 20
4.171695351172195
 30
0.0
 11
2.204972291858985
 21
4.163826315739123
 31
0.0
  0
LINE
  5
360C
330
1E
100
AcDbEntity
  8
7
100
AcDbLine
 10
2.204972291858985
 20
4.163826315739123
 30
0.0
 11
2.204972291858985
 21
4.1612033039281
 31
0.0
  0
LINE
  5
360D
330
1E
100
AcDbEntity
  8
7
100
AcDbLine
 10
2.204972291858985
 20
4.1612033039281
 30
0.0
 11
2.206283797764497
 21
4.155957280306052
 31
0.0
  0
LINE
  5
360E
330
1E
100
AcDbEntity
  8
7
100
AcDbLine
 10
2.206283797764497
 20
4.155957280306052
 30
0.0
 11
2.206283797764497
 21
4.141530715345423
 31
0.0
  0
LINE
  5
360F
330
1E
100
AcDbEntity
  8
7
100
AcDbLine
 10
2.206283797764497
 20
4.141530715345423
 30
0.0
 11
2.206283797764497
 21
6.899627634636761
 31
0.0
  0
LINE
  5
3610
330
1E
100
AcDbEntity
  8
7
100
AcDbLine
 10
2.206283797764497
 20
6.899627634636761
 30
0.0
 11
2.206283797764497
 21
6.885201069676131
 31
0.0
  0
LINE
  5
3611
330
1E
100
AcDbEntity
  8
7
100
AcDbLine
 10
2.206283797764497
 20
6.885201069676131
 30
0.0
 11
2.204972291858985
 21
6.879955046054083
 31
0.0
  0
LINE
  5
3612
330
1E
100
AcDbEntity
  8
7
100
AcDbLine
 10
1.533481268236938
 20
3.615616847235187
 30
0.0
 11
1.528235244614891
 21
3.640535459439911
 31
0.0
  0
LINE
  5
3613
330
1E
100
AcDbEntity
  8
7
100
AcDbLine
 10
1.528235244614891
 20
3.640535459439911
 30
0.0
 11
1.512497173748749
 21
3.660208048022589
 31
0.0
  0
LINE
  5
3614
330
1E
100
AcDbEntity
  8
7
100
AcDbLine
 10
1.512497173748749
 20
3.660208048022589
 30
0.0
 11
1.490201573355048
 21
3.670700095266683
 31
0.0
  0
LINE
  5
3615
330
1E
100
AcDbEntity
  8
7
100
AcDbLine
 10
1.490201573355048
 20
3.670700095266683
 30
0.0
 11
1.463971455244812
 21
3.670700095266683
 31
0.0
  0
LINE
  5
3616
330
1E
100
AcDbEntity
  8
7
100
AcDbLine
 10
1.463971455244812
 20
3.670700095266683
 30
0.0
 11
1.441675854851111
 21
3.660208048022589
 31
0.0
  0
LINE
  5
3617
330
1E
100
AcDbEntity
  8
7
100
AcDbLine
 10
1.441675854851111
 20
3.660208048022589
 30
0.0
 11
1.425937783984969
 21
3.640535459439911
 31
0.0
  0
LINE
  5
3618
330
1E
100
AcDbEntity
  8
7
100
AcDbLine
 10
1.425937783984969
 20
3.640535459439911
 30
0.0
 11
1.420691760362922
 21
3.615616847235187
 31
0.0
  0
LINE
  5
3619
330
1E
100
AcDbEntity
  8
7
100
AcDbLine
 10
1.420691760362922
 20
3.615616847235187
 30
0.0
 11
1.425937783984969
 21
3.590698235030462
 31
0.0
  0
LINE
  5
361A
330
1E
100
AcDbEntity
  8
7
100
AcDbLine
 10
1.425937783984969
 20
3.590698235030462
 30
0.0
 11
1.441675854851111
 21
3.571025646447786
 31
0.0
  0
LINE
  5
361B
330
1E
100
AcDbEntity
  8
7
100
AcDbLine
 10
1.441675854851111
 20
3.571025646447786
 30
0.0
 11
1.463971455244812
 21
3.560533599203691
 31
0.0
  0
LINE
  5
361C
330
1E
100
AcDbEntity
  8
7
100
AcDbLine
 10
1.463971455244812
 20
3.560533599203691
 30
0.0
 11
1.490201573355048
 21
3.560533599203691
 31
0.0
  0
LINE
  5
361D
330
1E
100
AcDbEntity
  8
7
100
AcDbLine
 10
1.490201573355048
 20
3.560533599203691
 30
0.0
 11
1.512497173748749
 21
3.571025646447786
 31
0.0
  0
LINE
  5
361E
330
1E
100
AcDbEntity
  8
7
100
AcDbLine
 10
1.512497173748749
 20
3.571025646447786
 30
0.0
 11
1.528235244614891
 21
3.590698235030462
 31
0.0
  0
LINE
  5
361F
330
1E
100
AcDbEntity
  8
7
100
AcDbLine
 10
1.528235244614891
 20
3.590698235030462
 30
0.0
 11
1.533481268236938
 21
3.615616847235187
 31
0.0
  0
LINE
  5
3620
330
1E
100
AcDbEntity
  8
7
100
AcDbLine
 10
1.353804959181819
 20
3.745455931880856
 30
0.0
 11
1.391838630441662
 21
3.729717861014714
 31
0.0
  0
LINE
  5
3621
330
1E
100
AcDbEntity
  8
7
100
AcDbLine
 10
1.391838630441662
 20
3.729717861014714
 30
0.0
 11
1.432495313512529
 21
3.724471837392667
 31
0.0
  0
LINE
  5
3622
330
1E
100
AcDbEntity
  8
7
100
AcDbLine
 10
1.432495313512529
 20
4.036610242904478
 30
0.0
 11
1.391838630441662
 21
4.031364219282431
 31
0.0
  0
LINE
  5
3623
330
1E
100
AcDbEntity
  8
7
100
AcDbLine
 10
1.391838630441662
 20
4.031364219282431
 30
0.0
 11
1.355116465087331
 21
4.01562614841629
 31
0.0
  0
LINE
  5
3624
330
1E
100
AcDbEntity
  8
7
100
AcDbLine
 10
1.355116465087331
 20
4.01562614841629
 30
0.0
 11
1.322328817449536
 21
3.990707536211564
 31
0.0
  0
LINE
  5
3625
330
1E
100
AcDbEntity
  8
7
100
AcDbLine
 10
1.322328817449536
 20
3.990707536211564
 30
0.0
 11
1.297410205244811
 21
3.959231394479281
 31
0.0
  0
LINE
  5
3626
330
1E
100
AcDbEntity
  8
7
100
AcDbLine
 10
1.297410205244811
 20
3.959231394479281
 30
0.0
 11
1.28167213437867
 21
3.921197723219439
 31
0.0
  0
LINE
  5
3627
330
1E
100
AcDbEntity
  8
7
100
AcDbLine
 10
1.28167213437867
 20
3.921197723219439
 30
0.0
 11
1.276426110756622
 21
3.880541040148573
 31
0.0
  0
LINE
  5
3628
330
1E
100
AcDbEntity
  8
7
100
AcDbLine
 10
1.276426110756622
 20
3.880541040148573
 30
0.0
 11
1.28167213437867
 21
3.839884357077706
 31
0.0
  0
LINE
  5
3629
330
1E
100
AcDbEntity
  8
7
100
AcDbLine
 10
1.28167213437867
 20
3.839884357077706
 30
0.0
 11
1.297410205244811
 21
3.803162191723376
 31
0.0
  0
LINE
  5
362A
330
1E
100
AcDbEntity
  8
7
100
AcDbLine
 10
1.297410205244811
 20
3.803162191723376
 30
0.0
 11
1.322328817449536
 21
3.770374544085581
 31
0.0
  0
LINE
  5
362B
330
1E
100
AcDbEntity
  8
7
100
AcDbLine
 10
1.322328817449536
 20
3.770374544085581
 30
0.0
 11
1.353804959181819
 21
3.745455931880856
 31
0.0
  0
LINE
  5
362C
330
1E
100
AcDbEntity
  8
7
100
AcDbLine
 10
1.521677715087331
 20
3.724471837392667
 30
0.0
 11
1.562334398158197
 21
3.729717861014714
 31
0.0
  0
LINE
  5
362D
330
1E
100
AcDbEntity
  8
7
100
AcDbLine
 10
1.562334398158197
 20
3.729717861014714
 30
0.0
 11
1.599056563512529
 21
3.745455931880856
 31
0.0
  0
LINE
  5
362E
330
1E
100
AcDbEntity
  8
7
100
AcDbLine
 10
1.599056563512529
 20
3.745455931880856
 30
0.0
 11
1.631844211150323
 21
3.770374544085581
 31
0.0
  0
LINE
  5
362F
330
1E
100
AcDbEntity
  8
7
100
AcDbLine
 10
1.631844211150323
 20
3.770374544085581
 30
0.0
 11
1.656762823355048
 21
3.801850685817864
 31
0.0
  0
LINE
  5
3630
330
1E
100
AcDbEntity
  8
7
100
AcDbLine
 10
1.656762823355048
 20
3.801850685817864
 30
0.0
 11
1.67250089422119
 21
3.839884357077706
 31
0.0
  0
LINE
  5
3631
330
1E
100
AcDbEntity
  8
7
100
AcDbLine
 10
1.67250089422119
 20
3.839884357077706
 30
0.0
 11
1.677746917843237
 21
3.880541040148573
 31
0.0
  0
LINE
  5
3632
330
1E
100
AcDbEntity
  8
7
100
AcDbLine
 10
1.677746917843237
 20
3.880541040148573
 30
0.0
 11
1.67250089422119
 21
3.921197723219439
 31
0.0
  0
LINE
  5
3633
330
1E
100
AcDbEntity
  8
7
100
AcDbLine
 10
1.67250089422119
 20
3.921197723219439
 30
0.0
 11
1.656762823355048
 21
3.957919888573769
 31
0.0
  0
LINE
  5
3634
330
1E
100
AcDbEntity
  8
7
100
AcDbLine
 10
1.656762823355048
 20
3.957919888573769
 30
0.0
 11
1.631844211150323
 21
3.990707536211564
 31
0.0
  0
LINE
  5
3635
330
1E
100
AcDbEntity
  8
7
100
AcDbLine
 10
1.631844211150323
 20
3.990707536211564
 30
0.0
 11
1.60036806941804
 21
4.01562614841629
 31
0.0
  0
LINE
  5
3636
330
1E
100
AcDbEntity
  8
7
100
AcDbLine
 10
1.60036806941804
 20
4.01562614841629
 30
0.0
 11
1.562334398158197
 21
4.031364219282431
 31
0.0
  0
LINE
  5
3637
330
1E
100
AcDbEntity
  8
7
100
AcDbLine
 10
1.562334398158197
 20
4.031364219282431
 30
0.0
 11
1.521677715087331
 21
4.036610242904478
 31
0.0
  0
LINE
  5
3638
330
1E
100
AcDbEntity
  8
7
100
AcDbLine
 10
1.179374673748749
 20
3.60381329408558
 30
0.0
 11
1.189866720992843
 21
3.60381329408558
 31
0.0
  0
LINE
  5
3639
330
1E
100
AcDbEntity
  8
7
100
AcDbLine
 10
1.189866720992843
 20
3.60381329408558
 30
0.0
 11
1.039043541858985
 21
3.88578706377062
 31
0.0
  0
LINE
  5
363A
330
1E
100
AcDbEntity
  8
7
100
AcDbLine
 10
1.039043541858985
 20
3.88578706377062
 30
0.0
 11
1.040355047764496
 21
3.864802969282431
 31
0.0
  0
LINE
  5
363B
330
1E
100
AcDbEntity
  8
7
100
AcDbLine
 10
1.913817980835363
 20
3.88578706377062
 30
0.0
 11
1.762994801701505
 21
3.60381329408558
 31
0.0
  0
LINE
  5
363C
330
1E
100
AcDbEntity
  8
7
100
AcDbLine
 10
1.762994801701505
 20
3.60381329408558
 30
0.0
 11
1.774798354851111
 21
3.60381329408558
 31
0.0
  0
LINE
  5
363D
330
1E
100
AcDbEntity
  8
7
100
AcDbLine
 10
1.178063167843237
 20
3.60381329408558
 30
0.0
 11
1.179374673748749
 21
3.60381329408558
 31
0.0
  0
LINE
  5
363E
330
1E
100
AcDbEntity
  8
7
100
AcDbLine
 10
1.179374673748749
 20
3.60381329408558
 30
0.0
 11
1.040355047764496
 21
3.864802969282431
 31
0.0
  0
LINE
  5
363F
330
1E
100
AcDbEntity
  8
7
100
AcDbLine
 10
1.040355047764496
 20
3.864802969282431
 30
0.0
 11
1.040355047764496
 21
3.862179957471407
 31
0.0
  0
LINE
  5
3640
330
1E
100
AcDbEntity
  8
7
100
AcDbLine
 10
1.355116465087331
 20
4.01562614841629
 30
0.0
 11
1.322328817449536
 21
3.990707536211564
 31
0.0
  0
LINE
  5
3641
330
1E
100
AcDbEntity
  8
7
100
AcDbLine
 10
1.322328817449536
 20
3.990707536211564
 30
0.0
 11
1.297410205244811
 21
3.959231394479281
 31
0.0
  0
LINE
  5
3642
330
1E
100
AcDbEntity
  8
7
100
AcDbLine
 10
1.297410205244811
 20
3.959231394479281
 30
0.0
 11
1.28167213437867
 21
3.921197723219439
 31
0.0
  0
LINE
  5
3643
330
1E
100
AcDbEntity
  8
7
100
AcDbLine
 10
1.28167213437867
 20
3.921197723219439
 30
0.0
 11
1.276426110756622
 21
3.880541040148573
 31
0.0
  0
LINE
  5
3644
330
1E
100
AcDbEntity
  8
7
100
AcDbLine
 10
1.276426110756622
 20
3.880541040148573
 30
0.0
 11
1.28167213437867
 21
3.839884357077706
 31
0.0
  0
LINE
  5
3645
330
1E
100
AcDbEntity
  8
7
100
AcDbLine
 10
1.28167213437867
 20
3.839884357077706
 30
0.0
 11
1.297410205244811
 21
3.803162191723376
 31
0.0
  0
LINE
  5
3646
330
1E
100
AcDbEntity
  8
7
100
AcDbLine
 10
1.297410205244811
 20
3.803162191723376
 30
0.0
 11
1.322328817449536
 21
3.770374544085581
 31
0.0
  0
LINE
  5
3647
330
1E
100
AcDbEntity
  8
7
100
AcDbLine
 10
1.322328817449536
 20
3.770374544085581
 30
0.0
 11
1.353804959181819
 21
3.745455931880856
 31
0.0
  0
LINE
  5
3648
330
1E
100
AcDbEntity
  8
7
100
AcDbLine
 10
1.353804959181819
 20
3.745455931880856
 30
0.0
 11
1.391838630441662
 21
3.729717861014714
 31
0.0
  0
LINE
  5
3649
330
1E
100
AcDbEntity
  8
7
100
AcDbLine
 10
1.391838630441662
 20
3.729717861014714
 30
0.0
 11
1.432495313512529
 21
3.724471837392667
 31
0.0
  0
LINE
  5
364A
330
1E
100
AcDbEntity
  8
7
100
AcDbLine
 10
1.432495313512529
 20
4.036610242904478
 30
0.0
 11
1.391838630441662
 21
4.031364219282431
 31
0.0
  0
LINE
  5
364B
330
1E
100
AcDbEntity
  8
7
100
AcDbLine
 10
1.391838630441662
 20
4.031364219282431
 30
0.0
 11
1.355116465087331
 21
4.01562614841629
 31
0.0
  0
LINE
  5
364C
330
1E
100
AcDbEntity
  8
7
100
AcDbLine
 10
1.67250089422119
 20
3.921197723219439
 30
0.0
 11
1.656762823355048
 21
3.957919888573769
 31
0.0
  0
LINE
  5
364D
330
1E
100
AcDbEntity
  8
7
100
AcDbLine
 10
1.656762823355048
 20
3.957919888573769
 30
0.0
 11
1.631844211150323
 21
3.990707536211564
 31
0.0
  0
LINE
  5
364E
330
1E
100
AcDbEntity
  8
7
100
AcDbLine
 10
1.631844211150323
 20
3.990707536211564
 30
0.0
 11
1.60036806941804
 21
4.01562614841629
 31
0.0
  0
LINE
  5
364F
330
1E
100
AcDbEntity
  8
7
100
AcDbLine
 10
1.60036806941804
 20
4.01562614841629
 30
0.0
 11
1.562334398158197
 21
4.031364219282431
 31
0.0
  0
LINE
  5
3650
330
1E
100
AcDbEntity
  8
7
100
AcDbLine
 10
1.562334398158197
 20
4.031364219282431
 30
0.0
 11
1.521677715087331
 21
4.036610242904478
 31
0.0
  0
LINE
  5
3651
330
1E
100
AcDbEntity
  8
7
100
AcDbLine
 10
1.521677715087331
 20
3.724471837392667
 30
0.0
 11
1.562334398158197
 21
3.729717861014714
 31
0.0
  0
LINE
  5
3652
330
1E
100
AcDbEntity
  8
7
100
AcDbLine
 10
1.562334398158197
 20
3.729717861014714
 30
0.0
 11
1.599056563512529
 21
3.745455931880856
 31
0.0
  0
LINE
  5
3653
330
1E
100
AcDbEntity
  8
7
100
AcDbLine
 10
1.599056563512529
 20
3.745455931880856
 30
0.0
 11
1.631844211150323
 21
3.770374544085581
 31
0.0
  0
LINE
  5
3654
330
1E
100
AcDbEntity
  8
7
100
AcDbLine
 10
1.631844211150323
 20
3.770374544085581
 30
0.0
 11
1.656762823355048
 21
3.801850685817864
 31
0.0
  0
LINE
  5
3655
330
1E
100
AcDbEntity
  8
7
100
AcDbLine
 10
1.656762823355048
 20
3.801850685817864
 30
0.0
 11
1.67250089422119
 21
3.839884357077706
 31
0.0
  0
LINE
  5
3656
330
1E
100
AcDbEntity
  8
7
100
AcDbLine
 10
1.67250089422119
 20
3.839884357077706
 30
0.0
 11
1.677746917843237
 21
3.880541040148573
 31
0.0
  0
LINE
  5
3657
330
1E
100
AcDbEntity
  8
7
100
AcDbLine
 10
1.677746917843237
 20
3.880541040148573
 30
0.0
 11
1.67250089422119
 21
3.921197723219439
 31
0.0
  0
LINE
  5
3658
330
1E
100
AcDbEntity
  8
7
100
AcDbLine
 10
1.599056563512529
 20
3.863491463376919
 30
0.0
 11
1.599056563512529
 21
3.897590616920226
 31
0.0
  0
LINE
  5
3659
330
1E
100
AcDbEntity
  8
7
100
AcDbLine
 10
1.599056563512529
 20
3.897590616920226
 30
0.0
 11
1.584629998551899
 21
3.927755252746997
 31
0.0
  0
LINE
  5
365A
330
1E
100
AcDbEntity
  8
7
100
AcDbLine
 10
1.36823152414245
 20
3.927755252746997
 30
0.0
 11
1.353804959181819
 21
3.897590616920226
 31
0.0
  0
LINE
  5
365B
330
1E
100
AcDbEntity
  8
7
100
AcDbLine
 10
1.353804959181819
 20
3.897590616920226
 30
0.0
 11
1.353804959181819
 21
3.863491463376919
 31
0.0
  0
LINE
  5
365C
330
1E
100
AcDbEntity
  8
7
100
AcDbLine
 10
1.353804959181819
 20
3.863491463376919
 30
0.0
 11
1.36823152414245
 21
3.833326827550147
 31
0.0
  0
LINE
  5
365D
330
1E
100
AcDbEntity
  8
7
100
AcDbLine
 10
1.913817980835363
 20
7.176355380699753
 30
0.0
 11
1.774798354851111
 21
7.437345055896603
 31
0.0
  0
LINE
  5
365E
330
1E
100
AcDbEntity
  8
7
100
AcDbLine
 10
1.774798354851111
 20
7.437345055896603
 30
0.0
 11
1.762994801701505
 21
7.437345055896603
 31
0.0
  0
LINE
  5
365F
330
1E
100
AcDbEntity
  8
7
100
AcDbLine
 10
1.762994801701505
 20
7.437345055896603
 30
0.0
 11
1.913817980835363
 21
7.155371286211565
 31
0.0
  0
LINE
  5
3660
330
1E
100
AcDbEntity
  8
7
100
AcDbLine
 10
1.039043541858985
 20
7.155371286211565
 30
0.0
 11
1.189866720992843
 21
7.437345055896603
 31
0.0
  0
LINE
  5
3661
330
1E
100
AcDbEntity
  8
7
100
AcDbLine
 10
1.189866720992843
 20
7.437345055896603
 30
0.0
 11
1.179374673748749
 21
7.437345055896603
 31
0.0
  0
LINE
  5
3662
330
1E
100
AcDbEntity
  8
7
100
AcDbLine
 10
1.420691760362922
 20
7.425541502746997
 30
0.0
 11
1.425937783984969
 21
7.400622890542273
 31
0.0
  0
LINE
  5
3663
330
1E
100
AcDbEntity
  8
7
100
AcDbLine
 10
1.425937783984969
 20
7.400622890542273
 30
0.0
 11
1.441675854851111
 21
7.380950301959595
 31
0.0
  0
LINE
  5
3664
330
1E
100
AcDbEntity
  8
7
100
AcDbLine
 10
1.441675854851111
 20
7.380950301959595
 30
0.0
 11
1.463971455244812
 21
7.370458254715501
 31
0.0
  0
LINE
  5
3665
330
1E
100
AcDbEntity
  8
7
100
AcDbLine
 10
1.463971455244812
 20
7.370458254715501
 30
0.0
 11
1.490201573355048
 21
7.370458254715501
 31
0.0
  0
LINE
  5
3666
330
1E
100
AcDbEntity
  8
7
100
AcDbLine
 10
1.490201573355048
 20
7.370458254715501
 30
0.0
 11
1.512497173748749
 21
7.380950301959595
 31
0.0
  0
LINE
  5
3667
330
1E
100
AcDbEntity
  8
7
100
AcDbLine
 10
1.512497173748749
 20
7.380950301959595
 30
0.0
 11
1.528235244614891
 21
7.400622890542273
 31
0.0
  0
LINE
  5
3668
330
1E
100
AcDbEntity
  8
7
100
AcDbLine
 10
1.528235244614891
 20
7.400622890542273
 30
0.0
 11
1.533481268236938
 21
7.425541502746997
 31
0.0
  0
LINE
  5
3669
330
1E
100
AcDbEntity
  8
7
100
AcDbLine
 10
1.533481268236938
 20
7.425541502746997
 30
0.0
 11
1.528235244614891
 21
7.450460114951722
 31
0.0
  0
LINE
  5
366A
330
1E
100
AcDbEntity
  8
7
100
AcDbLine
 10
1.528235244614891
 20
7.450460114951722
 30
0.0
 11
1.512497173748749
 21
7.4701327035344
 31
0.0
  0
LINE
  5
366B
330
1E
100
AcDbEntity
  8
7
100
AcDbLine
 10
1.512497173748749
 20
7.4701327035344
 30
0.0
 11
1.490201573355048
 21
7.480624750778494
 31
0.0
  0
LINE
  5
366C
330
1E
100
AcDbEntity
  8
7
100
AcDbLine
 10
1.490201573355048
 20
7.480624750778494
 30
0.0
 11
1.463971455244812
 21
7.480624750778494
 31
0.0
  0
LINE
  5
366D
330
1E
100
AcDbEntity
  8
7
100
AcDbLine
 10
1.463971455244812
 20
7.480624750778494
 30
0.0
 11
1.441675854851111
 21
7.4701327035344
 31
0.0
  0
LINE
  5
366E
330
1E
100
AcDbEntity
  8
7
100
AcDbLine
 10
1.441675854851111
 20
7.4701327035344
 30
0.0
 11
1.425937783984969
 21
7.450460114951722
 31
0.0
  0
LINE
  5
366F
330
1E
100
AcDbEntity
  8
7
100
AcDbLine
 10
1.355116465087331
 20
7.295702418101328
 30
0.0
 11
1.322328817449536
 21
7.270783805896604
 31
0.0
  0
LINE
  5
3670
330
1E
100
AcDbEntity
  8
7
100
AcDbLine
 10
1.322328817449536
 20
7.270783805896604
 30
0.0
 11
1.297410205244811
 21
7.23930766416432
 31
0.0
  0
LINE
  5
3671
330
1E
100
AcDbEntity
  8
7
100
AcDbLine
 10
1.297410205244811
 20
7.23930766416432
 30
0.0
 11
1.28167213437867
 21
7.201273992904478
 31
0.0
  0
LINE
  5
3672
330
1E
100
AcDbEntity
  8
7
100
AcDbLine
 10
1.28167213437867
 20
7.201273992904478
 30
0.0
 11
1.276426110756622
 21
7.160617309833612
 31
0.0
  0
LINE
  5
3673
330
1E
100
AcDbEntity
  8
7
100
AcDbLine
 10
1.276426110756622
 20
7.160617309833612
 30
0.0
 11
1.28167213437867
 21
7.119960626762745
 31
0.0
  0
LINE
  5
3674
330
1E
100
AcDbEntity
  8
7
100
AcDbLine
 10
1.28167213437867
 20
7.119960626762745
 30
0.0
 11
1.297410205244811
 21
7.083238461408415
 31
0.0
  0
LINE
  5
3675
330
1E
100
AcDbEntity
  8
7
100
AcDbLine
 10
1.297410205244811
 20
7.083238461408415
 30
0.0
 11
1.322328817449536
 21
7.05045081377062
 31
0.0
  0
LINE
  5
3676
330
1E
100
AcDbEntity
  8
7
100
AcDbLine
 10
1.322328817449536
 20
7.05045081377062
 30
0.0
 11
1.353804959181819
 21
7.025532201565895
 31
0.0
  0
LINE
  5
3677
330
1E
100
AcDbEntity
  8
7
100
AcDbLine
 10
1.353804959181819
 20
7.025532201565895
 30
0.0
 11
1.391838630441662
 21
7.009794130699753
 31
0.0
  0
LINE
  5
3678
330
1E
100
AcDbEntity
  8
7
100
AcDbLine
 10
1.391838630441662
 20
7.009794130699753
 30
0.0
 11
1.432495313512529
 21
7.004548107077706
 31
0.0
  0
LINE
  5
3679
330
1E
100
AcDbEntity
  8
7
100
AcDbLine
 10
1.432495313512529
 20
7.316686512589517
 30
0.0
 11
1.391838630441662
 21
7.31144048896747
 31
0.0
  0
LINE
  5
367A
330
1E
100
AcDbEntity
  8
7
100
AcDbLine
 10
1.391838630441662
 20
7.31144048896747
 30
0.0
 11
1.355116465087331
 21
7.295702418101328
 31
0.0
  0
LINE
  5
367B
330
1E
100
AcDbEntity
  8
7
100
AcDbLine
 10
1.67250089422119
 20
7.201273992904478
 30
0.0
 11
1.656762823355048
 21
7.237996158258809
 31
0.0
  0
LINE
  5
367C
330
1E
100
AcDbEntity
  8
7
100
AcDbLine
 10
1.656762823355048
 20
7.237996158258809
 30
0.0
 11
1.631844211150323
 21
7.270783805896604
 31
0.0
  0
LINE
  5
367D
330
1E
100
AcDbEntity
  8
7
100
AcDbLine
 10
1.631844211150323
 20
7.270783805896604
 30
0.0
 11
1.60036806941804
 21
7.295702418101328
 31
0.0
  0
LINE
  5
367E
330
1E
100
AcDbEntity
  8
7
100
AcDbLine
 10
1.60036806941804
 20
7.295702418101328
 30
0.0
 11
1.562334398158197
 21
7.31144048896747
 31
0.0
  0
LINE
  5
367F
330
1E
100
AcDbEntity
  8
7
100
AcDbLine
 10
1.562334398158197
 20
7.31144048896747
 30
0.0
 11
1.521677715087331
 21
7.316686512589517
 31
0.0
  0
LINE
  5
3680
330
1E
100
AcDbEntity
  8
7
100
AcDbLine
 10
1.521677715087331
 20
7.004548107077706
 30
0.0
 11
1.562334398158197
 21
7.009794130699753
 31
0.0
  0
LINE
  5
3681
330
1E
100
AcDbEntity
  8
7
100
AcDbLine
 10
1.562334398158197
 20
7.009794130699753
 30
0.0
 11
1.599056563512529
 21
7.025532201565895
 31
0.0
  0
LINE
  5
3682
330
1E
100
AcDbEntity
  8
7
100
AcDbLine
 10
1.599056563512529
 20
7.025532201565895
 30
0.0
 11
1.631844211150323
 21
7.05045081377062
 31
0.0
  0
LINE
  5
3683
330
1E
100
AcDbEntity
  8
7
100
AcDbLine
 10
1.631844211150323
 20
7.05045081377062
 30
0.0
 11
1.656762823355048
 21
7.081926955502903
 31
0.0
  0
LINE
  5
3684
330
1E
100
AcDbEntity
  8
7
100
AcDbLine
 10
1.656762823355048
 20
7.081926955502903
 30
0.0
 11
1.67250089422119
 21
7.119960626762745
 31
0.0
  0
LINE
  5
3685
330
1E
100
AcDbEntity
  8
7
100
AcDbLine
 10
1.67250089422119
 20
7.119960626762745
 30
0.0
 11
1.677746917843237
 21
7.160617309833612
 31
0.0
  0
LINE
  5
3686
330
1E
100
AcDbEntity
  8
7
100
AcDbLine
 10
1.677746917843237
 20
7.160617309833612
 30
0.0
 11
1.67250089422119
 21
7.201273992904478
 31
0.0
  0
LINE
  5
3687
330
1E
100
AcDbEntity
  8
7
100
AcDbLine
 10
1.040355047764496
 20
7.176355380699753
 30
0.0
 11
1.179374673748749
 21
7.437345055896603
 31
0.0
  0
LINE
  5
3688
330
1E
100
AcDbEntity
  8
7
100
AcDbLine
 10
1.179374673748749
 20
7.437345055896603
 30
0.0
 11
1.178063167843237
 21
7.437345055896603
 31
0.0
  0
LINE
  5
3689
330
1E
100
AcDbEntity
  8
7
100
AcDbLine
 10
1.322328817449536
 20
7.05045081377062
 30
0.0
 11
1.353804959181819
 21
7.025532201565895
 31
0.0
  0
LINE
  5
368A
330
1E
100
AcDbEntity
  8
7
100
AcDbLine
 10
1.353804959181819
 20
7.025532201565895
 30
0.0
 11
1.391838630441662
 21
7.009794130699753
 31
0.0
  0
LINE
  5
368B
330
1E
100
AcDbEntity
  8
7
100
AcDbLine
 10
1.391838630441662
 20
7.009794130699753
 30
0.0
 11
1.432495313512529
 21
7.004548107077706
 31
0.0
  0
LINE
  5
368C
330
1E
100
AcDbEntity
  8
7
100
AcDbLine
 10
1.432495313512529
 20
7.316686512589517
 30
0.0
 11
1.391838630441662
 21
7.31144048896747
 31
0.0
  0
LINE
  5
368D
330
1E
100
AcDbEntity
  8
7
100
AcDbLine
 10
1.391838630441662
 20
7.31144048896747
 30
0.0
 11
1.355116465087331
 21
7.295702418101328
 31
0.0
  0
LINE
  5
368E
330
1E
100
AcDbEntity
  8
7
100
AcDbLine
 10
1.355116465087331
 20
7.295702418101328
 30
0.0
 11
1.322328817449536
 21
7.270783805896604
 31
0.0
  0
LINE
  5
368F
330
1E
100
AcDbEntity
  8
7
100
AcDbLine
 10
1.322328817449536
 20
7.270783805896604
 30
0.0
 11
1.297410205244811
 21
7.23930766416432
 31
0.0
  0
LINE
  5
3690
330
1E
100
AcDbEntity
  8
7
100
AcDbLine
 10
1.297410205244811
 20
7.23930766416432
 30
0.0
 11
1.28167213437867
 21
7.201273992904478
 31
0.0
  0
LINE
  5
3691
330
1E
100
AcDbEntity
  8
7
100
AcDbLine
 10
1.28167213437867
 20
7.201273992904478
 30
0.0
 11
1.276426110756622
 21
7.160617309833612
 31
0.0
  0
LINE
  5
3692
330
1E
100
AcDbEntity
  8
7
100
AcDbLine
 10
1.276426110756622
 20
7.160617309833612
 30
0.0
 11
1.28167213437867
 21
7.119960626762745
 31
0.0
  0
LINE
  5
3693
330
1E
100
AcDbEntity
  8
7
100
AcDbLine
 10
1.28167213437867
 20
7.119960626762745
 30
0.0
 11
1.297410205244811
 21
7.083238461408415
 31
0.0
  0
LINE
  5
3694
330
1E
100
AcDbEntity
  8
7
100
AcDbLine
 10
1.297410205244811
 20
7.083238461408415
 30
0.0
 11
1.322328817449536
 21
7.05045081377062
 31
0.0
  0
LINE
  5
3695
330
1E
100
AcDbEntity
  8
7
100
AcDbLine
 10
1.521677715087331
 20
7.004548107077706
 30
0.0
 11
1.562334398158197
 21
7.009794130699753
 31
0.0
  0
LINE
  5
3696
330
1E
100
AcDbEntity
  8
7
100
AcDbLine
 10
1.562334398158197
 20
7.009794130699753
 30
0.0
 11
1.599056563512529
 21
7.025532201565895
 31
0.0
  0
LINE
  5
3697
330
1E
100
AcDbEntity
  8
7
100
AcDbLine
 10
1.599056563512529
 20
7.025532201565895
 30
0.0
 11
1.631844211150323
 21
7.05045081377062
 31
0.0
  0
LINE
  5
3698
330
1E
100
AcDbEntity
  8
7
100
AcDbLine
 10
1.631844211150323
 20
7.05045081377062
 30
0.0
 11
1.656762823355048
 21
7.081926955502903
 31
0.0
  0
LINE
  5
3699
330
1E
100
AcDbEntity
  8
7
100
AcDbLine
 10
1.656762823355048
 20
7.081926955502903
 30
0.0
 11
1.67250089422119
 21
7.119960626762745
 31
0.0
  0
LINE
  5
369A
330
1E
100
AcDbEntity
  8
7
100
AcDbLine
 10
1.67250089422119
 20
7.119960626762745
 30
0.0
 11
1.677746917843237
 21
7.160617309833612
 31
0.0
  0
LINE
  5
369B
330
1E
100
AcDbEntity
  8
7
100
AcDbLine
 10
1.677746917843237
 20
7.160617309833612
 30
0.0
 11
1.67250089422119
 21
7.201273992904478
 31
0.0
  0
LINE
  5
369C
330
1E
100
AcDbEntity
  8
7
100
AcDbLine
 10
1.67250089422119
 20
7.201273992904478
 30
0.0
 11
1.656762823355048
 21
7.237996158258809
 31
0.0
  0
LINE
  5
369D
330
1E
100
AcDbEntity
  8
7
100
AcDbLine
 10
1.656762823355048
 20
7.237996158258809
 30
0.0
 11
1.631844211150323
 21
7.270783805896604
 31
0.0
  0
LINE
  5
369E
330
1E
100
AcDbEntity
  8
7
100
AcDbLine
 10
1.631844211150323
 20
7.270783805896604
 30
0.0
 11
1.60036806941804
 21
7.295702418101328
 31
0.0
  0
LINE
  5
369F
330
1E
100
AcDbEntity
  8
7
100
AcDbLine
 10
1.60036806941804
 20
7.295702418101328
 30
0.0
 11
1.562334398158197
 21
7.31144048896747
 31
0.0
  0
LINE
  5
36A0
330
1E
100
AcDbEntity
  8
7
100
AcDbLine
 10
1.562334398158197
 20
7.31144048896747
 30
0.0
 11
1.521677715087331
 21
7.316686512589517
 31
0.0
  0
LINE
  5
36A1
330
1E
100
AcDbEntity
  8
7
100
AcDbLine
 10
1.584629998551899
 20
7.113403097235186
 30
0.0
 11
1.599056563512529
 21
7.143567733061958
 31
0.0
  0
LINE
  5
36A2
330
1E
100
AcDbEntity
  8
7
100
AcDbLine
 10
1.599056563512529
 20
7.143567733061958
 30
0.0
 11
1.599056563512529
 21
7.177666886605265
 31
0.0
  0
LINE
  5
36A3
330
1E
100
AcDbEntity
  8
7
100
AcDbLine
 10
1.599056563512529
 20
7.177666886605265
 30
0.0
 11
1.584629998551899
 21
7.207831522432037
 31
0.0
  0
LINE
  5
36A4
330
1E
100
AcDbEntity
  8
7
100
AcDbLine
 10
1.36823152414245
 20
7.207831522432037
 30
0.0
 11
1.353804959181819
 21
7.177666886605265
 31
0.0
  0
LINE
  5
36A5
330
1E
100
AcDbEntity
  8
7
100
AcDbLine
 10
1.353804959181819
 20
7.177666886605265
 30
0.0
 11
1.353804959181819
 21
7.143567733061958
 31
0.0
  0
LINE
  5
36A6
330
1E
100
AcDbEntity
  8
7
100
AcDbLine
 10
1.353804959181819
 20
7.143567733061958
 30
0.0
 11
1.36823152414245
 21
7.113403097235186
 31
0.0
  0
LINE
  5
36A7
330
1E
100
AcDbEntity
  8
7
100
AcDbLine
 10
2.084313748551898
 20
3.553976069676131
 30
0.0
 11
2.109232360756623
 21
3.590698235030462
 31
0.0
  0
LINE
  5
36A8
330
1E
100
AcDbEntity
  8
7
100
AcDbLine
 10
2.109232360756623
 20
3.590698235030462
 30
0.0
 11
2.126281937528276
 21
3.63266642400684
 31
0.0
  0
LINE
  5
36A9
330
1E
100
AcDbEntity
  8
7
100
AcDbLine
 10
2.126281937528276
 20
3.63266642400684
 30
0.0
 11
2.131527961150323
 21
3.677257624794242
 31
0.0
  0
LINE
  5
36AA
330
1E
100
AcDbEntity
  8
7
100
AcDbLine
 10
2.131527961150323
 20
3.677257624794242
 30
0.0
 11
2.126281937528276
 21
3.720537319676131
 31
0.0
  0
LINE
  5
36AB
330
1E
100
AcDbEntity
  8
7
100
AcDbLine
 10
2.126281937528276
 20
3.720537319676131
 30
0.0
 11
2.111855372567647
 21
3.762505508652509
 31
0.0
  0
LINE
  5
36AC
330
1E
100
AcDbEntity
  8
7
100
AcDbLine
 10
2.111855372567647
 20
3.762505508652509
 30
0.0
 11
2.086936760362922
 21
3.800539179912353
 31
0.0
  0
LINE
  5
36AD
330
1E
100
AcDbEntity
  8
7
100
AcDbLine
 10
2.086936760362922
 20
3.800539179912353
 30
0.0
 11
2.054149112725126
 21
3.830703815739123
 31
0.0
  0
LINE
  5
36AE
330
1E
100
AcDbEntity
  8
7
100
AcDbLine
 10
2.054149112725126
 20
3.830703815739123
 30
0.0
 11
2.014803935559772
 21
3.851687910227312
 31
0.0
  0
LINE
  5
36AF
330
1E
100
AcDbEntity
  8
7
100
AcDbLine
 10
2.014803935559772
 20
3.851687910227312
 30
0.0
 11
1.971524240677883
 21
3.863491463376919
 31
0.0
  0
LINE
  5
36B0
330
1E
100
AcDbEntity
  8
7
100
AcDbLine
 10
1.971524240677883
 20
3.863491463376919
 30
0.0
 11
1.926933039890482
 21
3.863491463376919
 31
0.0
  0
LINE
  5
36B1
330
1E
100
AcDbEntity
  8
7
100
AcDbLine
 10
1.78135588437867
 20
3.590698235030462
 30
0.0
 11
1.806274496583395
 21
3.553976069676131
 31
0.0
  0
LINE
  5
36B2
330
1E
100
AcDbEntity
  8
7
100
AcDbLine
 10
1.806274496583395
 20
3.553976069676131
 30
0.0
 11
1.840373650126701
 21
3.525122939754872
 31
0.0
  0
LINE
  5
36B3
330
1E
100
AcDbEntity
  8
7
100
AcDbLine
 10
1.840373650126701
 20
3.525122939754872
 30
0.0
 11
1.879718827292056
 21
3.504138845266682
 31
0.0
  0
LINE
  5
36B4
330
1E
100
AcDbEntity
  8
7
100
AcDbLine
 10
1.879718827292056
 20
3.504138845266682
 30
0.0
 11
1.922998522173946
 21
3.493646798022588
 31
0.0
  0
LINE
  5
36B5
330
1E
100
AcDbEntity
  8
7
100
AcDbLine
 10
1.922998522173946
 20
3.493646798022588
 30
0.0
 11
1.967589722961347
 21
3.493646798022588
 31
0.0
  0
LINE
  5
36B6
330
1E
100
AcDbEntity
  8
7
100
AcDbLine
 10
1.967589722961347
 20
3.493646798022588
 30
0.0
 11
2.010869417843237
 21
3.504138845266682
 31
0.0
  0
LINE
  5
36B7
330
1E
100
AcDbEntity
  8
7
100
AcDbLine
 10
2.010869417843237
 20
3.504138845266682
 30
0.0
 11
2.050214595008592
 21
3.525122939754872
 31
0.0
  0
LINE
  5
36B8
330
1E
100
AcDbEntity
  8
7
100
AcDbLine
 10
2.050214595008592
 20
3.525122939754872
 30
0.0
 11
2.084313748551898
 21
3.553976069676131
 31
0.0
  0
LINE
  5
36B9
330
1E
100
AcDbEntity
  8
7
100
AcDbLine
 10
1.774798354851111
 20
3.602501788180069
 30
0.0
 11
1.776109860756623
 21
3.602501788180069
 31
0.0
  0
LINE
  5
36BA
330
1E
100
AcDbEntity
  8
7
100
AcDbLine
 10
1.776109860756623
 20
3.602501788180069
 30
0.0
 11
1.776109860756623
 21
3.601190282274556
 31
0.0
  0
LINE
  5
36BB
330
1E
100
AcDbEntity
  8
7
100
AcDbLine
 10
0.8213335615440247
 20
3.677257624794242
 30
0.0
 11
0.8265795851660717
 21
3.63266642400684
 31
0.0
  0
LINE
  5
36BC
330
1E
100
AcDbEntity
  8
7
100
AcDbLine
 10
0.8265795851660717
 20
3.63266642400684
 30
0.0
 11
0.8436291619377254
 21
3.590698235030462
 31
0.0
  0
LINE
  5
36BD
330
1E
100
AcDbEntity
  8
7
100
AcDbLine
 10
0.8436291619377254
 20
3.590698235030462
 30
0.0
 11
0.8685477741424495
 21
3.553976069676131
 31
0.0
  0
LINE
  5
36BE
330
1E
100
AcDbEntity
  8
7
100
AcDbLine
 10
0.8685477741424495
 20
3.553976069676131
 30
0.0
 11
0.9026469276857573
 21
3.525122939754872
 31
0.0
  0
LINE
  5
36BF
330
1E
100
AcDbEntity
  8
7
100
AcDbLine
 10
0.9026469276857573
 20
3.525122939754872
 30
0.0
 11
0.9419921048511108
 21
3.504138845266682
 31
0.0
  0
LINE
  5
36C0
330
1E
100
AcDbEntity
  8
7
100
AcDbLine
 10
0.9419921048511108
 20
3.504138845266682
 30
0.0
 11
0.9852717997330007
 21
3.493646798022588
 31
0.0
  0
LINE
  5
36C1
330
1E
100
AcDbEntity
  8
7
100
AcDbLine
 10
0.9852717997330007
 20
3.493646798022588
 30
0.0
 11
1.029863000520402
 21
3.493646798022588
 31
0.0
  0
LINE
  5
36C2
330
1E
100
AcDbEntity
  8
7
100
AcDbLine
 10
1.029863000520402
 20
3.493646798022588
 30
0.0
 11
1.073142695402292
 21
3.504138845266682
 31
0.0
  0
LINE
  5
36C3
330
1E
100
AcDbEntity
  8
7
100
AcDbLine
 10
1.073142695402292
 20
3.504138845266682
 30
0.0
 11
1.112487872567646
 21
3.525122939754872
 31
0.0
  0
LINE
  5
36C4
330
1E
100
AcDbEntity
  8
7
100
AcDbLine
 10
1.112487872567646
 20
3.525122939754872
 30
0.0
 11
1.146587026110953
 21
3.553976069676131
 31
0.0
  0
LINE
  5
36C5
330
1E
100
AcDbEntity
  8
7
100
AcDbLine
 10
1.146587026110953
 20
3.553976069676131
 30
0.0
 11
1.171505638315678
 21
3.590698235030462
 31
0.0
  0
LINE
  5
36C6
330
1E
100
AcDbEntity
  8
7
100
AcDbLine
 10
1.025928482803867
 20
3.863491463376919
 30
0.0
 11
0.9813372820164655
 21
3.863491463376919
 31
0.0
  0
LINE
  5
36C7
330
1E
100
AcDbEntity
  8
7
100
AcDbLine
 10
0.9813372820164655
 20
3.863491463376919
 30
0.0
 11
0.9380575871345758
 21
3.851687910227312
 31
0.0
  0
LINE
  5
36C8
330
1E
100
AcDbEntity
  8
7
100
AcDbLine
 10
0.9380575871345758
 20
3.851687910227312
 30
0.0
 11
0.8987124099692213
 21
3.830703815739123
 31
0.0
  0
LINE
  5
36C9
330
1E
100
AcDbEntity
  8
7
100
AcDbLine
 10
0.8987124099692213
 20
3.830703815739123
 30
0.0
 11
0.8659247623314264
 21
3.800539179912353
 31
0.0
  0
LINE
  5
36CA
330
1E
100
AcDbEntity
  8
7
100
AcDbLine
 10
0.8659247623314264
 20
3.800539179912353
 30
0.0
 11
0.8410061501267019
 21
3.762505508652509
 31
0.0
  0
LINE
  5
36CB
330
1E
100
AcDbEntity
  8
7
100
AcDbLine
 10
0.8410061501267019
 20
3.762505508652509
 30
0.0
 11
0.8265795851660717
 21
3.720537319676131
 31
0.0
  0
LINE
  5
36CC
330
1E
100
AcDbEntity
  8
7
100
AcDbLine
 10
0.8265795851660717
 20
3.720537319676131
 30
0.0
 11
0.8213335615440247
 21
3.677257624794242
 31
0.0
  0
LINE
  5
36CD
330
1E
100
AcDbEntity
  8
7
100
AcDbLine
 10
1.176751661937725
 20
3.601190282274556
 30
0.0
 11
1.176751661937725
 21
3.602501788180069
 31
0.0
  0
LINE
  5
36CE
330
1E
100
AcDbEntity
  8
7
100
AcDbLine
 10
1.176751661937725
 20
3.602501788180069
 30
0.0
 11
1.178063167843237
 21
3.602501788180069
 31
0.0
  0
LINE
  5
36CF
330
1E
100
AcDbEntity
  8
7
100
AcDbLine
 10
2.131527961150323
 20
7.363900725187942
 30
0.0
 11
2.126281937528276
 21
7.408491925975345
 31
0.0
  0
LINE
  5
36D0
330
1E
100
AcDbEntity
  8
7
100
AcDbLine
 10
2.126281937528276
 20
7.408491925975345
 30
0.0
 11
2.109232360756623
 21
7.450460114951722
 31
0.0
  0
LINE
  5
36D1
330
1E
100
AcDbEntity
  8
7
100
AcDbLine
 10
2.109232360756623
 20
7.450460114951722
 30
0.0
 11
2.084313748551898
 21
7.487182280306052
 31
0.0
  0
LINE
  5
36D2
330
1E
100
AcDbEntity
  8
7
100
AcDbLine
 10
2.084313748551898
 20
7.487182280306052
 30
0.0
 11
2.050214595008592
 21
7.516035410227312
 31
0.0
  0
LINE
  5
36D3
330
1E
100
AcDbEntity
  8
7
100
AcDbLine
 10
2.050214595008592
 20
7.516035410227312
 30
0.0
 11
2.010869417843237
 21
7.537019504715501
 31
0.0
  0
LINE
  5
36D4
330
1E
100
AcDbEntity
  8
7
100
AcDbLine
 10
2.010869417843237
 20
7.537019504715501
 30
0.0
 11
1.967589722961347
 21
7.547511551959596
 31
0.0
  0
LINE
  5
36D5
330
1E
100
AcDbEntity
  8
7
100
AcDbLine
 10
1.967589722961347
 20
7.547511551959596
 30
0.0
 11
1.922998522173946
 21
7.547511551959596
 31
0.0
  0
LINE
  5
36D6
330
1E
100
AcDbEntity
  8
7
100
AcDbLine
 10
1.922998522173946
 20
7.547511551959596
 30
0.0
 11
1.879718827292056
 21
7.537019504715501
 31
0.0
  0
LINE
  5
36D7
330
1E
100
AcDbEntity
  8
7
100
AcDbLine
 10
1.879718827292056
 20
7.537019504715501
 30
0.0
 11
1.840373650126701
 21
7.516035410227312
 31
0.0
  0
LINE
  5
36D8
330
1E
100
AcDbEntity
  8
7
100
AcDbLine
 10
1.840373650126701
 20
7.516035410227312
 30
0.0
 11
1.806274496583395
 21
7.487182280306052
 31
0.0
  0
LINE
  5
36D9
330
1E
100
AcDbEntity
  8
7
100
AcDbLine
 10
1.806274496583395
 20
7.487182280306052
 30
0.0
 11
1.78135588437867
 21
7.450460114951722
 31
0.0
  0
LINE
  5
36DA
330
1E
100
AcDbEntity
  8
7
100
AcDbLine
 10
1.926933039890482
 20
7.177666886605265
 30
0.0
 11
1.971524240677883
 21
7.177666886605265
 31
0.0
  0
LINE
  5
36DB
330
1E
100
AcDbEntity
  8
7
100
AcDbLine
 10
1.971524240677883
 20
7.177666886605265
 30
0.0
 11
2.014803935559772
 21
7.189470439754872
 31
0.0
  0
LINE
  5
36DC
330
1E
100
AcDbEntity
  8
7
100
AcDbLine
 10
2.014803935559772
 20
7.189470439754872
 30
0.0
 11
2.054149112725126
 21
7.210454534243061
 31
0.0
  0
LINE
  5
36DD
330
1E
100
AcDbEntity
  8
7
100
AcDbLine
 10
2.054149112725126
 20
7.210454534243061
 30
0.0
 11
2.086936760362922
 21
7.240619170069833
 31
0.0
  0
LINE
  5
36DE
330
1E
100
AcDbEntity
  8
7
100
AcDbLine
 10
2.086936760362922
 20
7.240619170069833
 30
0.0
 11
2.111855372567647
 21
7.278652841329675
 31
0.0
  0
LINE
  5
36DF
330
1E
100
AcDbEntity
  8
7
100
AcDbLine
 10
2.111855372567647
 20
7.278652841329675
 30
0.0
 11
2.126281937528276
 21
7.320621030306053
 31
0.0
  0
LINE
  5
36E0
330
1E
100
AcDbEntity
  8
7
100
AcDbLine
 10
2.126281937528276
 20
7.320621030306053
 30
0.0
 11
2.131527961150323
 21
7.363900725187942
 31
0.0
  0
LINE
  5
36E1
330
1E
100
AcDbEntity
  8
7
100
AcDbLine
 10
1.776109860756623
 20
7.439968067707628
 30
0.0
 11
1.776109860756623
 21
7.438656561802116
 31
0.0
  0
LINE
  5
36E2
330
1E
100
AcDbEntity
  8
7
100
AcDbLine
 10
1.776109860756623
 20
7.438656561802116
 30
0.0
 11
1.774798354851111
 21
7.438656561802116
 31
0.0
  0
LINE
  5
36E3
330
1E
100
AcDbEntity
  8
7
100
AcDbLine
 10
0.8265795851660717
 20
7.408491925975345
 30
0.0
 11
0.8213335615440247
 21
7.363900725187942
 31
0.0
  0
LINE
  5
36E4
330
1E
100
AcDbEntity
  8
7
100
AcDbLine
 10
0.8213335615440247
 20
7.363900725187942
 30
0.0
 11
0.8265795851660717
 21
7.320621030306053
 31
0.0
  0
LINE
  5
36E5
330
1E
100
AcDbEntity
  8
7
100
AcDbLine
 10
0.8265795851660717
 20
7.320621030306053
 30
0.0
 11
0.8410061501267019
 21
7.278652841329675
 31
0.0
  0
LINE
  5
36E6
330
1E
100
AcDbEntity
  8
7
100
AcDbLine
 10
0.8410061501267019
 20
7.278652841329675
 30
0.0
 11
0.8659247623314264
 21
7.240619170069833
 31
0.0
  0
LINE
  5
36E7
330
1E
100
AcDbEntity
  8
7
100
AcDbLine
 10
0.8659247623314264
 20
7.240619170069833
 30
0.0
 11
0.8987124099692213
 21
7.210454534243061
 31
0.0
  0
LINE
  5
36E8
330
1E
100
AcDbEntity
  8
7
100
AcDbLine
 10
0.8987124099692213
 20
7.210454534243061
 30
0.0
 11
0.9380575871345758
 21
7.189470439754872
 31
0.0
  0
LINE
  5
36E9
330
1E
100
AcDbEntity
  8
7
100
AcDbLine
 10
0.9380575871345758
 20
7.189470439754872
 30
0.0
 11
0.9813372820164655
 21
7.177666886605265
 31
0.0
  0
LINE
  5
36EA
330
1E
100
AcDbEntity
  8
7
100
AcDbLine
 10
0.9813372820164655
 20
7.177666886605265
 30
0.0
 11
1.025928482803867
 21
7.177666886605265
 31
0.0
  0
LINE
  5
36EB
330
1E
100
AcDbEntity
  8
7
100
AcDbLine
 10
1.171505638315678
 20
7.450460114951722
 30
0.0
 11
1.146587026110953
 21
7.487182280306052
 31
0.0
  0
LINE
  5
36EC
330
1E
100
AcDbEntity
  8
7
100
AcDbLine
 10
1.146587026110953
 20
7.487182280306052
 30
0.0
 11
1.112487872567646
 21
7.516035410227312
 31
0.0
  0
LINE
  5
36ED
330
1E
100
AcDbEntity
  8
7
100
AcDbLine
 10
1.112487872567646
 20
7.516035410227312
 30
0.0
 11
1.073142695402292
 21
7.537019504715501
 31
0.0
  0
LINE
  5
36EE
330
1E
100
AcDbEntity
  8
7
100
AcDbLine
 10
1.073142695402292
 20
7.537019504715501
 30
0.0
 11
1.029863000520402
 21
7.547511551959596
 31
0.0
  0
LINE
  5
36EF
330
1E
100
AcDbEntity
  8
7
100
AcDbLine
 10
1.029863000520402
 20
7.547511551959596
 30
0.0
 11
0.9852717997330007
 21
7.547511551959596
 31
0.0
  0
LINE
  5
36F0
330
1E
100
AcDbEntity
  8
7
100
AcDbLine
 10
0.9852717997330007
 20
7.547511551959596
 30
0.0
 11
0.9419921048511108
 21
7.537019504715501
 31
0.0
  0
LINE
  5
36F1
330
1E
100
AcDbEntity
  8
7
100
AcDbLine
 10
0.9419921048511108
 20
7.537019504715501
 30
0.0
 11
0.9026469276857573
 21
7.516035410227312
 31
0.0
  0
LINE
  5
36F2
330
1E
100
AcDbEntity
  8
7
100
AcDbLine
 10
0.9026469276857573
 20
7.516035410227312
 30
0.0
 11
0.8685477741424495
 21
7.487182280306052
 31
0.0
  0
LINE
  5
36F3
330
1E
100
AcDbEntity
  8
7
100
AcDbLine
 10
0.8685477741424495
 20
7.487182280306052
 30
0.0
 11
0.8436291619377254
 21
7.450460114951722
 31
0.0
  0
LINE
  5
36F4
330
1E
100
AcDbEntity
  8
7
100
AcDbLine
 10
0.8436291619377254
 20
7.450460114951722
 30
0.0
 11
0.8265795851660717
 21
7.408491925975345
 31
0.0
  0
LINE
  5
36F5
330
1E
100
AcDbEntity
  8
7
100
AcDbLine
 10
1.178063167843237
 20
7.438656561802116
 30
0.0
 11
1.176751661937725
 21
7.438656561802116
 31
0.0
  0
LINE
  5
36F6
330
1E
100
AcDbEntity
  8
7
100
AcDbLine
 10
1.176751661937725
 20
7.438656561802116
 30
0.0
 11
1.176751661937725
 21
7.439968067707628
 31
0.0
  0
ENDSEC
  0
SECTION
  2
OBJECTS
  0
DICTIONARY
  5
C
330
0
100
AcDbDictionary
  3
ACAD_GROUP
350
D
  3
ACAD_LAYOUT
350
19
  3
ACAD_MLINESTYLE
350
16
  3
ACAD_PLOTSETTINGS
350
18
1001
ACAD
1000
TREAT_AS_HARD
1070
     0
  0
DICTIONARY
  5
4CAB
330
1E
100
AcDbDictionary
  3
ACAD_LAYOUTSELFREF
350
4D26
1001
ACAD
1000
TREAT_AS_HARD
1070
     1
  0
DICTIONARY
  5
4CAD
330
1A
100
AcDbDictionary
  3
ACAD_LAYOUTSELFREF
350
4D25
1001
ACAD
1000
TREAT_AS_HARD
1070
     1
  0
DICTIONARY
  5
D
102
{ACAD_REACTORS
330
C
102
}
330
C
100
AcDbDictionary
1001
ACAD
1000
TREAT_AS_HARD
1070
     0
  0
DICTIONARY
  5
19
102
{ACAD_REACTORS
330
C
102
}
330
C
100
AcDbDictionary
1001
ACAD
1000
TREAT_AS_HARD
1070
     0
  0
DICTIONARY
  5
16
102
{ACAD_REACTORS
330
C
102
}
330
C
100
AcDbDictionary
  3
STANDARD
350
17
1001
ACAD
1000
TREAT_AS_HARD
1070
     0
  0
DICTIONARY
  5
18
102
{ACAD_REACTORS
330
C
102
}
330
C
100
AcDbDictionary
1001
ACAD
1000
TREAT_AS_HARD
1070
     0
  0
XRECORD
  5
4D26
102
{ACAD_REACTORS
330
4CAB
102
}
330
4CAB
100
AcDbXrecord
340
1E
  0
XRECORD
  5
4D25
102
{ACAD_REACTORS
330
4CAD
102
}
330
4CAD
100
AcDbXrecord
340
1A
  0
MLINESTYLE
  5
17
102
{ACAD_REACTORS
330
16
102
}
330
16
100
AcDbMlineStyle
  2
STANDARD
 70
     0
  3

 62
   256
 51
90.0
 52
90.0
 71
     2
 49
0.5
 62
   256
  6
BYLAYER
 49
-0.5
 62
   256
  6
BYLAYER
  0
ENDSEC
  0
EOF
