  0
SECTION
  2
HEADER
  9
$ACADVER
  1
AC1014
  9
$ACADMAINTVER
 70
     9
  9
$DWGCODEPAGE
  3
ANSI_1252
  9
$INSBASE
 10
0.0
 20
0.0
 30
0.0
  9
$EXTMIN
 10
4.380032406044795
 20
1.108850256502976
 30
-0.0015258207003612
  9
$EXTMAX
 10
52.59007987814117
 20
32.83359000574666
 30
0.0000000349246008
  9
$LIMMIN
 10
0.0
 20
0.0
  9
$LIMMAX
 10
12.0
 20
9.0
  9
$ORTHOMODE
 70
     0
  9
$REGENMODE
 70
     1
  9
$FILLMODE
 70
     1
  9
$QTEXTMODE
 70
     0
  9
$MIRRTEXT
 70
     1
  9
$DRAGMODE
 70
     2
  9
$LTSCALE
 40
1.0
  9
$OSMODE
 70
    37
  9
$ATTMODE
 70
     1
  9
$TEXTSIZE
 40
0.2
  9
$TRACEWID
 40
0.05
  9
$TEXTSTYLE
  7
STANDARD
  9
$CLAYER
  8
0
  9
$CELTYPE
  6
BYLAYER
  9
$CECOLOR
 62
   256
  9
$CELTSCALE
 40
1.0
  9
$DELOBJ
 70
     1
  9
$DISPSILH
 70
     0
  9
$DIMSCALE
 40
1.0
  9
$DIMASZ
 40
0.18
  9
$DIMEXO
 40
0.0625
  9
$DIMDLI
 40
0.38
  9
$DIMRND
 40
0.0
  9
$DIMDLE
 40
0.0
  9
$DIMEXE
 40
0.18
  9
$DIMTP
 40
0.0
  9
$DIMTM
 40
0.0
  9
$DIMTXT
 40
0.18
  9
$DIMCEN
 40
0.09
  9
$DIMTSZ
 40
0.0
  9
$DIMTOL
 70
     0
  9
$DIMLIM
 70
     0
  9
$DIMTIH
 70
     1
  9
$DIMTOH
 70
     1
  9
$DIMSE1
 70
     0
  9
$DIMSE2
 70
     0
  9
$DIMTAD
 70
     0
  9
$DIMZIN
 70
     0
  9
$DIMBLK
  1

  9
$DIMASO
 70
     1
  9
$DIMSHO
 70
     1
  9
$DIMPOST
  1

  9
$DIMAPOST
  1

  9
$DIMALT
 70
     0
  9
$DIMALTD
 70
     2
  9
$DIMALTF
 40
25.4
  9
$DIMLFAC
 40
1.0
  9
$DIMTOFL
 70
     0
  9
$DIMTVP
 40
0.0
  9
$DIMTIX
 70
     0
  9
$DIMSOXD
 70
     0
  9
$DIMSAH
 70
     0
  9
$DIMBLK1
  1

  9
$DIMBLK2
  1

  9
$DIMSTYLE
  2
STANDARD
  9
$DIMCLRD
 70
     0
  9
$DIMCLRE
 70
     0
  9
$DIMCLRT
 70
     0
  9
$DIMTFAC
 40
1.0
  9
$DIMGAP
 40
0.09
  9
$DIMJUST
 70
     0
  9
$DIMSD1
 70
     0
  9
$DIMSD2
 70
     0
  9
$DIMTOLJ
 70
     1
  9
$DIMTZIN
 70
     0
  9
$DIMALTZ
 70
     0
  9
$DIMALTTZ
 70
     0
  9
$DIMFIT
 70
     5
  9
$DIMUPT
 70
     0
  9
$DIMUNIT
 70
     2
  9
$DIMDEC
 70
     4
  9
$DIMTDEC
 70
     4
  9
$DIMALTU
 70
     2
  9
$DIMALTTD
 70
     2
  9
$DIMTXSTY
  7
STANDARD
  9
$DIMAUNIT
 70
     0
  9
$LUNITS
 70
     2
  9
$LUPREC
 70
     4
  9
$SKETCHINC
 40
0.1
  9
$FILLETRAD
 40
0.0
  9
$AUNITS
 70
     0
  9
$AUPREC
 70
     0
  9
$MENU
  1
acad
  9
$ELEVATION
 40
0.0
  9
$PELEVATION
 40
0.0
  9
$THICKNESS
 40
0.0
  9
$LIMCHECK
 70
     0
  9
$BLIPMODE
 70
     0
  9
$CHAMFERA
 40
0.0
  9
$CHAMFERB
 40
0.0
  9
$CHAMFERC
 40
0.0
  9
$CHAMFERD
 40
0.0
  9
$SKPOLY
 70
     0
  9
$TDCREATE
 40
2452877.602604166
  9
$TDUPDATE
 40
2452877.607025822
  9
$TDINDWG
 40
0.0028902662
  9
$TDUSRTIMER
 40
0.0028902662
  9
$USRTIMER
 70
     1
  9
$ANGBASE
 50
0.0
  9
$ANGDIR
 70
     0
  9
$PDMODE
 70
     0
  9
$PDSIZE
 40
0.0
  9
$PLINEWID
 40
0.0
  9
$COORDS
 70
     1
  9
$SPLFRAME
 70
     0
  9
$SPLINETYPE
 70
     6
  9
$SPLINESEGS
 70
     8
  9
$ATTDIA
 70
     0
  9
$ATTREQ
 70
     1
  9
$HANDLING
 70
-16383
  9
$HANDSEED
  5
B8F
  9
$SURFTAB1
 70
     6
  9
$SURFTAB2
 70
     6
  9
$SURFTYPE
 70
     6
  9
$SURFU
 70
     6
  9
$SURFV
 70
     6
  9
$UCSNAME
  2

  9
$UCSORG
 10
0.0
 20
0.0
 30
0.0
  9
$UCSXDIR
 10
1.0
 20
0.0
 30
0.0
  9
$UCSYDIR
 10
0.0
 20
1.0
 30
0.0
  9
$PUCSNAME
  2

  9
$PUCSORG
 10
0.0
 20
0.0
 30
0.0
  9
$PUCSXDIR
 10
1.0
 20
0.0
 30
0.0
  9
$PUCSYDIR
 10
0.0
 20
1.0
 30
0.0
  9
$USERI1
 70
     0
  9
$USERI2
 70
     0
  9
$USERI3
 70
     0
  9
$USERI4
 70
     0
  9
$USERI5
 70
     0
  9
$USERR1
 40
0.0
  9
$USERR2
 40
0.0
  9
$USERR3
 40
0.0
  9
$USERR4
 40
0.0
  9
$USERR5
 40
0.0
  9
$WORLDVIEW
 70
     1
  9
$SHADEDGE
 70
     3
  9
$SHADEDIF
 70
    70
  9
$TILEMODE
 70
     1
  9
$MAXACTVP
 70
    16
  9
$PINSBASE
 10
0.0
 20
0.0
 30
0.0
  9
$PLIMCHECK
 70
     0
  9
$PEXTMIN
 10
1.000000000000000E+20
 20
1.000000000000000E+20
 30
1.000000000000000E+20
  9
$PEXTMAX
 10
-1.000000000000000E+20
 20
-1.000000000000000E+20
 30
-1.000000000000000E+20
  9
$PLIMMIN
 10
0.0
 20
0.0
  9
$PLIMMAX
 10
12.0
 20
9.0
  9
$UNITMODE
 70
     0
  9
$VISRETAIN
 70
     0
  9
$PLINEGEN
 70
     0
  9
$PSLTSCALE
 70
     1
  9
$TREEDEPTH
 70
  3020
  9
$PICKSTYLE
 70
     1
  9
$CMLSTYLE
  2
STANDARD
  9
$CMLJUST
 70
     0
  9
$CMLSCALE
 40
1.0
  9
$PROXYGRAPHICS
 70
     1
  9
$MEASUREMENT
 70
     0
  0
ENDSEC
  0
SECTION
  2
CLASSES
  0
CLASS
  1
ACDBDICTIONARYWDFLT
  2
AcDbDictionaryWithDefault
  3
AutoCAD 2000
 90
        0
280
     0
281
     0
  0
CLASS
  1
ACDBPLACEHOLDER
  2
AcDbPlaceHolder
  3
AutoCAD 2000
 90
        0
280
     0
281
     0
  0
CLASS
  1
LAYOUT
  2
AcDbLayout
  3
AutoCAD 2000
 90
        0
280
     0
281
     0
  0
CLASS
  1
LONG_TRANSACTION
  2
AcDbLongTransaction
  3
AutoCAD 2000
 90
        0
280
     0
281
     0
  0
CLASS
  1
LWPOLYLINE
  2
AcDbPolyline
  3
AutoCAD 2000
 90
        0
280
     0
281
     1
  0
CLASS
  1
HATCH
  2
AcDbHatch
  3
AutoCAD 2000
 90
        0
280
     0
281
     1
  0
CLASS
  1
XRECORD
  2
AcDbXrecord
  3
AutoCAD 2000
 90
        0
280
     0
281
     0
  0
ENDSEC
  0
SECTION
  2
TABLES
  0
TABLE
  2
VPORT
  5
8
330
0
100
AcDbSymbolTable
 70
     3
  0
VPORT
  5
B69
330
8
100
AcDbSymbolTableRecord
100
AcDbViewportTableRecord
  2
*ACTIVE
 70
     0
 10
0.0
 20
0.0
 11
1.0
 21
1.0
 12
28.48505614209297
 22
16.97122013112481
 13
0.0
 23
0.0
 14
1.0
 24
1.0
 15
0.0
 25
0.0
 16
0.0
 26
0.0
 36
1.0
 17
0.0
 27
0.0
 37
0.0
 40
33.24152405709214
 41
1.457711442786069
 42
50.0
 43
0.0
 44
0.0
 50
0.0
 51
0.0
 71
     0
 72
   100
 73
     1
 74
     1
 75
     0
 76
     0
 77
     0
 78
     0
  0
ENDTAB
  0
TABLE
  2
LTYPE
  5
5
330
0
100
AcDbSymbolTable
 70
    25
  0
LTYPE
  5
13
330
5
100
AcDbSymbolTableRecord
100
AcDbLinetypeTableRecord
  2
BYBLOCK
 70
     0
  3

 72
    65
 73
     0
 40
0.0
  0
LTYPE
  5
14
330
5
100
AcDbSymbolTableRecord
100
AcDbLinetypeTableRecord
  2
BYLAYER
 70
     0
  3

 72
    65
 73
     0
 40
0.0
  0
LTYPE
  5
15
330
5
100
AcDbSymbolTableRecord
100
AcDbLinetypeTableRecord
  2
CONTINUOUS
 70
     0
  3
Solid line
 72
    65
 73
     0
 40
0.0
  0
LTYPE
  5
22
330
5
100
AcDbSymbolTableRecord
100
AcDbLinetypeTableRecord
  2
BORDER
 70
     0
  3
__ __ . __ __ . __ __ . __ __ . __ __ . __ __ .
 72
    65
 73
     6
 40
1.75
 49
0.5
 74
     0
 49
-0.25
 74
     0
 49
0.5
 74
     0
 49
-0.25
 74
     0
 49
0.5
 74
     0
 49
-0.25
 74
     0
  0
LTYPE
  5
23
330
5
100
AcDbSymbolTableRecord
100
AcDbLinetypeTableRecord
  2
BORDER2
 70
     0
  3
__.__.__.__.__.__.__.__.__.__.__.__.__.__.__.__
 72
    65
 73
     6
 40
0.875
 49
0.25
 74
     0
 49
-0.125
 74
     0
 49
0.25
 74
     0
 49
-0.125
 74
     0
 49
0.25
 74
     0
 49
-0.125
 74
     0
  0
LTYPE
  5
24
330
5
100
AcDbSymbolTableRecord
100
AcDbLinetypeTableRecord
  2
BORDERX2
 70
     0
  3
____  ____  .  ____  ____  .  
 72
    65
 73
     6
 40
3.5
 49
1.0
 74
     0
 49
-0.5
 74
     0
 49
1.0
 74
     0
 49
-0.5
 74
     0
 49
1.0
 74
     0
 49
-0.5
 74
     0
  0
LTYPE
  5
25
330
5
100
AcDbSymbolTableRecord
100
AcDbLinetypeTableRecord
  2
CENTER
 70
     0
  3
____ _ ____ _ ____ _ ____ _ ____ _ ____ _ ____
 72
    65
 73
     4
 40
2.0
 49
1.25
 74
     0
 49
-0.25
 74
     0
 49
0.25
 74
     0
 49
-0.25
 74
     0
  0
LTYPE
  5
26
330
5
100
AcDbSymbolTableRecord
100
AcDbLinetypeTableRecord
  2
CENTER2
 70
     0
  3
____ _ ____ _ ____ _ ____ _ ____ _ ____ _ ____
 72
    65
 73
     4
 40
1.125
 49
0.75
 74
     0
 49
-0.125
 74
     0
 49
0.125
 74
     0
 49
-0.125
 74
     0
  0
LTYPE
  5
27
330
5
100
AcDbSymbolTableRecord
100
AcDbLinetypeTableRecord
  2
CENTERX2
 70
     0
  3
________  __  ________  __  ________  __  
 72
    65
 73
     4
 40
4.0
 49
2.5
 74
     0
 49
-0.5
 74
     0
 49
0.5
 74
     0
 49
-0.5
 74
     0
  0
LTYPE
  5
28
330
5
100
AcDbSymbolTableRecord
100
AcDbLinetypeTableRecord
  2
DASHDOT
 70
     0
  3
__ . __ . __ . __ . __ . __ . __ . 
 72
    65
 73
     4
 40
1.0
 49
0.5
 74
     0
 49
-0.25
 74
     0
 49
0.0
 74
     0
 49
-0.25
 74
     0
  0
LTYPE
  5
29
330
5
100
AcDbSymbolTableRecord
100
AcDbLinetypeTableRecord
  2
DASHDOT2
 70
     0
  3
_._._._._._._._._._._._._._._._.
 72
    65
 73
     4
 40
0.5
 49
0.25
 74
     0
 49
-0.125
 74
     0
 49
0.0
 74
     0
 49
-0.125
 74
     0
  0
LTYPE
  5
2A
330
5
100
AcDbSymbolTableRecord
100
AcDbLinetypeTableRecord
  2
DASHDOTX2
 70
     0
  3
____  .  ____  .  ____  .  ____  .  
 72
    65
 73
     4
 40
2.0
 49
1.0
 74
     0
 49
-0.5
 74
     0
 49
0.0
 74
     0
 49
-0.5
 74
     0
  0
LTYPE
  5
2B
330
5
100
AcDbSymbolTableRecord
100
AcDbLinetypeTableRecord
  2
DASHED
 70
     0
  3
__ __ __ __ __ __ __ __ __ __ __ __ 
 72
    65
 73
     2
 40
0.75
 49
0.5
 74
     0
 49
-0.25
 74
     0
  0
LTYPE
  5
2C
330
5
100
AcDbSymbolTableRecord
100
AcDbLinetypeTableRecord
  2
DASHED2
 70
     0
  3
_ _ _ _ _ _ _ _ _ _ _ _ _ _ _ _ _ _ 
 72
    65
 73
     2
 40
0.375
 49
0.25
 74
     0
 49
-0.125
 74
     0
  0
LTYPE
  5
2D
330
5
100
AcDbSymbolTableRecord
100
AcDbLinetypeTableRecord
  2
DASHEDX2
 70
     0
  3
____  ____  ____  ____  ____  ____  
 72
    65
 73
     2
 40
1.5
 49
1.0
 74
     0
 49
-0.5
 74
     0
  0
LTYPE
  5
2E
330
5
100
AcDbSymbolTableRecord
100
AcDbLinetypeTableRecord
  2
DIVIDE
 70
     0
  3
____ . . ____ . . ____ . . ____ . . 
 72
    65
 73
     6
 40
1.25
 49
0.5
 74
     0
 49
-0.25
 74
     0
 49
0.0
 74
     0
 49
-0.25
 74
     0
 49
0.0
 74
     0
 49
-0.25
 74
     0
  0
LTYPE
  5
2F
330
5
100
AcDbSymbolTableRecord
100
AcDbLinetypeTableRecord
  2
DIVIDE2
 70
     0
  3
__..__..__..__..__..__..__..__..__..
 72
    65
 73
     6
 40
0.625
 49
0.25
 74
     0
 49
-0.125
 74
     0
 49
0.0
 74
     0
 49
-0.125
 74
     0
 49
0.0
 74
     0
 49
-0.125
 74
     0
  0
LTYPE
  5
30
330
5
100
AcDbSymbolTableRecord
100
AcDbLinetypeTableRecord
  2
DIVIDEX2
 70
     0
  3
________  .  .  ________  .  .  ________  .  . 
 72
    65
 73
     6
 40
2.5
 49
1.0
 74
     0
 49
-0.5
 74
     0
 49
0.0
 74
     0
 49
-0.5
 74
     0
 49
0.0
 74
     0
 49
-0.5
 74
     0
  0
LTYPE
  5
31
330
5
100
AcDbSymbolTableRecord
100
AcDbLinetypeTableRecord
  2
DOT
 70
     0
  3
. . . . . . . . . . . . . . . . . . 
 72
    65
 73
     2
 40
0.25
 49
0.0
 74
     0
 49
-0.25
 74
     0
  0
LTYPE
  5
32
330
5
100
AcDbSymbolTableRecord
100
AcDbLinetypeTableRecord
  2
DOT2
 70
     0
  3
....................................
 72
    65
 73
     2
 40
0.125
 49
0.0
 74
     0
 49
-0.125
 74
     0
  0
LTYPE
  5
33
330
5
100
AcDbSymbolTableRecord
100
AcDbLinetypeTableRecord
  2
DOTX2
 70
     0
  3
.  .  .  .  .  .  .  .  .  .  .  .  .  
 72
    65
 73
     2
 40
0.5
 49
0.0
 74
     0
 49
-0.5
 74
     0
  0
LTYPE
  5
34
330
5
100
AcDbSymbolTableRecord
100
AcDbLinetypeTableRecord
  2
HIDDEN
 70
     0
  3
__ __ __ __ __ __ __ __ __ __ __ __ 
 72
    65
 73
     2
 40
0.375
 49
0.25
 74
     0
 49
-0.125
 74
     0
  0
LTYPE
  5
35
330
5
100
AcDbSymbolTableRecord
100
AcDbLinetypeTableRecord
  2
HIDDEN2
 70
     0
  3
_ _ _ _ _ _ _ _ _ _ _ _ _ _ _ _ _ _ 
 72
    65
 73
     2
 40
0.1875
 49
0.125
 74
     0
 49
-0.0625
 74
     0
  0
LTYPE
  5
36
330
5
100
AcDbSymbolTableRecord
100
AcDbLinetypeTableRecord
  2
HIDDENX2
 70
     0
  3
____ ____ ____ ____ ____ ____ ____ 
 72
    65
 73
     2
 40
0.75
 49
0.5
 74
     0
 49
-0.25
 74
     0
  0
LTYPE
  5
37
330
5
100
AcDbSymbolTableRecord
100
AcDbLinetypeTableRecord
  2
PHANTOM
 70
     0
  3
______  __  __  ______  __  __  
 72
    65
 73
     6
 40
2.5
 49
1.25
 74
     0
 49
-0.25
 74
     0
 49
0.25
 74
     0
 49
-0.25
 74
     0
 49
0.25
 74
     0
 49
-0.25
 74
     0
  0
LTYPE
  5
38
330
5
100
AcDbSymbolTableRecord
100
AcDbLinetypeTableRecord
  2
PHANTOM2
 70
     0
  3
___ _ _ ___ _ _ ___ _ _ ___ _ _ 
 72
    65
 73
     6
 40
1.25
 49
0.625
 74
     0
 49
-0.125
 74
     0
 49
0.125
 74
     0
 49
-0.125
 74
     0
 49
0.125
 74
     0
 49
-0.125
 74
     0
  0
LTYPE
  5
39
330
5
100
AcDbSymbolTableRecord
100
AcDbLinetypeTableRecord
  2
PHANTOMX2
 70
     0
  3
___ _ _ ___ _ _ ___ _ _ ___ _ _ 
 72
    65
 73
     6
 40
5.0
 49
2.5
 74
     0
 49
-0.5
 74
     0
 49
0.5
 74
     0
 49
-0.5
 74
     0
 49
0.5
 74
     0
 49
-0.5
 74
     0
  0
ENDTAB
  0
TABLE
  2
LAYER
  5
2
330
0
100
AcDbSymbolTable
 70
   256
  0
LAYER
  5
10
330
2
100
AcDbSymbolTableRecord
100
AcDbLayerTableRecord
  2
0
 70
     0
 62
     7
  6
CONTINUOUS
  0
LAYER
  5
3A
330
2
100
AcDbSymbolTableRecord
100
AcDbLayerTableRecord
  2
1
 70
     0
 62
     1
  6
CONTINUOUS
  0
LAYER
  5
3B
330
2
100
AcDbSymbolTableRecord
100
AcDbLayerTableRecord
  2
2
 70
     0
 62
     2
  6
CONTINUOUS
  0
LAYER
  5
3C
330
2
100
AcDbSymbolTableRecord
100
AcDbLayerTableRecord
  2
3
 70
     0
 62
     3
  6
CONTINUOUS
  0
LAYER
  5
3D
330
2
100
AcDbSymbolTableRecord
100
AcDbLayerTableRecord
  2
4
 70
     0
 62
     4
  6
CONTINUOUS
  0
LAYER
  5
3E
330
2
100
AcDbSymbolTableRecord
100
AcDbLayerTableRecord
  2
5
 70
     0
 62
     5
  6
CONTINUOUS
  0
LAYER
  5
3F
330
2
100
AcDbSymbolTableRecord
100
AcDbLayerTableRecord
  2
6
 70
     0
 62
     6
  6
CONTINUOUS
  0
LAYER
  5
40
330
2
100
AcDbSymbolTableRecord
100
AcDbLayerTableRecord
  2
7
 70
     0
 62
     7
  6
CONTINUOUS
  0
LAYER
  5
41
330
2
100
AcDbSymbolTableRecord
100
AcDbLayerTableRecord
  2
8
 70
     0
 62
     8
  6
CONTINUOUS
  0
LAYER
  5
42
330
2
100
AcDbSymbolTableRecord
100
AcDbLayerTableRecord
  2
9
 70
     0
 62
     9
  6
CONTINUOUS
  0
LAYER
  5
43
330
2
100
AcDbSymbolTableRecord
100
AcDbLayerTableRecord
  2
10
 70
     0
 62
    10
  6
CONTINUOUS
  0
LAYER
  5
44
330
2
100
AcDbSymbolTableRecord
100
AcDbLayerTableRecord
  2
11
 70
     0
 62
    11
  6
CONTINUOUS
  0
LAYER
  5
45
330
2
100
AcDbSymbolTableRecord
100
AcDbLayerTableRecord
  2
12
 70
     0
 62
    12
  6
CONTINUOUS
  0
LAYER
  5
46
330
2
100
AcDbSymbolTableRecord
100
AcDbLayerTableRecord
  2
13
 70
     0
 62
    13
  6
CONTINUOUS
  0
LAYER
  5
47
330
2
100
AcDbSymbolTableRecord
100
AcDbLayerTableRecord
  2
14
 70
     0
 62
    14
  6
CONTINUOUS
  0
LAYER
  5
48
330
2
100
AcDbSymbolTableRecord
100
AcDbLayerTableRecord
  2
15
 70
     0
 62
    15
  6
CONTINUOUS
  0
LAYER
  5
49
330
2
100
AcDbSymbolTableRecord
100
AcDbLayerTableRecord
  2
16
 70
     0
 62
    16
  6
CONTINUOUS
  0
LAYER
  5
4A
330
2
100
AcDbSymbolTableRecord
100
AcDbLayerTableRecord
  2
17
 70
     0
 62
    17
  6
CONTINUOUS
  0
LAYER
  5
4B
330
2
100
AcDbSymbolTableRecord
100
AcDbLayerTableRecord
  2
18
 70
     0
 62
    18
  6
CONTINUOUS
  0
LAYER
  5
4C
330
2
100
AcDbSymbolTableRecord
100
AcDbLayerTableRecord
  2
19
 70
     0
 62
    19
  6
CONTINUOUS
  0
LAYER
  5
4D
330
2
100
AcDbSymbolTableRecord
100
AcDbLayerTableRecord
  2
20
 70
     0
 62
    20
  6
CONTINUOUS
  0
LAYER
  5
4E
330
2
100
AcDbSymbolTableRecord
100
AcDbLayerTableRecord
  2
21
 70
     0
 62
    21
  6
CONTINUOUS
  0
LAYER
  5
4F
330
2
100
AcDbSymbolTableRecord
100
AcDbLayerTableRecord
  2
22
 70
     0
 62
    22
  6
CONTINUOUS
  0
LAYER
  5
50
330
2
100
AcDbSymbolTableRecord
100
AcDbLayerTableRecord
  2
23
 70
     0
 62
    23
  6
CONTINUOUS
  0
LAYER
  5
51
330
2
100
AcDbSymbolTableRecord
100
AcDbLayerTableRecord
  2
24
 70
     0
 62
    24
  6
CONTINUOUS
  0
LAYER
  5
52
330
2
100
AcDbSymbolTableRecord
100
AcDbLayerTableRecord
  2
25
 70
     0
 62
    25
  6
CONTINUOUS
  0
LAYER
  5
53
330
2
100
AcDbSymbolTableRecord
100
AcDbLayerTableRecord
  2
26
 70
     0
 62
    26
  6
CONTINUOUS
  0
LAYER
  5
54
330
2
100
AcDbSymbolTableRecord
100
AcDbLayerTableRecord
  2
27
 70
     0
 62
    27
  6
CONTINUOUS
  0
LAYER
  5
55
330
2
100
AcDbSymbolTableRecord
100
AcDbLayerTableRecord
  2
28
 70
     0
 62
    28
  6
CONTINUOUS
  0
LAYER
  5
56
330
2
100
AcDbSymbolTableRecord
100
AcDbLayerTableRecord
  2
29
 70
     0
 62
    29
  6
CONTINUOUS
  0
LAYER
  5
57
330
2
100
AcDbSymbolTableRecord
100
AcDbLayerTableRecord
  2
30
 70
     0
 62
    30
  6
CONTINUOUS
  0
LAYER
  5
58
330
2
100
AcDbSymbolTableRecord
100
AcDbLayerTableRecord
  2
31
 70
     0
 62
    31
  6
CONTINUOUS
  0
LAYER
  5
59
330
2
100
AcDbSymbolTableRecord
100
AcDbLayerTableRecord
  2
32
 70
     0
 62
    32
  6
CONTINUOUS
  0
LAYER
  5
5A
330
2
100
AcDbSymbolTableRecord
100
AcDbLayerTableRecord
  2
33
 70
     0
 62
    33
  6
CONTINUOUS
  0
LAYER
  5
5B
330
2
100
AcDbSymbolTableRecord
100
AcDbLayerTableRecord
  2
34
 70
     0
 62
    34
  6
CONTINUOUS
  0
LAYER
  5
5C
330
2
100
AcDbSymbolTableRecord
100
AcDbLayerTableRecord
  2
35
 70
     0
 62
    35
  6
CONTINUOUS
  0
LAYER
  5
5D
330
2
100
AcDbSymbolTableRecord
100
AcDbLayerTableRecord
  2
36
 70
     0
 62
    36
  6
CONTINUOUS
  0
LAYER
  5
5E
330
2
100
AcDbSymbolTableRecord
100
AcDbLayerTableRecord
  2
37
 70
     0
 62
    37
  6
CONTINUOUS
  0
LAYER
  5
5F
330
2
100
AcDbSymbolTableRecord
100
AcDbLayerTableRecord
  2
38
 70
     0
 62
    38
  6
CONTINUOUS
  0
LAYER
  5
60
330
2
100
AcDbSymbolTableRecord
100
AcDbLayerTableRecord
  2
39
 70
     0
 62
    39
  6
CONTINUOUS
  0
LAYER
  5
61
330
2
100
AcDbSymbolTableRecord
100
AcDbLayerTableRecord
  2
40
 70
     0
 62
    40
  6
CONTINUOUS
  0
LAYER
  5
62
330
2
100
AcDbSymbolTableRecord
100
AcDbLayerTableRecord
  2
41
 70
     0
 62
    41
  6
CONTINUOUS
  0
LAYER
  5
63
330
2
100
AcDbSymbolTableRecord
100
AcDbLayerTableRecord
  2
42
 70
     0
 62
    42
  6
CONTINUOUS
  0
LAYER
  5
64
330
2
100
AcDbSymbolTableRecord
100
AcDbLayerTableRecord
  2
43
 70
     0
 62
    43
  6
CONTINUOUS
  0
LAYER
  5
65
330
2
100
AcDbSymbolTableRecord
100
AcDbLayerTableRecord
  2
44
 70
     0
 62
    44
  6
CONTINUOUS
  0
LAYER
  5
66
330
2
100
AcDbSymbolTableRecord
100
AcDbLayerTableRecord
  2
45
 70
     0
 62
    45
  6
CONTINUOUS
  0
LAYER
  5
67
330
2
100
AcDbSymbolTableRecord
100
AcDbLayerTableRecord
  2
46
 70
     0
 62
    46
  6
CONTINUOUS
  0
LAYER
  5
68
330
2
100
AcDbSymbolTableRecord
100
AcDbLayerTableRecord
  2
47
 70
     0
 62
    47
  6
CONTINUOUS
  0
LAYER
  5
69
330
2
100
AcDbSymbolTableRecord
100
AcDbLayerTableRecord
  2
48
 70
     0
 62
    48
  6
CONTINUOUS
  0
LAYER
  5
6A
330
2
100
AcDbSymbolTableRecord
100
AcDbLayerTableRecord
  2
49
 70
     0
 62
    49
  6
CONTINUOUS
  0
LAYER
  5
6B
330
2
100
AcDbSymbolTableRecord
100
AcDbLayerTableRecord
  2
50
 70
     0
 62
    50
  6
CONTINUOUS
  0
LAYER
  5
6C
330
2
100
AcDbSymbolTableRecord
100
AcDbLayerTableRecord
  2
51
 70
     0
 62
    51
  6
CONTINUOUS
  0
LAYER
  5
6D
330
2
100
AcDbSymbolTableRecord
100
AcDbLayerTableRecord
  2
52
 70
     0
 62
    52
  6
CONTINUOUS
  0
LAYER
  5
6E
330
2
100
AcDbSymbolTableRecord
100
AcDbLayerTableRecord
  2
53
 70
     0
 62
    53
  6
CONTINUOUS
  0
LAYER
  5
6F
330
2
100
AcDbSymbolTableRecord
100
AcDbLayerTableRecord
  2
54
 70
     0
 62
    54
  6
CONTINUOUS
  0
LAYER
  5
70
330
2
100
AcDbSymbolTableRecord
100
AcDbLayerTableRecord
  2
55
 70
     0
 62
    55
  6
CONTINUOUS
  0
LAYER
  5
71
330
2
100
AcDbSymbolTableRecord
100
AcDbLayerTableRecord
  2
56
 70
     0
 62
    56
  6
CONTINUOUS
  0
LAYER
  5
72
330
2
100
AcDbSymbolTableRecord
100
AcDbLayerTableRecord
  2
57
 70
     0
 62
    57
  6
CONTINUOUS
  0
LAYER
  5
73
330
2
100
AcDbSymbolTableRecord
100
AcDbLayerTableRecord
  2
58
 70
     0
 62
    58
  6
CONTINUOUS
  0
LAYER
  5
74
330
2
100
AcDbSymbolTableRecord
100
AcDbLayerTableRecord
  2
59
 70
     0
 62
    59
  6
CONTINUOUS
  0
LAYER
  5
75
330
2
100
AcDbSymbolTableRecord
100
AcDbLayerTableRecord
  2
60
 70
     0
 62
    60
  6
CONTINUOUS
  0
LAYER
  5
76
330
2
100
AcDbSymbolTableRecord
100
AcDbLayerTableRecord
  2
61
 70
     0
 62
    61
  6
CONTINUOUS
  0
LAYER
  5
77
330
2
100
AcDbSymbolTableRecord
100
AcDbLayerTableRecord
  2
62
 70
     0
 62
    62
  6
CONTINUOUS
  0
LAYER
  5
78
330
2
100
AcDbSymbolTableRecord
100
AcDbLayerTableRecord
  2
63
 70
     0
 62
    63
  6
CONTINUOUS
  0
LAYER
  5
79
330
2
100
AcDbSymbolTableRecord
100
AcDbLayerTableRecord
  2
64
 70
     0
 62
    64
  6
CONTINUOUS
  0
LAYER
  5
7A
330
2
100
AcDbSymbolTableRecord
100
AcDbLayerTableRecord
  2
65
 70
     0
 62
    65
  6
CONTINUOUS
  0
LAYER
  5
7B
330
2
100
AcDbSymbolTableRecord
100
AcDbLayerTableRecord
  2
66
 70
     0
 62
    66
  6
CONTINUOUS
  0
LAYER
  5
7C
330
2
100
AcDbSymbolTableRecord
100
AcDbLayerTableRecord
  2
67
 70
     0
 62
    67
  6
CONTINUOUS
  0
LAYER
  5
7D
330
2
100
AcDbSymbolTableRecord
100
AcDbLayerTableRecord
  2
68
 70
     0
 62
    68
  6
CONTINUOUS
  0
LAYER
  5
7E
330
2
100
AcDbSymbolTableRecord
100
AcDbLayerTableRecord
  2
69
 70
     0
 62
    69
  6
CONTINUOUS
  0
LAYER
  5
7F
330
2
100
AcDbSymbolTableRecord
100
AcDbLayerTableRecord
  2
70
 70
     0
 62
    70
  6
CONTINUOUS
  0
LAYER
  5
80
330
2
100
AcDbSymbolTableRecord
100
AcDbLayerTableRecord
  2
71
 70
     0
 62
    71
  6
CONTINUOUS
  0
LAYER
  5
81
330
2
100
AcDbSymbolTableRecord
100
AcDbLayerTableRecord
  2
72
 70
     0
 62
    72
  6
CONTINUOUS
  0
LAYER
  5
82
330
2
100
AcDbSymbolTableRecord
100
AcDbLayerTableRecord
  2
73
 70
     0
 62
    73
  6
CONTINUOUS
  0
LAYER
  5
83
330
2
100
AcDbSymbolTableRecord
100
AcDbLayerTableRecord
  2
74
 70
     0
 62
    74
  6
CONTINUOUS
  0
LAYER
  5
84
330
2
100
AcDbSymbolTableRecord
100
AcDbLayerTableRecord
  2
75
 70
     0
 62
    75
  6
CONTINUOUS
  0
LAYER
  5
85
330
2
100
AcDbSymbolTableRecord
100
AcDbLayerTableRecord
  2
76
 70
     0
 62
    76
  6
CONTINUOUS
  0
LAYER
  5
86
330
2
100
AcDbSymbolTableRecord
100
AcDbLayerTableRecord
  2
77
 70
     0
 62
    77
  6
CONTINUOUS
  0
LAYER
  5
87
330
2
100
AcDbSymbolTableRecord
100
AcDbLayerTableRecord
  2
78
 70
     0
 62
    78
  6
CONTINUOUS
  0
LAYER
  5
88
330
2
100
AcDbSymbolTableRecord
100
AcDbLayerTableRecord
  2
79
 70
     0
 62
    79
  6
CONTINUOUS
  0
LAYER
  5
89
330
2
100
AcDbSymbolTableRecord
100
AcDbLayerTableRecord
  2
80
 70
     0
 62
    80
  6
CONTINUOUS
  0
LAYER
  5
8A
330
2
100
AcDbSymbolTableRecord
100
AcDbLayerTableRecord
  2
81
 70
     0
 62
    81
  6
CONTINUOUS
  0
LAYER
  5
8B
330
2
100
AcDbSymbolTableRecord
100
AcDbLayerTableRecord
  2
82
 70
     0
 62
    82
  6
CONTINUOUS
  0
LAYER
  5
8C
330
2
100
AcDbSymbolTableRecord
100
AcDbLayerTableRecord
  2
83
 70
     0
 62
    83
  6
CONTINUOUS
  0
LAYER
  5
8D
330
2
100
AcDbSymbolTableRecord
100
AcDbLayerTableRecord
  2
84
 70
     0
 62
    84
  6
CONTINUOUS
  0
LAYER
  5
8E
330
2
100
AcDbSymbolTableRecord
100
AcDbLayerTableRecord
  2
85
 70
     0
 62
    85
  6
CONTINUOUS
  0
LAYER
  5
8F
330
2
100
AcDbSymbolTableRecord
100
AcDbLayerTableRecord
  2
86
 70
     0
 62
    86
  6
CONTINUOUS
  0
LAYER
  5
90
330
2
100
AcDbSymbolTableRecord
100
AcDbLayerTableRecord
  2
87
 70
     0
 62
    87
  6
CONTINUOUS
  0
LAYER
  5
91
330
2
100
AcDbSymbolTableRecord
100
AcDbLayerTableRecord
  2
88
 70
     0
 62
    88
  6
CONTINUOUS
  0
LAYER
  5
92
330
2
100
AcDbSymbolTableRecord
100
AcDbLayerTableRecord
  2
89
 70
     0
 62
    89
  6
CONTINUOUS
  0
LAYER
  5
93
330
2
100
AcDbSymbolTableRecord
100
AcDbLayerTableRecord
  2
90
 70
     0
 62
    90
  6
CONTINUOUS
  0
LAYER
  5
94
330
2
100
AcDbSymbolTableRecord
100
AcDbLayerTableRecord
  2
91
 70
     0
 62
    91
  6
CONTINUOUS
  0
LAYER
  5
95
330
2
100
AcDbSymbolTableRecord
100
AcDbLayerTableRecord
  2
92
 70
     0
 62
    92
  6
CONTINUOUS
  0
LAYER
  5
96
330
2
100
AcDbSymbolTableRecord
100
AcDbLayerTableRecord
  2
93
 70
     0
 62
    93
  6
CONTINUOUS
  0
LAYER
  5
97
330
2
100
AcDbSymbolTableRecord
100
AcDbLayerTableRecord
  2
94
 70
     0
 62
    94
  6
CONTINUOUS
  0
LAYER
  5
98
330
2
100
AcDbSymbolTableRecord
100
AcDbLayerTableRecord
  2
95
 70
     0
 62
    95
  6
CONTINUOUS
  0
LAYER
  5
99
330
2
100
AcDbSymbolTableRecord
100
AcDbLayerTableRecord
  2
96
 70
     0
 62
    96
  6
CONTINUOUS
  0
LAYER
  5
9A
330
2
100
AcDbSymbolTableRecord
100
AcDbLayerTableRecord
  2
97
 70
     0
 62
    97
  6
CONTINUOUS
  0
LAYER
  5
9B
330
2
100
AcDbSymbolTableRecord
100
AcDbLayerTableRecord
  2
98
 70
     0
 62
    98
  6
CONTINUOUS
  0
LAYER
  5
9C
330
2
100
AcDbSymbolTableRecord
100
AcDbLayerTableRecord
  2
99
 70
     0
 62
    99
  6
CONTINUOUS
  0
LAYER
  5
9D
330
2
100
AcDbSymbolTableRecord
100
AcDbLayerTableRecord
  2
100
 70
     0
 62
   100
  6
CONTINUOUS
  0
LAYER
  5
9E
330
2
100
AcDbSymbolTableRecord
100
AcDbLayerTableRecord
  2
101
 70
     0
 62
   101
  6
CONTINUOUS
  0
LAYER
  5
9F
330
2
100
AcDbSymbolTableRecord
100
AcDbLayerTableRecord
  2
102
 70
     0
 62
   102
  6
CONTINUOUS
  0
LAYER
  5
A0
330
2
100
AcDbSymbolTableRecord
100
AcDbLayerTableRecord
  2
103
 70
     0
 62
   103
  6
CONTINUOUS
  0
LAYER
  5
A1
330
2
100
AcDbSymbolTableRecord
100
AcDbLayerTableRecord
  2
104
 70
     0
 62
   104
  6
CONTINUOUS
  0
LAYER
  5
A2
330
2
100
AcDbSymbolTableRecord
100
AcDbLayerTableRecord
  2
105
 70
     0
 62
   105
  6
CONTINUOUS
  0
LAYER
  5
A3
330
2
100
AcDbSymbolTableRecord
100
AcDbLayerTableRecord
  2
106
 70
     0
 62
   106
  6
CONTINUOUS
  0
LAYER
  5
A4
330
2
100
AcDbSymbolTableRecord
100
AcDbLayerTableRecord
  2
107
 70
     0
 62
   107
  6
CONTINUOUS
  0
LAYER
  5
A5
330
2
100
AcDbSymbolTableRecord
100
AcDbLayerTableRecord
  2
108
 70
     0
 62
   108
  6
CONTINUOUS
  0
LAYER
  5
A6
330
2
100
AcDbSymbolTableRecord
100
AcDbLayerTableRecord
  2
109
 70
     0
 62
   109
  6
CONTINUOUS
  0
LAYER
  5
A7
330
2
100
AcDbSymbolTableRecord
100
AcDbLayerTableRecord
  2
110
 70
     0
 62
   110
  6
CONTINUOUS
  0
LAYER
  5
A8
330
2
100
AcDbSymbolTableRecord
100
AcDbLayerTableRecord
  2
111
 70
     0
 62
   111
  6
CONTINUOUS
  0
LAYER
  5
A9
330
2
100
AcDbSymbolTableRecord
100
AcDbLayerTableRecord
  2
112
 70
     0
 62
   112
  6
CONTINUOUS
  0
LAYER
  5
AA
330
2
100
AcDbSymbolTableRecord
100
AcDbLayerTableRecord
  2
113
 70
     0
 62
   113
  6
CONTINUOUS
  0
LAYER
  5
AB
330
2
100
AcDbSymbolTableRecord
100
AcDbLayerTableRecord
  2
114
 70
     0
 62
   114
  6
CONTINUOUS
  0
LAYER
  5
AC
330
2
100
AcDbSymbolTableRecord
100
AcDbLayerTableRecord
  2
115
 70
     0
 62
   115
  6
CONTINUOUS
  0
LAYER
  5
AD
330
2
100
AcDbSymbolTableRecord
100
AcDbLayerTableRecord
  2
116
 70
     0
 62
   116
  6
CONTINUOUS
  0
LAYER
  5
AE
330
2
100
AcDbSymbolTableRecord
100
AcDbLayerTableRecord
  2
117
 70
     0
 62
   117
  6
CONTINUOUS
  0
LAYER
  5
AF
330
2
100
AcDbSymbolTableRecord
100
AcDbLayerTableRecord
  2
118
 70
     0
 62
   118
  6
CONTINUOUS
  0
LAYER
  5
B0
330
2
100
AcDbSymbolTableRecord
100
AcDbLayerTableRecord
  2
119
 70
     0
 62
   119
  6
CONTINUOUS
  0
LAYER
  5
B1
330
2
100
AcDbSymbolTableRecord
100
AcDbLayerTableRecord
  2
120
 70
     0
 62
   120
  6
CONTINUOUS
  0
LAYER
  5
B2
330
2
100
AcDbSymbolTableRecord
100
AcDbLayerTableRecord
  2
121
 70
     0
 62
   121
  6
CONTINUOUS
  0
LAYER
  5
B3
330
2
100
AcDbSymbolTableRecord
100
AcDbLayerTableRecord
  2
122
 70
     0
 62
   122
  6
CONTINUOUS
  0
LAYER
  5
B4
330
2
100
AcDbSymbolTableRecord
100
AcDbLayerTableRecord
  2
123
 70
     0
 62
   123
  6
CONTINUOUS
  0
LAYER
  5
B5
330
2
100
AcDbSymbolTableRecord
100
AcDbLayerTableRecord
  2
124
 70
     0
 62
   124
  6
CONTINUOUS
  0
LAYER
  5
B6
330
2
100
AcDbSymbolTableRecord
100
AcDbLayerTableRecord
  2
125
 70
     0
 62
   125
  6
CONTINUOUS
  0
LAYER
  5
B7
330
2
100
AcDbSymbolTableRecord
100
AcDbLayerTableRecord
  2
126
 70
     0
 62
   126
  6
CONTINUOUS
  0
LAYER
  5
B8
330
2
100
AcDbSymbolTableRecord
100
AcDbLayerTableRecord
  2
127
 70
     0
 62
   127
  6
CONTINUOUS
  0
LAYER
  5
B9
330
2
100
AcDbSymbolTableRecord
100
AcDbLayerTableRecord
  2
128
 70
     0
 62
   128
  6
CONTINUOUS
  0
LAYER
  5
BA
330
2
100
AcDbSymbolTableRecord
100
AcDbLayerTableRecord
  2
129
 70
     0
 62
   129
  6
CONTINUOUS
  0
LAYER
  5
BB
330
2
100
AcDbSymbolTableRecord
100
AcDbLayerTableRecord
  2
130
 70
     0
 62
   130
  6
CONTINUOUS
  0
LAYER
  5
BC
330
2
100
AcDbSymbolTableRecord
100
AcDbLayerTableRecord
  2
131
 70
     0
 62
   131
  6
CONTINUOUS
  0
LAYER
  5
BD
330
2
100
AcDbSymbolTableRecord
100
AcDbLayerTableRecord
  2
132
 70
     0
 62
   132
  6
CONTINUOUS
  0
LAYER
  5
BE
330
2
100
AcDbSymbolTableRecord
100
AcDbLayerTableRecord
  2
133
 70
     0
 62
   133
  6
CONTINUOUS
  0
LAYER
  5
BF
330
2
100
AcDbSymbolTableRecord
100
AcDbLayerTableRecord
  2
134
 70
     0
 62
   134
  6
CONTINUOUS
  0
LAYER
  5
C0
330
2
100
AcDbSymbolTableRecord
100
AcDbLayerTableRecord
  2
135
 70
     0
 62
   135
  6
CONTINUOUS
  0
LAYER
  5
C1
330
2
100
AcDbSymbolTableRecord
100
AcDbLayerTableRecord
  2
136
 70
     0
 62
   136
  6
CONTINUOUS
  0
LAYER
  5
C2
330
2
100
AcDbSymbolTableRecord
100
AcDbLayerTableRecord
  2
137
 70
     0
 62
   137
  6
CONTINUOUS
  0
LAYER
  5
C3
330
2
100
AcDbSymbolTableRecord
100
AcDbLayerTableRecord
  2
138
 70
     0
 62
   138
  6
CONTINUOUS
  0
LAYER
  5
C4
330
2
100
AcDbSymbolTableRecord
100
AcDbLayerTableRecord
  2
139
 70
     0
 62
   139
  6
CONTINUOUS
  0
LAYER
  5
C5
330
2
100
AcDbSymbolTableRecord
100
AcDbLayerTableRecord
  2
140
 70
     0
 62
   140
  6
CONTINUOUS
  0
LAYER
  5
C6
330
2
100
AcDbSymbolTableRecord
100
AcDbLayerTableRecord
  2
141
 70
     0
 62
   141
  6
CONTINUOUS
  0
LAYER
  5
C7
330
2
100
AcDbSymbolTableRecord
100
AcDbLayerTableRecord
  2
142
 70
     0
 62
   142
  6
CONTINUOUS
  0
LAYER
  5
C8
330
2
100
AcDbSymbolTableRecord
100
AcDbLayerTableRecord
  2
143
 70
     0
 62
   143
  6
CONTINUOUS
  0
LAYER
  5
C9
330
2
100
AcDbSymbolTableRecord
100
AcDbLayerTableRecord
  2
144
 70
     0
 62
   144
  6
CONTINUOUS
  0
LAYER
  5
CA
330
2
100
AcDbSymbolTableRecord
100
AcDbLayerTableRecord
  2
145
 70
     0
 62
   145
  6
CONTINUOUS
  0
LAYER
  5
CB
330
2
100
AcDbSymbolTableRecord
100
AcDbLayerTableRecord
  2
146
 70
     0
 62
   146
  6
CONTINUOUS
  0
LAYER
  5
CC
330
2
100
AcDbSymbolTableRecord
100
AcDbLayerTableRecord
  2
147
 70
     0
 62
   147
  6
CONTINUOUS
  0
LAYER
  5
CD
330
2
100
AcDbSymbolTableRecord
100
AcDbLayerTableRecord
  2
148
 70
     0
 62
   148
  6
CONTINUOUS
  0
LAYER
  5
CE
330
2
100
AcDbSymbolTableRecord
100
AcDbLayerTableRecord
  2
149
 70
     0
 62
   149
  6
CONTINUOUS
  0
LAYER
  5
CF
330
2
100
AcDbSymbolTableRecord
100
AcDbLayerTableRecord
  2
150
 70
     0
 62
   150
  6
CONTINUOUS
  0
LAYER
  5
D0
330
2
100
AcDbSymbolTableRecord
100
AcDbLayerTableRecord
  2
151
 70
     0
 62
   151
  6
CONTINUOUS
  0
LAYER
  5
D1
330
2
100
AcDbSymbolTableRecord
100
AcDbLayerTableRecord
  2
152
 70
     0
 62
   152
  6
CONTINUOUS
  0
LAYER
  5
D2
330
2
100
AcDbSymbolTableRecord
100
AcDbLayerTableRecord
  2
153
 70
     0
 62
   153
  6
CONTINUOUS
  0
LAYER
  5
D3
330
2
100
AcDbSymbolTableRecord
100
AcDbLayerTableRecord
  2
154
 70
     0
 62
   154
  6
CONTINUOUS
  0
LAYER
  5
D4
330
2
100
AcDbSymbolTableRecord
100
AcDbLayerTableRecord
  2
155
 70
     0
 62
   155
  6
CONTINUOUS
  0
LAYER
  5
D5
330
2
100
AcDbSymbolTableRecord
100
AcDbLayerTableRecord
  2
156
 70
     0
 62
   156
  6
CONTINUOUS
  0
LAYER
  5
D6
330
2
100
AcDbSymbolTableRecord
100
AcDbLayerTableRecord
  2
157
 70
     0
 62
   157
  6
CONTINUOUS
  0
LAYER
  5
D7
330
2
100
AcDbSymbolTableRecord
100
AcDbLayerTableRecord
  2
158
 70
     0
 62
   158
  6
CONTINUOUS
  0
LAYER
  5
D8
330
2
100
AcDbSymbolTableRecord
100
AcDbLayerTableRecord
  2
159
 70
     0
 62
   159
  6
CONTINUOUS
  0
LAYER
  5
D9
330
2
100
AcDbSymbolTableRecord
100
AcDbLayerTableRecord
  2
160
 70
     0
 62
   160
  6
CONTINUOUS
  0
LAYER
  5
DA
330
2
100
AcDbSymbolTableRecord
100
AcDbLayerTableRecord
  2
161
 70
     0
 62
   161
  6
CONTINUOUS
  0
LAYER
  5
DB
330
2
100
AcDbSymbolTableRecord
100
AcDbLayerTableRecord
  2
162
 70
     0
 62
   162
  6
CONTINUOUS
  0
LAYER
  5
DC
330
2
100
AcDbSymbolTableRecord
100
AcDbLayerTableRecord
  2
163
 70
     0
 62
   163
  6
CONTINUOUS
  0
LAYER
  5
DD
330
2
100
AcDbSymbolTableRecord
100
AcDbLayerTableRecord
  2
164
 70
     0
 62
   164
  6
CONTINUOUS
  0
LAYER
  5
DE
330
2
100
AcDbSymbolTableRecord
100
AcDbLayerTableRecord
  2
165
 70
     0
 62
   165
  6
CONTINUOUS
  0
LAYER
  5
DF
330
2
100
AcDbSymbolTableRecord
100
AcDbLayerTableRecord
  2
166
 70
     0
 62
   166
  6
CONTINUOUS
  0
LAYER
  5
E0
330
2
100
AcDbSymbolTableRecord
100
AcDbLayerTableRecord
  2
167
 70
     0
 62
   167
  6
CONTINUOUS
  0
LAYER
  5
E1
330
2
100
AcDbSymbolTableRecord
100
AcDbLayerTableRecord
  2
168
 70
     0
 62
   168
  6
CONTINUOUS
  0
LAYER
  5
E2
330
2
100
AcDbSymbolTableRecord
100
AcDbLayerTableRecord
  2
169
 70
     0
 62
   169
  6
CONTINUOUS
  0
LAYER
  5
E3
330
2
100
AcDbSymbolTableRecord
100
AcDbLayerTableRecord
  2
170
 70
     0
 62
   170
  6
CONTINUOUS
  0
LAYER
  5
E4
330
2
100
AcDbSymbolTableRecord
100
AcDbLayerTableRecord
  2
171
 70
     0
 62
   171
  6
CONTINUOUS
  0
LAYER
  5
E5
330
2
100
AcDbSymbolTableRecord
100
AcDbLayerTableRecord
  2
172
 70
     0
 62
   172
  6
CONTINUOUS
  0
LAYER
  5
E6
330
2
100
AcDbSymbolTableRecord
100
AcDbLayerTableRecord
  2
173
 70
     0
 62
   173
  6
CONTINUOUS
  0
LAYER
  5
E7
330
2
100
AcDbSymbolTableRecord
100
AcDbLayerTableRecord
  2
174
 70
     0
 62
   174
  6
CONTINUOUS
  0
LAYER
  5
E8
330
2
100
AcDbSymbolTableRecord
100
AcDbLayerTableRecord
  2
175
 70
     0
 62
   175
  6
CONTINUOUS
  0
LAYER
  5
E9
330
2
100
AcDbSymbolTableRecord
100
AcDbLayerTableRecord
  2
176
 70
     0
 62
   176
  6
CONTINUOUS
  0
LAYER
  5
EA
330
2
100
AcDbSymbolTableRecord
100
AcDbLayerTableRecord
  2
177
 70
     0
 62
   177
  6
CONTINUOUS
  0
LAYER
  5
EB
330
2
100
AcDbSymbolTableRecord
100
AcDbLayerTableRecord
  2
178
 70
     0
 62
   178
  6
CONTINUOUS
  0
LAYER
  5
EC
330
2
100
AcDbSymbolTableRecord
100
AcDbLayerTableRecord
  2
179
 70
     0
 62
   179
  6
CONTINUOUS
  0
LAYER
  5
ED
330
2
100
AcDbSymbolTableRecord
100
AcDbLayerTableRecord
  2
180
 70
     0
 62
   180
  6
CONTINUOUS
  0
LAYER
  5
EE
330
2
100
AcDbSymbolTableRecord
100
AcDbLayerTableRecord
  2
181
 70
     0
 62
   181
  6
CONTINUOUS
  0
LAYER
  5
EF
330
2
100
AcDbSymbolTableRecord
100
AcDbLayerTableRecord
  2
182
 70
     0
 62
   182
  6
CONTINUOUS
  0
LAYER
  5
F0
330
2
100
AcDbSymbolTableRecord
100
AcDbLayerTableRecord
  2
183
 70
     0
 62
   183
  6
CONTINUOUS
  0
LAYER
  5
F1
330
2
100
AcDbSymbolTableRecord
100
AcDbLayerTableRecord
  2
184
 70
     0
 62
   184
  6
CONTINUOUS
  0
LAYER
  5
F2
330
2
100
AcDbSymbolTableRecord
100
AcDbLayerTableRecord
  2
185
 70
     0
 62
   185
  6
CONTINUOUS
  0
LAYER
  5
F3
330
2
100
AcDbSymbolTableRecord
100
AcDbLayerTableRecord
  2
186
 70
     0
 62
   186
  6
CONTINUOUS
  0
LAYER
  5
F4
330
2
100
AcDbSymbolTableRecord
100
AcDbLayerTableRecord
  2
187
 70
     0
 62
   187
  6
CONTINUOUS
  0
LAYER
  5
F5
330
2
100
AcDbSymbolTableRecord
100
AcDbLayerTableRecord
  2
188
 70
     0
 62
   188
  6
CONTINUOUS
  0
LAYER
  5
F6
330
2
100
AcDbSymbolTableRecord
100
AcDbLayerTableRecord
  2
189
 70
     0
 62
   189
  6
CONTINUOUS
  0
LAYER
  5
F7
330
2
100
AcDbSymbolTableRecord
100
AcDbLayerTableRecord
  2
190
 70
     0
 62
   190
  6
CONTINUOUS
  0
LAYER
  5
F8
330
2
100
AcDbSymbolTableRecord
100
AcDbLayerTableRecord
  2
191
 70
     0
 62
   191
  6
CONTINUOUS
  0
LAYER
  5
F9
330
2
100
AcDbSymbolTableRecord
100
AcDbLayerTableRecord
  2
192
 70
     0
 62
   192
  6
CONTINUOUS
  0
LAYER
  5
FA
330
2
100
AcDbSymbolTableRecord
100
AcDbLayerTableRecord
  2
193
 70
     0
 62
   193
  6
CONTINUOUS
  0
LAYER
  5
FB
330
2
100
AcDbSymbolTableRecord
100
AcDbLayerTableRecord
  2
194
 70
     0
 62
   194
  6
CONTINUOUS
  0
LAYER
  5
FC
330
2
100
AcDbSymbolTableRecord
100
AcDbLayerTableRecord
  2
195
 70
     0
 62
   195
  6
CONTINUOUS
  0
LAYER
  5
FD
330
2
100
AcDbSymbolTableRecord
100
AcDbLayerTableRecord
  2
196
 70
     0
 62
   196
  6
CONTINUOUS
  0
LAYER
  5
FE
330
2
100
AcDbSymbolTableRecord
100
AcDbLayerTableRecord
  2
197
 70
     0
 62
   197
  6
CONTINUOUS
  0
LAYER
  5
FF
330
2
100
AcDbSymbolTableRecord
100
AcDbLayerTableRecord
  2
198
 70
     0
 62
   198
  6
CONTINUOUS
  0
LAYER
  5
100
330
2
100
AcDbSymbolTableRecord
100
AcDbLayerTableRecord
  2
199
 70
     0
 62
   199
  6
CONTINUOUS
  0
LAYER
  5
101
330
2
100
AcDbSymbolTableRecord
100
AcDbLayerTableRecord
  2
200
 70
     0
 62
   200
  6
CONTINUOUS
  0
LAYER
  5
102
330
2
100
AcDbSymbolTableRecord
100
AcDbLayerTableRecord
  2
201
 70
     0
 62
   201
  6
CONTINUOUS
  0
LAYER
  5
103
330
2
100
AcDbSymbolTableRecord
100
AcDbLayerTableRecord
  2
202
 70
     0
 62
   202
  6
CONTINUOUS
  0
LAYER
  5
104
330
2
100
AcDbSymbolTableRecord
100
AcDbLayerTableRecord
  2
203
 70
     0
 62
   203
  6
CONTINUOUS
  0
LAYER
  5
105
330
2
100
AcDbSymbolTableRecord
100
AcDbLayerTableRecord
  2
204
 70
     0
 62
   204
  6
CONTINUOUS
  0
LAYER
  5
106
330
2
100
AcDbSymbolTableRecord
100
AcDbLayerTableRecord
  2
205
 70
     0
 62
   205
  6
CONTINUOUS
  0
LAYER
  5
107
330
2
100
AcDbSymbolTableRecord
100
AcDbLayerTableRecord
  2
206
 70
     0
 62
   206
  6
CONTINUOUS
  0
LAYER
  5
108
330
2
100
AcDbSymbolTableRecord
100
AcDbLayerTableRecord
  2
207
 70
     0
 62
   207
  6
CONTINUOUS
  0
LAYER
  5
109
330
2
100
AcDbSymbolTableRecord
100
AcDbLayerTableRecord
  2
208
 70
     0
 62
   208
  6
CONTINUOUS
  0
LAYER
  5
10A
330
2
100
AcDbSymbolTableRecord
100
AcDbLayerTableRecord
  2
209
 70
     0
 62
   209
  6
CONTINUOUS
  0
LAYER
  5
10B
330
2
100
AcDbSymbolTableRecord
100
AcDbLayerTableRecord
  2
210
 70
     0
 62
   210
  6
CONTINUOUS
  0
LAYER
  5
10C
330
2
100
AcDbSymbolTableRecord
100
AcDbLayerTableRecord
  2
211
 70
     0
 62
   211
  6
CONTINUOUS
  0
LAYER
  5
10D
330
2
100
AcDbSymbolTableRecord
100
AcDbLayerTableRecord
  2
212
 70
     0
 62
   212
  6
CONTINUOUS
  0
LAYER
  5
10E
330
2
100
AcDbSymbolTableRecord
100
AcDbLayerTableRecord
  2
213
 70
     0
 62
   213
  6
CONTINUOUS
  0
LAYER
  5
10F
330
2
100
AcDbSymbolTableRecord
100
AcDbLayerTableRecord
  2
214
 70
     0
 62
   214
  6
CONTINUOUS
  0
LAYER
  5
110
330
2
100
AcDbSymbolTableRecord
100
AcDbLayerTableRecord
  2
215
 70
     0
 62
   215
  6
CONTINUOUS
  0
LAYER
  5
111
330
2
100
AcDbSymbolTableRecord
100
AcDbLayerTableRecord
  2
216
 70
     0
 62
   216
  6
CONTINUOUS
  0
LAYER
  5
112
330
2
100
AcDbSymbolTableRecord
100
AcDbLayerTableRecord
  2
217
 70
     0
 62
   217
  6
CONTINUOUS
  0
LAYER
  5
113
330
2
100
AcDbSymbolTableRecord
100
AcDbLayerTableRecord
  2
218
 70
     0
 62
   218
  6
CONTINUOUS
  0
LAYER
  5
114
330
2
100
AcDbSymbolTableRecord
100
AcDbLayerTableRecord
  2
219
 70
     0
 62
   219
  6
CONTINUOUS
  0
LAYER
  5
115
330
2
100
AcDbSymbolTableRecord
100
AcDbLayerTableRecord
  2
220
 70
     0
 62
   220
  6
CONTINUOUS
  0
LAYER
  5
116
330
2
100
AcDbSymbolTableRecord
100
AcDbLayerTableRecord
  2
221
 70
     0
 62
   221
  6
CONTINUOUS
  0
LAYER
  5
117
330
2
100
AcDbSymbolTableRecord
100
AcDbLayerTableRecord
  2
222
 70
     0
 62
   222
  6
CONTINUOUS
  0
LAYER
  5
118
330
2
100
AcDbSymbolTableRecord
100
AcDbLayerTableRecord
  2
223
 70
     0
 62
   223
  6
CONTINUOUS
  0
LAYER
  5
119
330
2
100
AcDbSymbolTableRecord
100
AcDbLayerTableRecord
  2
224
 70
     0
 62
   224
  6
CONTINUOUS
  0
LAYER
  5
11A
330
2
100
AcDbSymbolTableRecord
100
AcDbLayerTableRecord
  2
225
 70
     0
 62
   225
  6
CONTINUOUS
  0
LAYER
  5
11B
330
2
100
AcDbSymbolTableRecord
100
AcDbLayerTableRecord
  2
226
 70
     0
 62
   226
  6
CONTINUOUS
  0
LAYER
  5
11C
330
2
100
AcDbSymbolTableRecord
100
AcDbLayerTableRecord
  2
227
 70
     0
 62
   227
  6
CONTINUOUS
  0
LAYER
  5
11D
330
2
100
AcDbSymbolTableRecord
100
AcDbLayerTableRecord
  2
228
 70
     0
 62
   228
  6
CONTINUOUS
  0
LAYER
  5
11E
330
2
100
AcDbSymbolTableRecord
100
AcDbLayerTableRecord
  2
229
 70
     0
 62
   229
  6
CONTINUOUS
  0
LAYER
  5
11F
330
2
100
AcDbSymbolTableRecord
100
AcDbLayerTableRecord
  2
230
 70
     0
 62
   230
  6
CONTINUOUS
  0
LAYER
  5
120
330
2
100
AcDbSymbolTableRecord
100
AcDbLayerTableRecord
  2
231
 70
     0
 62
   231
  6
CONTINUOUS
  0
LAYER
  5
121
330
2
100
AcDbSymbolTableRecord
100
AcDbLayerTableRecord
  2
232
 70
     0
 62
   232
  6
CONTINUOUS
  0
LAYER
  5
122
330
2
100
AcDbSymbolTableRecord
100
AcDbLayerTableRecord
  2
233
 70
     0
 62
   233
  6
CONTINUOUS
  0
LAYER
  5
123
330
2
100
AcDbSymbolTableRecord
100
AcDbLayerTableRecord
  2
234
 70
     0
 62
   234
  6
CONTINUOUS
  0
LAYER
  5
124
330
2
100
AcDbSymbolTableRecord
100
AcDbLayerTableRecord
  2
235
 70
     0
 62
   235
  6
CONTINUOUS
  0
LAYER
  5
125
330
2
100
AcDbSymbolTableRecord
100
AcDbLayerTableRecord
  2
236
 70
     0
 62
   236
  6
CONTINUOUS
  0
LAYER
  5
126
330
2
100
AcDbSymbolTableRecord
100
AcDbLayerTableRecord
  2
237
 70
     0
 62
   237
  6
CONTINUOUS
  0
LAYER
  5
127
330
2
100
AcDbSymbolTableRecord
100
AcDbLayerTableRecord
  2
238
 70
     0
 62
   238
  6
CONTINUOUS
  0
LAYER
  5
128
330
2
100
AcDbSymbolTableRecord
100
AcDbLayerTableRecord
  2
239
 70
     0
 62
   239
  6
CONTINUOUS
  0
LAYER
  5
129
330
2
100
AcDbSymbolTableRecord
100
AcDbLayerTableRecord
  2
240
 70
     0
 62
   240
  6
CONTINUOUS
  0
LAYER
  5
12A
330
2
100
AcDbSymbolTableRecord
100
AcDbLayerTableRecord
  2
241
 70
     0
 62
   241
  6
CONTINUOUS
  0
LAYER
  5
12B
330
2
100
AcDbSymbolTableRecord
100
AcDbLayerTableRecord
  2
242
 70
     0
 62
   242
  6
CONTINUOUS
  0
LAYER
  5
12C
330
2
100
AcDbSymbolTableRecord
100
AcDbLayerTableRecord
  2
243
 70
     0
 62
   243
  6
CONTINUOUS
  0
LAYER
  5
12D
330
2
100
AcDbSymbolTableRecord
100
AcDbLayerTableRecord
  2
244
 70
     0
 62
   244
  6
CONTINUOUS
  0
LAYER
  5
12E
330
2
100
AcDbSymbolTableRecord
100
AcDbLayerTableRecord
  2
245
 70
     0
 62
   245
  6
CONTINUOUS
  0
LAYER
  5
12F
330
2
100
AcDbSymbolTableRecord
100
AcDbLayerTableRecord
  2
246
 70
     0
 62
   246
  6
CONTINUOUS
  0
LAYER
  5
130
330
2
100
AcDbSymbolTableRecord
100
AcDbLayerTableRecord
  2
247
 70
     0
 62
   247
  6
CONTINUOUS
  0
LAYER
  5
131
330
2
100
AcDbSymbolTableRecord
100
AcDbLayerTableRecord
  2
248
 70
     0
 62
   248
  6
CONTINUOUS
  0
LAYER
  5
132
330
2
100
AcDbSymbolTableRecord
100
AcDbLayerTableRecord
  2
249
 70
     0
 62
   249
  6
CONTINUOUS
  0
LAYER
  5
133
330
2
100
AcDbSymbolTableRecord
100
AcDbLayerTableRecord
  2
250
 70
     0
 62
   250
  6
CONTINUOUS
  0
LAYER
  5
134
330
2
100
AcDbSymbolTableRecord
100
AcDbLayerTableRecord
  2
251
 70
     0
 62
   251
  6
CONTINUOUS
  0
LAYER
  5
135
330
2
100
AcDbSymbolTableRecord
100
AcDbLayerTableRecord
  2
252
 70
     0
 62
   252
  6
CONTINUOUS
  0
LAYER
  5
136
330
2
100
AcDbSymbolTableRecord
100
AcDbLayerTableRecord
  2
253
 70
     0
 62
   253
  6
CONTINUOUS
  0
LAYER
  5
137
330
2
100
AcDbSymbolTableRecord
100
AcDbLayerTableRecord
  2
254
 70
     0
 62
   254
  6
CONTINUOUS
  0
LAYER
  5
138
330
2
100
AcDbSymbolTableRecord
100
AcDbLayerTableRecord
  2
255
 70
     0
 62
   255
  6
CONTINUOUS
  0
ENDTAB
  0
TABLE
  2
STYLE
  5
3
330
0
100
AcDbSymbolTable
 70
     1
  0
STYLE
  5
11
330
3
100
AcDbSymbolTableRecord
100
AcDbTextStyleTableRecord
  2
STANDARD
 70
     0
 40
0.0
 41
1.0
 50
0.0
 71
     0
 42
0.2
  3
monotxt
  4

  0
ENDTAB
  0
TABLE
  2
VIEW
  5
6
330
0
100
AcDbSymbolTable
 70
     0
  0
ENDTAB
  0
TABLE
  2
UCS
  5
7
330
0
100
AcDbSymbolTable
 70
     0
  0
ENDTAB
  0
TABLE
  2
APPID
  5
9
330
0
100
AcDbSymbolTable
 70
     1
  0
APPID
  5
12
330
9
100
AcDbSymbolTableRecord
100
AcDbRegAppTableRecord
  2
ACAD
 70
     0
  0
ENDTAB
  0
TABLE
  2
DIMSTYLE
  5
A
330
0
100
AcDbSymbolTable
 70
     1
  0
DIMSTYLE
105
79C
330
A
100
AcDbSymbolTableRecord
100
AcDbDimStyleTableRecord
  2
STANDARD
 70
     0
  3

  4

  5

  6

  7

 40
1.0
 41
0.18
 42
0.0625
 43
0.38
 44
0.18
 45
0.0
 46
0.0
 47
0.0
 48
0.0
140
0.18
141
0.09
142
0.0
143
25.4
144
1.0
145
0.0
146
1.0
147
0.09
 71
     0
 72
     0
 73
     1
 74
     1
 75
     0
 76
     0
 77
     0
 78
     0
170
     0
171
     2
172
     0
173
     0
174
     0
175
     0
176
     0
177
     0
178
     0
270
     2
271
     4
272
     4
273
     2
274
     2
340
11
275
     0
280
     0
281
     0
282
     0
283
     1
284
     0
285
     0
286
     0
287
     3
288
     0
  0
ENDTAB
  0
TABLE
  2
BLOCK_RECORD
  5
1
330
0
100
AcDbSymbolTable
 70
     0
  0
BLOCK_RECORD
  5
1E
102
{ACAD_XDICTIONARY
360
B8D
102
}
330
1
100
AcDbSymbolTableRecord
100
AcDbBlockTableRecord
  2
*MODEL_SPACE
  0
BLOCK_RECORD
  5
1A
102
{ACAD_XDICTIONARY
360
B8B
102
}
330
1
100
AcDbSymbolTableRecord
100
AcDbBlockTableRecord
  2
*PAPER_SPACE
  0
ENDTAB
  0
ENDSEC
  0
SECTION
  2
BLOCKS
  0
BLOCK
  5
13B
330
1E
100
AcDbEntity
  8
0
100
AcDbBlockBegin
  2
*MODEL_SPACE
 70
     0
 10
0.0
 20
0.0
 30
0.0
  3
*MODEL_SPACE
  1

  0
ENDBLK
  5
13C
330
1E
100
AcDbEntity
  8
0
100
AcDbBlockEnd
  0
BLOCK
  5
139
330
1A
100
AcDbEntity
 67
     1
  8
0
100
AcDbBlockBegin
  2
*PAPER_SPACE
 70
     0
 10
0.0
 20
0.0
 30
0.0
  3
*PAPER_SPACE
  1

  0
ENDBLK
  5
13A
330
1A
100
AcDbEntity
 67
     1
  8
0
100
AcDbBlockEnd
  0
ENDSEC
  0
SECTION
  2
ENTITIES
  0
LINE
  5
13E
330
1E
100
AcDbEntity
  8
7
100
AcDbLine
 10
23.5009842519685
 20
22.07775590551181
 30
0.0
 11
22.7509842519685
 21
22.07775590551181
 31
0.0
  0
LINE
  5
13F
330
1E
100
AcDbEntity
  8
7
100
AcDbLine
 10
23.5009842519685
 20
32.21259842519685
 30
0.0
 11
23.5009842519685
 21
22.07775590551181
 31
0.0
  0
LINE
  5
140
330
1E
100
AcDbEntity
  8
7
100
AcDbLine
 10
23.5009842519685
 20
32.21259842519685
 30
0.0
 11
23.0009842519685
 21
32.71259842519685
 31
0.0
  0
LINE
  5
141
330
1E
100
AcDbEntity
  8
7
100
AcDbLine
 10
5.000984251968503
 20
32.71259842519685
 30
0.0
 11
23.0009842519685
 21
32.71259842519685
 31
0.0
  0
LINE
  5
142
330
1E
100
AcDbEntity
  8
7
100
AcDbLine
 10
4.500984251968503
 20
32.21259842519685
 30
0.0
 11
5.000984251968503
 21
32.71259842519685
 31
0.0
  0
LINE
  5
156
330
1E
100
AcDbEntity
  8
7
100
AcDbLine
 10
5.500984251968503
 20
20.50295275590551
 30
0.0
 11
5.500984251968503
 21
21.82775590551181
 31
0.0
  0
LINE
  5
157
330
1E
100
AcDbEntity
  8
7
100
AcDbLine
 10
22.5009842519685
 20
20.50295275590551
 30
0.0
 11
5.500984251968503
 21
20.50295275590551
 31
0.0
  0
LINE
  5
158
330
1E
100
AcDbEntity
  8
7
100
AcDbLine
 10
22.5009842519685
 20
20.50295275590551
 30
0.0
 11
22.5009842519685
 21
21.82775590551181
 31
0.0
  0
LINE
  5
198
330
1E
100
AcDbEntity
  8
7
100
AcDbLine
 10
23.62106299212598
 20
27.43602362204724
 30
0.0
 11
23.53149606299212
 21
27.43602362204724
 31
0.0
  0
LINE
  5
199
330
1E
100
AcDbEntity
  8
7
100
AcDbLine
 10
23.62106299212598
 20
21.95275590551181
 30
0.0
 11
23.53149606299212
 21
21.95275590551181
 31
0.0
  0
LINE
  5
1A4
330
1E
100
AcDbEntity
  8
7
100
AcDbLine
 10
5.000984251968503
 20
32.71259842519685
 30
0.0
 11
5.020669291338582
 21
32.74507874015748
 31
0.0
  0
LINE
  5
1B3
330
1E
100
AcDbEntity
  8
7
100
AcDbLine
 10
23.5009842519685
 20
21.92224409448818
 30
0.0
 11
23.5009842519685
 21
21.83267716535433
 31
0.0
  0
LINE
  5
1C2
330
1E
100
AcDbEntity
  8
7
100
AcDbLine
 10
23.5009842519685
 20
21.83267716535433
 30
0.0
 11
22.99606299212598
 21
21.83267716535433
 31
0.0
  0
LINE
  5
1D5
330
1E
100
AcDbEntity
  8
7
100
AcDbLine
 10
22.87106299212598
 20
21.83267716535433
 30
0.0
 11
22.87106299212598
 21
21.92224409448818
 31
0.0
  0
LINE
  5
1E8
330
1E
100
AcDbEntity
  8
7
100
AcDbLine
 10
5.500984251968503
 20
20.38287401574803
 30
0.0
 11
22.5009842519685
 21
20.38287401574803
 31
0.0
  0
LINE
  5
1F2
330
1E
100
AcDbEntity
  8
7
100
AcDbLine
 10
4.471456692913385
 20
32.10334645669291
 30
0.0
 11
4.380905511811023
 21
32.10334645669291
 31
0.0
  0
LINE
  5
200
330
1E
100
AcDbEntity
  8
7
100
AcDbLine
 10
4.471456692913385
 20
32.10334645669291
 30
0.0
 11
4.471456692913385
 21
27.78937007874015
 31
0.0
  0
LINE
  5
201
330
1E
100
AcDbEntity
  8
7
100
AcDbLine
 10
4.380905511811023
 20
32.10334645669291
 30
0.0
 11
4.380905511811023
 21
27.78937007874015
 31
0.0
  0
LINE
  5
202
330
1E
100
AcDbEntity
  8
7
100
AcDbLine
 10
4.471456692913385
 20
27.78937007874015
 30
0.0
 11
4.380905511811023
 21
27.78937007874015
 31
0.0
  0
LINE
  5
203
330
1E
100
AcDbEntity
  8
7
100
AcDbLine
 10
4.380905511811023
 20
27.43602362204724
 30
0.0
 11
4.380905511811023
 21
21.95275590551181
 31
0.0
  0
LINE
  5
217
330
1E
100
AcDbEntity
  8
7
100
AcDbLine
 10
4.380905511811023
 20
21.95275590551181
 30
0.0
 11
4.471456692913385
 21
21.95275590551181
 31
0.0
  0
LINE
  5
218
330
1E
100
AcDbEntity
  8
7
100
AcDbLine
 10
4.380905511811023
 20
27.43602362204724
 30
0.0
 11
4.471456692913385
 21
27.43602362204724
 31
0.0
  0
LINE
  5
222
330
1E
100
AcDbEntity
  8
7
100
AcDbLine
 10
4.500984251968503
 20
21.92224409448818
 30
0.0
 11
4.500984251968503
 21
21.83267716535433
 31
0.0
  0
LINE
  5
223
330
1E
100
AcDbEntity
  8
7
100
AcDbLine
 10
4.471456692913385
 20
21.95275590551181
 30
0.0
 11
4.4753937007874
 21
21.93799212598425
 31
0.0
  0
LINE
  5
229
330
1E
100
AcDbEntity
  8
7
100
AcDbLine
 10
4.500984251968503
 20
21.92224409448818
 30
0.0
 11
5.005905511811023
 21
21.92224409448818
 31
0.0
  0
LINE
  5
22A
330
1E
100
AcDbEntity
  8
7
100
AcDbLine
 10
4.500984251968503
 20
21.83267716535433
 30
0.0
 11
5.005905511811023
 21
21.83267716535433
 31
0.0
  0
LINE
  5
234
330
1E
100
AcDbEntity
  8
7
100
AcDbLine
 10
5.126968503937007
 20
21.83267716535433
 30
0.0
 11
5.130905511811023
 21
21.83267716535433
 31
0.0
  0
LINE
  5
23E
330
1E
100
AcDbEntity
  8
7
100
AcDbLine
 10
5.130905511811023
 20
21.83267716535433
 30
0.0
 11
5.130905511811023
 21
21.92224409448818
 31
0.0
  0
LINE
  5
23F
330
1E
100
AcDbEntity
  8
7
100
AcDbLine
 10
4.500984251968503
 20
18.68799212598425
 30
0.0
 11
5.250984251968503
 21
18.68799212598425
 31
0.0
  0
LINE
  5
240
330
1E
100
AcDbEntity
  8
7
100
AcDbLine
 10
4.500984251968503
 20
8.553149606299212
 30
0.0
 11
4.500984251968503
 21
18.68799212598425
 31
0.0
  0
LINE
  5
241
330
1E
100
AcDbEntity
  8
7
100
AcDbLine
 10
4.500984251968503
 20
8.553149606299212
 30
0.0
 11
5.000984251968503
 21
8.053149606299212
 31
0.0
  0
LINE
  5
242
330
1E
100
AcDbEntity
  8
7
100
AcDbLine
 10
23.0009842519685
 20
8.053149606299212
 30
0.0
 11
5.000984251968503
 21
8.053149606299212
 31
0.0
  0
LINE
  5
243
330
1E
100
AcDbEntity
  8
7
100
AcDbLine
 10
23.5009842519685
 20
8.553149606299212
 30
0.0
 11
23.0009842519685
 21
8.053149606299212
 31
0.0
  0
LINE
  5
254
330
1E
100
AcDbEntity
  8
7
100
AcDbLine
 10
22.5009842519685
 20
20.26279527559055
 30
0.0
 11
22.5009842519685
 21
18.93799212598425
 31
0.0
  0
LINE
  5
255
330
1E
100
AcDbEntity
  8
7
100
AcDbLine
 10
5.500984251968503
 20
20.26279527559055
 30
0.0
 11
22.5009842519685
 21
20.26279527559055
 31
0.0
  0
LINE
  5
256
330
1E
100
AcDbEntity
  8
7
100
AcDbLine
 10
5.500984251968503
 20
20.26279527559055
 30
0.0
 11
5.500984251968503
 21
18.93799212598425
 31
0.0
  0
LINE
  5
257
330
1E
100
AcDbEntity
  8
7
100
AcDbLine
 10
5.250984251968503
 20
18.68799212598425
 30
0.0
 11
5.3001968503937
 21
18.69291338582677
 31
0.0
  0
LINE
  5
296
330
1E
100
AcDbEntity
  8
7
100
AcDbLine
 10
4.380905511811023
 20
13.32874015748031
 30
0.0
 11
4.471456692913385
 21
13.32874015748031
 31
0.0
  0
LINE
  5
297
330
1E
100
AcDbEntity
  8
7
100
AcDbLine
 10
4.380905511811023
 20
18.81299212598425
 30
0.0
 11
4.471456692913385
 21
18.81299212598425
 31
0.0
  0
LINE
  5
2B4
330
1E
100
AcDbEntity
  8
7
100
AcDbLine
 10
4.500984251968503
 20
18.84251968503937
 30
0.0
 11
4.500984251968503
 21
18.93307086614173
 31
0.0
  0
LINE
  5
2DC
330
1E
100
AcDbEntity
  8
7
100
AcDbLine
 10
5.130905511811023
 20
18.93307086614173
 30
0.0
 11
5.130905511811023
 21
18.84251968503937
 31
0.0
  0
LINE
  5
2F3
330
1E
100
AcDbEntity
  8
7
100
AcDbLine
 10
23.5009842519685
 20
8.553149606299212
 30
0.0
 11
23.53444881889763
 21
8.571850393700787
 31
0.0
  0
LINE
  5
2FC
330
1E
100
AcDbEntity
  8
7
100
AcDbLine
 10
23.53149606299212
 20
8.662401574803149
 30
0.0
 11
23.62106299212598
 21
8.662401574803149
 31
0.0
  0
LINE
  5
30A
330
1E
100
AcDbEntity
  8
7
100
AcDbLine
 10
23.53149606299212
 20
8.662401574803149
 30
0.0
 11
23.53149606299212
 21
12.9753937007874
 31
0.0
  0
LINE
  5
30B
330
1E
100
AcDbEntity
  8
7
100
AcDbLine
 10
23.62106299212598
 20
8.662401574803149
 30
0.0
 11
23.62106299212598
 21
12.9753937007874
 31
0.0
  0
LINE
  5
30C
330
1E
100
AcDbEntity
  8
7
100
AcDbLine
 10
23.53149606299212
 20
12.9753937007874
 30
0.0
 11
23.62106299212598
 21
12.9753937007874
 31
0.0
  0
LINE
  5
30D
330
1E
100
AcDbEntity
  8
7
100
AcDbLine
 10
23.62106299212598
 20
13.32874015748031
 30
0.0
 11
23.62106299212598
 21
18.81299212598425
 31
0.0
  0
LINE
  5
321
330
1E
100
AcDbEntity
  8
7
100
AcDbLine
 10
23.62106299212598
 20
18.81299212598425
 30
0.0
 11
23.53149606299212
 21
18.81299212598425
 31
0.0
  0
LINE
  5
322
330
1E
100
AcDbEntity
  8
7
100
AcDbLine
 10
23.62106299212598
 20
13.32874015748031
 30
0.0
 11
23.53149606299212
 21
13.32874015748031
 31
0.0
  0
LINE
  5
32C
330
1E
100
AcDbEntity
  8
7
100
AcDbLine
 10
23.5009842519685
 20
18.84251968503937
 30
0.0
 11
23.5009842519685
 21
18.93307086614173
 31
0.0
  0
LINE
  5
333
330
1E
100
AcDbEntity
  8
7
100
AcDbLine
 10
23.5009842519685
 20
18.84251968503937
 30
0.0
 11
22.99606299212598
 21
18.84251968503937
 31
0.0
  0
LINE
  5
334
330
1E
100
AcDbEntity
  8
7
100
AcDbLine
 10
23.5009842519685
 20
18.93307086614173
 30
0.0
 11
22.99606299212598
 21
18.93307086614173
 31
0.0
  0
LINE
  5
348
330
1E
100
AcDbEntity
  8
7
100
AcDbLine
 10
22.87106299212598
 20
18.93307086614173
 30
0.0
 11
22.87106299212598
 21
18.84251968503937
 31
0.0
  0
LINE
  5
349
330
1E
100
AcDbEntity
  8
7
100
AcDbLine
 10
4.500984251968503
 20
1.850393700787401
 30
0.0
 11
5.000984251968503
 21
1.850393700787401
 31
0.0
  0
LINE
  5
34A
330
1E
100
AcDbEntity
  8
7
100
AcDbLine
 10
23.0009842519685
 20
1.850393700787401
 30
0.0
 11
5.000984251968503
 21
1.850393700787401
 31
0.0
  0
LINE
  5
34B
330
1E
100
AcDbEntity
  8
7
100
AcDbLine
 10
23.5009842519685
 20
1.850393700787401
 30
0.0
 11
23.0009842519685
 21
1.850393700787401
 31
0.0
  0
LINE
  5
34C
330
1E
100
AcDbEntity
  8
7
100
AcDbLine
 10
23.0009842519685
 20
1.759842519685039
 30
0.0
 11
23.5009842519685
 21
1.759842519685039
 31
0.0
  0
LINE
  5
34D
330
1E
100
AcDbEntity
  8
7
100
AcDbLine
 10
5.000984251968503
 20
1.759842519685039
 30
0.0
 11
4.500984251968503
 21
1.759842519685039
 31
0.0
  0
LINE
  5
34E
330
1E
100
AcDbEntity
  8
7
100
AcDbLine
 10
5.000984251968503
 20
1.759842519685039
 30
0.0
 11
5.000984251968503
 21
1.8001968503937
 31
0.0
  0
LINE
  5
34F
330
1E
100
AcDbEntity
  8
7
100
AcDbLine
 10
5.000984251968503
 20
1.850393700787401
 30
0.0
 11
5.000984251968503
 21
1.8001968503937
 31
0.0
  0
LINE
  5
350
330
1E
100
AcDbEntity
  8
7
100
AcDbLine
 10
4.500984251968503
 20
1.850393700787401
 30
0.0
 11
4.500984251968503
 21
1.811023622047243
 31
0.0
  0
LINE
  5
351
330
1E
100
AcDbEntity
  8
7
100
AcDbLine
 10
4.500984251968503
 20
1.759842519685039
 30
0.0
 11
4.500984251968503
 21
1.811023622047243
 31
0.0
  0
LINE
  5
352
330
1E
100
AcDbEntity
  8
7
100
AcDbLine
 10
4.500984251968503
 20
1.850393700787401
 30
0.0
 11
4.489173228346456
 21
1.852362204724409
 31
0.0
  0
LINE
  5
363
330
1E
100
AcDbEntity
  8
7
100
AcDbLine
 10
4.471456692913385
 20
1.879921259842519
 30
0.0
 11
4.471456692913385
 21
6.193897637795275
 31
0.0
  0
LINE
  5
364
330
1E
100
AcDbEntity
  8
7
100
AcDbLine
 10
4.471456692913385
 20
6.193897637795275
 30
0.0
 11
4.380905511811023
 21
6.193897637795275
 31
0.0
  0
LINE
  5
377
330
1E
100
AcDbEntity
  8
7
100
AcDbLine
 10
4.471456692913385
 20
6.237204724409449
 30
0.0
 11
4.471456692913385
 21
6.193897637795275
 31
0.0
  0
LINE
  5
378
330
1E
100
AcDbEntity
  8
7
100
AcDbLine
 10
4.380905511811023
 20
6.340551181102362
 30
0.0
 11
4.471456692913385
 21
6.340551181102362
 31
0.0
  0
LINE
  5
3A2
330
1E
100
AcDbEntity
  8
7
100
AcDbLine
 10
22.89173228346456
 20
1.730314960629921
 30
0.0
 11
22.39173228346456
 21
1.230314960629921
 31
0.0
  0
LINE
  5
3C7
330
1E
100
AcDbEntity
  8
7
100
AcDbLine
 10
4.500984251968503
 20
2.085629921259842
 30
0.0
 11
5.005905511811023
 21
2.085629921259842
 31
0.0
  0
LINE
  5
3C8
330
1E
100
AcDbEntity
  8
7
100
AcDbLine
 10
4.783464566929133
 20
2.730314960629921
 30
0.0
 11
4.908464566929133
 21
2.730314960629921
 31
0.0
  0
LINE
  5
3DB
330
1E
100
AcDbEntity
  8
7
100
AcDbLine
 10
4.783464566929133
 20
2.480314960629921
 30
0.0
 11
4.908464566929133
 21
2.480314960629921
 31
0.0
  0
LINE
  5
3EE
330
1E
100
AcDbEntity
  8
7
100
AcDbLine
 10
4.783464566929133
 20
4.480314960629921
 30
0.0
 11
4.908464566929133
 21
4.480314960629921
 31
0.0
  0
LINE
  5
3FE
330
1E
100
AcDbEntity
  8
7
100
AcDbLine
 10
4.783464566929133
 20
4.230314960629921
 30
0.0
 11
4.908464566929133
 21
4.230314960629921
 31
0.0
  0
LINE
  5
411
330
1E
100
AcDbEntity
  8
7
100
AcDbLine
 10
4.783464566929133
 20
4.980314960629921
 30
0.0
 11
4.908464566929133
 21
4.980314960629921
 31
0.0
  0
LINE
  5
424
330
1E
100
AcDbEntity
  8
7
100
AcDbLine
 10
4.783464566929133
 20
4.730314960629921
 30
0.0
 11
4.908464566929133
 21
4.730314960629921
 31
0.0
  0
LINE
  5
434
330
1E
100
AcDbEntity
  8
7
100
AcDbLine
 10
4.783464566929133
 20
5.605314960629921
 30
0.0
 11
4.908464566929133
 21
5.605314960629921
 31
0.0
  0
LINE
  5
447
330
1E
100
AcDbEntity
  8
7
100
AcDbLine
 10
4.783464566929133
 20
5.355314960629921
 30
0.0
 11
4.908464566929133
 21
5.355314960629921
 31
0.0
  0
LINE
  5
45A
330
1E
100
AcDbEntity
  8
7
100
AcDbLine
 10
4.783464566929133
 20
6.230314960629921
 30
0.0
 11
4.908464566929133
 21
6.230314960629921
 31
0.0
  0
LINE
  5
46A
330
1E
100
AcDbEntity
  8
7
100
AcDbLine
 10
4.783464566929133
 20
5.980314960629921
 30
0.0
 11
4.908464566929133
 21
5.980314960629921
 31
0.0
  0
LINE
  5
486
330
1E
100
AcDbEntity
  8
7
100
AcDbLine
 10
5.130905511811023
 20
2.210629921259842
 30
0.0
 11
5.130905511811023
 21
6.215551181102362
 31
0.0
  0
LINE
  5
495
330
1E
100
AcDbEntity
  8
7
100
AcDbLine
 10
22.39173228346456
 20
1.230314960629921
 30
0.0
 11
22.5009842519685
 21
1.230314960629921
 31
0.0
  0
LINE
  5
496
330
1E
100
AcDbEntity
  8
7
100
AcDbLine
 10
22.5009842519685
 20
1.339566929133858
 30
0.0
 11
22.5009842519685
 21
1.230314960629921
 31
0.0
  0
LINE
  5
4A3
330
1E
100
AcDbEntity
  8
7
100
AcDbLine
 10
5.500984251968503
 20
1.11023622047244
 30
0.0
 11
5.500984251968503
 21
1.199803149606299
 31
0.0
  0
LINE
  5
4A4
330
1E
100
AcDbEntity
  8
7
100
AcDbLine
 10
22.3759842519685
 20
1.11023622047244
 30
0.0
 11
22.28248031496062
 21
1.11023622047244
 31
0.0
  0
LINE
  5
4C3
330
1E
100
AcDbEntity
  8
7
100
AcDbLine
 10
5.593503937007873
 20
1.199803149606299
 30
0.0
 11
5.625984251968503
 21
1.199803149606299
 31
0.0
  0
LINE
  5
4CD
330
1E
100
AcDbEntity
  8
7
100
AcDbLine
 10
5.625984251968503
 20
1.199803149606299
 30
0.0
 11
5.625984251968503
 21
1.11023622047244
 31
0.0
  0
LINE
  5
4CE
330
1E
100
AcDbEntity
  8
7
100
AcDbLine
 10
22.3759842519685
 20
1.199803149606299
 30
0.0
 11
22.3759842519685
 21
1.11023622047244
 31
0.0
  0
LINE
  5
4CF
330
1E
100
AcDbEntity
  8
7
100
AcDbLine
 10
23.5009842519685
 20
1.759842519685039
 30
0.0
 11
23.5009842519685
 21
1.811023622047243
 31
0.0
  0
LINE
  5
4D0
330
1E
100
AcDbEntity
  8
7
100
AcDbLine
 10
23.5009842519685
 20
1.850393700787401
 30
0.0
 11
23.5009842519685
 21
1.811023622047243
 31
0.0
  0
LINE
  5
4D1
330
1E
100
AcDbEntity
  8
7
100
AcDbLine
 10
23.0009842519685
 20
1.850393700787401
 30
0.0
 11
23.0009842519685
 21
1.8001968503937
 31
0.0
  0
LINE
  5
4D2
330
1E
100
AcDbEntity
  8
7
100
AcDbLine
 10
23.0009842519685
 20
1.759842519685039
 30
0.0
 11
23.0009842519685
 21
1.8001968503937
 31
0.0
  0
LINE
  5
4DF
330
1E
100
AcDbEntity
  8
7
100
AcDbLine
 10
23.53149606299212
 20
1.879921259842519
 30
0.0
 11
23.62106299212598
 21
1.879921259842519
 31
0.0
  0
LINE
  5
4E8
330
1E
100
AcDbEntity
  8
7
100
AcDbLine
 10
23.62106299212598
 20
1.879921259842519
 30
0.0
 11
23.62106299212598
 21
6.193897637795275
 31
0.0
  0
LINE
  5
50B
330
1E
100
AcDbEntity
  8
7
100
AcDbLine
 10
23.5009842519685
 20
2.085629921259842
 30
0.0
 11
22.99606299212598
 21
2.085629921259842
 31
0.0
  0
LINE
  5
50C
330
1E
100
AcDbEntity
  8
7
100
AcDbLine
 10
23.21850393700787
 20
2.730314960629921
 30
0.0
 11
23.09350393700787
 21
2.730314960629921
 31
0.0
  0
LINE
  5
51F
330
1E
100
AcDbEntity
  8
7
100
AcDbLine
 10
23.21850393700787
 20
2.480314960629921
 30
0.0
 11
23.09350393700787
 21
2.480314960629921
 31
0.0
  0
LINE
  5
532
330
1E
100
AcDbEntity
  8
7
100
AcDbLine
 10
23.21850393700787
 20
4.480314960629921
 30
0.0
 11
23.09350393700787
 21
4.480314960629921
 31
0.0
  0
LINE
  5
542
330
1E
100
AcDbEntity
  8
7
100
AcDbLine
 10
23.21850393700787
 20
4.230314960629921
 30
0.0
 11
23.09350393700787
 21
4.230314960629921
 31
0.0
  0
LINE
  5
555
330
1E
100
AcDbEntity
  8
7
100
AcDbLine
 10
23.21850393700787
 20
4.980314960629921
 30
0.0
 11
23.09350393700787
 21
4.980314960629921
 31
0.0
  0
LINE
  5
568
330
1E
100
AcDbEntity
  8
7
100
AcDbLine
 10
23.21850393700787
 20
4.730314960629921
 30
0.0
 11
23.09350393700787
 21
4.730314960629921
 31
0.0
  0
LINE
  5
57B
330
1E
100
AcDbEntity
  8
7
100
AcDbLine
 10
23.21850393700787
 20
5.605314960629921
 30
0.0
 11
23.09350393700787
 21
5.605314960629921
 31
0.0
  0
LINE
  5
58B
330
1E
100
AcDbEntity
  8
7
100
AcDbLine
 10
23.21850393700787
 20
5.355314960629921
 30
0.0
 11
23.09350393700787
 21
5.355314960629921
 31
0.0
  0
LINE
  5
59E
330
1E
100
AcDbEntity
  8
7
100
AcDbLine
 10
23.21850393700787
 20
6.230314960629921
 30
0.0
 11
23.09350393700787
 21
6.230314960629921
 31
0.0
  0
LINE
  5
5B1
330
1E
100
AcDbEntity
  8
7
100
AcDbLine
 10
23.21850393700787
 20
5.980314960629921
 30
0.0
 11
23.09350393700787
 21
5.980314960629921
 31
0.0
  0
LINE
  5
5CA
330
1E
100
AcDbEntity
  8
7
100
AcDbLine
 10
22.87106299212598
 20
2.210629921259842
 30
0.0
 11
22.87106299212598
 21
6.215551181102362
 31
0.0
  0
LINE
  5
5D4
330
1E
100
AcDbEntity
  8
7
100
AcDbLine
 10
22.5009842519685
 20
1.11023622047244
 30
0.0
 11
22.5009842519685
 21
1.199803149606299
 31
0.0
  0
LINE
  5
5D5
330
1E
100
AcDbEntity
  8
7
100
AcDbLine
 10
51.96751968503937
 20
1.850393700787401
 30
0.0
 11
52.46751968503937
 21
1.850393700787401
 31
0.0
  0
LINE
  5
5F0
330
1E
100
AcDbEntity
  8
7
100
AcDbLine
 10
40.25787401574802
 20
1.759842519685039
 30
0.0
 11
41.58267716535433
 21
1.759842519685039
 31
0.0
  0
LINE
  5
5F6
330
1E
100
AcDbEntity
  8
7
100
AcDbLine
 10
52.46751968503937
 20
1.759842519685039
 30
0.0
 11
52.46751968503937
 21
1.8001968503937
 31
0.0
  0
LINE
  5
5F7
330
1E
100
AcDbEntity
  8
7
100
AcDbLine
 10
52.46751968503937
 20
1.850393700787401
 30
0.0
 11
52.46751968503937
 21
1.8001968503937
 31
0.0
  0
LINE
  5
5F8
330
1E
100
AcDbEntity
  8
7
100
AcDbLine
 10
51.96751968503937
 20
1.850393700787401
 30
0.0
 11
51.96751968503937
 21
1.811023622047243
 31
0.0
  0
LINE
  5
5F9
330
1E
100
AcDbEntity
  8
7
100
AcDbLine
 10
51.96751968503937
 20
1.759842519685039
 30
0.0
 11
51.96751968503937
 21
1.811023622047243
 31
0.0
  0
LINE
  5
613
330
1E
100
AcDbEntity
  8
7
100
AcDbLine
 10
51.85826771653544
 20
1.879921259842519
 30
0.0
 11
41.83267716535433
 21
1.879921259842519
 31
0.0
  0
LINE
  5
614
330
1E
100
AcDbEntity
  8
7
100
AcDbLine
 10
51.85826771653544
 20
1.879921259842519
 30
0.0
 11
47.54527559055119
 21
6.193897637795275
 31
0.0
  0
LINE
  5
615
330
1E
100
AcDbEntity
  8
7
100
AcDbLine
 10
41.83267716535433
 20
1.879921259842519
 30
0.0
 11
41.83267716535433
 21
1.960629921259842
 31
0.0
  0
LINE
  5
622
330
1E
100
AcDbEntity
  8
7
100
AcDbLine
 10
47.19192913385827
 20
6.340551181102362
 30
0.0
 11
41.70767716535433
 21
6.340551181102362
 31
0.0
  0
LINE
  5
623
330
1E
100
AcDbEntity
  8
7
100
AcDbLine
 10
41.70767716535433
 20
2.085629921259842
 30
0.0
 11
41.70767716535433
 21
6.340551181102362
 31
0.0
  0
LINE
  5
624
330
1E
100
AcDbEntity
  8
7
100
AcDbLine
 10
41.83267716535433
 20
1.960629921259842
 30
0.0
 11
41.82874015748032
 21
1.993110236220472
 31
0.0
  0
LINE
  5
644
330
1E
100
AcDbEntity
  8
7
100
AcDbLine
 10
52.58759842519685
 20
1.730314960629921
 30
0.0
 11
52.58759842519685
 21
1.230314960629921
 31
0.0
  0
LINE
  5
668
330
1E
100
AcDbEntity
  8
7
100
AcDbLine
 10
51.96751968503937
 20
1.11023622047244
 30
0.0
 11
51.96751968503937
 21
1.199803149606299
 31
0.0
  0
LINE
  5
669
330
1E
100
AcDbEntity
  8
7
100
AcDbLine
 10
41.58267716535433
 20
1.759842519685039
 30
0.0
 11
41.58267716535433
 21
1.850393700787401
 31
0.0
  0
LINE
  5
66A
330
1E
100
AcDbEntity
  8
7
100
AcDbLine
 10
40.25787401574802
 20
1.850393700787401
 30
0.0
 11
40.25787401574802
 21
1.759842519685039
 31
0.0
  0
LINE
  5
67D
330
1E
100
AcDbEntity
  8
7
100
AcDbLine
 10
41.58759842519685
 20
6.340551181102362
 30
0.0
 11
41.58759842519685
 21
2.085629921259842
 31
0.0
  0
LINE
  5
68A
330
1E
100
AcDbEntity
  8
7
100
AcDbLine
 10
40.13779527559055
 20
1.730314960629921
 30
0.0
 11
40.2283464566929
 21
1.730314960629921
 31
0.0
  0
LINE
  5
696
330
1E
100
AcDbEntity
  8
7
100
AcDbLine
 10
40.2283464566929
 20
1.730314960629921
 30
0.0
 11
40.2283464566929
 21
1.230314960629921
 31
0.0
  0
LINE
  5
6A0
330
1E
100
AcDbEntity
  8
7
100
AcDbLine
 10
40.25787401574802
 20
1.11023622047244
 30
0.0
 11
40.25787401574802
 21
1.199803149606299
 31
0.0
  0
LINE
  5
6AC
330
1E
100
AcDbEntity
  8
7
100
AcDbLine
 10
40.25787401574802
 20
1.199803149606299
 30
0.0
 11
40.63287401574803
 21
1.199803149606299
 31
0.0
  0
LINE
  5
6C0
330
1E
100
AcDbEntity
  8
7
100
AcDbLine
 10
28.30807086614173
 20
1.850393700787401
 30
0.0
 11
27.80807086614173
 21
1.850393700787401
 31
0.0
  0
LINE
  5
6CC
330
1E
100
AcDbEntity
  8
7
100
AcDbLine
 10
40.01771653543307
 20
1.850393700787401
 30
0.0
 11
38.69291338582677
 21
1.850393700787401
 31
0.0
  0
LINE
  5
6CD
330
1E
100
AcDbEntity
  8
7
100
AcDbLine
 10
40.01771653543307
 20
1.759842519685039
 30
0.0
 11
38.69291338582677
 21
1.759842519685039
 31
0.0
  0
LINE
  5
6D9
330
1E
100
AcDbEntity
  8
7
100
AcDbLine
 10
28.30807086614173
 20
1.759842519685039
 30
0.0
 11
38.44291338582677
 21
1.759842519685039
 31
0.0
  0
LINE
  5
6DA
330
1E
100
AcDbEntity
  8
7
100
AcDbLine
 10
27.80807086614173
 20
1.759842519685039
 30
0.0
 11
28.30807086614173
 21
1.759842519685039
 31
0.0
  0
LINE
  5
6E4
330
1E
100
AcDbEntity
  8
7
100
AcDbLine
 10
27.80807086614173
 20
1.759842519685039
 30
0.0
 11
27.79527559055118
 21
1.757874015748031
 31
0.0
  0
LINE
  5
6EB
330
1E
100
AcDbEntity
  8
7
100
AcDbLine
 10
27.68799212598425
 20
1.730314960629921
 30
0.0
 11
27.68799212598425
 21
1.230314960629921
 31
0.0
  0
LINE
  5
6EC
330
1E
100
AcDbEntity
  8
7
100
AcDbLine
 10
27.77755905511811
 20
1.730314960629921
 30
0.0
 11
27.77755905511811
 21
1.230314960629921
 31
0.0
  0
LINE
  5
706
330
1E
100
AcDbEntity
  8
7
100
AcDbLine
 10
27.80807086614173
 20
1.11023622047244
 30
0.0
 11
28.27165354330709
 21
1.11023622047244
 31
0.0
  0
LINE
  5
707
330
1E
100
AcDbEntity
  8
7
100
AcDbLine
 10
27.80807086614173
 20
1.199803149606299
 30
0.0
 11
28.27165354330709
 21
1.199803149606299
 31
0.0
  0
LINE
  5
70E
330
1E
100
AcDbEntity
  8
7
100
AcDbLine
 10
28.30807086614173
 20
1.11023622047244
 30
0.0
 11
28.30807086614173
 21
1.199803149606299
 31
0.0
  0
LINE
  5
721
330
1E
100
AcDbEntity
  8
7
100
AcDbLine
 10
40.13779527559055
 20
1.730314960629921
 30
0.0
 11
40.13779527559055
 21
1.230314960629921
 31
0.0
  0
LINE
  5
722
330
1E
100
AcDbEntity
  8
7
100
AcDbLine
 10
40.04822834645669
 20
1.730314960629921
 30
0.0
 11
40.04822834645669
 21
1.230314960629921
 31
0.0
  0
LINE
  5
732
330
1E
100
AcDbEntity
  8
7
100
AcDbLine
 10
40.01771653543307
 20
1.11023622047244
 30
0.0
 11
39.64271653543307
 21
1.11023622047244
 31
0.0
  0
LINE
  5
748
330
1E
100
AcDbEntity
  8
7
100
AcDbLine
 10
40.01771653543307
 20
1.199803149606299
 30
0.0
 11
39.64271653543307
 21
1.199803149606299
 31
0.0
  0
LINE
  5
749
330
1E
100
AcDbEntity
  8
7
100
AcDbLine
 10
39.51771653543307
 20
1.199803149606299
 30
0.0
 11
39.51771653543307
 21
1.11023622047244
 31
0.0
  0
LINE
  5
74A
330
1E
100
AcDbEntity
  8
7
100
AcDbLine
 10
28.30807086614173
 20
1.759842519685039
 30
0.0
 11
28.30807086614173
 21
1.811023622047243
 31
0.0
  0
LINE
  5
74B
330
1E
100
AcDbEntity
  8
7
100
AcDbLine
 10
28.30807086614173
 20
1.850393700787401
 30
0.0
 11
28.30807086614173
 21
1.811023622047243
 31
0.0
  0
LINE
  5
74C
330
1E
100
AcDbEntity
  8
7
100
AcDbLine
 10
27.80807086614173
 20
1.850393700787401
 30
0.0
 11
27.80807086614173
 21
1.8001968503937
 31
0.0
  0
LINE
  5
74D
330
1E
100
AcDbEntity
  8
7
100
AcDbLine
 10
27.80807086614173
 20
1.759842519685039
 30
0.0
 11
27.80807086614173
 21
1.8001968503937
 31
0.0
  0
LINE
  5
75D
330
1E
100
AcDbEntity
  8
7
100
AcDbLine
 10
28.39468503937008
 20
1.87007874015748
 30
0.0
 11
28.41732283464567
 21
1.879921259842519
 31
0.0
  0
LINE
  5
767
330
1E
100
AcDbEntity
  8
7
100
AcDbLine
 10
28.41732283464567
 20
1.879921259842519
 30
0.0
 11
38.44291338582677
 21
1.879921259842519
 31
0.0
  0
LINE
  5
768
330
1E
100
AcDbEntity
  8
7
100
AcDbLine
 10
28.41732283464567
 20
1.879921259842519
 30
0.0
 11
32.73031496062992
 21
6.193897637795275
 31
0.0
  0
LINE
  5
769
330
1E
100
AcDbEntity
  8
7
100
AcDbLine
 10
38.44291338582677
 20
1.879921259842519
 30
0.0
 11
38.44291338582677
 21
1.960629921259842
 31
0.0
  0
LINE
  5
773
330
1E
100
AcDbEntity
  8
7
100
AcDbLine
 10
38.56791338582677
 20
2.085629921259842
 30
0.0
 11
38.56791338582677
 21
6.340551181102362
 31
0.0
  0
LINE
  5
774
330
1E
100
AcDbEntity
  8
7
100
AcDbLine
 10
33.08464566929134
 20
6.340551181102362
 30
0.0
 11
38.56791338582677
 21
6.340551181102362
 31
0.0
  0
LINE
  5
77E
330
1E
100
AcDbEntity
  8
7
100
AcDbLine
 10
27.77755905511811
 20
1.730314960629921
 30
0.0
 11
27.68799212598425
 21
1.730314960629921
 31
0.0
  0
LINE
  5
77F
330
1E
100
AcDbEntity
  8
7
100
AcDbLine
 10
27.73818897637795
 20
1.230314960629921
 30
0.0
 11
27.68799212598425
 21
1.230314960629921
 31
0.0
  0
LINE
  5
780
330
1E
100
AcDbEntity
  8
7
100
AcDbLine
 10
27.77755905511811
 20
1.230314960629921
 30
0.0
 11
27.73818897637795
 21
1.230314960629921
 31
0.0
  0
LINE
  5
781
330
1E
100
AcDbEntity
  8
7
100
AcDbLine
 10
27.80807086614173
 20
1.199803149606299
 30
0.0
 11
27.80807086614173
 21
1.11023622047244
 31
0.0
  0
LINE
  5
782
330
1E
100
AcDbEntity
  8
7
100
AcDbLine
 10
28.27165354330709
 20
1.199803149606299
 30
0.0
 11
28.27165354330709
 21
1.11023622047244
 31
0.0
  0
LINE
  5
783
330
1E
100
AcDbEntity
  8
7
100
AcDbLine
 10
40.01771653543307
 20
1.850393700787401
 30
0.0
 11
40.01771653543307
 21
1.759842519685039
 31
0.0
  0
LINE
  5
784
330
1E
100
AcDbEntity
  8
7
100
AcDbLine
 10
38.69291338582677
 20
1.759842519685039
 30
0.0
 11
38.69291338582677
 21
1.850393700787401
 31
0.0
  0
LINE
  5
78E
330
1E
100
AcDbEntity
  8
7
100
AcDbLine
 10
38.56791338582677
 20
2.085629921259842
 30
0.0
 11
38.59940944881889
 21
2.085629921259842
 31
0.0
  0
LINE
  5
797
330
1E
100
AcDbEntity
  8
7
100
AcDbLine
 10
38.68799212598425
 20
6.340551181102362
 30
0.0
 11
38.68799212598425
 21
2.085629921259842
 31
0.0
  0
LINE
  5
798
330
1E
100
AcDbEntity
  8
7
100
AcDbLine
 10
40.13779527559055
 20
1.730314960629921
 30
0.0
 11
40.04822834645669
 21
1.730314960629921
 31
0.0
  0
LINE
  5
799
330
1E
100
AcDbEntity
  8
7
100
AcDbLine
 10
40.13779527559055
 20
1.230314960629921
 30
0.0
 11
40.04822834645669
 21
1.230314960629921
 31
0.0
  0
LINE
  5
79A
330
1E
100
AcDbEntity
  8
7
100
AcDbLine
 10
40.01771653543307
 20
1.11023622047244
 30
0.0
 11
40.01771653543307
 21
1.199803149606299
 31
0.0
  0
LINE
  5
79B
330
1E
100
AcDbEntity
  8
7
100
AcDbLine
 10
39.64271653543307
 20
1.11023622047244
 30
0.0
 11
39.64271653543307
 21
1.199803149606299
 31
0.0
  0
LINE
  5
79F
330
1E
100
AcDbEntity
  8
7
100
AcDbLine
 10
38.59940944881889
 20
2.085629921259842
 30
0.0
 11
38.62795275590551
 21
2.085629921259842
 31
0.0
  0
LINE
  5
7A0
330
1E
100
AcDbEntity
  8
7
100
AcDbLine
 10
38.62795275590551
 20
2.085629921259842
 30
0.0
 11
38.65255905511811
 21
2.085629921259842
 31
0.0
  0
LINE
  5
7A1
330
1E
100
AcDbEntity
  8
7
100
AcDbLine
 10
38.65255905511811
 20
2.085629921259842
 30
0.0
 11
38.67224409448819
 21
2.085629921259842
 31
0.0
  0
LINE
  5
7A2
330
1E
100
AcDbEntity
  8
7
100
AcDbLine
 10
38.67224409448819
 20
2.085629921259842
 30
0.0
 11
38.68405511811023
 21
2.085629921259842
 31
0.0
  0
LINE
  5
7A3
330
1E
100
AcDbEntity
  8
7
100
AcDbLine
 10
38.68405511811023
 20
2.085629921259842
 30
0.0
 11
38.68799212598425
 21
2.085629921259842
 31
0.0
  0
LINE
  5
7A4
330
1E
100
AcDbEntity
  8
7
100
AcDbLine
 10
38.56791338582677
 20
6.340551181102362
 30
0.0
 11
38.59940944881889
 21
6.340551181102362
 31
0.0
  0
LINE
  5
7A5
330
1E
100
AcDbEntity
  8
7
100
AcDbLine
 10
38.59940944881889
 20
6.340551181102362
 30
0.0
 11
38.62795275590551
 21
6.340551181102362
 31
0.0
  0
LINE
  5
7A6
330
1E
100
AcDbEntity
  8
7
100
AcDbLine
 10
38.62795275590551
 20
6.340551181102362
 30
0.0
 11
38.65255905511811
 21
6.340551181102362
 31
0.0
  0
LINE
  5
7A7
330
1E
100
AcDbEntity
  8
7
100
AcDbLine
 10
38.65255905511811
 20
6.340551181102362
 30
0.0
 11
38.67224409448819
 21
6.340551181102362
 31
0.0
  0
LINE
  5
7A8
330
1E
100
AcDbEntity
  8
7
100
AcDbLine
 10
38.67224409448819
 20
6.340551181102362
 30
0.0
 11
38.68405511811023
 21
6.340551181102362
 31
0.0
  0
LINE
  5
7A9
330
1E
100
AcDbEntity
  8
7
100
AcDbLine
 10
38.68405511811023
 20
6.340551181102362
 30
0.0
 11
38.68799212598425
 21
6.340551181102362
 31
0.0
  0
LINE
  5
7AA
330
1E
100
AcDbEntity
  8
7
100
AcDbLine
 10
33.08464566929134
 20
6.340551181102362
 30
0.0
 11
33.01968503937008
 21
6.336614173228346
 31
0.0
  0
LINE
  5
7AB
330
1E
100
AcDbEntity
  8
7
100
AcDbLine
 10
33.01968503937008
 20
6.336614173228346
 30
0.0
 11
32.95570866141732
 21
6.323818897637795
 31
0.0
  0
LINE
  5
7AC
330
1E
100
AcDbEntity
  8
7
100
AcDbLine
 10
32.95570866141732
 20
6.323818897637795
 30
0.0
 11
32.89370078740157
 21
6.302165354330708
 31
0.0
  0
LINE
  5
7AD
330
1E
100
AcDbEntity
  8
7
100
AcDbLine
 10
32.89370078740157
 20
6.302165354330708
 30
0.0
 11
32.83464566929134
 21
6.273622047244094
 31
0.0
  0
LINE
  5
7AE
330
1E
100
AcDbEntity
  8
7
100
AcDbLine
 10
32.83464566929134
 20
6.273622047244094
 30
0.0
 11
32.78051181102362
 21
6.237204724409449
 31
0.0
  0
LINE
  5
7AF
330
1E
100
AcDbEntity
  8
7
100
AcDbLine
 10
32.78051181102362
 20
6.237204724409449
 30
0.0
 11
32.73129921259843
 21
6.193897637795275
 31
0.0
  0
LINE
  5
7B0
330
1E
100
AcDbEntity
  8
7
100
AcDbLine
 10
38.56791338582677
 20
2.085629921259842
 30
0.0
 11
38.53543307086614
 21
2.081692913385826
 31
0.0
  0
LINE
  5
7B1
330
1E
100
AcDbEntity
  8
7
100
AcDbLine
 10
38.53543307086614
 20
2.081692913385826
 30
0.0
 11
38.50590551181102
 21
2.068897637795275
 31
0.0
  0
LINE
  5
7B2
330
1E
100
AcDbEntity
  8
7
100
AcDbLine
 10
38.50590551181102
 20
2.068897637795275
 30
0.0
 11
38.47933070866141
 21
2.049212598425196
 31
0.0
  0
LINE
  5
7B3
330
1E
100
AcDbEntity
  8
7
100
AcDbLine
 10
38.47933070866141
 20
2.049212598425196
 30
0.0
 11
38.45964566929134
 21
2.023622047244094
 31
0.0
  0
LINE
  5
7B4
330
1E
100
AcDbEntity
  8
7
100
AcDbLine
 10
38.45964566929134
 20
2.023622047244094
 30
0.0
 11
38.44685039370078
 21
1.993110236220472
 31
0.0
  0
LINE
  5
7B5
330
1E
100
AcDbEntity
  8
7
100
AcDbLine
 10
38.44685039370078
 20
1.993110236220472
 30
0.0
 11
38.44291338582677
 21
1.960629921259842
 31
0.0
  0
LINE
  5
7B6
330
1E
100
AcDbEntity
  8
7
100
AcDbLine
 10
38.44291338582677
 20
1.759842519685039
 30
0.0
 11
38.44291338582677
 21
1.763779527559055
 31
0.0
  0
LINE
  5
7B7
330
1E
100
AcDbEntity
  8
7
100
AcDbLine
 10
38.44291338582677
 20
1.763779527559055
 30
0.0
 11
38.44291338582677
 21
1.776574803149606
 31
0.0
  0
LINE
  5
7B8
330
1E
100
AcDbEntity
  8
7
100
AcDbLine
 10
38.44291338582677
 20
1.776574803149606
 30
0.0
 11
38.44291338582677
 21
1.795275590551181
 31
0.0
  0
LINE
  5
7B9
330
1E
100
AcDbEntity
  8
7
100
AcDbLine
 10
38.44291338582677
 20
1.795275590551181
 30
0.0
 11
38.44291338582677
 21
1.819881889763779
 31
0.0
  0
LINE
  5
7BA
330
1E
100
AcDbEntity
  8
7
100
AcDbLine
 10
38.44291338582677
 20
1.819881889763779
 30
0.0
 11
38.44291338582677
 21
1.849409448818897
 31
0.0
  0
LINE
  5
7BB
330
1E
100
AcDbEntity
  8
7
100
AcDbLine
 10
38.44291338582677
 20
1.849409448818897
 30
0.0
 11
38.44291338582677
 21
1.879921259842519
 31
0.0
  0
LINE
  5
7BC
330
1E
100
AcDbEntity
  8
7
100
AcDbLine
 10
28.30807086614173
 20
1.850393700787401
 30
0.0
 11
28.33759842519685
 21
1.852362204724409
 31
0.0
  0
LINE
  5
7BD
330
1E
100
AcDbEntity
  8
7
100
AcDbLine
 10
28.33759842519685
 20
1.852362204724409
 30
0.0
 11
28.36909448818897
 21
1.861220472440944
 31
0.0
  0
LINE
  5
7BE
330
1E
100
AcDbEntity
  8
7
100
AcDbLine
 10
28.36909448818897
 20
1.861220472440944
 30
0.0
 11
28.39468503937008
 21
1.87007874015748
 31
0.0
  0
LINE
  5
7BF
330
1E
100
AcDbEntity
  8
7
100
AcDbLine
 10
28.30807086614173
 20
1.759842519685039
 30
0.0
 11
28.32677165354331
 21
1.764763779527559
 31
0.0
  0
LINE
  5
7C0
330
1E
100
AcDbEntity
  8
7
100
AcDbLine
 10
28.32677165354331
 20
1.764763779527559
 30
0.0
 11
28.34842519685039
 21
1.779527559055118
 31
0.0
  0
LINE
  5
7C1
330
1E
100
AcDbEntity
  8
7
100
AcDbLine
 10
28.34842519685039
 20
1.779527559055118
 30
0.0
 11
28.36909448818897
 21
1.804133858267716
 31
0.0
  0
LINE
  5
7C2
330
1E
100
AcDbEntity
  8
7
100
AcDbLine
 10
28.36909448818897
 20
1.804133858267716
 30
0.0
 11
28.38582677165354
 21
1.828740157480315
 31
0.0
  0
LINE
  5
7C3
330
1E
100
AcDbEntity
  8
7
100
AcDbLine
 10
28.38582677165354
 20
1.828740157480315
 30
0.0
 11
28.40255905511811
 21
1.854330708661417
 31
0.0
  0
LINE
  5
7C4
330
1E
100
AcDbEntity
  8
7
100
AcDbLine
 10
28.40255905511811
 20
1.854330708661417
 30
0.0
 11
28.41732283464567
 21
1.879921259842519
 31
0.0
  0
LINE
  5
7C5
330
1E
100
AcDbEntity
  8
7
100
AcDbLine
 10
39.53444881889764
 20
1.199803149606299
 30
0.0
 11
39.52165354330709
 21
1.199803149606299
 31
0.0
  0
LINE
  5
7C6
330
1E
100
AcDbEntity
  8
7
100
AcDbLine
 10
39.52165354330709
 20
1.199803149606299
 30
0.0
 11
39.51771653543307
 21
1.199803149606299
 31
0.0
  0
LINE
  5
7C7
330
1E
100
AcDbEntity
  8
7
100
AcDbLine
 10
39.64271653543307
 20
1.199803149606299
 30
0.0
 11
39.61023622047244
 21
1.199803149606299
 31
0.0
  0
LINE
  5
7C8
330
1E
100
AcDbEntity
  8
7
100
AcDbLine
 10
39.61023622047244
 20
1.199803149606299
 30
0.0
 11
39.58070866141732
 21
1.199803149606299
 31
0.0
  0
LINE
  5
7C9
330
1E
100
AcDbEntity
  8
7
100
AcDbLine
 10
39.58070866141732
 20
1.199803149606299
 30
0.0
 11
39.55413385826771
 21
1.199803149606299
 31
0.0
  0
LINE
  5
7CA
330
1E
100
AcDbEntity
  8
7
100
AcDbLine
 10
39.55413385826771
 20
1.199803149606299
 30
0.0
 11
39.53444881889764
 21
1.199803149606299
 31
0.0
  0
LINE
  5
7CB
330
1E
100
AcDbEntity
  8
7
100
AcDbLine
 10
39.51771653543307
 20
1.11023622047244
 30
0.0
 11
39.52165354330709
 21
1.11023622047244
 31
0.0
  0
LINE
  5
7CC
330
1E
100
AcDbEntity
  8
7
100
AcDbLine
 10
39.52165354330709
 20
1.11023622047244
 30
0.0
 11
39.53444881889764
 21
1.11023622047244
 31
0.0
  0
LINE
  5
7CD
330
1E
100
AcDbEntity
  8
7
100
AcDbLine
 10
39.53444881889764
 20
1.11023622047244
 30
0.0
 11
39.55413385826771
 21
1.11023622047244
 31
0.0
  0
LINE
  5
7CE
330
1E
100
AcDbEntity
  8
7
100
AcDbLine
 10
39.55413385826771
 20
1.11023622047244
 30
0.0
 11
39.58070866141732
 21
1.11023622047244
 31
0.0
  0
LINE
  5
7CF
330
1E
100
AcDbEntity
  8
7
100
AcDbLine
 10
39.58070866141732
 20
1.11023622047244
 30
0.0
 11
39.61023622047244
 21
1.11023622047244
 31
0.0
  0
LINE
  5
7D0
330
1E
100
AcDbEntity
  8
7
100
AcDbLine
 10
39.61023622047244
 20
1.11023622047244
 30
0.0
 11
39.64271653543307
 21
1.11023622047244
 31
0.0
  0
LINE
  5
7D1
330
1E
100
AcDbEntity
  8
7
100
AcDbLine
 10
40.01771653543307
 20
1.200787401574803
 30
0.0
 11
40.03248031496062
 21
1.204724409448818
 31
0.0
  0
LINE
  5
7D2
330
1E
100
AcDbEntity
  8
7
100
AcDbLine
 10
40.03248031496062
 20
1.204724409448818
 30
0.0
 11
40.04330708661417
 21
1.215551181102362
 31
0.0
  0
LINE
  5
7D3
330
1E
100
AcDbEntity
  8
7
100
AcDbLine
 10
40.04330708661417
 20
1.215551181102362
 30
0.0
 11
40.04724409448819
 21
1.230314960629921
 31
0.0
  0
LINE
  5
7D4
330
1E
100
AcDbEntity
  8
7
100
AcDbLine
 10
40.01771653543307
 20
1.111220472440944
 30
0.0
 11
40.04822834645669
 21
1.11515748031496
 31
0.0
  0
LINE
  5
7D5
330
1E
100
AcDbEntity
  8
7
100
AcDbLine
 10
40.04822834645669
 20
1.11515748031496
 30
0.0
 11
40.07677165354331
 21
1.126968503937007
 31
0.0
  0
LINE
  5
7D6
330
1E
100
AcDbEntity
  8
7
100
AcDbLine
 10
40.07677165354331
 20
1.126968503937007
 30
0.0
 11
40.10236220472441
 21
1.145669291338582
 31
0.0
  0
LINE
  5
7D7
330
1E
100
AcDbEntity
  8
7
100
AcDbLine
 10
40.10236220472441
 20
1.145669291338582
 30
0.0
 11
40.12106299212598
 21
1.170275590551181
 31
0.0
  0
LINE
  5
7D8
330
1E
100
AcDbEntity
  8
7
100
AcDbLine
 10
40.12106299212598
 20
1.170275590551181
 30
0.0
 11
40.13287401574802
 21
1.199803149606299
 31
0.0
  0
LINE
  5
7D9
330
1E
100
AcDbEntity
  8
7
100
AcDbLine
 10
40.13287401574802
 20
1.199803149606299
 30
0.0
 11
40.13681102362204
 21
1.230314960629921
 31
0.0
  0
LINE
  5
7DA
330
1E
100
AcDbEntity
  8
7
100
AcDbLine
 10
40.04724409448819
 20
1.730314960629921
 30
0.0
 11
40.04330708661417
 21
1.74507874015748
 31
0.0
  0
LINE
  5
7DB
330
1E
100
AcDbEntity
  8
7
100
AcDbLine
 10
40.04330708661417
 20
1.74507874015748
 30
0.0
 11
40.03248031496062
 21
1.755905511811023
 31
0.0
  0
LINE
  5
7DC
330
1E
100
AcDbEntity
  8
7
100
AcDbLine
 10
40.03248031496062
 20
1.755905511811023
 30
0.0
 11
40.01771653543307
 21
1.759842519685039
 31
0.0
  0
LINE
  5
7DD
330
1E
100
AcDbEntity
  8
7
100
AcDbLine
 10
40.10236220472441
 20
1.814960629921259
 30
0.0
 11
40.07775590551181
 21
1.833661417322834
 31
0.0
  0
LINE
  5
7DE
330
1E
100
AcDbEntity
  8
7
100
AcDbLine
 10
40.07775590551181
 20
1.833661417322834
 30
0.0
 11
40.04822834645669
 21
1.845472440944881
 31
0.0
  0
LINE
  5
7DF
330
1E
100
AcDbEntity
  8
7
100
AcDbLine
 10
40.04822834645669
 20
1.845472440944881
 30
0.0
 11
40.01771653543307
 21
1.849409448818897
 31
0.0
  0
LINE
  5
7E0
330
1E
100
AcDbEntity
  8
7
100
AcDbLine
 10
40.13681102362204
 20
1.730314960629921
 30
0.0
 11
40.13287401574802
 21
1.760826771653543
 31
0.0
  0
LINE
  5
7E1
330
1E
100
AcDbEntity
  8
7
100
AcDbLine
 10
40.13287401574802
 20
1.760826771653543
 30
0.0
 11
40.12106299212598
 21
1.789370078740157
 31
0.0
  0
LINE
  5
7E2
330
1E
100
AcDbEntity
  8
7
100
AcDbLine
 10
40.12106299212598
 20
1.789370078740157
 30
0.0
 11
40.10236220472441
 21
1.814960629921259
 31
0.0
  0
LINE
  5
7E3
330
1E
100
AcDbEntity
  8
7
100
AcDbLine
 10
28.30807086614173
 20
1.199803149606299
 30
0.0
 11
28.30314960629921
 21
1.199803149606299
 31
0.0
  0
LINE
  5
7E4
330
1E
100
AcDbEntity
  8
7
100
AcDbLine
 10
28.30314960629921
 20
1.199803149606299
 30
0.0
 11
28.29133858267717
 21
1.199803149606299
 31
0.0
  0
LINE
  5
7E5
330
1E
100
AcDbEntity
  8
7
100
AcDbLine
 10
28.29133858267717
 20
1.199803149606299
 30
0.0
 11
28.27165354330709
 21
1.199803149606299
 31
0.0
  0
LINE
  5
7E6
330
1E
100
AcDbEntity
  8
7
100
AcDbLine
 10
28.27165354330709
 20
1.11023622047244
 30
0.0
 11
28.29133858267717
 21
1.11023622047244
 31
0.0
  0
LINE
  5
7E7
330
1E
100
AcDbEntity
  8
7
100
AcDbLine
 10
28.29133858267717
 20
1.11023622047244
 30
0.0
 11
28.30314960629921
 21
1.11023622047244
 31
0.0
  0
LINE
  5
7E8
330
1E
100
AcDbEntity
  8
7
100
AcDbLine
 10
28.30314960629921
 20
1.11023622047244
 30
0.0
 11
28.30807086614173
 21
1.11023622047244
 31
0.0
  0
LINE
  5
7E9
330
1E
100
AcDbEntity
  8
7
100
AcDbLine
 10
27.77755905511811
 20
1.230314960629921
 30
0.0
 11
27.78051181102362
 21
1.21751968503937
 31
0.0
  0
LINE
  5
7EA
330
1E
100
AcDbEntity
  8
7
100
AcDbLine
 10
27.78051181102362
 20
1.21751968503937
 30
0.0
 11
27.78838582677165
 21
1.206692913385826
 31
0.0
  0
LINE
  5
7EB
330
1E
100
AcDbEntity
  8
7
100
AcDbLine
 10
27.78838582677165
 20
1.206692913385826
 30
0.0
 11
27.79822834645669
 21
1.201771653543307
 31
0.0
  0
LINE
  5
7EC
330
1E
100
AcDbEntity
  8
7
100
AcDbLine
 10
27.79822834645669
 20
1.201771653543307
 30
0.0
 11
27.80807086614173
 21
1.199803149606299
 31
0.0
  0
LINE
  5
7ED
330
1E
100
AcDbEntity
  8
7
100
AcDbLine
 10
27.75590551181102
 20
1.122047244094488
 30
0.0
 11
27.78248031496063
 21
1.113188976377952
 31
0.0
  0
LINE
  5
7EE
330
1E
100
AcDbEntity
  8
7
100
AcDbLine
 10
27.78248031496063
 20
1.113188976377952
 30
0.0
 11
27.80807086614173
 21
1.11023622047244
 31
0.0
  0
LINE
  5
7EF
330
1E
100
AcDbEntity
  8
7
100
AcDbLine
 10
27.68799212598425
 20
1.230314960629921
 30
0.0
 11
27.69291338582677
 21
1.196850393700787
 31
0.0
  0
LINE
  5
7F0
330
1E
100
AcDbEntity
  8
7
100
AcDbLine
 10
27.69291338582677
 20
1.196850393700787
 30
0.0
 11
27.70767716535433
 21
1.164370078740157
 31
0.0
  0
LINE
  5
7F1
330
1E
100
AcDbEntity
  8
7
100
AcDbLine
 10
27.70767716535433
 20
1.164370078740157
 30
0.0
 11
27.73228346456693
 21
1.137795275590551
 31
0.0
  0
LINE
  5
7F2
330
1E
100
AcDbEntity
  8
7
100
AcDbLine
 10
27.73228346456693
 20
1.137795275590551
 30
0.0
 11
27.75590551181102
 21
1.122047244094488
 31
0.0
  0
LINE
  5
7F3
330
1E
100
AcDbEntity
  8
7
100
AcDbLine
 10
27.79527559055118
 20
1.757874015748031
 30
0.0
 11
27.78444881889763
 21
1.749015748031496
 31
0.0
  0
LINE
  5
7F4
330
1E
100
AcDbEntity
  8
7
100
AcDbLine
 10
27.78444881889763
 20
1.749015748031496
 30
0.0
 11
27.77952755905511
 21
1.74015748031496
 31
0.0
  0
LINE
  5
7F5
330
1E
100
AcDbEntity
  8
7
100
AcDbLine
 10
27.77952755905511
 20
1.74015748031496
 30
0.0
 11
27.77755905511811
 21
1.730314960629921
 31
0.0
  0
LINE
  5
7F6
330
1E
100
AcDbEntity
  8
7
100
AcDbLine
 10
27.80807086614173
 20
1.850393700787401
 30
0.0
 11
27.7746062992126
 21
1.845472440944881
 31
0.0
  0
LINE
  5
7F7
330
1E
100
AcDbEntity
  8
7
100
AcDbLine
 10
27.7746062992126
 20
1.845472440944881
 30
0.0
 11
27.74212598425197
 21
1.830708661417322
 31
0.0
  0
LINE
  5
7F8
330
1E
100
AcDbEntity
  8
7
100
AcDbLine
 10
27.74212598425197
 20
1.830708661417322
 30
0.0
 11
27.71456692913385
 21
1.806102362204724
 31
0.0
  0
LINE
  5
7F9
330
1E
100
AcDbEntity
  8
7
100
AcDbLine
 10
27.71456692913385
 20
1.806102362204724
 30
0.0
 11
27.6998031496063
 21
1.781496062992125
 31
0.0
  0
LINE
  5
7FA
330
1E
100
AcDbEntity
  8
7
100
AcDbLine
 10
27.6998031496063
 20
1.781496062992125
 30
0.0
 11
27.69094488188976
 21
1.755905511811023
 31
0.0
  0
LINE
  5
7FB
330
1E
100
AcDbEntity
  8
7
100
AcDbLine
 10
27.69094488188976
 20
1.755905511811023
 30
0.0
 11
27.68799212598425
 21
1.730314960629921
 31
0.0
  0
LINE
  5
7FC
330
1E
100
AcDbEntity
  8
7
100
AcDbLine
 10
38.44291338582677
 20
1.759842519685039
 30
0.0
 11
38.44783464566928
 21
1.759842519685039
 31
0.0
  0
LINE
  5
7FD
330
1E
100
AcDbEntity
  8
7
100
AcDbLine
 10
38.44783464566928
 20
1.759842519685039
 30
0.0
 11
38.46161417322834
 21
1.759842519685039
 31
0.0
  0
LINE
  5
7FE
330
1E
100
AcDbEntity
  8
7
100
AcDbLine
 10
38.46161417322834
 20
1.759842519685039
 30
0.0
 11
38.48523622047244
 21
1.759842519685039
 31
0.0
  0
LINE
  5
7FF
330
1E
100
AcDbEntity
  8
7
100
AcDbLine
 10
38.48523622047244
 20
1.759842519685039
 30
0.0
 11
38.51574803149606
 21
1.759842519685039
 31
0.0
  0
LINE
  5
800
330
1E
100
AcDbEntity
  8
7
100
AcDbLine
 10
38.51574803149606
 20
1.759842519685039
 30
0.0
 11
38.55413385826771
 21
1.759842519685039
 31
0.0
  0
LINE
  5
801
330
1E
100
AcDbEntity
  8
7
100
AcDbLine
 10
38.55413385826771
 20
1.759842519685039
 30
0.0
 11
38.59744094488188
 21
1.759842519685039
 31
0.0
  0
LINE
  5
802
330
1E
100
AcDbEntity
  8
7
100
AcDbLine
 10
38.59744094488188
 20
1.759842519685039
 30
0.0
 11
38.64370078740158
 21
1.759842519685039
 31
0.0
  0
LINE
  5
803
330
1E
100
AcDbEntity
  8
7
100
AcDbLine
 10
38.64370078740158
 20
1.759842519685039
 30
0.0
 11
38.69291338582677
 21
1.759842519685039
 31
0.0
  0
LINE
  5
804
330
1E
100
AcDbEntity
  8
7
100
AcDbLine
 10
38.69291338582677
 20
1.850393700787401
 30
0.0
 11
38.64370078740158
 21
1.850393700787401
 31
0.0
  0
LINE
  5
805
330
1E
100
AcDbEntity
  8
7
100
AcDbLine
 10
38.64370078740158
 20
1.850393700787401
 30
0.0
 11
38.59744094488188
 21
1.850393700787401
 31
0.0
  0
LINE
  5
806
330
1E
100
AcDbEntity
  8
7
100
AcDbLine
 10
38.59744094488188
 20
1.850393700787401
 30
0.0
 11
38.55413385826771
 21
1.850393700787401
 31
0.0
  0
LINE
  5
807
330
1E
100
AcDbEntity
  8
7
100
AcDbLine
 10
38.55413385826771
 20
1.850393700787401
 30
0.0
 11
38.51574803149606
 21
1.850393700787401
 31
0.0
  0
LINE
  5
808
330
1E
100
AcDbEntity
  8
7
100
AcDbLine
 10
38.51574803149606
 20
1.850393700787401
 30
0.0
 11
38.48523622047244
 21
1.850393700787401
 31
0.0
  0
LINE
  5
809
330
1E
100
AcDbEntity
  8
7
100
AcDbLine
 10
38.48523622047244
 20
1.850393700787401
 30
0.0
 11
38.46161417322834
 21
1.850393700787401
 31
0.0
  0
LINE
  5
80A
330
1E
100
AcDbEntity
  8
7
100
AcDbLine
 10
38.46161417322834
 20
1.850393700787401
 30
0.0
 11
38.44783464566928
 21
1.850393700787401
 31
0.0
  0
LINE
  5
80B
330
1E
100
AcDbEntity
  8
7
100
AcDbLine
 10
38.44783464566928
 20
1.850393700787401
 30
0.0
 11
38.44291338582677
 21
1.850393700787401
 31
0.0
  0
LINE
  5
80C
330
1E
100
AcDbEntity
  8
7
100
AcDbLine
 10
40.63287401574803
 20
1.199803149606299
 30
0.0
 11
40.66535433070866
 21
1.199803149606299
 31
0.0
  0
LINE
  5
80D
330
1E
100
AcDbEntity
  8
7
100
AcDbLine
 10
40.66535433070866
 20
1.199803149606299
 30
0.0
 11
40.69586614173227
 21
1.199803149606299
 31
0.0
  0
LINE
  5
80E
330
1E
100
AcDbEntity
  8
7
100
AcDbLine
 10
40.69586614173227
 20
1.199803149606299
 30
0.0
 11
40.72145669291338
 21
1.199803149606299
 31
0.0
  0
LINE
  5
80F
330
1E
100
AcDbEntity
  8
7
100
AcDbLine
 10
40.72145669291338
 20
1.199803149606299
 30
0.0
 11
40.74114173228347
 21
1.199803149606299
 31
0.0
  0
LINE
  5
810
330
1E
100
AcDbEntity
  8
7
100
AcDbLine
 10
40.74114173228347
 20
1.199803149606299
 30
0.0
 11
40.75393700787401
 21
1.199803149606299
 31
0.0
  0
LINE
  5
811
330
1E
100
AcDbEntity
  8
7
100
AcDbLine
 10
40.75393700787401
 20
1.199803149606299
 30
0.0
 11
40.75787401574802
 21
1.199803149606299
 31
0.0
  0
LINE
  5
812
330
1E
100
AcDbEntity
  8
7
100
AcDbLine
 10
40.75787401574802
 20
1.199803149606299
 30
0.0
 11
40.75787401574802
 21
1.11023622047244
 31
0.0
  0
LINE
  5
813
330
1E
100
AcDbEntity
  8
7
100
AcDbLine
 10
40.75787401574802
 20
1.11023622047244
 30
0.0
 11
40.75393700787401
 21
1.11023622047244
 31
0.0
  0
LINE
  5
814
330
1E
100
AcDbEntity
  8
7
100
AcDbLine
 10
40.75393700787401
 20
1.11023622047244
 30
0.0
 11
40.74114173228347
 21
1.11023622047244
 31
0.0
  0
LINE
  5
815
330
1E
100
AcDbEntity
  8
7
100
AcDbLine
 10
40.74114173228347
 20
1.11023622047244
 30
0.0
 11
40.72145669291338
 21
1.11023622047244
 31
0.0
  0
LINE
  5
816
330
1E
100
AcDbEntity
  8
7
100
AcDbLine
 10
40.72145669291338
 20
1.11023622047244
 30
0.0
 11
40.69586614173227
 21
1.11023622047244
 31
0.0
  0
LINE
  5
817
330
1E
100
AcDbEntity
  8
7
100
AcDbLine
 10
40.69586614173227
 20
1.11023622047244
 30
0.0
 11
40.66535433070866
 21
1.11023622047244
 31
0.0
  0
LINE
  5
818
330
1E
100
AcDbEntity
  8
7
100
AcDbLine
 10
40.66535433070866
 20
1.11023622047244
 30
0.0
 11
40.63287401574803
 21
1.11023622047244
 31
0.0
  0
LINE
  5
819
330
1E
100
AcDbEntity
  8
7
100
AcDbLine
 10
40.25787401574802
 20
1.11023622047244
 30
0.0
 11
40.63287401574803
 21
1.11023622047244
 31
0.0
  0
LINE
  5
81A
330
1E
100
AcDbEntity
  8
7
100
AcDbLine
 10
40.63287401574803
 20
1.11023622047244
 30
0.0
 11
40.63287401574803
 21
1.199803149606299
 31
0.0
  0
LINE
  5
81B
330
1E
100
AcDbEntity
  8
7
100
AcDbLine
 10
40.2283464566929
 20
1.230314960629921
 30
0.0
 11
40.23228346456693
 21
1.215551181102362
 31
0.0
  0
LINE
  5
81C
330
1E
100
AcDbEntity
  8
7
100
AcDbLine
 10
40.23228346456693
 20
1.215551181102362
 30
0.0
 11
40.24311023622047
 21
1.204724409448818
 31
0.0
  0
LINE
  5
81D
330
1E
100
AcDbEntity
  8
7
100
AcDbLine
 10
40.24311023622047
 20
1.204724409448818
 30
0.0
 11
40.25787401574802
 21
1.200787401574803
 31
0.0
  0
LINE
  5
81E
330
1E
100
AcDbEntity
  8
7
100
AcDbLine
 10
40.13877952755906
 20
1.230314960629921
 30
0.0
 11
40.14271653543307
 21
1.199803149606299
 31
0.0
  0
LINE
  5
81F
330
1E
100
AcDbEntity
  8
7
100
AcDbLine
 10
40.14271653543307
 20
1.199803149606299
 30
0.0
 11
40.15452755905512
 21
1.171259842519684
 31
0.0
  0
LINE
  5
820
330
1E
100
AcDbEntity
  8
7
100
AcDbLine
 10
40.15452755905512
 20
1.171259842519684
 30
0.0
 11
40.17322834645669
 21
1.145669291338582
 31
0.0
  0
LINE
  5
821
330
1E
100
AcDbEntity
  8
7
100
AcDbLine
 10
40.17322834645669
 20
1.145669291338582
 30
0.0
 11
40.19783464566929
 21
1.126968503937007
 31
0.0
  0
LINE
  5
822
330
1E
100
AcDbEntity
  8
7
100
AcDbLine
 10
40.19783464566929
 20
1.126968503937007
 30
0.0
 11
40.22736220472441
 21
1.11515748031496
 31
0.0
  0
LINE
  5
823
330
1E
100
AcDbEntity
  8
7
100
AcDbLine
 10
40.22736220472441
 20
1.11515748031496
 30
0.0
 11
40.25787401574802
 21
1.111220472440944
 31
0.0
  0
LINE
  5
824
330
1E
100
AcDbEntity
  8
7
100
AcDbLine
 10
40.13779527559055
 20
1.730314960629921
 30
0.0
 11
40.13779527559055
 21
1.230314960629921
 31
0.0
  0
LINE
  5
825
330
1E
100
AcDbEntity
  8
7
100
AcDbLine
 10
40.13779527559055
 20
1.230314960629921
 30
0.0
 11
40.2283464566929
 21
1.230314960629921
 31
0.0
  0
LINE
  5
826
330
1E
100
AcDbEntity
  8
7
100
AcDbLine
 10
40.25787401574802
 20
1.759842519685039
 30
0.0
 11
40.24311023622047
 21
1.755905511811023
 31
0.0
  0
LINE
  5
827
330
1E
100
AcDbEntity
  8
7
100
AcDbLine
 10
40.24311023622047
 20
1.755905511811023
 30
0.0
 11
40.23228346456693
 21
1.74507874015748
 31
0.0
  0
LINE
  5
828
330
1E
100
AcDbEntity
  8
7
100
AcDbLine
 10
40.23228346456693
 20
1.74507874015748
 30
0.0
 11
40.2283464566929
 21
1.730314960629921
 31
0.0
  0
LINE
  5
829
330
1E
100
AcDbEntity
  8
7
100
AcDbLine
 10
40.19881889763779
 20
1.833661417322834
 30
0.0
 11
40.17322834645669
 21
1.814960629921259
 31
0.0
  0
LINE
  5
82A
330
1E
100
AcDbEntity
  8
7
100
AcDbLine
 10
40.17322834645669
 20
1.814960629921259
 30
0.0
 11
40.15452755905512
 21
1.790354330708661
 31
0.0
  0
LINE
  5
82B
330
1E
100
AcDbEntity
  8
7
100
AcDbLine
 10
40.15452755905512
 20
1.790354330708661
 30
0.0
 11
40.14271653543307
 21
1.760826771653543
 31
0.0
  0
LINE
  5
82C
330
1E
100
AcDbEntity
  8
7
100
AcDbLine
 10
40.14271653543307
 20
1.760826771653543
 30
0.0
 11
40.13877952755906
 21
1.730314960629921
 31
0.0
  0
LINE
  5
82D
330
1E
100
AcDbEntity
  8
7
100
AcDbLine
 10
40.25787401574802
 20
1.849409448818897
 30
0.0
 11
40.22736220472441
 21
1.845472440944881
 31
0.0
  0
LINE
  5
82E
330
1E
100
AcDbEntity
  8
7
100
AcDbLine
 10
40.22736220472441
 20
1.845472440944881
 30
0.0
 11
40.19881889763779
 21
1.833661417322834
 31
0.0
  0
LINE
  5
82F
330
1E
100
AcDbEntity
  8
7
100
AcDbLine
 10
41.70767716535433
 20
2.085629921259842
 30
0.0
 11
41.67716535433071
 21
2.085629921259842
 31
0.0
  0
LINE
  5
830
330
1E
100
AcDbEntity
  8
7
100
AcDbLine
 10
41.67716535433071
 20
2.085629921259842
 30
0.0
 11
41.64763779527559
 21
2.085629921259842
 31
0.0
  0
LINE
  5
831
330
1E
100
AcDbEntity
  8
7
100
AcDbLine
 10
41.64763779527559
 20
2.085629921259842
 30
0.0
 11
41.62303149606299
 21
2.085629921259842
 31
0.0
  0
LINE
  5
832
330
1E
100
AcDbEntity
  8
7
100
AcDbLine
 10
41.62303149606299
 20
2.085629921259842
 30
0.0
 11
41.60433070866141
 21
2.085629921259842
 31
0.0
  0
LINE
  5
833
330
1E
100
AcDbEntity
  8
7
100
AcDbLine
 10
41.60433070866141
 20
2.085629921259842
 30
0.0
 11
41.59153543307087
 21
2.085629921259842
 31
0.0
  0
LINE
  5
834
330
1E
100
AcDbEntity
  8
7
100
AcDbLine
 10
41.59153543307087
 20
2.085629921259842
 30
0.0
 11
41.58759842519685
 21
2.085629921259842
 31
0.0
  0
LINE
  5
835
330
1E
100
AcDbEntity
  8
7
100
AcDbLine
 10
41.70767716535433
 20
6.340551181102362
 30
0.0
 11
41.67716535433071
 21
6.340551181102362
 31
0.0
  0
LINE
  5
836
330
1E
100
AcDbEntity
  8
7
100
AcDbLine
 10
41.67716535433071
 20
6.340551181102362
 30
0.0
 11
41.64763779527559
 21
6.340551181102362
 31
0.0
  0
LINE
  5
837
330
1E
100
AcDbEntity
  8
7
100
AcDbLine
 10
41.64763779527559
 20
6.340551181102362
 30
0.0
 11
41.62303149606299
 21
6.340551181102362
 31
0.0
  0
LINE
  5
838
330
1E
100
AcDbEntity
  8
7
100
AcDbLine
 10
41.62303149606299
 20
6.340551181102362
 30
0.0
 11
41.60433070866141
 21
6.340551181102362
 31
0.0
  0
LINE
  5
839
330
1E
100
AcDbEntity
  8
7
100
AcDbLine
 10
41.60433070866141
 20
6.340551181102362
 30
0.0
 11
41.59153543307087
 21
6.340551181102362
 31
0.0
  0
LINE
  5
83A
330
1E
100
AcDbEntity
  8
7
100
AcDbLine
 10
41.59153543307087
 20
6.340551181102362
 30
0.0
 11
41.58759842519685
 21
6.340551181102362
 31
0.0
  0
LINE
  5
83B
330
1E
100
AcDbEntity
  8
7
100
AcDbLine
 10
51.96751968503937
 20
1.199803149606299
 30
0.0
 11
51.97244094488189
 21
1.199803149606299
 31
0.0
  0
LINE
  5
83C
330
1E
100
AcDbEntity
  8
7
100
AcDbLine
 10
51.97244094488189
 20
1.199803149606299
 30
0.0
 11
51.98425196850394
 21
1.199803149606299
 31
0.0
  0
LINE
  5
83D
330
1E
100
AcDbEntity
  8
7
100
AcDbLine
 10
51.98425196850394
 20
1.199803149606299
 30
0.0
 11
52.00492125984252
 21
1.199803149606299
 31
0.0
  0
LINE
  5
83E
330
1E
100
AcDbEntity
  8
7
100
AcDbLine
 10
52.46751968503937
 20
1.11023622047244
 30
0.0
 11
52.00492125984252
 21
1.11023622047244
 31
0.0
  0
LINE
  5
83F
330
1E
100
AcDbEntity
  8
7
100
AcDbLine
 10
52.00492125984252
 20
1.11023622047244
 30
0.0
 11
51.98425196850394
 21
1.11023622047244
 31
0.0
  0
LINE
  5
840
330
1E
100
AcDbEntity
  8
7
100
AcDbLine
 10
51.98425196850394
 20
1.11023622047244
 30
0.0
 11
51.97244094488189
 21
1.11023622047244
 31
0.0
  0
LINE
  5
841
330
1E
100
AcDbEntity
  8
7
100
AcDbLine
 10
51.97244094488189
 20
1.11023622047244
 30
0.0
 11
51.96751968503937
 21
1.11023622047244
 31
0.0
  0
LINE
  5
842
330
1E
100
AcDbEntity
  8
7
100
AcDbLine
 10
52.46751968503937
 20
1.199803149606299
 30
0.0
 11
52.00492125984252
 21
1.199803149606299
 31
0.0
  0
LINE
  5
843
330
1E
100
AcDbEntity
  8
7
100
AcDbLine
 10
52.00492125984252
 20
1.199803149606299
 30
0.0
 11
52.00492125984252
 21
1.11023622047244
 31
0.0
  0
LINE
  5
844
330
1E
100
AcDbEntity
  8
7
100
AcDbLine
 10
52.58759842519685
 20
1.230314960629921
 30
0.0
 11
52.58366141732284
 21
1.196850393700787
 31
0.0
  0
LINE
  5
845
330
1E
100
AcDbEntity
  8
7
100
AcDbLine
 10
52.58366141732284
 20
1.196850393700787
 30
0.0
 11
52.56889763779527
 21
1.164370078740157
 31
0.0
  0
LINE
  5
846
330
1E
100
AcDbEntity
  8
7
100
AcDbLine
 10
52.56889763779527
 20
1.164370078740157
 30
0.0
 11
52.54429133858268
 21
1.137795275590551
 31
0.0
  0
LINE
  5
847
330
1E
100
AcDbEntity
  8
7
100
AcDbLine
 10
52.54429133858268
 20
1.137795275590551
 30
0.0
 11
52.51968503937008
 21
1.122047244094488
 31
0.0
  0
LINE
  5
848
330
1E
100
AcDbEntity
  8
7
100
AcDbLine
 10
52.51968503937008
 20
1.122047244094488
 30
0.0
 11
52.49311023622047
 21
1.113188976377952
 31
0.0
  0
LINE
  5
849
330
1E
100
AcDbEntity
  8
7
100
AcDbLine
 10
52.49311023622047
 20
1.113188976377952
 30
0.0
 11
52.46751968503937
 21
1.11023622047244
 31
0.0
  0
LINE
  5
84A
330
1E
100
AcDbEntity
  8
7
100
AcDbLine
 10
52.49803149606299
 20
1.230314960629921
 30
0.0
 11
52.49507874015748
 21
1.21751968503937
 31
0.0
  0
LINE
  5
84B
330
1E
100
AcDbEntity
  8
7
100
AcDbLine
 10
52.49507874015748
 20
1.21751968503937
 30
0.0
 11
52.48720472440945
 21
1.206692913385826
 31
0.0
  0
LINE
  5
84C
330
1E
100
AcDbEntity
  8
7
100
AcDbLine
 10
52.48720472440945
 20
1.206692913385826
 30
0.0
 11
52.4773622047244
 21
1.201771653543307
 31
0.0
  0
LINE
  5
84D
330
1E
100
AcDbEntity
  8
7
100
AcDbLine
 10
52.4773622047244
 20
1.201771653543307
 30
0.0
 11
52.46751968503937
 21
1.199803149606299
 31
0.0
  0
LINE
  5
84E
330
1E
100
AcDbEntity
  8
7
100
AcDbLine
 10
52.46751968503937
 20
1.199803149606299
 30
0.0
 11
52.46751968503937
 21
1.11023622047244
 31
0.0
  0
LINE
  5
84F
330
1E
100
AcDbEntity
  8
7
100
AcDbLine
 10
52.49803149606299
 20
1.730314960629921
 30
0.0
 11
52.49803149606299
 21
1.230314960629921
 31
0.0
  0
LINE
  5
850
330
1E
100
AcDbEntity
  8
7
100
AcDbLine
 10
52.49803149606299
 20
1.230314960629921
 30
0.0
 11
52.53740157480315
 21
1.230314960629921
 31
0.0
  0
LINE
  5
851
330
1E
100
AcDbEntity
  8
7
100
AcDbLine
 10
52.53740157480315
 20
1.230314960629921
 30
0.0
 11
52.58759842519685
 21
1.230314960629921
 31
0.0
  0
LINE
  5
852
330
1E
100
AcDbEntity
  8
7
100
AcDbLine
 10
52.46751968503937
 20
1.850393700787401
 30
0.0
 11
52.5009842519685
 21
1.845472440944881
 31
0.0
  0
LINE
  5
853
330
1E
100
AcDbEntity
  8
7
100
AcDbLine
 10
52.5009842519685
 20
1.845472440944881
 30
0.0
 11
52.53346456692913
 21
1.830708661417322
 31
0.0
  0
LINE
  5
854
330
1E
100
AcDbEntity
  8
7
100
AcDbLine
 10
52.53346456692913
 20
1.830708661417322
 30
0.0
 11
52.56102362204725
 21
1.806102362204724
 31
0.0
  0
LINE
  5
855
330
1E
100
AcDbEntity
  8
7
100
AcDbLine
 10
52.56102362204725
 20
1.806102362204724
 30
0.0
 11
52.5757874015748
 21
1.781496062992125
 31
0.0
  0
LINE
  5
856
330
1E
100
AcDbEntity
  8
7
100
AcDbLine
 10
52.5757874015748
 20
1.781496062992125
 30
0.0
 11
52.58464566929134
 21
1.755905511811023
 31
0.0
  0
LINE
  5
857
330
1E
100
AcDbEntity
  8
7
100
AcDbLine
 10
52.58464566929134
 20
1.755905511811023
 30
0.0
 11
52.58759842519685
 21
1.730314960629921
 31
0.0
  0
LINE
  5
858
330
1E
100
AcDbEntity
  8
7
100
AcDbLine
 10
52.46751968503937
 20
1.759842519685039
 30
0.0
 11
52.48031496062992
 21
1.757874015748031
 31
0.0
  0
LINE
  5
859
330
1E
100
AcDbEntity
  8
7
100
AcDbLine
 10
52.48031496062992
 20
1.757874015748031
 30
0.0
 11
52.49114173228346
 21
1.749015748031496
 31
0.0
  0
LINE
  5
85A
330
1E
100
AcDbEntity
  8
7
100
AcDbLine
 10
52.49114173228346
 20
1.749015748031496
 30
0.0
 11
52.49606299212598
 21
1.74015748031496
 31
0.0
  0
LINE
  5
85B
330
1E
100
AcDbEntity
  8
7
100
AcDbLine
 10
52.49606299212598
 20
1.74015748031496
 30
0.0
 11
52.49803149606299
 21
1.730314960629921
 31
0.0
  0
LINE
  5
85C
330
1E
100
AcDbEntity
  8
7
100
AcDbLine
 10
52.49803149606299
 20
1.730314960629921
 30
0.0
 11
52.58759842519685
 21
1.730314960629921
 31
0.0
  0
LINE
  5
85D
330
1E
100
AcDbEntity
  8
7
100
AcDbLine
 10
41.82874015748032
 20
1.993110236220472
 30
0.0
 11
41.81594488188976
 21
2.02263779527559
 31
0.0
  0
LINE
  5
85E
330
1E
100
AcDbEntity
  8
7
100
AcDbLine
 10
41.81594488188976
 20
2.02263779527559
 30
0.0
 11
41.79625984251969
 21
2.049212598425196
 31
0.0
  0
LINE
  5
85F
330
1E
100
AcDbEntity
  8
7
100
AcDbLine
 10
41.79625984251969
 20
2.049212598425196
 30
0.0
 11
41.77066929133858
 21
2.068897637795275
 31
0.0
  0
LINE
  5
860
330
1E
100
AcDbEntity
  8
7
100
AcDbLine
 10
41.77066929133858
 20
2.068897637795275
 30
0.0
 11
41.74015748031496
 21
2.081692913385826
 31
0.0
  0
LINE
  5
861
330
1E
100
AcDbEntity
  8
7
100
AcDbLine
 10
41.74015748031496
 20
2.081692913385826
 30
0.0
 11
41.70767716535433
 21
2.085629921259842
 31
0.0
  0
LINE
  5
862
330
1E
100
AcDbEntity
  8
7
100
AcDbLine
 10
47.44192913385826
 20
6.273622047244094
 30
0.0
 11
47.38287401574803
 21
6.302165354330708
 31
0.0
  0
LINE
  5
863
330
1E
100
AcDbEntity
  8
7
100
AcDbLine
 10
47.38287401574803
 20
6.302165354330708
 30
0.0
 11
47.32086614173228
 21
6.323818897637795
 31
0.0
  0
LINE
  5
864
330
1E
100
AcDbEntity
  8
7
100
AcDbLine
 10
47.32086614173228
 20
6.323818897637795
 30
0.0
 11
47.25688976377952
 21
6.336614173228346
 31
0.0
  0
LINE
  5
865
330
1E
100
AcDbEntity
  8
7
100
AcDbLine
 10
47.25688976377952
 20
6.336614173228346
 30
0.0
 11
47.19192913385827
 21
6.340551181102362
 31
0.0
  0
LINE
  5
866
330
1E
100
AcDbEntity
  8
7
100
AcDbLine
 10
47.54527559055119
 20
6.193897637795275
 30
0.0
 11
47.49606299212598
 21
6.237204724409449
 31
0.0
  0
LINE
  5
867
330
1E
100
AcDbEntity
  8
7
100
AcDbLine
 10
47.49606299212598
 20
6.237204724409449
 30
0.0
 11
47.44192913385826
 21
6.273622047244094
 31
0.0
  0
LINE
  5
868
330
1E
100
AcDbEntity
  8
7
100
AcDbLine
 10
41.83267716535433
 20
1.759842519685039
 30
0.0
 11
41.83267716535433
 21
1.763779527559055
 31
0.0
  0
LINE
  5
869
330
1E
100
AcDbEntity
  8
7
100
AcDbLine
 10
41.83267716535433
 20
1.763779527559055
 30
0.0
 11
41.83267716535433
 21
1.776574803149606
 31
0.0
  0
LINE
  5
86A
330
1E
100
AcDbEntity
  8
7
100
AcDbLine
 10
41.83267716535433
 20
1.776574803149606
 30
0.0
 11
41.83267716535433
 21
1.795275590551181
 31
0.0
  0
LINE
  5
86B
330
1E
100
AcDbEntity
  8
7
100
AcDbLine
 10
41.83267716535433
 20
1.795275590551181
 30
0.0
 11
41.83267716535433
 21
1.819881889763779
 31
0.0
  0
LINE
  5
86C
330
1E
100
AcDbEntity
  8
7
100
AcDbLine
 10
41.83267716535433
 20
1.819881889763779
 30
0.0
 11
41.83267716535433
 21
1.849409448818897
 31
0.0
  0
LINE
  5
86D
330
1E
100
AcDbEntity
  8
7
100
AcDbLine
 10
41.83267716535433
 20
1.849409448818897
 30
0.0
 11
41.83267716535433
 21
1.879921259842519
 31
0.0
  0
LINE
  5
86E
330
1E
100
AcDbEntity
  8
7
100
AcDbLine
 10
51.96751968503937
 20
1.759842519685039
 30
0.0
 11
51.94881889763779
 21
1.764763779527559
 31
0.0
  0
LINE
  5
86F
330
1E
100
AcDbEntity
  8
7
100
AcDbLine
 10
51.94881889763779
 20
1.764763779527559
 30
0.0
 11
51.92814960629921
 21
1.779527559055118
 31
0.0
  0
LINE
  5
870
330
1E
100
AcDbEntity
  8
7
100
AcDbLine
 10
51.92814960629921
 20
1.779527559055118
 30
0.0
 11
51.90649606299213
 21
1.804133858267716
 31
0.0
  0
LINE
  5
871
330
1E
100
AcDbEntity
  8
7
100
AcDbLine
 10
51.90649606299213
 20
1.804133858267716
 30
0.0
 11
51.88976377952756
 21
1.828740157480315
 31
0.0
  0
LINE
  5
872
330
1E
100
AcDbEntity
  8
7
100
AcDbLine
 10
51.88976377952756
 20
1.828740157480315
 30
0.0
 11
51.8740157480315
 21
1.854330708661417
 31
0.0
  0
LINE
  5
873
330
1E
100
AcDbEntity
  8
7
100
AcDbLine
 10
51.8740157480315
 20
1.854330708661417
 30
0.0
 11
51.85826771653544
 21
1.879921259842519
 31
0.0
  0
LINE
  5
874
330
1E
100
AcDbEntity
  8
7
100
AcDbLine
 10
51.96751968503937
 20
1.850393700787401
 30
0.0
 11
51.93799212598425
 21
1.852362204724409
 31
0.0
  0
LINE
  5
875
330
1E
100
AcDbEntity
  8
7
100
AcDbLine
 10
51.93799212598425
 20
1.852362204724409
 30
0.0
 11
51.90649606299213
 21
1.861220472440944
 31
0.0
  0
LINE
  5
876
330
1E
100
AcDbEntity
  8
7
100
AcDbLine
 10
51.90649606299213
 20
1.861220472440944
 30
0.0
 11
51.88188976377952
 21
1.87007874015748
 31
0.0
  0
LINE
  5
877
330
1E
100
AcDbEntity
  8
7
100
AcDbLine
 10
51.88188976377952
 20
1.87007874015748
 30
0.0
 11
51.85826771653544
 21
1.879921259842519
 31
0.0
  0
LINE
  5
878
330
1E
100
AcDbEntity
  8
7
100
AcDbLine
 10
52.46751968503937
 20
1.759842519685039
 30
0.0
 11
51.96751968503937
 21
1.759842519685039
 31
0.0
  0
LINE
  5
879
330
1E
100
AcDbEntity
  8
7
100
AcDbLine
 10
51.96751968503937
 20
1.759842519685039
 30
0.0
 11
41.83267716535433
 21
1.759842519685039
 31
0.0
  0
LINE
  5
87A
330
1E
100
AcDbEntity
  8
7
100
AcDbLine
 10
41.79035433070866
 20
1.759842519685039
 30
0.0
 11
41.75984251968503
 21
1.759842519685039
 31
0.0
  0
LINE
  5
87B
330
1E
100
AcDbEntity
  8
7
100
AcDbLine
 10
41.75984251968503
 20
1.759842519685039
 30
0.0
 11
41.72145669291338
 21
1.759842519685039
 31
0.0
  0
LINE
  5
87C
330
1E
100
AcDbEntity
  8
7
100
AcDbLine
 10
41.72145669291338
 20
1.759842519685039
 30
0.0
 11
41.67814960629921
 21
1.759842519685039
 31
0.0
  0
LINE
  5
87D
330
1E
100
AcDbEntity
  8
7
100
AcDbLine
 10
41.67814960629921
 20
1.759842519685039
 30
0.0
 11
41.63188976377952
 21
1.759842519685039
 31
0.0
  0
LINE
  5
87E
330
1E
100
AcDbEntity
  8
7
100
AcDbLine
 10
41.63188976377952
 20
1.759842519685039
 30
0.0
 11
41.58267716535433
 21
1.759842519685039
 31
0.0
  0
LINE
  5
87F
330
1E
100
AcDbEntity
  8
7
100
AcDbLine
 10
41.83267716535433
 20
1.759842519685039
 30
0.0
 11
41.82775590551181
 21
1.759842519685039
 31
0.0
  0
LINE
  5
880
330
1E
100
AcDbEntity
  8
7
100
AcDbLine
 10
41.82775590551181
 20
1.759842519685039
 30
0.0
 11
41.81397637795275
 21
1.759842519685039
 31
0.0
  0
LINE
  5
881
330
1E
100
AcDbEntity
  8
7
100
AcDbLine
 10
41.81397637795275
 20
1.759842519685039
 30
0.0
 11
41.79035433070866
 21
1.759842519685039
 31
0.0
  0
LINE
  5
882
330
1E
100
AcDbEntity
  8
7
100
AcDbLine
 10
40.25787401574802
 20
1.850393700787401
 30
0.0
 11
41.58267716535433
 21
1.850393700787401
 31
0.0
  0
LINE
  5
883
330
1E
100
AcDbEntity
  8
7
100
AcDbLine
 10
41.58267716535433
 20
1.850393700787401
 30
0.0
 11
41.63188976377952
 21
1.850393700787401
 31
0.0
  0
LINE
  5
884
330
1E
100
AcDbEntity
  8
7
100
AcDbLine
 10
41.63188976377952
 20
1.850393700787401
 30
0.0
 11
41.67814960629921
 21
1.850393700787401
 31
0.0
  0
LINE
  5
885
330
1E
100
AcDbEntity
  8
7
100
AcDbLine
 10
41.67814960629921
 20
1.850393700787401
 30
0.0
 11
41.72145669291338
 21
1.850393700787401
 31
0.0
  0
LINE
  5
886
330
1E
100
AcDbEntity
  8
7
100
AcDbLine
 10
41.72145669291338
 20
1.850393700787401
 30
0.0
 11
41.75984251968503
 21
1.850393700787401
 31
0.0
  0
LINE
  5
887
330
1E
100
AcDbEntity
  8
7
100
AcDbLine
 10
41.75984251968503
 20
1.850393700787401
 30
0.0
 11
41.79035433070866
 21
1.850393700787401
 31
0.0
  0
LINE
  5
888
330
1E
100
AcDbEntity
  8
7
100
AcDbLine
 10
41.79035433070866
 20
1.850393700787401
 30
0.0
 11
41.81397637795275
 21
1.850393700787401
 31
0.0
  0
LINE
  5
889
330
1E
100
AcDbEntity
  8
7
100
AcDbLine
 10
41.81397637795275
 20
1.850393700787401
 30
0.0
 11
41.82775590551181
 21
1.850393700787401
 31
0.0
  0
LINE
  5
88A
330
1E
100
AcDbEntity
  8
7
100
AcDbLine
 10
41.82775590551181
 20
1.850393700787401
 30
0.0
 11
41.83267716535433
 21
1.850393700787401
 31
0.0
  0
LINE
  5
88B
330
1E
100
AcDbEntity
  8
7
100
AcDbLine
 10
22.87106299212598
 20
2.210629921259842
 30
0.0
 11
22.875
 21
2.178149606299212
 31
0.0
  0
LINE
  5
88C
330
1E
100
AcDbEntity
  8
7
100
AcDbLine
 10
22.875
 20
2.178149606299212
 30
0.0
 11
22.88779527559055
 21
2.148622047244094
 31
0.0
  0
LINE
  5
88D
330
1E
100
AcDbEntity
  8
7
100
AcDbLine
 10
22.88779527559055
 20
2.148622047244094
 30
0.0
 11
22.90748031496062
 21
2.122047244094487
 31
0.0
  0
LINE
  5
88E
330
1E
100
AcDbEntity
  8
7
100
AcDbLine
 10
22.90748031496062
 20
2.122047244094487
 30
0.0
 11
22.93307086614173
 21
2.102362204724409
 31
0.0
  0
LINE
  5
88F
330
1E
100
AcDbEntity
  8
7
100
AcDbLine
 10
22.93307086614173
 20
2.102362204724409
 30
0.0
 11
22.96358267716535
 21
2.089566929133858
 31
0.0
  0
LINE
  5
890
330
1E
100
AcDbEntity
  8
7
100
AcDbLine
 10
22.96358267716535
 20
2.089566929133858
 30
0.0
 11
22.99606299212598
 21
2.085629921259842
 31
0.0
  0
LINE
  5
891
330
1E
100
AcDbEntity
  8
7
100
AcDbLine
 10
22.99606299212598
 20
6.340551181102362
 30
0.0
 11
22.96358267716535
 21
6.336614173228346
 31
0.0
  0
LINE
  5
892
330
1E
100
AcDbEntity
  8
7
100
AcDbLine
 10
22.96358267716535
 20
6.336614173228346
 30
0.0
 11
22.93405511811023
 21
6.323818897637795
 31
0.0
  0
LINE
  5
893
330
1E
100
AcDbEntity
  8
7
100
AcDbLine
 10
22.93405511811023
 20
6.323818897637795
 30
0.0
 11
22.90748031496062
 21
6.304133858267716
 31
0.0
  0
LINE
  5
894
330
1E
100
AcDbEntity
  8
7
100
AcDbLine
 10
22.90748031496062
 20
6.304133858267716
 30
0.0
 11
22.88779527559055
 21
6.278543307086613
 31
0.0
  0
LINE
  5
895
330
1E
100
AcDbEntity
  8
7
100
AcDbLine
 10
22.88779527559055
 20
6.278543307086613
 30
0.0
 11
22.875
 21
6.248031496062991
 31
0.0
  0
LINE
  5
896
330
1E
100
AcDbEntity
  8
7
100
AcDbLine
 10
22.875
 20
6.248031496062991
 30
0.0
 11
22.87106299212598
 21
6.215551181102362
 31
0.0
  0
LINE
  5
897
330
1E
100
AcDbEntity
  8
7
100
AcDbLine
 10
23.09350393700787
 20
6.230314960629921
 30
0.0
 11
23.06102362204724
 21
6.226377952755905
 31
0.0
  0
LINE
  5
898
330
1E
100
AcDbEntity
  8
7
100
AcDbLine
 10
23.06102362204724
 20
6.226377952755905
 30
0.0
 11
23.03149606299212
 21
6.213582677165354
 31
0.0
  0
LINE
  5
899
330
1E
100
AcDbEntity
  8
7
100
AcDbLine
 10
23.03149606299212
 20
6.213582677165354
 30
0.0
 11
23.00492125984252
 21
6.193897637795275
 31
0.0
  0
LINE
  5
89A
330
1E
100
AcDbEntity
  8
7
100
AcDbLine
 10
23.00492125984252
 20
6.193897637795275
 30
0.0
 11
22.98523622047244
 21
6.168307086614173
 31
0.0
  0
LINE
  5
89B
330
1E
100
AcDbEntity
  8
7
100
AcDbLine
 10
22.98523622047244
 20
6.168307086614173
 30
0.0
 11
22.97244094488189
 21
6.13779527559055
 31
0.0
  0
LINE
  5
89C
330
1E
100
AcDbEntity
  8
7
100
AcDbLine
 10
22.97244094488189
 20
6.13779527559055
 30
0.0
 11
22.96850393700787
 21
6.105314960629921
 31
0.0
  0
LINE
  5
89D
330
1E
100
AcDbEntity
  8
7
100
AcDbLine
 10
22.96850393700787
 20
6.105314960629921
 30
0.0
 11
22.97244094488189
 21
6.072834645669291
 31
0.0
  0
LINE
  5
89E
330
1E
100
AcDbEntity
  8
7
100
AcDbLine
 10
22.97244094488189
 20
6.072834645669291
 30
0.0
 11
22.98523622047244
 21
6.043307086614173
 31
0.0
  0
LINE
  5
89F
330
1E
100
AcDbEntity
  8
7
100
AcDbLine
 10
22.98523622047244
 20
6.043307086614173
 30
0.0
 11
23.00492125984252
 21
6.016732283464566
 31
0.0
  0
LINE
  5
8A0
330
1E
100
AcDbEntity
  8
7
100
AcDbLine
 10
23.00492125984252
 20
6.016732283464566
 30
0.0
 11
23.03051181102362
 21
5.997047244094487
 31
0.0
  0
LINE
  5
8A1
330
1E
100
AcDbEntity
  8
7
100
AcDbLine
 10
23.03051181102362
 20
5.997047244094487
 30
0.0
 11
23.06102362204724
 21
5.984251968503937
 31
0.0
  0
LINE
  5
8A2
330
1E
100
AcDbEntity
  8
7
100
AcDbLine
 10
23.06102362204724
 20
5.984251968503937
 30
0.0
 11
23.09350393700787
 21
5.980314960629921
 31
0.0
  0
LINE
  5
8A3
330
1E
100
AcDbEntity
  8
7
100
AcDbLine
 10
23.32677165354331
 20
6.042322834645669
 30
0.0
 11
23.33956692913385
 21
6.072834645669291
 31
0.0
  0
LINE
  5
8A4
330
1E
100
AcDbEntity
  8
7
100
AcDbLine
 10
23.33956692913385
 20
6.072834645669291
 30
0.0
 11
23.34350393700787
 21
6.105314960629921
 31
0.0
  0
LINE
  5
8A5
330
1E
100
AcDbEntity
  8
7
100
AcDbLine
 10
23.34350393700787
 20
6.105314960629921
 30
0.0
 11
23.33956692913385
 21
6.13779527559055
 31
0.0
  0
LINE
  5
8A6
330
1E
100
AcDbEntity
  8
7
100
AcDbLine
 10
23.33956692913385
 20
6.13779527559055
 30
0.0
 11
23.32677165354331
 21
6.167322834645669
 31
0.0
  0
LINE
  5
8A7
330
1E
100
AcDbEntity
  8
7
100
AcDbLine
 10
23.32677165354331
 20
6.167322834645669
 30
0.0
 11
23.30708661417323
 21
6.193897637795275
 31
0.0
  0
LINE
  5
8A8
330
1E
100
AcDbEntity
  8
7
100
AcDbLine
 10
23.30708661417323
 20
6.193897637795275
 30
0.0
 11
23.28149606299212
 21
6.213582677165354
 31
0.0
  0
LINE
  5
8A9
330
1E
100
AcDbEntity
  8
7
100
AcDbLine
 10
23.28149606299212
 20
6.213582677165354
 30
0.0
 11
23.2509842519685
 21
6.226377952755905
 31
0.0
  0
LINE
  5
8AA
330
1E
100
AcDbEntity
  8
7
100
AcDbLine
 10
23.2509842519685
 20
6.226377952755905
 30
0.0
 11
23.21850393700787
 21
6.230314960629921
 31
0.0
  0
LINE
  5
8AB
330
1E
100
AcDbEntity
  8
7
100
AcDbLine
 10
23.21850393700787
 20
5.980314960629921
 30
0.0
 11
23.2509842519685
 21
5.984251968503937
 31
0.0
  0
LINE
  5
8AC
330
1E
100
AcDbEntity
  8
7
100
AcDbLine
 10
23.2509842519685
 20
5.984251968503937
 30
0.0
 11
23.28051181102362
 21
5.997047244094487
 31
0.0
  0
LINE
  5
8AD
330
1E
100
AcDbEntity
  8
7
100
AcDbLine
 10
23.28051181102362
 20
5.997047244094487
 30
0.0
 11
23.30708661417323
 21
6.016732283464566
 31
0.0
  0
LINE
  5
8AE
330
1E
100
AcDbEntity
  8
7
100
AcDbLine
 10
23.30708661417323
 20
6.016732283464566
 30
0.0
 11
23.32677165354331
 21
6.042322834645669
 31
0.0
  0
LINE
  5
8AF
330
1E
100
AcDbEntity
  8
7
100
AcDbLine
 10
22.98523622047244
 20
5.418307086614173
 30
0.0
 11
23.00492125984252
 21
5.391732283464566
 31
0.0
  0
LINE
  5
8B0
330
1E
100
AcDbEntity
  8
7
100
AcDbLine
 10
23.00492125984252
 20
5.391732283464566
 30
0.0
 11
23.03051181102362
 21
5.372047244094487
 31
0.0
  0
LINE
  5
8B1
330
1E
100
AcDbEntity
  8
7
100
AcDbLine
 10
23.03051181102362
 20
5.372047244094487
 30
0.0
 11
23.06102362204724
 21
5.359251968503937
 31
0.0
  0
LINE
  5
8B2
330
1E
100
AcDbEntity
  8
7
100
AcDbLine
 10
23.06102362204724
 20
5.359251968503937
 30
0.0
 11
23.09350393700787
 21
5.355314960629921
 31
0.0
  0
LINE
  5
8B3
330
1E
100
AcDbEntity
  8
7
100
AcDbLine
 10
23.09350393700787
 20
5.605314960629921
 30
0.0
 11
23.06102362204724
 21
5.601377952755905
 31
0.0
  0
LINE
  5
8B4
330
1E
100
AcDbEntity
  8
7
100
AcDbLine
 10
23.06102362204724
 20
5.601377952755905
 30
0.0
 11
23.03149606299212
 21
5.588582677165354
 31
0.0
  0
LINE
  5
8B5
330
1E
100
AcDbEntity
  8
7
100
AcDbLine
 10
23.03149606299212
 20
5.588582677165354
 30
0.0
 11
23.00492125984252
 21
5.568897637795275
 31
0.0
  0
LINE
  5
8B6
330
1E
100
AcDbEntity
  8
7
100
AcDbLine
 10
23.00492125984252
 20
5.568897637795275
 30
0.0
 11
22.98523622047244
 21
5.543307086614173
 31
0.0
  0
LINE
  5
8B7
330
1E
100
AcDbEntity
  8
7
100
AcDbLine
 10
22.98523622047244
 20
5.543307086614173
 30
0.0
 11
22.97244094488189
 21
5.51279527559055
 31
0.0
  0
LINE
  5
8B8
330
1E
100
AcDbEntity
  8
7
100
AcDbLine
 10
22.97244094488189
 20
5.51279527559055
 30
0.0
 11
22.96850393700787
 21
5.480314960629921
 31
0.0
  0
LINE
  5
8B9
330
1E
100
AcDbEntity
  8
7
100
AcDbLine
 10
22.96850393700787
 20
5.480314960629921
 30
0.0
 11
22.97244094488189
 21
5.447834645669291
 31
0.0
  0
LINE
  5
8BA
330
1E
100
AcDbEntity
  8
7
100
AcDbLine
 10
22.97244094488189
 20
5.447834645669291
 30
0.0
 11
22.98523622047244
 21
5.418307086614173
 31
0.0
  0
LINE
  5
8BB
330
1E
100
AcDbEntity
  8
7
100
AcDbLine
 10
23.21850393700787
 20
5.355314960629921
 30
0.0
 11
23.2509842519685
 21
5.359251968503937
 31
0.0
  0
LINE
  5
8BC
330
1E
100
AcDbEntity
  8
7
100
AcDbLine
 10
23.2509842519685
 20
5.359251968503937
 30
0.0
 11
23.28051181102362
 21
5.372047244094487
 31
0.0
  0
LINE
  5
8BD
330
1E
100
AcDbEntity
  8
7
100
AcDbLine
 10
23.28051181102362
 20
5.372047244094487
 30
0.0
 11
23.30708661417323
 21
5.391732283464566
 31
0.0
  0
LINE
  5
8BE
330
1E
100
AcDbEntity
  8
7
100
AcDbLine
 10
23.30708661417323
 20
5.391732283464566
 30
0.0
 11
23.32677165354331
 21
5.417322834645669
 31
0.0
  0
LINE
  5
8BF
330
1E
100
AcDbEntity
  8
7
100
AcDbLine
 10
23.32677165354331
 20
5.417322834645669
 30
0.0
 11
23.33956692913385
 21
5.447834645669291
 31
0.0
  0
LINE
  5
8C0
330
1E
100
AcDbEntity
  8
7
100
AcDbLine
 10
23.33956692913385
 20
5.447834645669291
 30
0.0
 11
23.34350393700787
 21
5.480314960629921
 31
0.0
  0
LINE
  5
8C1
330
1E
100
AcDbEntity
  8
7
100
AcDbLine
 10
23.34350393700787
 20
5.480314960629921
 30
0.0
 11
23.33956692913385
 21
5.51279527559055
 31
0.0
  0
LINE
  5
8C2
330
1E
100
AcDbEntity
  8
7
100
AcDbLine
 10
23.33956692913385
 20
5.51279527559055
 30
0.0
 11
23.32677165354331
 21
5.542322834645669
 31
0.0
  0
LINE
  5
8C3
330
1E
100
AcDbEntity
  8
7
100
AcDbLine
 10
23.32677165354331
 20
5.542322834645669
 30
0.0
 11
23.30708661417323
 21
5.568897637795275
 31
0.0
  0
LINE
  5
8C4
330
1E
100
AcDbEntity
  8
7
100
AcDbLine
 10
23.30708661417323
 20
5.568897637795275
 30
0.0
 11
23.28149606299212
 21
5.588582677165354
 31
0.0
  0
LINE
  5
8C5
330
1E
100
AcDbEntity
  8
7
100
AcDbLine
 10
23.28149606299212
 20
5.588582677165354
 30
0.0
 11
23.2509842519685
 21
5.601377952755905
 31
0.0
  0
LINE
  5
8C6
330
1E
100
AcDbEntity
  8
7
100
AcDbLine
 10
23.2509842519685
 20
5.601377952755905
 30
0.0
 11
23.21850393700787
 21
5.605314960629921
 31
0.0
  0
LINE
  5
8C7
330
1E
100
AcDbEntity
  8
7
100
AcDbLine
 10
23.03149606299212
 20
4.963582677165354
 30
0.0
 11
23.00492125984252
 21
4.943897637795275
 31
0.0
  0
LINE
  5
8C8
330
1E
100
AcDbEntity
  8
7
100
AcDbLine
 10
23.00492125984252
 20
4.943897637795275
 30
0.0
 11
22.98523622047244
 21
4.918307086614173
 31
0.0
  0
LINE
  5
8C9
330
1E
100
AcDbEntity
  8
7
100
AcDbLine
 10
22.98523622047244
 20
4.918307086614173
 30
0.0
 11
22.97244094488189
 21
4.88779527559055
 31
0.0
  0
LINE
  5
8CA
330
1E
100
AcDbEntity
  8
7
100
AcDbLine
 10
22.97244094488189
 20
4.88779527559055
 30
0.0
 11
22.96850393700787
 21
4.855314960629921
 31
0.0
  0
LINE
  5
8CB
330
1E
100
AcDbEntity
  8
7
100
AcDbLine
 10
22.96850393700787
 20
4.855314960629921
 30
0.0
 11
22.97244094488189
 21
4.822834645669291
 31
0.0
  0
LINE
  5
8CC
330
1E
100
AcDbEntity
  8
7
100
AcDbLine
 10
22.97244094488189
 20
4.822834645669291
 30
0.0
 11
22.98523622047244
 21
4.793307086614173
 31
0.0
  0
LINE
  5
8CD
330
1E
100
AcDbEntity
  8
7
100
AcDbLine
 10
22.98523622047244
 20
4.793307086614173
 30
0.0
 11
23.00492125984252
 21
4.766732283464566
 31
0.0
  0
LINE
  5
8CE
330
1E
100
AcDbEntity
  8
7
100
AcDbLine
 10
23.00492125984252
 20
4.766732283464566
 30
0.0
 11
23.03051181102362
 21
4.747047244094487
 31
0.0
  0
LINE
  5
8CF
330
1E
100
AcDbEntity
  8
7
100
AcDbLine
 10
23.03051181102362
 20
4.747047244094487
 30
0.0
 11
23.06102362204724
 21
4.734251968503937
 31
0.0
  0
LINE
  5
8D0
330
1E
100
AcDbEntity
  8
7
100
AcDbLine
 10
23.06102362204724
 20
4.734251968503937
 30
0.0
 11
23.09350393700787
 21
4.730314960629921
 31
0.0
  0
LINE
  5
8D1
330
1E
100
AcDbEntity
  8
7
100
AcDbLine
 10
23.09350393700787
 20
4.980314960629921
 30
0.0
 11
23.06102362204724
 21
4.976377952755905
 31
0.0
  0
LINE
  5
8D2
330
1E
100
AcDbEntity
  8
7
100
AcDbLine
 10
23.06102362204724
 20
4.976377952755905
 30
0.0
 11
23.03149606299212
 21
4.963582677165354
 31
0.0
  0
LINE
  5
8D3
330
1E
100
AcDbEntity
  8
7
100
AcDbLine
 10
23.34350393700787
 20
4.855314960629921
 30
0.0
 11
23.33956692913385
 21
4.88779527559055
 31
0.0
  0
LINE
  5
8D4
330
1E
100
AcDbEntity
  8
7
100
AcDbLine
 10
23.33956692913385
 20
4.88779527559055
 30
0.0
 11
23.32677165354331
 21
4.917322834645669
 31
0.0
  0
LINE
  5
8D5
330
1E
100
AcDbEntity
  8
7
100
AcDbLine
 10
23.32677165354331
 20
4.917322834645669
 30
0.0
 11
23.30708661417323
 21
4.943897637795275
 31
0.0
  0
LINE
  5
8D6
330
1E
100
AcDbEntity
  8
7
100
AcDbLine
 10
23.30708661417323
 20
4.943897637795275
 30
0.0
 11
23.28149606299212
 21
4.963582677165354
 31
0.0
  0
LINE
  5
8D7
330
1E
100
AcDbEntity
  8
7
100
AcDbLine
 10
23.28149606299212
 20
4.963582677165354
 30
0.0
 11
23.2509842519685
 21
4.976377952755905
 31
0.0
  0
LINE
  5
8D8
330
1E
100
AcDbEntity
  8
7
100
AcDbLine
 10
23.2509842519685
 20
4.976377952755905
 30
0.0
 11
23.21850393700787
 21
4.980314960629921
 31
0.0
  0
LINE
  5
8D9
330
1E
100
AcDbEntity
  8
7
100
AcDbLine
 10
23.21850393700787
 20
4.730314960629921
 30
0.0
 11
23.2509842519685
 21
4.734251968503937
 31
0.0
  0
LINE
  5
8DA
330
1E
100
AcDbEntity
  8
7
100
AcDbLine
 10
23.2509842519685
 20
4.734251968503937
 30
0.0
 11
23.28051181102362
 21
4.747047244094487
 31
0.0
  0
LINE
  5
8DB
330
1E
100
AcDbEntity
  8
7
100
AcDbLine
 10
23.28051181102362
 20
4.747047244094487
 30
0.0
 11
23.30708661417323
 21
4.766732283464566
 31
0.0
  0
LINE
  5
8DC
330
1E
100
AcDbEntity
  8
7
100
AcDbLine
 10
23.30708661417323
 20
4.766732283464566
 30
0.0
 11
23.32677165354331
 21
4.792322834645669
 31
0.0
  0
LINE
  5
8DD
330
1E
100
AcDbEntity
  8
7
100
AcDbLine
 10
23.32677165354331
 20
4.792322834645669
 30
0.0
 11
23.33956692913385
 21
4.822834645669291
 31
0.0
  0
LINE
  5
8DE
330
1E
100
AcDbEntity
  8
7
100
AcDbLine
 10
23.33956692913385
 20
4.822834645669291
 30
0.0
 11
23.34350393700787
 21
4.855314960629921
 31
0.0
  0
LINE
  5
8DF
330
1E
100
AcDbEntity
  8
7
100
AcDbLine
 10
23.03051181102362
 20
4.247047244094487
 30
0.0
 11
23.06102362204724
 21
4.234251968503937
 31
0.0
  0
LINE
  5
8E0
330
1E
100
AcDbEntity
  8
7
100
AcDbLine
 10
23.06102362204724
 20
4.234251968503937
 30
0.0
 11
23.09350393700787
 21
4.230314960629921
 31
0.0
  0
LINE
  5
8E1
330
1E
100
AcDbEntity
  8
7
100
AcDbLine
 10
23.09350393700787
 20
4.480314960629921
 30
0.0
 11
23.06102362204724
 21
4.476377952755905
 31
0.0
  0
LINE
  5
8E2
330
1E
100
AcDbEntity
  8
7
100
AcDbLine
 10
23.06102362204724
 20
4.476377952755905
 30
0.0
 11
23.03149606299212
 21
4.463582677165354
 31
0.0
  0
LINE
  5
8E3
330
1E
100
AcDbEntity
  8
7
100
AcDbLine
 10
23.03149606299212
 20
4.463582677165354
 30
0.0
 11
23.00492125984252
 21
4.443897637795275
 31
0.0
  0
LINE
  5
8E4
330
1E
100
AcDbEntity
  8
7
100
AcDbLine
 10
23.00492125984252
 20
4.443897637795275
 30
0.0
 11
22.98523622047244
 21
4.418307086614173
 31
0.0
  0
LINE
  5
8E5
330
1E
100
AcDbEntity
  8
7
100
AcDbLine
 10
22.98523622047244
 20
4.418307086614173
 30
0.0
 11
22.97244094488189
 21
4.38779527559055
 31
0.0
  0
LINE
  5
8E6
330
1E
100
AcDbEntity
  8
7
100
AcDbLine
 10
22.97244094488189
 20
4.38779527559055
 30
0.0
 11
22.96850393700787
 21
4.355314960629921
 31
0.0
  0
LINE
  5
8E7
330
1E
100
AcDbEntity
  8
7
100
AcDbLine
 10
22.96850393700787
 20
4.355314960629921
 30
0.0
 11
22.97244094488189
 21
4.322834645669291
 31
0.0
  0
LINE
  5
8E8
330
1E
100
AcDbEntity
  8
7
100
AcDbLine
 10
22.97244094488189
 20
4.322834645669291
 30
0.0
 11
22.98523622047244
 21
4.293307086614173
 31
0.0
  0
LINE
  5
8E9
330
1E
100
AcDbEntity
  8
7
100
AcDbLine
 10
22.98523622047244
 20
4.293307086614173
 30
0.0
 11
23.00492125984252
 21
4.266732283464566
 31
0.0
  0
LINE
  5
8EA
330
1E
100
AcDbEntity
  8
7
100
AcDbLine
 10
23.00492125984252
 20
4.266732283464566
 30
0.0
 11
23.03051181102362
 21
4.247047244094487
 31
0.0
  0
LINE
  5
8EB
330
1E
100
AcDbEntity
  8
7
100
AcDbLine
 10
23.21850393700787
 20
4.230314960629921
 30
0.0
 11
23.2509842519685
 21
4.234251968503937
 31
0.0
  0
LINE
  5
8EC
330
1E
100
AcDbEntity
  8
7
100
AcDbLine
 10
23.2509842519685
 20
4.234251968503937
 30
0.0
 11
23.28051181102362
 21
4.247047244094487
 31
0.0
  0
LINE
  5
8ED
330
1E
100
AcDbEntity
  8
7
100
AcDbLine
 10
23.28051181102362
 20
4.247047244094487
 30
0.0
 11
23.30708661417323
 21
4.266732283464566
 31
0.0
  0
LINE
  5
8EE
330
1E
100
AcDbEntity
  8
7
100
AcDbLine
 10
23.30708661417323
 20
4.266732283464566
 30
0.0
 11
23.32677165354331
 21
4.292322834645669
 31
0.0
  0
LINE
  5
8EF
330
1E
100
AcDbEntity
  8
7
100
AcDbLine
 10
23.32677165354331
 20
4.292322834645669
 30
0.0
 11
23.33956692913385
 21
4.322834645669291
 31
0.0
  0
LINE
  5
8F0
330
1E
100
AcDbEntity
  8
7
100
AcDbLine
 10
23.33956692913385
 20
4.322834645669291
 30
0.0
 11
23.34350393700787
 21
4.355314960629921
 31
0.0
  0
LINE
  5
8F1
330
1E
100
AcDbEntity
  8
7
100
AcDbLine
 10
23.34350393700787
 20
4.355314960629921
 30
0.0
 11
23.33956692913385
 21
4.38779527559055
 31
0.0
  0
LINE
  5
8F2
330
1E
100
AcDbEntity
  8
7
100
AcDbLine
 10
23.33956692913385
 20
4.38779527559055
 30
0.0
 11
23.32677165354331
 21
4.417322834645669
 31
0.0
  0
LINE
  5
8F3
330
1E
100
AcDbEntity
  8
7
100
AcDbLine
 10
23.32677165354331
 20
4.417322834645669
 30
0.0
 11
23.30708661417323
 21
4.443897637795275
 31
0.0
  0
LINE
  5
8F4
330
1E
100
AcDbEntity
  8
7
100
AcDbLine
 10
23.30708661417323
 20
4.443897637795275
 30
0.0
 11
23.28149606299212
 21
4.463582677165354
 31
0.0
  0
LINE
  5
8F5
330
1E
100
AcDbEntity
  8
7
100
AcDbLine
 10
23.28149606299212
 20
4.463582677165354
 30
0.0
 11
23.2509842519685
 21
4.476377952755905
 31
0.0
  0
LINE
  5
8F6
330
1E
100
AcDbEntity
  8
7
100
AcDbLine
 10
23.2509842519685
 20
4.476377952755905
 30
0.0
 11
23.21850393700787
 21
4.480314960629921
 31
0.0
  0
LINE
  5
8F7
330
1E
100
AcDbEntity
  8
7
100
AcDbLine
 10
22.97244094488189
 20
2.63779527559055
 30
0.0
 11
22.96850393700787
 21
2.605314960629921
 31
0.0
  0
LINE
  5
8F8
330
1E
100
AcDbEntity
  8
7
100
AcDbLine
 10
22.96850393700787
 20
2.605314960629921
 30
0.0
 11
22.97244094488189
 21
2.572834645669291
 31
0.0
  0
LINE
  5
8F9
330
1E
100
AcDbEntity
  8
7
100
AcDbLine
 10
22.97244094488189
 20
2.572834645669291
 30
0.0
 11
22.98523622047244
 21
2.543307086614173
 31
0.0
  0
LINE
  5
8FA
330
1E
100
AcDbEntity
  8
7
100
AcDbLine
 10
22.98523622047244
 20
2.543307086614173
 30
0.0
 11
23.00492125984252
 21
2.516732283464566
 31
0.0
  0
LINE
  5
8FB
330
1E
100
AcDbEntity
  8
7
100
AcDbLine
 10
23.00492125984252
 20
2.516732283464566
 30
0.0
 11
23.03051181102362
 21
2.497047244094487
 31
0.0
  0
LINE
  5
8FC
330
1E
100
AcDbEntity
  8
7
100
AcDbLine
 10
23.03051181102362
 20
2.497047244094487
 30
0.0
 11
23.06102362204724
 21
2.484251968503937
 31
0.0
  0
LINE
  5
8FD
330
1E
100
AcDbEntity
  8
7
100
AcDbLine
 10
23.06102362204724
 20
2.484251968503937
 30
0.0
 11
23.09350393700787
 21
2.480314960629921
 31
0.0
  0
LINE
  5
8FE
330
1E
100
AcDbEntity
  8
7
100
AcDbLine
 10
23.09350393700787
 20
2.730314960629921
 30
0.0
 11
23.06102362204724
 21
2.726377952755905
 31
0.0
  0
LINE
  5
8FF
330
1E
100
AcDbEntity
  8
7
100
AcDbLine
 10
23.06102362204724
 20
2.726377952755905
 30
0.0
 11
23.03149606299212
 21
2.713582677165354
 31
0.0
  0
LINE
  5
900
330
1E
100
AcDbEntity
  8
7
100
AcDbLine
 10
23.03149606299212
 20
2.713582677165354
 30
0.0
 11
23.00492125984252
 21
2.693897637795275
 31
0.0
  0
LINE
  5
901
330
1E
100
AcDbEntity
  8
7
100
AcDbLine
 10
23.00492125984252
 20
2.693897637795275
 30
0.0
 11
22.98523622047244
 21
2.668307086614173
 31
0.0
  0
LINE
  5
902
330
1E
100
AcDbEntity
  8
7
100
AcDbLine
 10
22.98523622047244
 20
2.668307086614173
 30
0.0
 11
22.97244094488189
 21
2.63779527559055
 31
0.0
  0
LINE
  5
903
330
1E
100
AcDbEntity
  8
7
100
AcDbLine
 10
23.28149606299212
 20
2.713582677165354
 30
0.0
 11
23.2509842519685
 21
2.726377952755905
 31
0.0
  0
LINE
  5
904
330
1E
100
AcDbEntity
  8
7
100
AcDbLine
 10
23.2509842519685
 20
2.726377952755905
 30
0.0
 11
23.21850393700787
 21
2.730314960629921
 31
0.0
  0
LINE
  5
905
330
1E
100
AcDbEntity
  8
7
100
AcDbLine
 10
23.21850393700787
 20
2.480314960629921
 30
0.0
 11
23.2509842519685
 21
2.484251968503937
 31
0.0
  0
LINE
  5
906
330
1E
100
AcDbEntity
  8
7
100
AcDbLine
 10
23.2509842519685
 20
2.484251968503937
 30
0.0
 11
23.28051181102362
 21
2.497047244094487
 31
0.0
  0
LINE
  5
907
330
1E
100
AcDbEntity
  8
7
100
AcDbLine
 10
23.28051181102362
 20
2.497047244094487
 30
0.0
 11
23.30708661417323
 21
2.516732283464566
 31
0.0
  0
LINE
  5
908
330
1E
100
AcDbEntity
  8
7
100
AcDbLine
 10
23.30708661417323
 20
2.516732283464566
 30
0.0
 11
23.32677165354331
 21
2.542322834645669
 31
0.0
  0
LINE
  5
909
330
1E
100
AcDbEntity
  8
7
100
AcDbLine
 10
23.32677165354331
 20
2.542322834645669
 30
0.0
 11
23.33956692913385
 21
2.572834645669291
 31
0.0
  0
LINE
  5
90A
330
1E
100
AcDbEntity
  8
7
100
AcDbLine
 10
23.33956692913385
 20
2.572834645669291
 30
0.0
 11
23.34350393700787
 21
2.605314960629921
 31
0.0
  0
LINE
  5
90B
330
1E
100
AcDbEntity
  8
7
100
AcDbLine
 10
23.34350393700787
 20
2.605314960629921
 30
0.0
 11
23.33956692913385
 21
2.63779527559055
 31
0.0
  0
LINE
  5
90C
330
1E
100
AcDbEntity
  8
7
100
AcDbLine
 10
23.33956692913385
 20
2.63779527559055
 30
0.0
 11
23.32677165354331
 21
2.667322834645669
 31
0.0
  0
LINE
  5
90D
330
1E
100
AcDbEntity
  8
7
100
AcDbLine
 10
23.32677165354331
 20
2.667322834645669
 30
0.0
 11
23.30708661417323
 21
2.693897637795275
 31
0.0
  0
LINE
  5
90E
330
1E
100
AcDbEntity
  8
7
100
AcDbLine
 10
23.30708661417323
 20
2.693897637795275
 30
0.0
 11
23.28149606299212
 21
2.713582677165354
 31
0.0
  0
LINE
  5
90F
330
1E
100
AcDbEntity
  8
7
100
AcDbLine
 10
23.53149606299212
 20
2.085629921259842
 30
0.0
 11
23.52755905511811
 21
2.085629921259842
 31
0.0
  0
LINE
  5
910
330
1E
100
AcDbEntity
  8
7
100
AcDbLine
 10
23.52755905511811
 20
2.085629921259842
 30
0.0
 11
23.51673228346456
 21
2.085629921259842
 31
0.0
  0
LINE
  5
911
330
1E
100
AcDbEntity
  8
7
100
AcDbLine
 10
23.51673228346456
 20
2.085629921259842
 30
0.0
 11
23.5009842519685
 21
2.085629921259842
 31
0.0
  0
LINE
  5
912
330
1E
100
AcDbEntity
  8
7
100
AcDbLine
 10
23.5009842519685
 20
2.085629921259842
 30
0.0
 11
23.5009842519685
 21
6.340551181102362
 31
0.0
  0
LINE
  5
913
330
1E
100
AcDbEntity
  8
7
100
AcDbLine
 10
23.5009842519685
 20
6.340551181102362
 30
0.0
 11
22.99606299212598
 21
6.340551181102362
 31
0.0
  0
LINE
  5
914
330
1E
100
AcDbEntity
  8
7
100
AcDbLine
 10
23.62106299212598
 20
6.340551181102362
 30
0.0
 11
23.53149606299212
 21
6.340551181102362
 31
0.0
  0
LINE
  5
915
330
1E
100
AcDbEntity
  8
7
100
AcDbLine
 10
23.53149606299212
 20
6.340551181102362
 30
0.0
 11
23.52755905511811
 21
6.340551181102362
 31
0.0
  0
LINE
  5
916
330
1E
100
AcDbEntity
  8
7
100
AcDbLine
 10
23.52755905511811
 20
6.340551181102362
 30
0.0
 11
23.51673228346456
 21
6.340551181102362
 31
0.0
  0
LINE
  5
917
330
1E
100
AcDbEntity
  8
7
100
AcDbLine
 10
23.51673228346456
 20
6.340551181102362
 30
0.0
 11
23.5009842519685
 21
6.340551181102362
 31
0.0
  0
LINE
  5
918
330
1E
100
AcDbEntity
  8
7
100
AcDbLine
 10
23.53149606299212
 20
6.340551181102362
 30
0.0
 11
23.53149606299212
 21
6.335629921259842
 31
0.0
  0
LINE
  5
919
330
1E
100
AcDbEntity
  8
7
100
AcDbLine
 10
23.53149606299212
 20
6.335629921259842
 30
0.0
 11
23.53149606299212
 21
6.322834645669291
 31
0.0
  0
LINE
  5
91A
330
1E
100
AcDbEntity
  8
7
100
AcDbLine
 10
23.53149606299212
 20
6.322834645669291
 30
0.0
 11
23.53149606299212
 21
6.302165354330708
 31
0.0
  0
LINE
  5
91B
330
1E
100
AcDbEntity
  8
7
100
AcDbLine
 10
23.53149606299212
 20
6.302165354330708
 30
0.0
 11
23.53149606299212
 21
6.273622047244094
 31
0.0
  0
LINE
  5
91C
330
1E
100
AcDbEntity
  8
7
100
AcDbLine
 10
23.53149606299212
 20
6.273622047244094
 30
0.0
 11
23.53149606299212
 21
6.237204724409449
 31
0.0
  0
LINE
  5
91D
330
1E
100
AcDbEntity
  8
7
100
AcDbLine
 10
23.53149606299212
 20
6.237204724409449
 30
0.0
 11
23.53149606299212
 21
6.193897637795275
 31
0.0
  0
LINE
  5
91E
330
1E
100
AcDbEntity
  8
7
100
AcDbLine
 10
23.53149606299212
 20
6.193897637795275
 30
0.0
 11
23.62106299212598
 21
6.193897637795275
 31
0.0
  0
LINE
  5
91F
330
1E
100
AcDbEntity
  8
7
100
AcDbLine
 10
23.62106299212598
 20
6.193897637795275
 30
0.0
 11
23.62106299212598
 21
6.237204724409449
 31
0.0
  0
LINE
  5
920
330
1E
100
AcDbEntity
  8
7
100
AcDbLine
 10
23.62106299212598
 20
6.237204724409449
 30
0.0
 11
23.62106299212598
 21
6.273622047244094
 31
0.0
  0
LINE
  5
921
330
1E
100
AcDbEntity
  8
7
100
AcDbLine
 10
23.62106299212598
 20
6.273622047244094
 30
0.0
 11
23.62106299212598
 21
6.302165354330708
 31
0.0
  0
LINE
  5
922
330
1E
100
AcDbEntity
  8
7
100
AcDbLine
 10
23.62106299212598
 20
6.302165354330708
 30
0.0
 11
23.62106299212598
 21
6.322834645669291
 31
0.0
  0
LINE
  5
923
330
1E
100
AcDbEntity
  8
7
100
AcDbLine
 10
23.62106299212598
 20
6.322834645669291
 30
0.0
 11
23.62106299212598
 21
6.335629921259842
 31
0.0
  0
LINE
  5
924
330
1E
100
AcDbEntity
  8
7
100
AcDbLine
 10
23.62106299212598
 20
6.335629921259842
 30
0.0
 11
23.62106299212598
 21
6.340551181102362
 31
0.0
  0
LINE
  5
925
330
1E
100
AcDbEntity
  8
7
100
AcDbLine
 10
23.5009842519685
 20
1.850393700787401
 30
0.0
 11
23.51377952755905
 21
1.852362204724409
 31
0.0
  0
LINE
  5
926
330
1E
100
AcDbEntity
  8
7
100
AcDbLine
 10
23.51377952755905
 20
1.852362204724409
 30
0.0
 11
23.5246062992126
 21
1.861220472440944
 31
0.0
  0
LINE
  5
927
330
1E
100
AcDbEntity
  8
7
100
AcDbLine
 10
23.5246062992126
 20
1.861220472440944
 30
0.0
 11
23.52952755905512
 21
1.87007874015748
 31
0.0
  0
LINE
  5
928
330
1E
100
AcDbEntity
  8
7
100
AcDbLine
 10
23.52952755905512
 20
1.87007874015748
 30
0.0
 11
23.53149606299212
 21
1.879921259842519
 31
0.0
  0
LINE
  5
929
330
1E
100
AcDbEntity
  8
7
100
AcDbLine
 10
23.53149606299212
 20
1.879921259842519
 30
0.0
 11
23.53149606299212
 21
6.193897637795275
 31
0.0
  0
LINE
  5
92A
330
1E
100
AcDbEntity
  8
7
100
AcDbLine
 10
23.59448818897637
 20
1.804133858267716
 30
0.0
 11
23.60925196850393
 21
1.828740157480315
 31
0.0
  0
LINE
  5
92B
330
1E
100
AcDbEntity
  8
7
100
AcDbLine
 10
23.60925196850393
 20
1.828740157480315
 30
0.0
 11
23.61811023622047
 21
1.854330708661417
 31
0.0
  0
LINE
  5
92C
330
1E
100
AcDbEntity
  8
7
100
AcDbLine
 10
23.61811023622047
 20
1.854330708661417
 30
0.0
 11
23.62106299212598
 21
1.879921259842519
 31
0.0
  0
LINE
  5
92D
330
1E
100
AcDbEntity
  8
7
100
AcDbLine
 10
23.5009842519685
 20
1.759842519685039
 30
0.0
 11
23.53444881889763
 21
1.764763779527559
 31
0.0
  0
LINE
  5
92E
330
1E
100
AcDbEntity
  8
7
100
AcDbLine
 10
23.53444881889763
 20
1.764763779527559
 30
0.0
 11
23.56692913385827
 21
1.779527559055118
 31
0.0
  0
LINE
  5
92F
330
1E
100
AcDbEntity
  8
7
100
AcDbLine
 10
23.56692913385827
 20
1.779527559055118
 30
0.0
 11
23.59448818897637
 21
1.804133858267716
 31
0.0
  0
LINE
  5
930
330
1E
100
AcDbEntity
  8
7
100
AcDbLine
 10
22.5009842519685
 20
1.199803149606299
 30
0.0
 11
22.49704724409448
 21
1.199803149606299
 31
0.0
  0
LINE
  5
931
330
1E
100
AcDbEntity
  8
7
100
AcDbLine
 10
22.49704724409448
 20
1.199803149606299
 30
0.0
 11
22.48425196850393
 21
1.199803149606299
 31
0.0
  0
LINE
  5
932
330
1E
100
AcDbEntity
  8
7
100
AcDbLine
 10
22.48425196850393
 20
1.199803149606299
 30
0.0
 11
22.46456692913386
 21
1.199803149606299
 31
0.0
  0
LINE
  5
933
330
1E
100
AcDbEntity
  8
7
100
AcDbLine
 10
22.46456692913386
 20
1.199803149606299
 30
0.0
 11
22.43897637795275
 21
1.199803149606299
 31
0.0
  0
LINE
  5
934
330
1E
100
AcDbEntity
  8
7
100
AcDbLine
 10
22.43897637795275
 20
1.199803149606299
 30
0.0
 11
22.40846456692913
 21
1.199803149606299
 31
0.0
  0
LINE
  5
935
330
1E
100
AcDbEntity
  8
7
100
AcDbLine
 10
22.40846456692913
 20
1.199803149606299
 30
0.0
 11
22.3759842519685
 21
1.199803149606299
 31
0.0
  0
LINE
  5
936
330
1E
100
AcDbEntity
  8
7
100
AcDbLine
 10
5.500984251968503
 20
1.199803149606299
 30
0.0
 11
5.505905511811023
 21
1.199803149606299
 31
0.0
  0
LINE
  5
937
330
1E
100
AcDbEntity
  8
7
100
AcDbLine
 10
5.505905511811023
 20
1.199803149606299
 30
0.0
 11
5.51771653543307
 21
1.199803149606299
 31
0.0
  0
LINE
  5
938
330
1E
100
AcDbEntity
  8
7
100
AcDbLine
 10
5.51771653543307
 20
1.199803149606299
 30
0.0
 11
5.538385826771652
 21
1.199803149606299
 31
0.0
  0
LINE
  5
939
330
1E
100
AcDbEntity
  8
7
100
AcDbLine
 10
5.538385826771652
 20
1.199803149606299
 30
0.0
 11
5.563976377952755
 21
1.199803149606299
 31
0.0
  0
LINE
  5
93A
330
1E
100
AcDbEntity
  8
7
100
AcDbLine
 10
5.563976377952755
 20
1.199803149606299
 30
0.0
 11
5.593503937007873
 21
1.199803149606299
 31
0.0
  0
LINE
  5
93B
330
1E
100
AcDbEntity
  8
7
100
AcDbLine
 10
22.3759842519685
 20
1.11023622047244
 30
0.0
 11
22.40846456692913
 21
1.11023622047244
 31
0.0
  0
LINE
  5
93C
330
1E
100
AcDbEntity
  8
7
100
AcDbLine
 10
22.40846456692913
 20
1.11023622047244
 30
0.0
 11
22.43897637795275
 21
1.11023622047244
 31
0.0
  0
LINE
  5
93D
330
1E
100
AcDbEntity
  8
7
100
AcDbLine
 10
22.43897637795275
 20
1.11023622047244
 30
0.0
 11
22.46456692913386
 21
1.11023622047244
 31
0.0
  0
LINE
  5
93E
330
1E
100
AcDbEntity
  8
7
100
AcDbLine
 10
22.46456692913386
 20
1.11023622047244
 30
0.0
 11
22.48425196850393
 21
1.11023622047244
 31
0.0
  0
LINE
  5
93F
330
1E
100
AcDbEntity
  8
7
100
AcDbLine
 10
22.48425196850393
 20
1.11023622047244
 30
0.0
 11
22.49704724409448
 21
1.11023622047244
 31
0.0
  0
LINE
  5
940
330
1E
100
AcDbEntity
  8
7
100
AcDbLine
 10
22.49704724409448
 20
1.11023622047244
 30
0.0
 11
22.5009842519685
 21
1.11023622047244
 31
0.0
  0
LINE
  5
941
330
1E
100
AcDbEntity
  8
7
100
AcDbLine
 10
5.538385826771652
 20
1.11023622047244
 30
0.0
 11
5.51771653543307
 21
1.11023622047244
 31
0.0
  0
LINE
  5
942
330
1E
100
AcDbEntity
  8
7
100
AcDbLine
 10
5.51771653543307
 20
1.11023622047244
 30
0.0
 11
5.505905511811023
 21
1.11023622047244
 31
0.0
  0
LINE
  5
943
330
1E
100
AcDbEntity
  8
7
100
AcDbLine
 10
5.505905511811023
 20
1.11023622047244
 30
0.0
 11
5.500984251968503
 21
1.11023622047244
 31
0.0
  0
LINE
  5
944
330
1E
100
AcDbEntity
  8
7
100
AcDbLine
 10
5.720472440944881
 20
1.11023622047244
 30
0.0
 11
5.625984251968503
 21
1.11023622047244
 31
0.0
  0
LINE
  5
945
330
1E
100
AcDbEntity
  8
7
100
AcDbLine
 10
5.625984251968503
 20
1.11023622047244
 30
0.0
 11
5.593503937007873
 21
1.11023622047244
 31
0.0
  0
LINE
  5
946
330
1E
100
AcDbEntity
  8
7
100
AcDbLine
 10
5.593503937007873
 20
1.11023622047244
 30
0.0
 11
5.563976377952755
 21
1.11023622047244
 31
0.0
  0
LINE
  5
947
330
1E
100
AcDbEntity
  8
7
100
AcDbLine
 10
5.563976377952755
 20
1.11023622047244
 30
0.0
 11
5.538385826771652
 21
1.11023622047244
 31
0.0
  0
LINE
  5
948
330
1E
100
AcDbEntity
  8
7
100
AcDbLine
 10
22.5009842519685
 20
1.230314960629921
 30
0.0
 11
22.5009842519685
 21
1.215551181102362
 31
0.0
  0
LINE
  5
949
330
1E
100
AcDbEntity
  8
7
100
AcDbLine
 10
22.5009842519685
 20
1.215551181102362
 30
0.0
 11
22.5009842519685
 21
1.203740157480315
 31
0.0
  0
LINE
  5
94A
330
1E
100
AcDbEntity
  8
7
100
AcDbLine
 10
22.5009842519685
 20
1.203740157480315
 30
0.0
 11
22.5009842519685
 21
1.199803149606299
 31
0.0
  0
LINE
  5
94B
330
1E
100
AcDbEntity
  8
7
100
AcDbLine
 10
5.500984251968503
 20
1.230314960629921
 30
0.0
 11
5.500984251968503
 21
1.215551181102362
 31
0.0
  0
LINE
  5
94C
330
1E
100
AcDbEntity
  8
7
100
AcDbLine
 10
5.500984251968503
 20
1.215551181102362
 30
0.0
 11
5.500984251968503
 21
1.203740157480315
 31
0.0
  0
LINE
  5
94D
330
1E
100
AcDbEntity
  8
7
100
AcDbLine
 10
5.500984251968503
 20
1.203740157480315
 30
0.0
 11
5.500984251968503
 21
1.199803149606299
 31
0.0
  0
LINE
  5
94E
330
1E
100
AcDbEntity
  8
7
100
AcDbLine
 10
5.500984251968503
 20
1.339566929133858
 30
0.0
 11
5.500984251968503
 21
1.230314960629921
 31
0.0
  0
LINE
  5
94F
330
1E
100
AcDbEntity
  8
7
100
AcDbLine
 10
5.500984251968503
 20
1.230314960629921
 30
0.0
 11
5.611220472440944
 21
1.230314960629921
 31
0.0
  0
LINE
  5
950
330
1E
100
AcDbEntity
  8
7
100
AcDbLine
 10
5.130905511811023
 20
6.215551181102362
 30
0.0
 11
5.126968503937007
 21
6.248031496062991
 31
0.0
  0
LINE
  5
951
330
1E
100
AcDbEntity
  8
7
100
AcDbLine
 10
5.126968503937007
 20
6.248031496062991
 30
0.0
 11
5.114173228346456
 21
6.27755905511811
 31
0.0
  0
LINE
  5
952
330
1E
100
AcDbEntity
  8
7
100
AcDbLine
 10
5.114173228346456
 20
6.27755905511811
 30
0.0
 11
5.094488188976377
 21
6.304133858267716
 31
0.0
  0
LINE
  5
953
330
1E
100
AcDbEntity
  8
7
100
AcDbLine
 10
5.094488188976377
 20
6.304133858267716
 30
0.0
 11
5.068897637795275
 21
6.323818897637795
 31
0.0
  0
LINE
  5
954
330
1E
100
AcDbEntity
  8
7
100
AcDbLine
 10
5.068897637795275
 20
6.323818897637795
 30
0.0
 11
5.038385826771652
 21
6.336614173228346
 31
0.0
  0
LINE
  5
955
330
1E
100
AcDbEntity
  8
7
100
AcDbLine
 10
5.038385826771652
 20
6.336614173228346
 30
0.0
 11
5.005905511811023
 21
6.340551181102362
 31
0.0
  0
LINE
  5
956
330
1E
100
AcDbEntity
  8
7
100
AcDbLine
 10
5.005905511811023
 20
2.085629921259842
 30
0.0
 11
5.038385826771652
 21
2.089566929133858
 31
0.0
  0
LINE
  5
957
330
1E
100
AcDbEntity
  8
7
100
AcDbLine
 10
5.038385826771652
 20
2.089566929133858
 30
0.0
 11
5.067913385826771
 21
2.102362204724409
 31
0.0
  0
LINE
  5
958
330
1E
100
AcDbEntity
  8
7
100
AcDbLine
 10
5.067913385826771
 20
2.102362204724409
 30
0.0
 11
5.094488188976377
 21
2.122047244094487
 31
0.0
  0
LINE
  5
959
330
1E
100
AcDbEntity
  8
7
100
AcDbLine
 10
5.094488188976377
 20
2.122047244094487
 30
0.0
 11
5.114173228346456
 21
2.14763779527559
 31
0.0
  0
LINE
  5
95A
330
1E
100
AcDbEntity
  8
7
100
AcDbLine
 10
5.114173228346456
 20
2.14763779527559
 30
0.0
 11
5.126968503937007
 21
2.178149606299212
 31
0.0
  0
LINE
  5
95B
330
1E
100
AcDbEntity
  8
7
100
AcDbLine
 10
5.126968503937007
 20
2.178149606299212
 30
0.0
 11
5.130905511811023
 21
2.210629921259842
 31
0.0
  0
LINE
  5
95C
330
1E
100
AcDbEntity
  8
7
100
AcDbLine
 10
4.6751968503937
 20
6.043307086614173
 30
0.0
 11
4.694881889763778
 21
6.016732283464566
 31
0.0
  0
LINE
  5
95D
330
1E
100
AcDbEntity
  8
7
100
AcDbLine
 10
4.694881889763778
 20
6.016732283464566
 30
0.0
 11
4.720472440944881
 21
5.997047244094487
 31
0.0
  0
LINE
  5
95E
330
1E
100
AcDbEntity
  8
7
100
AcDbLine
 10
4.720472440944881
 20
5.997047244094487
 30
0.0
 11
4.750984251968503
 21
5.984251968503937
 31
0.0
  0
LINE
  5
95F
330
1E
100
AcDbEntity
  8
7
100
AcDbLine
 10
4.750984251968503
 20
5.984251968503937
 30
0.0
 11
4.783464566929133
 21
5.980314960629921
 31
0.0
  0
LINE
  5
960
330
1E
100
AcDbEntity
  8
7
100
AcDbLine
 10
4.783464566929133
 20
6.230314960629921
 30
0.0
 11
4.750984251968503
 21
6.226377952755905
 31
0.0
  0
LINE
  5
961
330
1E
100
AcDbEntity
  8
7
100
AcDbLine
 10
4.750984251968503
 20
6.226377952755905
 30
0.0
 11
4.721456692913385
 21
6.213582677165354
 31
0.0
  0
LINE
  5
962
330
1E
100
AcDbEntity
  8
7
100
AcDbLine
 10
4.721456692913385
 20
6.213582677165354
 30
0.0
 11
4.694881889763778
 21
6.193897637795275
 31
0.0
  0
LINE
  5
963
330
1E
100
AcDbEntity
  8
7
100
AcDbLine
 10
4.694881889763778
 20
6.193897637795275
 30
0.0
 11
4.6751968503937
 21
6.168307086614173
 31
0.0
  0
LINE
  5
964
330
1E
100
AcDbEntity
  8
7
100
AcDbLine
 10
4.6751968503937
 20
6.168307086614173
 30
0.0
 11
4.662401574803149
 21
6.13779527559055
 31
0.0
  0
LINE
  5
965
330
1E
100
AcDbEntity
  8
7
100
AcDbLine
 10
4.662401574803149
 20
6.13779527559055
 30
0.0
 11
4.658464566929133
 21
6.105314960629921
 31
0.0
  0
LINE
  5
966
330
1E
100
AcDbEntity
  8
7
100
AcDbLine
 10
4.658464566929133
 20
6.105314960629921
 30
0.0
 11
4.662401574803149
 21
6.072834645669291
 31
0.0
  0
LINE
  5
967
330
1E
100
AcDbEntity
  8
7
100
AcDbLine
 10
4.662401574803149
 20
6.072834645669291
 30
0.0
 11
4.6751968503937
 21
6.043307086614173
 31
0.0
  0
LINE
  5
968
330
1E
100
AcDbEntity
  8
7
100
AcDbLine
 10
4.908464566929133
 20
5.980314960629921
 30
0.0
 11
4.940944881889762
 21
5.984251968503937
 31
0.0
  0
LINE
  5
969
330
1E
100
AcDbEntity
  8
7
100
AcDbLine
 10
4.940944881889762
 20
5.984251968503937
 30
0.0
 11
4.970472440944881
 21
5.997047244094487
 31
0.0
  0
LINE
  5
96A
330
1E
100
AcDbEntity
  8
7
100
AcDbLine
 10
4.970472440944881
 20
5.997047244094487
 30
0.0
 11
4.997047244094487
 21
6.016732283464566
 31
0.0
  0
LINE
  5
96B
330
1E
100
AcDbEntity
  8
7
100
AcDbLine
 10
4.997047244094487
 20
6.016732283464566
 30
0.0
 11
5.016732283464566
 21
6.042322834645669
 31
0.0
  0
LINE
  5
96C
330
1E
100
AcDbEntity
  8
7
100
AcDbLine
 10
5.016732283464566
 20
6.042322834645669
 30
0.0
 11
5.029527559055117
 21
6.072834645669291
 31
0.0
  0
LINE
  5
96D
330
1E
100
AcDbEntity
  8
7
100
AcDbLine
 10
5.029527559055117
 20
6.072834645669291
 30
0.0
 11
5.033464566929133
 21
6.105314960629921
 31
0.0
  0
LINE
  5
96E
330
1E
100
AcDbEntity
  8
7
100
AcDbLine
 10
5.033464566929133
 20
6.105314960629921
 30
0.0
 11
5.029527559055117
 21
6.13779527559055
 31
0.0
  0
LINE
  5
96F
330
1E
100
AcDbEntity
  8
7
100
AcDbLine
 10
5.029527559055117
 20
6.13779527559055
 30
0.0
 11
5.016732283464566
 21
6.167322834645669
 31
0.0
  0
LINE
  5
970
330
1E
100
AcDbEntity
  8
7
100
AcDbLine
 10
5.016732283464566
 20
6.167322834645669
 30
0.0
 11
4.997047244094487
 21
6.193897637795275
 31
0.0
  0
LINE
  5
971
330
1E
100
AcDbEntity
  8
7
100
AcDbLine
 10
4.997047244094487
 20
6.193897637795275
 30
0.0
 11
4.971456692913385
 21
6.213582677165354
 31
0.0
  0
LINE
  5
972
330
1E
100
AcDbEntity
  8
7
100
AcDbLine
 10
4.971456692913385
 20
6.213582677165354
 30
0.0
 11
4.940944881889762
 21
6.226377952755905
 31
0.0
  0
LINE
  5
973
330
1E
100
AcDbEntity
  8
7
100
AcDbLine
 10
4.940944881889762
 20
6.226377952755905
 30
0.0
 11
4.908464566929133
 21
6.230314960629921
 31
0.0
  0
LINE
  5
974
330
1E
100
AcDbEntity
  8
7
100
AcDbLine
 10
4.694881889763778
 20
5.568897637795275
 30
0.0
 11
4.6751968503937
 21
5.543307086614173
 31
0.0
  0
LINE
  5
975
330
1E
100
AcDbEntity
  8
7
100
AcDbLine
 10
4.6751968503937
 20
5.543307086614173
 30
0.0
 11
4.662401574803149
 21
5.51279527559055
 31
0.0
  0
LINE
  5
976
330
1E
100
AcDbEntity
  8
7
100
AcDbLine
 10
4.662401574803149
 20
5.51279527559055
 30
0.0
 11
4.658464566929133
 21
5.480314960629921
 31
0.0
  0
LINE
  5
977
330
1E
100
AcDbEntity
  8
7
100
AcDbLine
 10
4.658464566929133
 20
5.480314960629921
 30
0.0
 11
4.662401574803149
 21
5.447834645669291
 31
0.0
  0
LINE
  5
978
330
1E
100
AcDbEntity
  8
7
100
AcDbLine
 10
4.662401574803149
 20
5.447834645669291
 30
0.0
 11
4.6751968503937
 21
5.418307086614173
 31
0.0
  0
LINE
  5
979
330
1E
100
AcDbEntity
  8
7
100
AcDbLine
 10
4.6751968503937
 20
5.418307086614173
 30
0.0
 11
4.694881889763778
 21
5.391732283464566
 31
0.0
  0
LINE
  5
97A
330
1E
100
AcDbEntity
  8
7
100
AcDbLine
 10
4.694881889763778
 20
5.391732283464566
 30
0.0
 11
4.720472440944881
 21
5.372047244094487
 31
0.0
  0
LINE
  5
97B
330
1E
100
AcDbEntity
  8
7
100
AcDbLine
 10
4.720472440944881
 20
5.372047244094487
 30
0.0
 11
4.750984251968503
 21
5.359251968503937
 31
0.0
  0
LINE
  5
97C
330
1E
100
AcDbEntity
  8
7
100
AcDbLine
 10
4.750984251968503
 20
5.359251968503937
 30
0.0
 11
4.783464566929133
 21
5.355314960629921
 31
0.0
  0
LINE
  5
97D
330
1E
100
AcDbEntity
  8
7
100
AcDbLine
 10
4.783464566929133
 20
5.605314960629921
 30
0.0
 11
4.750984251968503
 21
5.601377952755905
 31
0.0
  0
LINE
  5
97E
330
1E
100
AcDbEntity
  8
7
100
AcDbLine
 10
4.750984251968503
 20
5.601377952755905
 30
0.0
 11
4.721456692913385
 21
5.588582677165354
 31
0.0
  0
LINE
  5
97F
330
1E
100
AcDbEntity
  8
7
100
AcDbLine
 10
4.721456692913385
 20
5.588582677165354
 30
0.0
 11
4.694881889763778
 21
5.568897637795275
 31
0.0
  0
LINE
  5
980
330
1E
100
AcDbEntity
  8
7
100
AcDbLine
 10
4.997047244094487
 20
5.568897637795275
 30
0.0
 11
4.971456692913385
 21
5.588582677165354
 31
0.0
  0
LINE
  5
981
330
1E
100
AcDbEntity
  8
7
100
AcDbLine
 10
4.971456692913385
 20
5.588582677165354
 30
0.0
 11
4.940944881889762
 21
5.601377952755905
 31
0.0
  0
LINE
  5
982
330
1E
100
AcDbEntity
  8
7
100
AcDbLine
 10
4.940944881889762
 20
5.601377952755905
 30
0.0
 11
4.908464566929133
 21
5.605314960629921
 31
0.0
  0
LINE
  5
983
330
1E
100
AcDbEntity
  8
7
100
AcDbLine
 10
4.908464566929133
 20
5.355314960629921
 30
0.0
 11
4.940944881889762
 21
5.359251968503937
 31
0.0
  0
LINE
  5
984
330
1E
100
AcDbEntity
  8
7
100
AcDbLine
 10
4.940944881889762
 20
5.359251968503937
 30
0.0
 11
4.970472440944881
 21
5.372047244094487
 31
0.0
  0
LINE
  5
985
330
1E
100
AcDbEntity
  8
7
100
AcDbLine
 10
4.970472440944881
 20
5.372047244094487
 30
0.0
 11
4.997047244094487
 21
5.391732283464566
 31
0.0
  0
LINE
  5
986
330
1E
100
AcDbEntity
  8
7
100
AcDbLine
 10
4.997047244094487
 20
5.391732283464566
 30
0.0
 11
5.016732283464566
 21
5.417322834645669
 31
0.0
  0
LINE
  5
987
330
1E
100
AcDbEntity
  8
7
100
AcDbLine
 10
5.016732283464566
 20
5.417322834645669
 30
0.0
 11
5.029527559055117
 21
5.447834645669291
 31
0.0
  0
LINE
  5
988
330
1E
100
AcDbEntity
  8
7
100
AcDbLine
 10
5.029527559055117
 20
5.447834645669291
 30
0.0
 11
5.033464566929133
 21
5.480314960629921
 31
0.0
  0
LINE
  5
989
330
1E
100
AcDbEntity
  8
7
100
AcDbLine
 10
5.033464566929133
 20
5.480314960629921
 30
0.0
 11
5.029527559055117
 21
5.51279527559055
 31
0.0
  0
LINE
  5
98A
330
1E
100
AcDbEntity
  8
7
100
AcDbLine
 10
5.029527559055117
 20
5.51279527559055
 30
0.0
 11
5.016732283464566
 21
5.542322834645669
 31
0.0
  0
LINE
  5
98B
330
1E
100
AcDbEntity
  8
7
100
AcDbLine
 10
5.016732283464566
 20
5.542322834645669
 30
0.0
 11
4.997047244094487
 21
5.568897637795275
 31
0.0
  0
LINE
  5
98C
330
1E
100
AcDbEntity
  8
7
100
AcDbLine
 10
4.783464566929133
 20
4.980314960629921
 30
0.0
 11
4.750984251968503
 21
4.976377952755905
 31
0.0
  0
LINE
  5
98D
330
1E
100
AcDbEntity
  8
7
100
AcDbLine
 10
4.750984251968503
 20
4.976377952755905
 30
0.0
 11
4.721456692913385
 21
4.963582677165354
 31
0.0
  0
LINE
  5
98E
330
1E
100
AcDbEntity
  8
7
100
AcDbLine
 10
4.721456692913385
 20
4.963582677165354
 30
0.0
 11
4.694881889763778
 21
4.943897637795275
 31
0.0
  0
LINE
  5
98F
330
1E
100
AcDbEntity
  8
7
100
AcDbLine
 10
4.694881889763778
 20
4.943897637795275
 30
0.0
 11
4.6751968503937
 21
4.918307086614173
 31
0.0
  0
LINE
  5
990
330
1E
100
AcDbEntity
  8
7
100
AcDbLine
 10
4.6751968503937
 20
4.918307086614173
 30
0.0
 11
4.662401574803149
 21
4.88779527559055
 31
0.0
  0
LINE
  5
991
330
1E
100
AcDbEntity
  8
7
100
AcDbLine
 10
4.662401574803149
 20
4.88779527559055
 30
0.0
 11
4.658464566929133
 21
4.855314960629921
 31
0.0
  0
LINE
  5
992
330
1E
100
AcDbEntity
  8
7
100
AcDbLine
 10
4.658464566929133
 20
4.855314960629921
 30
0.0
 11
4.662401574803149
 21
4.822834645669291
 31
0.0
  0
LINE
  5
993
330
1E
100
AcDbEntity
  8
7
100
AcDbLine
 10
4.662401574803149
 20
4.822834645669291
 30
0.0
 11
4.6751968503937
 21
4.793307086614173
 31
0.0
  0
LINE
  5
994
330
1E
100
AcDbEntity
  8
7
100
AcDbLine
 10
4.6751968503937
 20
4.793307086614173
 30
0.0
 11
4.694881889763778
 21
4.766732283464566
 31
0.0
  0
LINE
  5
995
330
1E
100
AcDbEntity
  8
7
100
AcDbLine
 10
4.694881889763778
 20
4.766732283464566
 30
0.0
 11
4.720472440944881
 21
4.747047244094487
 31
0.0
  0
LINE
  5
996
330
1E
100
AcDbEntity
  8
7
100
AcDbLine
 10
4.720472440944881
 20
4.747047244094487
 30
0.0
 11
4.750984251968503
 21
4.734251968503937
 31
0.0
  0
LINE
  5
997
330
1E
100
AcDbEntity
  8
7
100
AcDbLine
 10
4.750984251968503
 20
4.734251968503937
 30
0.0
 11
4.783464566929133
 21
4.730314960629921
 31
0.0
  0
LINE
  5
998
330
1E
100
AcDbEntity
  8
7
100
AcDbLine
 10
4.997047244094487
 20
4.766732283464566
 30
0.0
 11
5.016732283464566
 21
4.792322834645669
 31
0.0
  0
LINE
  5
999
330
1E
100
AcDbEntity
  8
7
100
AcDbLine
 10
5.016732283464566
 20
4.792322834645669
 30
0.0
 11
5.029527559055117
 21
4.822834645669291
 31
0.0
  0
LINE
  5
99A
330
1E
100
AcDbEntity
  8
7
100
AcDbLine
 10
5.029527559055117
 20
4.822834645669291
 30
0.0
 11
5.033464566929133
 21
4.855314960629921
 31
0.0
  0
LINE
  5
99B
330
1E
100
AcDbEntity
  8
7
100
AcDbLine
 10
5.033464566929133
 20
4.855314960629921
 30
0.0
 11
5.029527559055117
 21
4.88779527559055
 31
0.0
  0
LINE
  5
99C
330
1E
100
AcDbEntity
  8
7
100
AcDbLine
 10
5.029527559055117
 20
4.88779527559055
 30
0.0
 11
5.016732283464566
 21
4.917322834645669
 31
0.0
  0
LINE
  5
99D
330
1E
100
AcDbEntity
  8
7
100
AcDbLine
 10
5.016732283464566
 20
4.917322834645669
 30
0.0
 11
4.997047244094487
 21
4.943897637795275
 31
0.0
  0
LINE
  5
99E
330
1E
100
AcDbEntity
  8
7
100
AcDbLine
 10
4.997047244094487
 20
4.943897637795275
 30
0.0
 11
4.971456692913385
 21
4.963582677165354
 31
0.0
  0
LINE
  5
99F
330
1E
100
AcDbEntity
  8
7
100
AcDbLine
 10
4.971456692913385
 20
4.963582677165354
 30
0.0
 11
4.940944881889762
 21
4.976377952755905
 31
0.0
  0
LINE
  5
9A0
330
1E
100
AcDbEntity
  8
7
100
AcDbLine
 10
4.940944881889762
 20
4.976377952755905
 30
0.0
 11
4.908464566929133
 21
4.980314960629921
 31
0.0
  0
LINE
  5
9A1
330
1E
100
AcDbEntity
  8
7
100
AcDbLine
 10
4.908464566929133
 20
4.730314960629921
 30
0.0
 11
4.940944881889762
 21
4.734251968503937
 31
0.0
  0
LINE
  5
9A2
330
1E
100
AcDbEntity
  8
7
100
AcDbLine
 10
4.940944881889762
 20
4.734251968503937
 30
0.0
 11
4.970472440944881
 21
4.747047244094487
 31
0.0
  0
LINE
  5
9A3
330
1E
100
AcDbEntity
  8
7
100
AcDbLine
 10
4.970472440944881
 20
4.747047244094487
 30
0.0
 11
4.997047244094487
 21
4.766732283464566
 31
0.0
  0
LINE
  5
9A4
330
1E
100
AcDbEntity
  8
7
100
AcDbLine
 10
4.662401574803149
 20
4.322834645669291
 30
0.0
 11
4.6751968503937
 21
4.293307086614173
 31
0.0
  0
LINE
  5
9A5
330
1E
100
AcDbEntity
  8
7
100
AcDbLine
 10
4.6751968503937
 20
4.293307086614173
 30
0.0
 11
4.694881889763778
 21
4.266732283464566
 31
0.0
  0
LINE
  5
9A6
330
1E
100
AcDbEntity
  8
7
100
AcDbLine
 10
4.694881889763778
 20
4.266732283464566
 30
0.0
 11
4.720472440944881
 21
4.247047244094487
 31
0.0
  0
LINE
  5
9A7
330
1E
100
AcDbEntity
  8
7
100
AcDbLine
 10
4.720472440944881
 20
4.247047244094487
 30
0.0
 11
4.750984251968503
 21
4.234251968503937
 31
0.0
  0
LINE
  5
9A8
330
1E
100
AcDbEntity
  8
7
100
AcDbLine
 10
4.750984251968503
 20
4.234251968503937
 30
0.0
 11
4.783464566929133
 21
4.230314960629921
 31
0.0
  0
LINE
  5
9A9
330
1E
100
AcDbEntity
  8
7
100
AcDbLine
 10
4.783464566929133
 20
4.480314960629921
 30
0.0
 11
4.750984251968503
 21
4.476377952755905
 31
0.0
  0
LINE
  5
9AA
330
1E
100
AcDbEntity
  8
7
100
AcDbLine
 10
4.750984251968503
 20
4.476377952755905
 30
0.0
 11
4.721456692913385
 21
4.463582677165354
 31
0.0
  0
LINE
  5
9AB
330
1E
100
AcDbEntity
  8
7
100
AcDbLine
 10
4.721456692913385
 20
4.463582677165354
 30
0.0
 11
4.694881889763778
 21
4.443897637795275
 31
0.0
  0
LINE
  5
9AC
330
1E
100
AcDbEntity
  8
7
100
AcDbLine
 10
4.694881889763778
 20
4.443897637795275
 30
0.0
 11
4.6751968503937
 21
4.418307086614173
 31
0.0
  0
LINE
  5
9AD
330
1E
100
AcDbEntity
  8
7
100
AcDbLine
 10
4.6751968503937
 20
4.418307086614173
 30
0.0
 11
4.662401574803149
 21
4.38779527559055
 31
0.0
  0
LINE
  5
9AE
330
1E
100
AcDbEntity
  8
7
100
AcDbLine
 10
4.662401574803149
 20
4.38779527559055
 30
0.0
 11
4.658464566929133
 21
4.355314960629921
 31
0.0
  0
LINE
  5
9AF
330
1E
100
AcDbEntity
  8
7
100
AcDbLine
 10
4.658464566929133
 20
4.355314960629921
 30
0.0
 11
4.662401574803149
 21
4.322834645669291
 31
0.0
  0
LINE
  5
9B0
330
1E
100
AcDbEntity
  8
7
100
AcDbLine
 10
4.908464566929133
 20
4.230314960629921
 30
0.0
 11
4.940944881889762
 21
4.234251968503937
 31
0.0
  0
LINE
  5
9B1
330
1E
100
AcDbEntity
  8
7
100
AcDbLine
 10
4.940944881889762
 20
4.234251968503937
 30
0.0
 11
4.970472440944881
 21
4.247047244094487
 31
0.0
  0
LINE
  5
9B2
330
1E
100
AcDbEntity
  8
7
100
AcDbLine
 10
4.970472440944881
 20
4.247047244094487
 30
0.0
 11
4.997047244094487
 21
4.266732283464566
 31
0.0
  0
LINE
  5
9B3
330
1E
100
AcDbEntity
  8
7
100
AcDbLine
 10
4.997047244094487
 20
4.266732283464566
 30
0.0
 11
5.016732283464566
 21
4.292322834645669
 31
0.0
  0
LINE
  5
9B4
330
1E
100
AcDbEntity
  8
7
100
AcDbLine
 10
5.016732283464566
 20
4.292322834645669
 30
0.0
 11
5.029527559055117
 21
4.322834645669291
 31
0.0
  0
LINE
  5
9B5
330
1E
100
AcDbEntity
  8
7
100
AcDbLine
 10
5.029527559055117
 20
4.322834645669291
 30
0.0
 11
5.033464566929133
 21
4.355314960629921
 31
0.0
  0
LINE
  5
9B6
330
1E
100
AcDbEntity
  8
7
100
AcDbLine
 10
5.033464566929133
 20
4.355314960629921
 30
0.0
 11
5.029527559055117
 21
4.38779527559055
 31
0.0
  0
LINE
  5
9B7
330
1E
100
AcDbEntity
  8
7
100
AcDbLine
 10
5.029527559055117
 20
4.38779527559055
 30
0.0
 11
5.016732283464566
 21
4.417322834645669
 31
0.0
  0
LINE
  5
9B8
330
1E
100
AcDbEntity
  8
7
100
AcDbLine
 10
5.016732283464566
 20
4.417322834645669
 30
0.0
 11
4.997047244094487
 21
4.443897637795275
 31
0.0
  0
LINE
  5
9B9
330
1E
100
AcDbEntity
  8
7
100
AcDbLine
 10
4.997047244094487
 20
4.443897637795275
 30
0.0
 11
4.971456692913385
 21
4.463582677165354
 31
0.0
  0
LINE
  5
9BA
330
1E
100
AcDbEntity
  8
7
100
AcDbLine
 10
4.971456692913385
 20
4.463582677165354
 30
0.0
 11
4.940944881889762
 21
4.476377952755905
 31
0.0
  0
LINE
  5
9BB
330
1E
100
AcDbEntity
  8
7
100
AcDbLine
 10
4.940944881889762
 20
4.476377952755905
 30
0.0
 11
4.908464566929133
 21
4.480314960629921
 31
0.0
  0
LINE
  5
9BC
330
1E
100
AcDbEntity
  8
7
100
AcDbLine
 10
4.721456692913385
 20
2.713582677165354
 30
0.0
 11
4.694881889763778
 21
2.693897637795275
 31
0.0
  0
LINE
  5
9BD
330
1E
100
AcDbEntity
  8
7
100
AcDbLine
 10
4.694881889763778
 20
2.693897637795275
 30
0.0
 11
4.6751968503937
 21
2.668307086614173
 31
0.0
  0
LINE
  5
9BE
330
1E
100
AcDbEntity
  8
7
100
AcDbLine
 10
4.6751968503937
 20
2.668307086614173
 30
0.0
 11
4.662401574803149
 21
2.63779527559055
 31
0.0
  0
LINE
  5
9BF
330
1E
100
AcDbEntity
  8
7
100
AcDbLine
 10
4.662401574803149
 20
2.63779527559055
 30
0.0
 11
4.658464566929133
 21
2.605314960629921
 31
0.0
  0
LINE
  5
9C0
330
1E
100
AcDbEntity
  8
7
100
AcDbLine
 10
4.658464566929133
 20
2.605314960629921
 30
0.0
 11
4.662401574803149
 21
2.572834645669291
 31
0.0
  0
LINE
  5
9C1
330
1E
100
AcDbEntity
  8
7
100
AcDbLine
 10
4.662401574803149
 20
2.572834645669291
 30
0.0
 11
4.6751968503937
 21
2.543307086614173
 31
0.0
  0
LINE
  5
9C2
330
1E
100
AcDbEntity
  8
7
100
AcDbLine
 10
4.6751968503937
 20
2.543307086614173
 30
0.0
 11
4.694881889763778
 21
2.516732283464566
 31
0.0
  0
LINE
  5
9C3
330
1E
100
AcDbEntity
  8
7
100
AcDbLine
 10
4.694881889763778
 20
2.516732283464566
 30
0.0
 11
4.720472440944881
 21
2.497047244094487
 31
0.0
  0
LINE
  5
9C4
330
1E
100
AcDbEntity
  8
7
100
AcDbLine
 10
4.720472440944881
 20
2.497047244094487
 30
0.0
 11
4.750984251968503
 21
2.484251968503937
 31
0.0
  0
LINE
  5
9C5
330
1E
100
AcDbEntity
  8
7
100
AcDbLine
 10
4.750984251968503
 20
2.484251968503937
 30
0.0
 11
4.783464566929133
 21
2.480314960629921
 31
0.0
  0
LINE
  5
9C6
330
1E
100
AcDbEntity
  8
7
100
AcDbLine
 10
4.783464566929133
 20
2.730314960629921
 30
0.0
 11
4.750984251968503
 21
2.726377952755905
 31
0.0
  0
LINE
  5
9C7
330
1E
100
AcDbEntity
  8
7
100
AcDbLine
 10
4.750984251968503
 20
2.726377952755905
 30
0.0
 11
4.721456692913385
 21
2.713582677165354
 31
0.0
  0
LINE
  5
9C8
330
1E
100
AcDbEntity
  8
7
100
AcDbLine
 10
5.029527559055117
 20
2.63779527559055
 30
0.0
 11
5.016732283464566
 21
2.667322834645669
 31
0.0
  0
LINE
  5
9C9
330
1E
100
AcDbEntity
  8
7
100
AcDbLine
 10
5.016732283464566
 20
2.667322834645669
 30
0.0
 11
4.997047244094487
 21
2.693897637795275
 31
0.0
  0
LINE
  5
9CA
330
1E
100
AcDbEntity
  8
7
100
AcDbLine
 10
4.997047244094487
 20
2.693897637795275
 30
0.0
 11
4.971456692913385
 21
2.713582677165354
 31
0.0
  0
LINE
  5
9CB
330
1E
100
AcDbEntity
  8
7
100
AcDbLine
 10
4.971456692913385
 20
2.713582677165354
 30
0.0
 11
4.940944881889762
 21
2.726377952755905
 31
0.0
  0
LINE
  5
9CC
330
1E
100
AcDbEntity
  8
7
100
AcDbLine
 10
4.940944881889762
 20
2.726377952755905
 30
0.0
 11
4.908464566929133
 21
2.730314960629921
 31
0.0
  0
LINE
  5
9CD
330
1E
100
AcDbEntity
  8
7
100
AcDbLine
 10
4.908464566929133
 20
2.480314960629921
 30
0.0
 11
4.940944881889762
 21
2.484251968503937
 31
0.0
  0
LINE
  5
9CE
330
1E
100
AcDbEntity
  8
7
100
AcDbLine
 10
4.940944881889762
 20
2.484251968503937
 30
0.0
 11
4.970472440944881
 21
2.497047244094487
 31
0.0
  0
LINE
  5
9CF
330
1E
100
AcDbEntity
  8
7
100
AcDbLine
 10
4.970472440944881
 20
2.497047244094487
 30
0.0
 11
4.997047244094487
 21
2.516732283464566
 31
0.0
  0
LINE
  5
9D0
330
1E
100
AcDbEntity
  8
7
100
AcDbLine
 10
4.997047244094487
 20
2.516732283464566
 30
0.0
 11
5.016732283464566
 21
2.542322834645669
 31
0.0
  0
LINE
  5
9D1
330
1E
100
AcDbEntity
  8
7
100
AcDbLine
 10
5.016732283464566
 20
2.542322834645669
 30
0.0
 11
5.029527559055117
 21
2.572834645669291
 31
0.0
  0
LINE
  5
9D2
330
1E
100
AcDbEntity
  8
7
100
AcDbLine
 10
5.029527559055117
 20
2.572834645669291
 30
0.0
 11
5.033464566929133
 21
2.605314960629921
 31
0.0
  0
LINE
  5
9D3
330
1E
100
AcDbEntity
  8
7
100
AcDbLine
 10
5.033464566929133
 20
2.605314960629921
 30
0.0
 11
5.029527559055117
 21
2.63779527559055
 31
0.0
  0
LINE
  5
9D4
330
1E
100
AcDbEntity
  8
7
100
AcDbLine
 10
4.471456692913385
 20
2.085629921259842
 30
0.0
 11
4.4753937007874
 21
2.085629921259842
 31
0.0
  0
LINE
  5
9D5
330
1E
100
AcDbEntity
  8
7
100
AcDbLine
 10
4.4753937007874
 20
2.085629921259842
 30
0.0
 11
4.486220472440944
 21
2.085629921259842
 31
0.0
  0
LINE
  5
9D6
330
1E
100
AcDbEntity
  8
7
100
AcDbLine
 10
4.486220472440944
 20
2.085629921259842
 30
0.0
 11
4.500984251968503
 21
2.085629921259842
 31
0.0
  0
LINE
  5
9D7
330
1E
100
AcDbEntity
  8
7
100
AcDbLine
 10
4.500984251968503
 20
2.085629921259842
 30
0.0
 11
4.500984251968503
 21
6.340551181102362
 31
0.0
  0
LINE
  5
9D8
330
1E
100
AcDbEntity
  8
7
100
AcDbLine
 10
4.500984251968503
 20
6.340551181102362
 30
0.0
 11
5.005905511811023
 21
6.340551181102362
 31
0.0
  0
LINE
  5
9D9
330
1E
100
AcDbEntity
  8
7
100
AcDbLine
 10
4.471456692913385
 20
6.340551181102362
 30
0.0
 11
4.4753937007874
 21
6.340551181102362
 31
0.0
  0
LINE
  5
9DA
330
1E
100
AcDbEntity
  8
7
100
AcDbLine
 10
4.4753937007874
 20
6.340551181102362
 30
0.0
 11
4.486220472440944
 21
6.340551181102362
 31
0.0
  0
LINE
  5
9DB
330
1E
100
AcDbEntity
  8
7
100
AcDbLine
 10
4.486220472440944
 20
6.340551181102362
 30
0.0
 11
4.500984251968503
 21
6.340551181102362
 31
0.0
  0
LINE
  5
9DC
330
1E
100
AcDbEntity
  8
7
100
AcDbLine
 10
22.33070866141732
 20
1.137795275590551
 30
0.0
 11
22.31397637795275
 21
1.122047244094488
 31
0.0
  0
LINE
  5
9DD
330
1E
100
AcDbEntity
  8
7
100
AcDbLine
 10
22.31397637795275
 20
1.122047244094488
 30
0.0
 11
22.29724409448818
 21
1.113188976377952
 31
0.0
  0
LINE
  5
9DE
330
1E
100
AcDbEntity
  8
7
100
AcDbLine
 10
22.29724409448818
 20
1.113188976377952
 30
0.0
 11
22.28248031496062
 21
1.11023622047244
 31
0.0
  0
LINE
  5
9DF
330
1E
100
AcDbEntity
  8
7
100
AcDbLine
 10
22.39173228346456
 20
1.230314960629921
 30
0.0
 11
22.37303149606299
 21
1.196850393700787
 31
0.0
  0
LINE
  5
9E0
330
1E
100
AcDbEntity
  8
7
100
AcDbLine
 10
22.37303149606299
 20
1.196850393700787
 30
0.0
 11
22.35236220472441
 21
1.164370078740157
 31
0.0
  0
LINE
  5
9E1
330
1E
100
AcDbEntity
  8
7
100
AcDbLine
 10
22.35236220472441
 20
1.164370078740157
 30
0.0
 11
22.33070866141732
 21
1.137795275590551
 31
0.0
  0
LINE
  5
9E2
330
1E
100
AcDbEntity
  8
7
100
AcDbLine
 10
5.61023622047244
 20
1.230314960629921
 30
0.0
 11
5.629921259842519
 21
1.196850393700787
 31
0.0
  0
LINE
  5
9E3
330
1E
100
AcDbEntity
  8
7
100
AcDbLine
 10
5.629921259842519
 20
1.196850393700787
 30
0.0
 11
5.650590551181101
 21
1.164370078740157
 31
0.0
  0
LINE
  5
9E4
330
1E
100
AcDbEntity
  8
7
100
AcDbLine
 10
5.650590551181101
 20
1.164370078740157
 30
0.0
 11
5.672244094488188
 21
1.137795275590551
 31
0.0
  0
LINE
  5
9E5
330
1E
100
AcDbEntity
  8
7
100
AcDbLine
 10
5.672244094488188
 20
1.137795275590551
 30
0.0
 11
5.688976377952755
 21
1.122047244094488
 31
0.0
  0
LINE
  5
9E6
330
1E
100
AcDbEntity
  8
7
100
AcDbLine
 10
5.688976377952755
 20
1.122047244094488
 30
0.0
 11
5.704724409448818
 21
1.113188976377952
 31
0.0
  0
LINE
  5
9E7
330
1E
100
AcDbEntity
  8
7
100
AcDbLine
 10
5.704724409448818
 20
1.113188976377952
 30
0.0
 11
5.720472440944881
 21
1.11023622047244
 31
0.0
  0
LINE
  5
9E8
330
1E
100
AcDbEntity
  8
7
100
AcDbLine
 10
5.720472440944881
 20
1.11023622047244
 30
0.0
 11
22.28248031496062
 21
1.11023622047244
 31
0.0
  0
LINE
  5
9E9
330
1E
100
AcDbEntity
  8
7
100
AcDbLine
 10
5.11023622047244
 20
1.730314960629921
 30
0.0
 11
5.61023622047244
 21
1.230314960629921
 31
0.0
  0
LINE
  5
9EA
330
1E
100
AcDbEntity
  8
7
100
AcDbLine
 10
5.61023622047244
 20
1.230314960629921
 30
0.0
 11
22.39173228346456
 21
1.230314960629921
 31
0.0
  0
LINE
  5
9EB
330
1E
100
AcDbEntity
  8
7
100
AcDbLine
 10
23.0009842519685
 20
1.759842519685039
 30
0.0
 11
22.97145669291338
 21
1.757874015748031
 31
0.0
  0
LINE
  5
9EC
330
1E
100
AcDbEntity
  8
7
100
AcDbLine
 10
22.97145669291338
 20
1.757874015748031
 30
0.0
 11
22.93996062992126
 21
1.749015748031496
 31
0.0
  0
LINE
  5
9ED
330
1E
100
AcDbEntity
  8
7
100
AcDbLine
 10
22.93996062992126
 20
1.749015748031496
 30
0.0
 11
22.91535433070866
 21
1.74015748031496
 31
0.0
  0
LINE
  5
9EE
330
1E
100
AcDbEntity
  8
7
100
AcDbLine
 10
22.91535433070866
 20
1.74015748031496
 30
0.0
 11
22.89173228346456
 21
1.730314960629921
 31
0.0
  0
LINE
  5
9EF
330
1E
100
AcDbEntity
  8
7
100
AcDbLine
 10
23.0009842519685
 20
1.850393700787401
 30
0.0
 11
22.98228346456693
 21
1.845472440944881
 31
0.0
  0
LINE
  5
9F0
330
1E
100
AcDbEntity
  8
7
100
AcDbLine
 10
22.98228346456693
 20
1.845472440944881
 30
0.0
 11
22.96161417322835
 21
1.830708661417322
 31
0.0
  0
LINE
  5
9F1
330
1E
100
AcDbEntity
  8
7
100
AcDbLine
 10
22.96161417322835
 20
1.830708661417322
 30
0.0
 11
22.93996062992126
 21
1.806102362204724
 31
0.0
  0
LINE
  5
9F2
330
1E
100
AcDbEntity
  8
7
100
AcDbLine
 10
22.93996062992126
 20
1.806102362204724
 30
0.0
 11
22.92322834645669
 21
1.781496062992125
 31
0.0
  0
LINE
  5
9F3
330
1E
100
AcDbEntity
  8
7
100
AcDbLine
 10
22.92322834645669
 20
1.781496062992125
 30
0.0
 11
22.90748031496062
 21
1.755905511811023
 31
0.0
  0
LINE
  5
9F4
330
1E
100
AcDbEntity
  8
7
100
AcDbLine
 10
22.90748031496062
 20
1.755905511811023
 30
0.0
 11
22.89173228346456
 21
1.730314960629921
 31
0.0
  0
LINE
  5
9F5
330
1E
100
AcDbEntity
  8
7
100
AcDbLine
 10
5.062992125984251
 20
1.806102362204724
 30
0.0
 11
5.079724409448818
 21
1.781496062992125
 31
0.0
  0
LINE
  5
9F6
330
1E
100
AcDbEntity
  8
7
100
AcDbLine
 10
5.079724409448818
 20
1.781496062992125
 30
0.0
 11
5.095472440944881
 21
1.755905511811023
 31
0.0
  0
LINE
  5
9F7
330
1E
100
AcDbEntity
  8
7
100
AcDbLine
 10
5.095472440944881
 20
1.755905511811023
 30
0.0
 11
5.11023622047244
 21
1.730314960629921
 31
0.0
  0
LINE
  5
9F8
330
1E
100
AcDbEntity
  8
7
100
AcDbLine
 10
5.11023622047244
 20
1.730314960629921
 30
0.0
 11
22.89173228346456
 21
1.730314960629921
 31
0.0
  0
LINE
  5
9F9
330
1E
100
AcDbEntity
  8
7
100
AcDbLine
 10
5.000984251968503
 20
1.850393700787401
 30
0.0
 11
5.020669291338582
 21
1.845472440944881
 31
0.0
  0
LINE
  5
9FA
330
1E
100
AcDbEntity
  8
7
100
AcDbLine
 10
5.020669291338582
 20
1.845472440944881
 30
0.0
 11
5.041338582677164
 21
1.830708661417322
 31
0.0
  0
LINE
  5
9FB
330
1E
100
AcDbEntity
  8
7
100
AcDbLine
 10
5.041338582677164
 20
1.830708661417322
 30
0.0
 11
5.062992125984251
 21
1.806102362204724
 31
0.0
  0
LINE
  5
9FC
330
1E
100
AcDbEntity
  8
7
100
AcDbLine
 10
5.000984251968503
 20
1.759842519685039
 30
0.0
 11
5.030511811023621
 21
1.757874015748031
 31
0.0
  0
LINE
  5
9FD
330
1E
100
AcDbEntity
  8
7
100
AcDbLine
 10
5.030511811023621
 20
1.757874015748031
 30
0.0
 11
5.062992125984251
 21
1.749015748031496
 31
0.0
  0
LINE
  5
9FE
330
1E
100
AcDbEntity
  8
7
100
AcDbLine
 10
5.062992125984251
 20
1.749015748031496
 30
0.0
 11
5.08759842519685
 21
1.74015748031496
 31
0.0
  0
LINE
  5
9FF
330
1E
100
AcDbEntity
  8
7
100
AcDbLine
 10
5.08759842519685
 20
1.74015748031496
 30
0.0
 11
5.11023622047244
 21
1.730314960629921
 31
0.0
  0
LINE
  5
A00
330
1E
100
AcDbEntity
  8
7
100
AcDbLine
 10
4.471456692913385
 20
6.340551181102362
 30
0.0
 11
4.471456692913385
 21
6.335629921259842
 31
0.0
  0
LINE
  5
A01
330
1E
100
AcDbEntity
  8
7
100
AcDbLine
 10
4.471456692913385
 20
6.335629921259842
 30
0.0
 11
4.471456692913385
 21
6.322834645669291
 31
0.0
  0
LINE
  5
A02
330
1E
100
AcDbEntity
  8
7
100
AcDbLine
 10
4.471456692913385
 20
6.322834645669291
 30
0.0
 11
4.471456692913385
 21
6.302165354330708
 31
0.0
  0
LINE
  5
A03
330
1E
100
AcDbEntity
  8
7
100
AcDbLine
 10
4.471456692913385
 20
6.302165354330708
 30
0.0
 11
4.471456692913385
 21
6.273622047244094
 31
0.0
  0
LINE
  5
A04
330
1E
100
AcDbEntity
  8
7
100
AcDbLine
 10
4.471456692913385
 20
6.273622047244094
 30
0.0
 11
4.471456692913385
 21
6.237204724409449
 31
0.0
  0
LINE
  5
A05
330
1E
100
AcDbEntity
  8
7
100
AcDbLine
 10
4.380905511811023
 20
1.879921259842519
 30
0.0
 11
4.380905511811023
 21
6.193897637795275
 31
0.0
  0
LINE
  5
A06
330
1E
100
AcDbEntity
  8
7
100
AcDbLine
 10
4.380905511811023
 20
6.193897637795275
 30
0.0
 11
4.380905511811023
 21
6.237204724409449
 31
0.0
  0
LINE
  5
A07
330
1E
100
AcDbEntity
  8
7
100
AcDbLine
 10
4.380905511811023
 20
6.237204724409449
 30
0.0
 11
4.380905511811023
 21
6.273622047244094
 31
0.0
  0
LINE
  5
A08
330
1E
100
AcDbEntity
  8
7
100
AcDbLine
 10
4.380905511811023
 20
6.273622047244094
 30
0.0
 11
4.380905511811023
 21
6.302165354330708
 31
0.0
  0
LINE
  5
A09
330
1E
100
AcDbEntity
  8
7
100
AcDbLine
 10
4.380905511811023
 20
6.302165354330708
 30
0.0
 11
4.380905511811023
 21
6.322834645669291
 31
0.0
  0
LINE
  5
A0A
330
1E
100
AcDbEntity
  8
7
100
AcDbLine
 10
4.380905511811023
 20
6.322834645669291
 30
0.0
 11
4.380905511811023
 21
6.335629921259842
 31
0.0
  0
LINE
  5
A0B
330
1E
100
AcDbEntity
  8
7
100
AcDbLine
 10
4.380905511811023
 20
6.335629921259842
 30
0.0
 11
4.380905511811023
 21
6.340551181102362
 31
0.0
  0
LINE
  5
A0C
330
1E
100
AcDbEntity
  8
7
100
AcDbLine
 10
4.500984251968503
 20
1.759842519685039
 30
0.0
 11
4.468503937007873
 21
1.764763779527559
 31
0.0
  0
LINE
  5
A0D
330
1E
100
AcDbEntity
  8
7
100
AcDbLine
 10
4.468503937007873
 20
1.764763779527559
 30
0.0
 11
4.436023622047243
 21
1.779527559055118
 31
0.0
  0
LINE
  5
A0E
330
1E
100
AcDbEntity
  8
7
100
AcDbLine
 10
4.436023622047243
 20
1.779527559055118
 30
0.0
 11
4.408464566929133
 21
1.804133858267716
 31
0.0
  0
LINE
  5
A0F
330
1E
100
AcDbEntity
  8
7
100
AcDbLine
 10
4.408464566929133
 20
1.804133858267716
 30
0.0
 11
4.39271653543307
 21
1.828740157480315
 31
0.0
  0
LINE
  5
A10
330
1E
100
AcDbEntity
  8
7
100
AcDbLine
 10
4.39271653543307
 20
1.828740157480315
 30
0.0
 11
4.383858267716535
 21
1.854330708661417
 31
0.0
  0
LINE
  5
A11
330
1E
100
AcDbEntity
  8
7
100
AcDbLine
 10
4.383858267716535
 20
1.854330708661417
 30
0.0
 11
4.380905511811023
 21
1.879921259842519
 31
0.0
  0
LINE
  5
A12
330
1E
100
AcDbEntity
  8
7
100
AcDbLine
 10
4.489173228346456
 20
1.852362204724409
 30
0.0
 11
4.478346456692912
 21
1.861220472440944
 31
0.0
  0
LINE
  5
A13
330
1E
100
AcDbEntity
  8
7
100
AcDbLine
 10
4.478346456692912
 20
1.861220472440944
 30
0.0
 11
4.473425196850393
 21
1.87007874015748
 31
0.0
  0
LINE
  5
A14
330
1E
100
AcDbEntity
  8
7
100
AcDbLine
 10
4.473425196850393
 20
1.87007874015748
 30
0.0
 11
4.471456692913385
 21
1.879921259842519
 31
0.0
  0
LINE
  5
A15
330
1E
100
AcDbEntity
  8
7
100
AcDbLine
 10
4.471456692913385
 20
1.879921259842519
 30
0.0
 11
4.380905511811023
 21
1.879921259842519
 31
0.0
  0
LINE
  5
A16
330
1E
100
AcDbEntity
  8
7
100
AcDbLine
 10
22.87106299212598
 20
18.84251968503937
 30
0.0
 11
22.8759842519685
 21
18.84251968503937
 31
0.0
  0
LINE
  5
A17
330
1E
100
AcDbEntity
  8
7
100
AcDbLine
 10
22.8759842519685
 20
18.84251968503937
 30
0.0
 11
22.88779527559055
 21
18.84251968503937
 31
0.0
  0
LINE
  5
A18
330
1E
100
AcDbEntity
  8
7
100
AcDbLine
 10
22.88779527559055
 20
18.84251968503937
 30
0.0
 11
22.90748031496062
 21
18.84251968503937
 31
0.0
  0
LINE
  5
A19
330
1E
100
AcDbEntity
  8
7
100
AcDbLine
 10
22.90748031496062
 20
18.84251968503937
 30
0.0
 11
22.93405511811023
 21
18.84251968503937
 31
0.0
  0
LINE
  5
A1A
330
1E
100
AcDbEntity
  8
7
100
AcDbLine
 10
22.93405511811023
 20
18.84251968503937
 30
0.0
 11
22.96358267716535
 21
18.84251968503937
 31
0.0
  0
LINE
  5
A1B
330
1E
100
AcDbEntity
  8
7
100
AcDbLine
 10
22.96358267716535
 20
18.84251968503937
 30
0.0
 11
22.99606299212598
 21
18.84251968503937
 31
0.0
  0
LINE
  5
A1C
330
1E
100
AcDbEntity
  8
7
100
AcDbLine
 10
22.99606299212598
 20
18.84251968503937
 30
0.0
 11
22.99606299212598
 21
18.93307086614173
 31
0.0
  0
LINE
  5
A1D
330
1E
100
AcDbEntity
  8
7
100
AcDbLine
 10
22.99606299212598
 20
18.93307086614173
 30
0.0
 11
22.96358267716535
 21
18.93307086614173
 31
0.0
  0
LINE
  5
A1E
330
1E
100
AcDbEntity
  8
7
100
AcDbLine
 10
22.96358267716535
 20
18.93307086614173
 30
0.0
 11
22.93405511811023
 21
18.93307086614173
 31
0.0
  0
LINE
  5
A1F
330
1E
100
AcDbEntity
  8
7
100
AcDbLine
 10
22.93405511811023
 20
18.93307086614173
 30
0.0
 11
22.90748031496062
 21
18.93307086614173
 31
0.0
  0
LINE
  5
A20
330
1E
100
AcDbEntity
  8
7
100
AcDbLine
 10
22.90748031496062
 20
18.93307086614173
 30
0.0
 11
22.88779527559055
 21
18.93307086614173
 31
0.0
  0
LINE
  5
A21
330
1E
100
AcDbEntity
  8
7
100
AcDbLine
 10
22.88779527559055
 20
18.93307086614173
 30
0.0
 11
22.8759842519685
 21
18.93307086614173
 31
0.0
  0
LINE
  5
A22
330
1E
100
AcDbEntity
  8
7
100
AcDbLine
 10
22.8759842519685
 20
18.93307086614173
 30
0.0
 11
22.87106299212598
 21
18.93307086614173
 31
0.0
  0
LINE
  5
A23
330
1E
100
AcDbEntity
  8
7
100
AcDbLine
 10
23.53051181102362
 20
18.81299212598425
 30
0.0
 11
23.5265748031496
 21
18.82775590551181
 31
0.0
  0
LINE
  5
A24
330
1E
100
AcDbEntity
  8
7
100
AcDbLine
 10
23.5265748031496
 20
18.82775590551181
 30
0.0
 11
23.51574803149606
 21
18.83858267716535
 31
0.0
  0
LINE
  5
A25
330
1E
100
AcDbEntity
  8
7
100
AcDbLine
 10
23.51574803149606
 20
18.83858267716535
 30
0.0
 11
23.5009842519685
 21
18.84251968503937
 31
0.0
  0
LINE
  5
A26
330
1E
100
AcDbEntity
  8
7
100
AcDbLine
 10
23.62007874015748
 20
18.81299212598425
 30
0.0
 11
23.61614173228346
 21
18.84350393700787
 31
0.0
  0
LINE
  5
A27
330
1E
100
AcDbEntity
  8
7
100
AcDbLine
 10
23.61614173228346
 20
18.84350393700787
 30
0.0
 11
23.60433070866141
 21
18.87204724409448
 31
0.0
  0
LINE
  5
A28
330
1E
100
AcDbEntity
  8
7
100
AcDbLine
 10
23.60433070866141
 20
18.87204724409448
 30
0.0
 11
23.58562992125984
 21
18.89763779527559
 31
0.0
  0
LINE
  5
A29
330
1E
100
AcDbEntity
  8
7
100
AcDbLine
 10
23.58562992125984
 20
18.89763779527559
 30
0.0
 11
23.56102362204724
 21
18.91633858267716
 31
0.0
  0
LINE
  5
A2A
330
1E
100
AcDbEntity
  8
7
100
AcDbLine
 10
23.56102362204724
 20
18.91633858267716
 30
0.0
 11
23.53149606299212
 21
18.92814960629921
 31
0.0
  0
LINE
  5
A2B
330
1E
100
AcDbEntity
  8
7
100
AcDbLine
 10
23.53149606299212
 20
18.92814960629921
 30
0.0
 11
23.5009842519685
 21
18.93208661417323
 31
0.0
  0
LINE
  5
A2C
330
1E
100
AcDbEntity
  8
7
100
AcDbLine
 10
23.53149606299212
 20
18.81299212598425
 30
0.0
 11
23.53149606299212
 21
13.32874015748031
 31
0.0
  0
LINE
  5
A2D
330
1E
100
AcDbEntity
  8
7
100
AcDbLine
 10
23.53149606299212
 20
13.32874015748031
 30
0.0
 11
23.53149606299212
 21
13.26377952755905
 31
0.0
  0
LINE
  5
A2E
330
1E
100
AcDbEntity
  8
7
100
AcDbLine
 10
23.53149606299212
 20
13.26377952755905
 30
0.0
 11
23.53149606299212
 21
13.19980314960629
 31
0.0
  0
LINE
  5
A2F
330
1E
100
AcDbEntity
  8
7
100
AcDbLine
 10
23.53149606299212
 20
13.19980314960629
 30
0.0
 11
23.53149606299212
 21
13.13779527559055
 31
0.0
  0
LINE
  5
A30
330
1E
100
AcDbEntity
  8
7
100
AcDbLine
 10
23.53149606299212
 20
13.13779527559055
 30
0.0
 11
23.53149606299212
 21
13.07874015748031
 31
0.0
  0
LINE
  5
A31
330
1E
100
AcDbEntity
  8
7
100
AcDbLine
 10
23.53149606299212
 20
13.07874015748031
 30
0.0
 11
23.53149606299212
 21
13.02460629921259
 31
0.0
  0
LINE
  5
A32
330
1E
100
AcDbEntity
  8
7
100
AcDbLine
 10
23.53149606299212
 20
13.02460629921259
 30
0.0
 11
23.53149606299212
 21
12.9753937007874
 31
0.0
  0
LINE
  5
A33
330
1E
100
AcDbEntity
  8
7
100
AcDbLine
 10
23.62106299212598
 20
12.9753937007874
 30
0.0
 11
23.62106299212598
 21
13.02460629921259
 31
0.0
  0
LINE
  5
A34
330
1E
100
AcDbEntity
  8
7
100
AcDbLine
 10
23.62106299212598
 20
13.02460629921259
 30
0.0
 11
23.62106299212598
 21
13.07874015748031
 31
0.0
  0
LINE
  5
A35
330
1E
100
AcDbEntity
  8
7
100
AcDbLine
 10
23.62106299212598
 20
13.07874015748031
 30
0.0
 11
23.62106299212598
 21
13.13779527559055
 31
0.0
  0
LINE
  5
A36
330
1E
100
AcDbEntity
  8
7
100
AcDbLine
 10
23.62106299212598
 20
13.13779527559055
 30
0.0
 11
23.62106299212598
 21
13.19980314960629
 31
0.0
  0
LINE
  5
A37
330
1E
100
AcDbEntity
  8
7
100
AcDbLine
 10
23.62106299212598
 20
13.19980314960629
 30
0.0
 11
23.62106299212598
 21
13.26377952755905
 31
0.0
  0
LINE
  5
A38
330
1E
100
AcDbEntity
  8
7
100
AcDbLine
 10
23.62106299212598
 20
13.26377952755905
 30
0.0
 11
23.62106299212598
 21
13.32874015748031
 31
0.0
  0
LINE
  5
A39
330
1E
100
AcDbEntity
  8
7
100
AcDbLine
 10
23.5009842519685
 20
18.68799212598425
 30
0.0
 11
23.51673228346456
 21
18.68799212598425
 31
0.0
  0
LINE
  5
A3A
330
1E
100
AcDbEntity
  8
7
100
AcDbLine
 10
23.51673228346456
 20
18.68799212598425
 30
0.0
 11
23.52755905511811
 21
18.68799212598425
 31
0.0
  0
LINE
  5
A3B
330
1E
100
AcDbEntity
  8
7
100
AcDbLine
 10
23.52755905511811
 20
18.68799212598425
 30
0.0
 11
23.53149606299212
 21
18.68799212598425
 31
0.0
  0
LINE
  5
A3C
330
1E
100
AcDbEntity
  8
7
100
AcDbLine
 10
23.5009842519685
 20
8.553149606299212
 30
0.0
 11
23.51377952755905
 21
8.581692913385825
 31
0.0
  0
LINE
  5
A3D
330
1E
100
AcDbEntity
  8
7
100
AcDbLine
 10
23.51377952755905
 20
8.581692913385825
 30
0.0
 11
23.5246062992126
 21
8.614173228346457
 31
0.0
  0
LINE
  5
A3E
330
1E
100
AcDbEntity
  8
7
100
AcDbLine
 10
23.5246062992126
 20
8.614173228346457
 30
0.0
 11
23.52952755905512
 21
8.638779527559055
 31
0.0
  0
LINE
  5
A3F
330
1E
100
AcDbEntity
  8
7
100
AcDbLine
 10
23.52952755905512
 20
8.638779527559055
 30
0.0
 11
23.53149606299212
 21
8.662401574803149
 31
0.0
  0
LINE
  5
A40
330
1E
100
AcDbEntity
  8
7
100
AcDbLine
 10
23.53444881889763
 20
8.571850393700787
 30
0.0
 11
23.56692913385827
 21
8.59251968503937
 31
0.0
  0
LINE
  5
A41
330
1E
100
AcDbEntity
  8
7
100
AcDbLine
 10
23.56692913385827
 20
8.59251968503937
 30
0.0
 11
23.59448818897637
 21
8.614173228346457
 31
0.0
  0
LINE
  5
A42
330
1E
100
AcDbEntity
  8
7
100
AcDbLine
 10
23.59448818897637
 20
8.614173228346457
 30
0.0
 11
23.60925196850393
 21
8.630905511811024
 31
0.0
  0
LINE
  5
A43
330
1E
100
AcDbEntity
  8
7
100
AcDbLine
 10
23.60925196850393
 20
8.630905511811024
 30
0.0
 11
23.61811023622047
 21
8.646653543307087
 31
0.0
  0
LINE
  5
A44
330
1E
100
AcDbEntity
  8
7
100
AcDbLine
 10
23.61811023622047
 20
8.646653543307087
 30
0.0
 11
23.62106299212598
 21
8.662401574803149
 31
0.0
  0
LINE
  5
A45
330
1E
100
AcDbEntity
  8
7
100
AcDbLine
 10
22.5009842519685
 20
20.26279527559055
 30
0.0
 11
22.5009842519685
 21
20.29330708661417
 31
0.0
  0
LINE
  5
A46
330
1E
100
AcDbEntity
  8
7
100
AcDbLine
 10
22.5009842519685
 20
20.29330708661417
 30
0.0
 11
22.5009842519685
 21
20.32283464566929
 31
0.0
  0
LINE
  5
A47
330
1E
100
AcDbEntity
  8
7
100
AcDbLine
 10
22.5009842519685
 20
20.32283464566929
 30
0.0
 11
22.5009842519685
 21
20.34744094488189
 31
0.0
  0
LINE
  5
A48
330
1E
100
AcDbEntity
  8
7
100
AcDbLine
 10
22.5009842519685
 20
20.34744094488189
 30
0.0
 11
22.5009842519685
 21
20.36614173228346
 31
0.0
  0
LINE
  5
A49
330
1E
100
AcDbEntity
  8
7
100
AcDbLine
 10
22.5009842519685
 20
20.36614173228346
 30
0.0
 11
22.5009842519685
 21
20.37893700787401
 31
0.0
  0
LINE
  5
A4A
330
1E
100
AcDbEntity
  8
7
100
AcDbLine
 10
22.5009842519685
 20
20.37893700787401
 30
0.0
 11
22.5009842519685
 21
20.38287401574803
 31
0.0
  0
LINE
  5
A4B
330
1E
100
AcDbEntity
  8
7
100
AcDbLine
 10
22.5009842519685
 20
20.38287401574803
 30
0.0
 11
5.500984251968503
 21
20.38287401574803
 31
0.0
  0
LINE
  5
A4C
330
1E
100
AcDbEntity
  8
7
100
AcDbLine
 10
5.500984251968503
 20
20.32283464566929
 30
0.0
 11
5.500984251968503
 21
20.34744094488189
 31
0.0
  0
LINE
  5
A4D
330
1E
100
AcDbEntity
  8
7
100
AcDbLine
 10
5.500984251968503
 20
20.34744094488189
 30
0.0
 11
5.500984251968503
 21
20.36614173228346
 31
0.0
  0
LINE
  5
A4E
330
1E
100
AcDbEntity
  8
7
100
AcDbLine
 10
5.500984251968503
 20
20.36614173228346
 30
0.0
 11
5.500984251968503
 21
20.37893700787401
 31
0.0
  0
LINE
  5
A4F
330
1E
100
AcDbEntity
  8
7
100
AcDbLine
 10
5.500984251968503
 20
20.37893700787401
 30
0.0
 11
5.500984251968503
 21
20.38287401574803
 31
0.0
  0
LINE
  5
A50
330
1E
100
AcDbEntity
  8
7
100
AcDbLine
 10
5.500984251968503
 20
20.26279527559055
 30
0.0
 11
5.500984251968503
 21
20.29330708661417
 31
0.0
  0
LINE
  5
A51
330
1E
100
AcDbEntity
  8
7
100
AcDbLine
 10
5.500984251968503
 20
20.29330708661417
 30
0.0
 11
5.500984251968503
 21
20.32283464566929
 31
0.0
  0
LINE
  5
A52
330
1E
100
AcDbEntity
  8
7
100
AcDbLine
 10
5.130905511811023
 20
18.84251968503937
 30
0.0
 11
5.126968503937007
 21
18.84251968503937
 31
0.0
  0
LINE
  5
A53
330
1E
100
AcDbEntity
  8
7
100
AcDbLine
 10
5.126968503937007
 20
18.84251968503937
 30
0.0
 11
5.114173228346456
 21
18.84251968503937
 31
0.0
  0
LINE
  5
A54
330
1E
100
AcDbEntity
  8
7
100
AcDbLine
 10
5.114173228346456
 20
18.84251968503937
 30
0.0
 11
5.094488188976377
 21
18.84251968503937
 31
0.0
  0
LINE
  5
A55
330
1E
100
AcDbEntity
  8
7
100
AcDbLine
 10
5.094488188976377
 20
18.84251968503937
 30
0.0
 11
5.068897637795275
 21
18.84251968503937
 31
0.0
  0
LINE
  5
A56
330
1E
100
AcDbEntity
  8
7
100
AcDbLine
 10
5.068897637795275
 20
18.84251968503937
 30
0.0
 11
5.038385826771652
 21
18.84251968503937
 31
0.0
  0
LINE
  5
A57
330
1E
100
AcDbEntity
  8
7
100
AcDbLine
 10
5.038385826771652
 20
18.84251968503937
 30
0.0
 11
5.005905511811023
 21
18.84251968503937
 31
0.0
  0
LINE
  5
A58
330
1E
100
AcDbEntity
  8
7
100
AcDbLine
 10
5.114173228346456
 20
18.93307086614173
 30
0.0
 11
5.126968503937007
 21
18.93307086614173
 31
0.0
  0
LINE
  5
A59
330
1E
100
AcDbEntity
  8
7
100
AcDbLine
 10
5.126968503937007
 20
18.93307086614173
 30
0.0
 11
5.130905511811023
 21
18.93307086614173
 31
0.0
  0
LINE
  5
A5A
330
1E
100
AcDbEntity
  8
7
100
AcDbLine
 10
4.500984251968503
 20
18.93307086614173
 30
0.0
 11
5.005905511811023
 21
18.93307086614173
 31
0.0
  0
LINE
  5
A5B
330
1E
100
AcDbEntity
  8
7
100
AcDbLine
 10
5.005905511811023
 20
18.93307086614173
 30
0.0
 11
5.038385826771652
 21
18.93307086614173
 31
0.0
  0
LINE
  5
A5C
330
1E
100
AcDbEntity
  8
7
100
AcDbLine
 10
5.038385826771652
 20
18.93307086614173
 30
0.0
 11
5.068897637795275
 21
18.93307086614173
 31
0.0
  0
LINE
  5
A5D
330
1E
100
AcDbEntity
  8
7
100
AcDbLine
 10
5.068897637795275
 20
18.93307086614173
 30
0.0
 11
5.094488188976377
 21
18.93307086614173
 31
0.0
  0
LINE
  5
A5E
330
1E
100
AcDbEntity
  8
7
100
AcDbLine
 10
5.094488188976377
 20
18.93307086614173
 30
0.0
 11
5.114173228346456
 21
18.93307086614173
 31
0.0
  0
LINE
  5
A5F
330
1E
100
AcDbEntity
  8
7
100
AcDbLine
 10
4.500984251968503
 20
18.84251968503937
 30
0.0
 11
5.005905511811023
 21
18.84251968503937
 31
0.0
  0
LINE
  5
A60
330
1E
100
AcDbEntity
  8
7
100
AcDbLine
 10
5.005905511811023
 20
18.84251968503937
 30
0.0
 11
5.005905511811023
 21
18.93307086614173
 31
0.0
  0
LINE
  5
A61
330
1E
100
AcDbEntity
  8
7
100
AcDbLine
 10
4.441929133858267
 20
18.91633858267716
 30
0.0
 11
4.416338582677164
 21
18.89763779527559
 31
0.0
  0
LINE
  5
A62
330
1E
100
AcDbEntity
  8
7
100
AcDbLine
 10
4.416338582677164
 20
18.89763779527559
 30
0.0
 11
4.397637795275589
 21
18.87303149606299
 31
0.0
  0
LINE
  5
A63
330
1E
100
AcDbEntity
  8
7
100
AcDbLine
 10
4.397637795275589
 20
18.87303149606299
 30
0.0
 11
4.385826771653542
 21
18.84350393700787
 31
0.0
  0
LINE
  5
A64
330
1E
100
AcDbEntity
  8
7
100
AcDbLine
 10
4.385826771653542
 20
18.84350393700787
 30
0.0
 11
4.381889763779526
 21
18.81299212598425
 31
0.0
  0
LINE
  5
A65
330
1E
100
AcDbEntity
  8
7
100
AcDbLine
 10
4.500984251968503
 20
18.93208661417323
 30
0.0
 11
4.470472440944881
 21
18.92814960629921
 31
0.0
  0
LINE
  5
A66
330
1E
100
AcDbEntity
  8
7
100
AcDbLine
 10
4.470472440944881
 20
18.92814960629921
 30
0.0
 11
4.441929133858267
 21
18.91633858267716
 31
0.0
  0
LINE
  5
A67
330
1E
100
AcDbEntity
  8
7
100
AcDbLine
 10
4.500984251968503
 20
18.84251968503937
 30
0.0
 11
4.486220472440944
 21
18.83858267716535
 31
0.0
  0
LINE
  5
A68
330
1E
100
AcDbEntity
  8
7
100
AcDbLine
 10
4.486220472440944
 20
18.83858267716535
 30
0.0
 11
4.4753937007874
 21
18.82775590551181
 31
0.0
  0
LINE
  5
A69
330
1E
100
AcDbEntity
  8
7
100
AcDbLine
 10
4.4753937007874
 20
18.82775590551181
 30
0.0
 11
4.471456692913385
 21
18.81299212598425
 31
0.0
  0
LINE
  5
A6A
330
1E
100
AcDbEntity
  8
7
100
AcDbLine
 10
23.0009842519685
 20
8.053149606299212
 30
0.0
 11
22.98228346456693
 21
8.019685039370077
 31
0.0
  0
LINE
  5
A6B
330
1E
100
AcDbEntity
  8
7
100
AcDbLine
 10
22.98228346456693
 20
8.019685039370077
 30
0.0
 11
22.96161417322835
 21
7.987204724409449
 31
0.0
  0
LINE
  5
A6C
330
1E
100
AcDbEntity
  8
7
100
AcDbLine
 10
22.96161417322835
 20
7.987204724409449
 30
0.0
 11
22.93996062992126
 21
7.959645669291338
 31
0.0
  0
LINE
  5
A6D
330
1E
100
AcDbEntity
  8
7
100
AcDbLine
 10
22.93996062992126
 20
7.959645669291338
 30
0.0
 11
22.92322834645669
 21
7.944881889763779
 31
0.0
  0
LINE
  5
A6E
330
1E
100
AcDbEntity
  8
7
100
AcDbLine
 10
22.92322834645669
 20
7.944881889763779
 30
0.0
 11
22.90748031496062
 21
7.935039370078739
 31
0.0
  0
LINE
  5
A6F
330
1E
100
AcDbEntity
  8
7
100
AcDbLine
 10
22.90748031496062
 20
7.935039370078739
 30
0.0
 11
22.89173228346456
 21
7.933070866141732
 31
0.0
  0
LINE
  5
A70
330
1E
100
AcDbEntity
  8
7
100
AcDbLine
 10
5.041338582677164
 20
7.987204724409449
 30
0.0
 11
5.062992125984251
 21
7.959645669291338
 31
0.0
  0
LINE
  5
A71
330
1E
100
AcDbEntity
  8
7
100
AcDbLine
 10
5.062992125984251
 20
7.959645669291338
 30
0.0
 11
5.079724409448818
 21
7.944881889763779
 31
0.0
  0
LINE
  5
A72
330
1E
100
AcDbEntity
  8
7
100
AcDbLine
 10
5.079724409448818
 20
7.944881889763779
 30
0.0
 11
5.095472440944881
 21
7.935039370078739
 31
0.0
  0
LINE
  5
A73
330
1E
100
AcDbEntity
  8
7
100
AcDbLine
 10
5.095472440944881
 20
7.935039370078739
 30
0.0
 11
5.11023622047244
 21
7.933070866141732
 31
0.0
  0
LINE
  5
A74
330
1E
100
AcDbEntity
  8
7
100
AcDbLine
 10
5.11023622047244
 20
7.933070866141732
 30
0.0
 11
22.89173228346456
 21
7.933070866141732
 31
0.0
  0
LINE
  5
A75
330
1E
100
AcDbEntity
  8
7
100
AcDbLine
 10
5.000984251968503
 20
8.053149606299212
 30
0.0
 11
5.020669291338582
 21
8.019685039370077
 31
0.0
  0
LINE
  5
A76
330
1E
100
AcDbEntity
  8
7
100
AcDbLine
 10
5.020669291338582
 20
8.019685039370077
 30
0.0
 11
5.041338582677164
 21
7.987204724409449
 31
0.0
  0
LINE
  5
A77
330
1E
100
AcDbEntity
  8
7
100
AcDbLine
 10
4.471456692913385
 20
13.26377952755905
 30
0.0
 11
4.471456692913385
 21
13.19980314960629
 31
0.0
  0
LINE
  5
A78
330
1E
100
AcDbEntity
  8
7
100
AcDbLine
 10
4.471456692913385
 20
13.19980314960629
 30
0.0
 11
4.471456692913385
 21
13.13779527559055
 31
0.0
  0
LINE
  5
A79
330
1E
100
AcDbEntity
  8
7
100
AcDbLine
 10
4.471456692913385
 20
13.13779527559055
 30
0.0
 11
4.471456692913385
 21
13.07874015748031
 31
0.0
  0
LINE
  5
A7A
330
1E
100
AcDbEntity
  8
7
100
AcDbLine
 10
4.471456692913385
 20
13.07874015748031
 30
0.0
 11
4.471456692913385
 21
13.02460629921259
 31
0.0
  0
LINE
  5
A7B
330
1E
100
AcDbEntity
  8
7
100
AcDbLine
 10
4.471456692913385
 20
13.02460629921259
 30
0.0
 11
4.471456692913385
 21
12.9753937007874
 31
0.0
  0
LINE
  5
A7C
330
1E
100
AcDbEntity
  8
7
100
AcDbLine
 10
4.471456692913385
 20
18.81299212598425
 30
0.0
 11
4.471456692913385
 21
13.32874015748031
 31
0.0
  0
LINE
  5
A7D
330
1E
100
AcDbEntity
  8
7
100
AcDbLine
 10
4.471456692913385
 20
13.32874015748031
 30
0.0
 11
4.471456692913385
 21
13.26377952755905
 31
0.0
  0
LINE
  5
A7E
330
1E
100
AcDbEntity
  8
7
100
AcDbLine
 10
4.380905511811023
 20
8.662401574803149
 30
0.0
 11
4.380905511811023
 21
12.9753937007874
 31
0.0
  0
LINE
  5
A7F
330
1E
100
AcDbEntity
  8
7
100
AcDbLine
 10
4.380905511811023
 20
12.9753937007874
 30
0.0
 11
4.380905511811023
 21
13.02460629921259
 31
0.0
  0
LINE
  5
A80
330
1E
100
AcDbEntity
  8
7
100
AcDbLine
 10
4.380905511811023
 20
13.02460629921259
 30
0.0
 11
4.380905511811023
 21
13.07874015748031
 31
0.0
  0
LINE
  5
A81
330
1E
100
AcDbEntity
  8
7
100
AcDbLine
 10
4.380905511811023
 20
13.07874015748031
 30
0.0
 11
4.380905511811023
 21
13.13779527559055
 31
0.0
  0
LINE
  5
A82
330
1E
100
AcDbEntity
  8
7
100
AcDbLine
 10
4.380905511811023
 20
13.13779527559055
 30
0.0
 11
4.380905511811023
 21
13.19980314960629
 31
0.0
  0
LINE
  5
A83
330
1E
100
AcDbEntity
  8
7
100
AcDbLine
 10
4.380905511811023
 20
13.19980314960629
 30
0.0
 11
4.380905511811023
 21
13.26377952755905
 31
0.0
  0
LINE
  5
A84
330
1E
100
AcDbEntity
  8
7
100
AcDbLine
 10
4.380905511811023
 20
13.26377952755905
 30
0.0
 11
4.380905511811023
 21
13.32874015748031
 31
0.0
  0
LINE
  5
A85
330
1E
100
AcDbEntity
  8
7
100
AcDbLine
 10
4.380905511811023
 20
13.32874015748031
 30
0.0
 11
4.380905511811023
 21
18.81299212598425
 31
0.0
  0
LINE
  5
A86
330
1E
100
AcDbEntity
  8
7
100
AcDbLine
 10
4.471456692913385
 20
8.662401574803149
 30
0.0
 11
4.471456692913385
 21
12.9753937007874
 31
0.0
  0
LINE
  5
A87
330
1E
100
AcDbEntity
  8
7
100
AcDbLine
 10
4.471456692913385
 20
12.9753937007874
 30
0.0
 11
4.380905511811023
 21
12.9753937007874
 31
0.0
  0
LINE
  5
A88
330
1E
100
AcDbEntity
  8
7
100
AcDbLine
 10
4.500984251968503
 20
18.68799212598425
 30
0.0
 11
4.486220472440944
 21
18.68799212598425
 31
0.0
  0
LINE
  5
A89
330
1E
100
AcDbEntity
  8
7
100
AcDbLine
 10
4.486220472440944
 20
18.68799212598425
 30
0.0
 11
4.4753937007874
 21
18.68799212598425
 31
0.0
  0
LINE
  5
A8A
330
1E
100
AcDbEntity
  8
7
100
AcDbLine
 10
4.4753937007874
 20
18.68799212598425
 30
0.0
 11
4.471456692913385
 21
18.68799212598425
 31
0.0
  0
LINE
  5
A8B
330
1E
100
AcDbEntity
  8
7
100
AcDbLine
 10
4.500984251968503
 20
8.553149606299212
 30
0.0
 11
4.468503937007873
 21
8.571850393700787
 31
0.0
  0
LINE
  5
A8C
330
1E
100
AcDbEntity
  8
7
100
AcDbLine
 10
4.468503937007873
 20
8.571850393700787
 30
0.0
 11
4.436023622047243
 21
8.59251968503937
 31
0.0
  0
LINE
  5
A8D
330
1E
100
AcDbEntity
  8
7
100
AcDbLine
 10
4.436023622047243
 20
8.59251968503937
 30
0.0
 11
4.408464566929133
 21
8.614173228346457
 31
0.0
  0
LINE
  5
A8E
330
1E
100
AcDbEntity
  8
7
100
AcDbLine
 10
4.408464566929133
 20
8.614173228346457
 30
0.0
 11
4.39271653543307
 21
8.630905511811024
 31
0.0
  0
LINE
  5
A8F
330
1E
100
AcDbEntity
  8
7
100
AcDbLine
 10
4.39271653543307
 20
8.630905511811024
 30
0.0
 11
4.383858267716535
 21
8.646653543307087
 31
0.0
  0
LINE
  5
A90
330
1E
100
AcDbEntity
  8
7
100
AcDbLine
 10
4.383858267716535
 20
8.646653543307087
 30
0.0
 11
4.380905511811023
 21
8.662401574803149
 31
0.0
  0
LINE
  5
A91
330
1E
100
AcDbEntity
  8
7
100
AcDbLine
 10
4.500984251968503
 20
8.553149606299212
 30
0.0
 11
4.489173228346456
 21
8.581692913385825
 31
0.0
  0
LINE
  5
A92
330
1E
100
AcDbEntity
  8
7
100
AcDbLine
 10
4.489173228346456
 20
8.581692913385825
 30
0.0
 11
4.478346456692912
 21
8.614173228346457
 31
0.0
  0
LINE
  5
A93
330
1E
100
AcDbEntity
  8
7
100
AcDbLine
 10
4.478346456692912
 20
8.614173228346457
 30
0.0
 11
4.473425196850393
 21
8.638779527559055
 31
0.0
  0
LINE
  5
A94
330
1E
100
AcDbEntity
  8
7
100
AcDbLine
 10
4.473425196850393
 20
8.638779527559055
 30
0.0
 11
4.471456692913385
 21
8.662401574803149
 31
0.0
  0
LINE
  5
A95
330
1E
100
AcDbEntity
  8
7
100
AcDbLine
 10
4.471456692913385
 20
8.662401574803149
 30
0.0
 11
4.380905511811023
 21
8.662401574803149
 31
0.0
  0
LINE
  5
A96
330
1E
100
AcDbEntity
  8
7
100
AcDbLine
 10
5.3001968503937
 20
18.69291338582677
 30
0.0
 11
5.346456692913385
 21
18.70669291338582
 31
0.0
  0
LINE
  5
A97
330
1E
100
AcDbEntity
  8
7
100
AcDbLine
 10
5.346456692913385
 20
18.70669291338582
 30
0.0
 11
5.389763779527558
 21
18.73031496062992
 31
0.0
  0
LINE
  5
A98
330
1E
100
AcDbEntity
  8
7
100
AcDbLine
 10
5.389763779527558
 20
18.73031496062992
 30
0.0
 11
5.428149606299212
 21
18.76082677165354
 31
0.0
  0
LINE
  5
A99
330
1E
100
AcDbEntity
  8
7
100
AcDbLine
 10
5.428149606299212
 20
18.76082677165354
 30
0.0
 11
5.458661417322834
 21
18.79921259842519
 31
0.0
  0
LINE
  5
A9A
330
1E
100
AcDbEntity
  8
7
100
AcDbLine
 10
5.458661417322834
 20
18.79921259842519
 30
0.0
 11
5.482283464566928
 21
18.84251968503937
 31
0.0
  0
LINE
  5
A9B
330
1E
100
AcDbEntity
  8
7
100
AcDbLine
 10
5.482283464566928
 20
18.84251968503937
 30
0.0
 11
5.496062992125983
 21
18.88877952755905
 31
0.0
  0
LINE
  5
A9C
330
1E
100
AcDbEntity
  8
7
100
AcDbLine
 10
5.496062992125983
 20
18.88877952755905
 30
0.0
 11
5.500984251968503
 21
18.93799212598425
 31
0.0
  0
LINE
  5
A9D
330
1E
100
AcDbEntity
  8
7
100
AcDbLine
 10
22.5009842519685
 20
18.93799212598425
 30
0.0
 11
22.50590551181102
 21
18.88877952755905
 31
0.0
  0
LINE
  5
A9E
330
1E
100
AcDbEntity
  8
7
100
AcDbLine
 10
22.50590551181102
 20
18.88877952755905
 30
0.0
 11
22.51968503937008
 21
18.84251968503937
 31
0.0
  0
LINE
  5
A9F
330
1E
100
AcDbEntity
  8
7
100
AcDbLine
 10
22.51968503937008
 20
18.84251968503937
 30
0.0
 11
22.54330708661417
 21
18.79921259842519
 31
0.0
  0
LINE
  5
AA0
330
1E
100
AcDbEntity
  8
7
100
AcDbLine
 10
22.54330708661417
 20
18.79921259842519
 30
0.0
 11
22.57381889763779
 21
18.76082677165354
 31
0.0
  0
LINE
  5
AA1
330
1E
100
AcDbEntity
  8
7
100
AcDbLine
 10
22.57381889763779
 20
18.76082677165354
 30
0.0
 11
22.61220472440944
 21
18.73031496062992
 31
0.0
  0
LINE
  5
AA2
330
1E
100
AcDbEntity
  8
7
100
AcDbLine
 10
22.61220472440944
 20
18.73031496062992
 30
0.0
 11
22.65551181102362
 21
18.70669291338582
 31
0.0
  0
LINE
  5
AA3
330
1E
100
AcDbEntity
  8
7
100
AcDbLine
 10
22.65551181102362
 20
18.70669291338582
 30
0.0
 11
22.70177165354331
 21
18.69291338582677
 31
0.0
  0
LINE
  5
AA4
330
1E
100
AcDbEntity
  8
7
100
AcDbLine
 10
22.70177165354331
 20
18.69291338582677
 30
0.0
 11
22.7509842519685
 21
18.68799212598425
 31
0.0
  0
LINE
  5
AA5
330
1E
100
AcDbEntity
  8
7
100
AcDbLine
 10
23.5009842519685
 20
8.553149606299212
 30
0.0
 11
23.5009842519685
 21
18.68799212598425
 31
0.0
  0
LINE
  5
AA6
330
1E
100
AcDbEntity
  8
7
100
AcDbLine
 10
23.5009842519685
 20
18.68799212598425
 30
0.0
 11
22.7509842519685
 21
18.68799212598425
 31
0.0
  0
LINE
  5
AA7
330
1E
100
AcDbEntity
  8
7
100
AcDbLine
 10
5.130905511811023
 20
21.92224409448818
 30
0.0
 11
5.126968503937007
 21
21.92224409448818
 31
0.0
  0
LINE
  5
AA8
330
1E
100
AcDbEntity
  8
7
100
AcDbLine
 10
5.126968503937007
 20
21.92224409448818
 30
0.0
 11
5.114173228346456
 21
21.92224409448818
 31
0.0
  0
LINE
  5
AA9
330
1E
100
AcDbEntity
  8
7
100
AcDbLine
 10
5.114173228346456
 20
21.92224409448818
 30
0.0
 11
5.094488188976377
 21
21.92224409448818
 31
0.0
  0
LINE
  5
AAA
330
1E
100
AcDbEntity
  8
7
100
AcDbLine
 10
5.094488188976377
 20
21.92224409448818
 30
0.0
 11
5.068897637795275
 21
21.92224409448818
 31
0.0
  0
LINE
  5
AAB
330
1E
100
AcDbEntity
  8
7
100
AcDbLine
 10
5.068897637795275
 20
21.92224409448818
 30
0.0
 11
5.038385826771652
 21
21.92224409448818
 31
0.0
  0
LINE
  5
AAC
330
1E
100
AcDbEntity
  8
7
100
AcDbLine
 10
5.038385826771652
 20
21.92224409448818
 30
0.0
 11
5.005905511811023
 21
21.92224409448818
 31
0.0
  0
LINE
  5
AAD
330
1E
100
AcDbEntity
  8
7
100
AcDbLine
 10
5.005905511811023
 20
21.92224409448818
 30
0.0
 11
5.005905511811023
 21
21.83267716535433
 31
0.0
  0
LINE
  5
AAE
330
1E
100
AcDbEntity
  8
7
100
AcDbLine
 10
5.005905511811023
 20
21.83267716535433
 30
0.0
 11
5.038385826771652
 21
21.83267716535433
 31
0.0
  0
LINE
  5
AAF
330
1E
100
AcDbEntity
  8
7
100
AcDbLine
 10
5.038385826771652
 20
21.83267716535433
 30
0.0
 11
5.068897637795275
 21
21.83267716535433
 31
0.0
  0
LINE
  5
AB0
330
1E
100
AcDbEntity
  8
7
100
AcDbLine
 10
5.068897637795275
 20
21.83267716535433
 30
0.0
 11
5.094488188976377
 21
21.83267716535433
 31
0.0
  0
LINE
  5
AB1
330
1E
100
AcDbEntity
  8
7
100
AcDbLine
 10
5.094488188976377
 20
21.83267716535433
 30
0.0
 11
5.114173228346456
 21
21.83267716535433
 31
0.0
  0
LINE
  5
AB2
330
1E
100
AcDbEntity
  8
7
100
AcDbLine
 10
5.114173228346456
 20
21.83267716535433
 30
0.0
 11
5.126968503937007
 21
21.83267716535433
 31
0.0
  0
LINE
  5
AB3
330
1E
100
AcDbEntity
  8
7
100
AcDbLine
 10
4.4753937007874
 20
21.93799212598425
 30
0.0
 11
4.486220472440944
 21
21.9271653543307
 31
0.0
  0
LINE
  5
AB4
330
1E
100
AcDbEntity
  8
7
100
AcDbLine
 10
4.486220472440944
 20
21.9271653543307
 30
0.0
 11
4.500984251968503
 21
21.92322834645669
 31
0.0
  0
LINE
  5
AB5
330
1E
100
AcDbEntity
  8
7
100
AcDbLine
 10
4.381889763779526
 20
21.95275590551181
 30
0.0
 11
4.385826771653542
 21
21.92224409448818
 31
0.0
  0
LINE
  5
AB6
330
1E
100
AcDbEntity
  8
7
100
AcDbLine
 10
4.385826771653542
 20
21.92224409448818
 30
0.0
 11
4.397637795275589
 21
21.89370078740157
 31
0.0
  0
LINE
  5
AB7
330
1E
100
AcDbEntity
  8
7
100
AcDbLine
 10
4.397637795275589
 20
21.89370078740157
 30
0.0
 11
4.416338582677164
 21
21.86811023622047
 31
0.0
  0
LINE
  5
AB8
330
1E
100
AcDbEntity
  8
7
100
AcDbLine
 10
4.416338582677164
 20
21.86811023622047
 30
0.0
 11
4.440944881889762
 21
21.84940944881889
 31
0.0
  0
LINE
  5
AB9
330
1E
100
AcDbEntity
  8
7
100
AcDbLine
 10
4.440944881889762
 20
21.84940944881889
 30
0.0
 11
4.470472440944881
 21
21.83759842519685
 31
0.0
  0
LINE
  5
ABA
330
1E
100
AcDbEntity
  8
7
100
AcDbLine
 10
4.470472440944881
 20
21.83759842519685
 30
0.0
 11
4.500984251968503
 21
21.83366141732283
 31
0.0
  0
LINE
  5
ABB
330
1E
100
AcDbEntity
  8
7
100
AcDbLine
 10
4.471456692913385
 20
21.95275590551181
 30
0.0
 11
4.471456692913385
 21
27.43602362204724
 31
0.0
  0
LINE
  5
ABC
330
1E
100
AcDbEntity
  8
7
100
AcDbLine
 10
4.471456692913385
 20
27.43602362204724
 30
0.0
 11
4.471456692913385
 21
27.50196850393701
 31
0.0
  0
LINE
  5
ABD
330
1E
100
AcDbEntity
  8
7
100
AcDbLine
 10
4.471456692913385
 20
27.50196850393701
 30
0.0
 11
4.471456692913385
 21
27.56594488188976
 31
0.0
  0
LINE
  5
ABE
330
1E
100
AcDbEntity
  8
7
100
AcDbLine
 10
4.471456692913385
 20
27.56594488188976
 30
0.0
 11
4.471456692913385
 21
27.62795275590551
 31
0.0
  0
LINE
  5
ABF
330
1E
100
AcDbEntity
  8
7
100
AcDbLine
 10
4.471456692913385
 20
27.62795275590551
 30
0.0
 11
4.471456692913385
 21
27.68602362204724
 31
0.0
  0
LINE
  5
AC0
330
1E
100
AcDbEntity
  8
7
100
AcDbLine
 10
4.471456692913385
 20
27.68602362204724
 30
0.0
 11
4.471456692913385
 21
27.74015748031496
 31
0.0
  0
LINE
  5
AC1
330
1E
100
AcDbEntity
  8
7
100
AcDbLine
 10
4.471456692913385
 20
27.74015748031496
 30
0.0
 11
4.471456692913385
 21
27.78937007874015
 31
0.0
  0
LINE
  5
AC2
330
1E
100
AcDbEntity
  8
7
100
AcDbLine
 10
4.380905511811023
 20
27.78937007874015
 30
0.0
 11
4.380905511811023
 21
27.74015748031496
 31
0.0
  0
LINE
  5
AC3
330
1E
100
AcDbEntity
  8
7
100
AcDbLine
 10
4.380905511811023
 20
27.74015748031496
 30
0.0
 11
4.380905511811023
 21
27.68602362204724
 31
0.0
  0
LINE
  5
AC4
330
1E
100
AcDbEntity
  8
7
100
AcDbLine
 10
4.380905511811023
 20
27.68602362204724
 30
0.0
 11
4.380905511811023
 21
27.62795275590551
 31
0.0
  0
LINE
  5
AC5
330
1E
100
AcDbEntity
  8
7
100
AcDbLine
 10
4.380905511811023
 20
27.62795275590551
 30
0.0
 11
4.380905511811023
 21
27.56594488188976
 31
0.0
  0
LINE
  5
AC6
330
1E
100
AcDbEntity
  8
7
100
AcDbLine
 10
4.380905511811023
 20
27.56594488188976
 30
0.0
 11
4.380905511811023
 21
27.50196850393701
 31
0.0
  0
LINE
  5
AC7
330
1E
100
AcDbEntity
  8
7
100
AcDbLine
 10
4.380905511811023
 20
27.50196850393701
 30
0.0
 11
4.380905511811023
 21
27.43602362204724
 31
0.0
  0
LINE
  5
AC8
330
1E
100
AcDbEntity
  8
7
100
AcDbLine
 10
4.500984251968503
 20
22.07775590551181
 30
0.0
 11
4.486220472440944
 21
22.07775590551181
 31
0.0
  0
LINE
  5
AC9
330
1E
100
AcDbEntity
  8
7
100
AcDbLine
 10
4.486220472440944
 20
22.07775590551181
 30
0.0
 11
4.4753937007874
 21
22.07775590551181
 31
0.0
  0
LINE
  5
ACA
330
1E
100
AcDbEntity
  8
7
100
AcDbLine
 10
4.4753937007874
 20
22.07775590551181
 30
0.0
 11
4.471456692913385
 21
22.07775590551181
 31
0.0
  0
LINE
  5
ACB
330
1E
100
AcDbEntity
  8
7
100
AcDbLine
 10
4.500984251968503
 20
32.21259842519685
 30
0.0
 11
4.489173228346456
 21
32.18307086614173
 31
0.0
  0
LINE
  5
ACC
330
1E
100
AcDbEntity
  8
7
100
AcDbLine
 10
4.489173228346456
 20
32.18307086614173
 30
0.0
 11
4.478346456692912
 21
32.1505905511811
 31
0.0
  0
LINE
  5
ACD
330
1E
100
AcDbEntity
  8
7
100
AcDbLine
 10
4.478346456692912
 20
32.1505905511811
 30
0.0
 11
4.473425196850393
 21
32.1259842519685
 31
0.0
  0
LINE
  5
ACE
330
1E
100
AcDbEntity
  8
7
100
AcDbLine
 10
4.473425196850393
 20
32.1259842519685
 30
0.0
 11
4.471456692913385
 21
32.10334645669291
 31
0.0
  0
LINE
  5
ACF
330
1E
100
AcDbEntity
  8
7
100
AcDbLine
 10
4.500984251968503
 20
32.21259842519685
 30
0.0
 11
4.468503937007873
 21
32.19291338582677
 31
0.0
  0
LINE
  5
AD0
330
1E
100
AcDbEntity
  8
7
100
AcDbLine
 10
4.468503937007873
 20
32.19291338582677
 30
0.0
 11
4.436023622047243
 21
32.17224409448818
 31
0.0
  0
LINE
  5
AD1
330
1E
100
AcDbEntity
  8
7
100
AcDbLine
 10
4.436023622047243
 20
32.17224409448818
 30
0.0
 11
4.408464566929133
 21
32.1505905511811
 31
0.0
  0
LINE
  5
AD2
330
1E
100
AcDbEntity
  8
7
100
AcDbLine
 10
4.408464566929133
 20
32.1505905511811
 30
0.0
 11
4.39271653543307
 21
32.13385826771653
 31
0.0
  0
LINE
  5
AD3
330
1E
100
AcDbEntity
  8
7
100
AcDbLine
 10
4.39271653543307
 20
32.13385826771653
 30
0.0
 11
4.383858267716535
 21
32.11811023622047
 31
0.0
  0
LINE
  5
AD4
330
1E
100
AcDbEntity
  8
7
100
AcDbLine
 10
4.383858267716535
 20
32.11811023622047
 30
0.0
 11
4.380905511811023
 21
32.10334645669291
 31
0.0
  0
LINE
  5
AD5
330
1E
100
AcDbEntity
  8
7
100
AcDbLine
 10
5.500984251968503
 20
20.50295275590551
 30
0.0
 11
5.500984251968503
 21
20.47145669291338
 31
0.0
  0
LINE
  5
AD6
330
1E
100
AcDbEntity
  8
7
100
AcDbLine
 10
5.500984251968503
 20
20.47145669291338
 30
0.0
 11
5.500984251968503
 21
20.44291338582677
 31
0.0
  0
LINE
  5
AD7
330
1E
100
AcDbEntity
  8
7
100
AcDbLine
 10
5.500984251968503
 20
20.44291338582677
 30
0.0
 11
5.500984251968503
 21
20.41732283464567
 31
0.0
  0
LINE
  5
AD8
330
1E
100
AcDbEntity
  8
7
100
AcDbLine
 10
5.500984251968503
 20
20.41732283464567
 30
0.0
 11
5.500984251968503
 21
20.39862204724409
 31
0.0
  0
LINE
  5
AD9
330
1E
100
AcDbEntity
  8
7
100
AcDbLine
 10
5.500984251968503
 20
20.39862204724409
 30
0.0
 11
5.500984251968503
 21
20.38681102362204
 31
0.0
  0
LINE
  5
ADA
330
1E
100
AcDbEntity
  8
7
100
AcDbLine
 10
5.500984251968503
 20
20.38681102362204
 30
0.0
 11
5.500984251968503
 21
20.38287401574803
 31
0.0
  0
LINE
  5
ADB
330
1E
100
AcDbEntity
  8
7
100
AcDbLine
 10
22.5009842519685
 20
20.50295275590551
 30
0.0
 11
22.5009842519685
 21
20.47145669291338
 31
0.0
  0
LINE
  5
ADC
330
1E
100
AcDbEntity
  8
7
100
AcDbLine
 10
22.5009842519685
 20
20.47145669291338
 30
0.0
 11
22.5009842519685
 21
20.44291338582677
 31
0.0
  0
LINE
  5
ADD
330
1E
100
AcDbEntity
  8
7
100
AcDbLine
 10
22.5009842519685
 20
20.44291338582677
 30
0.0
 11
22.5009842519685
 21
20.41732283464567
 31
0.0
  0
LINE
  5
ADE
330
1E
100
AcDbEntity
  8
7
100
AcDbLine
 10
22.5009842519685
 20
20.41732283464567
 30
0.0
 11
22.5009842519685
 21
20.39862204724409
 31
0.0
  0
LINE
  5
ADF
330
1E
100
AcDbEntity
  8
7
100
AcDbLine
 10
22.5009842519685
 20
20.39862204724409
 30
0.0
 11
22.5009842519685
 21
20.38681102362204
 31
0.0
  0
LINE
  5
AE0
330
1E
100
AcDbEntity
  8
7
100
AcDbLine
 10
22.5009842519685
 20
20.38681102362204
 30
0.0
 11
22.5009842519685
 21
20.38287401574803
 31
0.0
  0
LINE
  5
AE1
330
1E
100
AcDbEntity
  8
7
100
AcDbLine
 10
22.87106299212598
 20
21.92224409448818
 30
0.0
 11
22.8759842519685
 21
21.92224409448818
 31
0.0
  0
LINE
  5
AE2
330
1E
100
AcDbEntity
  8
7
100
AcDbLine
 10
22.8759842519685
 20
21.92224409448818
 30
0.0
 11
22.88779527559055
 21
21.92224409448818
 31
0.0
  0
LINE
  5
AE3
330
1E
100
AcDbEntity
  8
7
100
AcDbLine
 10
22.88779527559055
 20
21.92224409448818
 30
0.0
 11
22.90748031496062
 21
21.92224409448818
 31
0.0
  0
LINE
  5
AE4
330
1E
100
AcDbEntity
  8
7
100
AcDbLine
 10
22.90748031496062
 20
21.92224409448818
 30
0.0
 11
22.93405511811023
 21
21.92224409448818
 31
0.0
  0
LINE
  5
AE5
330
1E
100
AcDbEntity
  8
7
100
AcDbLine
 10
22.93405511811023
 20
21.92224409448818
 30
0.0
 11
22.96358267716535
 21
21.92224409448818
 31
0.0
  0
LINE
  5
AE6
330
1E
100
AcDbEntity
  8
7
100
AcDbLine
 10
22.96358267716535
 20
21.92224409448818
 30
0.0
 11
22.99606299212598
 21
21.92224409448818
 31
0.0
  0
LINE
  5
AE7
330
1E
100
AcDbEntity
  8
7
100
AcDbLine
 10
22.99606299212598
 20
21.83267716535433
 30
0.0
 11
22.96358267716535
 21
21.83267716535433
 31
0.0
  0
LINE
  5
AE8
330
1E
100
AcDbEntity
  8
7
100
AcDbLine
 10
22.96358267716535
 20
21.83267716535433
 30
0.0
 11
22.93405511811023
 21
21.83267716535433
 31
0.0
  0
LINE
  5
AE9
330
1E
100
AcDbEntity
  8
7
100
AcDbLine
 10
22.93405511811023
 20
21.83267716535433
 30
0.0
 11
22.90748031496062
 21
21.83267716535433
 31
0.0
  0
LINE
  5
AEA
330
1E
100
AcDbEntity
  8
7
100
AcDbLine
 10
22.90748031496062
 20
21.83267716535433
 30
0.0
 11
22.88779527559055
 21
21.83267716535433
 31
0.0
  0
LINE
  5
AEB
330
1E
100
AcDbEntity
  8
7
100
AcDbLine
 10
22.88779527559055
 20
21.83267716535433
 30
0.0
 11
22.8759842519685
 21
21.83267716535433
 31
0.0
  0
LINE
  5
AEC
330
1E
100
AcDbEntity
  8
7
100
AcDbLine
 10
22.8759842519685
 20
21.83267716535433
 30
0.0
 11
22.87106299212598
 21
21.83267716535433
 31
0.0
  0
LINE
  5
AED
330
1E
100
AcDbEntity
  8
7
100
AcDbLine
 10
23.5009842519685
 20
21.92224409448818
 30
0.0
 11
22.99606299212598
 21
21.92224409448818
 31
0.0
  0
LINE
  5
AEE
330
1E
100
AcDbEntity
  8
7
100
AcDbLine
 10
22.99606299212598
 20
21.92224409448818
 30
0.0
 11
22.99606299212598
 21
21.83267716535433
 31
0.0
  0
LINE
  5
AEF
330
1E
100
AcDbEntity
  8
7
100
AcDbLine
 10
23.5009842519685
 20
21.83366141732283
 30
0.0
 11
23.53149606299212
 21
21.83759842519685
 31
0.0
  0
LINE
  5
AF0
330
1E
100
AcDbEntity
  8
7
100
AcDbLine
 10
23.53149606299212
 20
21.83759842519685
 30
0.0
 11
23.56003937007874
 21
21.84940944881889
 31
0.0
  0
LINE
  5
AF1
330
1E
100
AcDbEntity
  8
7
100
AcDbLine
 10
23.56003937007874
 20
21.84940944881889
 30
0.0
 11
23.58562992125984
 21
21.86811023622047
 31
0.0
  0
LINE
  5
AF2
330
1E
100
AcDbEntity
  8
7
100
AcDbLine
 10
23.58562992125984
 20
21.86811023622047
 30
0.0
 11
23.60433070866141
 21
21.89271653543307
 31
0.0
  0
LINE
  5
AF3
330
1E
100
AcDbEntity
  8
7
100
AcDbLine
 10
23.60433070866141
 20
21.89271653543307
 30
0.0
 11
23.61614173228346
 21
21.92224409448818
 31
0.0
  0
LINE
  5
AF4
330
1E
100
AcDbEntity
  8
7
100
AcDbLine
 10
23.61614173228346
 20
21.92224409448818
 30
0.0
 11
23.62007874015748
 21
21.95275590551181
 31
0.0
  0
LINE
  5
AF5
330
1E
100
AcDbEntity
  8
7
100
AcDbLine
 10
23.5009842519685
 20
21.92322834645669
 30
0.0
 11
23.51574803149606
 21
21.9271653543307
 31
0.0
  0
LINE
  5
AF6
330
1E
100
AcDbEntity
  8
7
100
AcDbLine
 10
23.51574803149606
 20
21.9271653543307
 30
0.0
 11
23.5265748031496
 21
21.93799212598425
 31
0.0
  0
LINE
  5
AF7
330
1E
100
AcDbEntity
  8
7
100
AcDbLine
 10
23.5265748031496
 20
21.93799212598425
 30
0.0
 11
23.53051181102362
 21
21.95275590551181
 31
0.0
  0
LINE
  5
AF8
330
1E
100
AcDbEntity
  8
7
100
AcDbLine
 10
5.020669291338582
 20
32.74507874015748
 30
0.0
 11
5.041338582677164
 21
32.77854330708661
 31
0.0
  0
LINE
  5
AF9
330
1E
100
AcDbEntity
  8
7
100
AcDbLine
 10
5.041338582677164
 20
32.77854330708661
 30
0.0
 11
5.062992125984251
 21
32.80511811023622
 31
0.0
  0
LINE
  5
AFA
330
1E
100
AcDbEntity
  8
7
100
AcDbLine
 10
5.062992125984251
 20
32.80511811023622
 30
0.0
 11
5.079724409448818
 21
32.82086614173228
 31
0.0
  0
LINE
  5
AFB
330
1E
100
AcDbEntity
  8
7
100
AcDbLine
 10
5.079724409448818
 20
32.82086614173228
 30
0.0
 11
5.095472440944881
 21
32.82972440944881
 31
0.0
  0
LINE
  5
AFC
330
1E
100
AcDbEntity
  8
7
100
AcDbLine
 10
5.095472440944881
 20
32.82972440944881
 30
0.0
 11
5.11023622047244
 21
32.83267716535433
 31
0.0
  0
LINE
  5
AFD
330
1E
100
AcDbEntity
  8
7
100
AcDbLine
 10
23.0009842519685
 20
32.71259842519685
 30
0.0
 11
22.98228346456693
 21
32.74507874015748
 31
0.0
  0
LINE
  5
AFE
330
1E
100
AcDbEntity
  8
7
100
AcDbLine
 10
22.98228346456693
 20
32.74507874015748
 30
0.0
 11
22.96161417322835
 21
32.77854330708661
 31
0.0
  0
LINE
  5
AFF
330
1E
100
AcDbEntity
  8
7
100
AcDbLine
 10
22.96161417322835
 20
32.77854330708661
 30
0.0
 11
22.93996062992126
 21
32.80511811023622
 31
0.0
  0
LINE
  5
B00
330
1E
100
AcDbEntity
  8
7
100
AcDbLine
 10
22.93996062992126
 20
32.80511811023622
 30
0.0
 11
22.92322834645669
 21
32.82086614173228
 31
0.0
  0
LINE
  5
B01
330
1E
100
AcDbEntity
  8
7
100
AcDbLine
 10
22.92322834645669
 20
32.82086614173228
 30
0.0
 11
22.90748031496062
 21
32.82972440944881
 31
0.0
  0
LINE
  5
B02
330
1E
100
AcDbEntity
  8
7
100
AcDbLine
 10
22.90748031496062
 20
32.82972440944881
 30
0.0
 11
22.89173228346456
 21
32.83267716535433
 31
0.0
  0
LINE
  5
B03
330
1E
100
AcDbEntity
  8
7
100
AcDbLine
 10
22.89173228346456
 20
32.83267716535433
 30
0.0
 11
5.11023622047244
 21
32.83267716535433
 31
0.0
  0
LINE
  5
B04
330
1E
100
AcDbEntity
  8
7
100
AcDbLine
 10
23.53149606299212
 20
21.95275590551181
 30
0.0
 11
23.53149606299212
 21
27.43602362204724
 31
0.0
  0
LINE
  5
B05
330
1E
100
AcDbEntity
  8
7
100
AcDbLine
 10
23.53149606299212
 20
27.43602362204724
 30
0.0
 11
23.53149606299212
 21
27.50196850393701
 31
0.0
  0
LINE
  5
B06
330
1E
100
AcDbEntity
  8
7
100
AcDbLine
 10
23.53149606299212
 20
27.50196850393701
 30
0.0
 11
23.53149606299212
 21
27.56594488188976
 31
0.0
  0
LINE
  5
B07
330
1E
100
AcDbEntity
  8
7
100
AcDbLine
 10
23.53149606299212
 20
27.56594488188976
 30
0.0
 11
23.53149606299212
 21
27.62795275590551
 31
0.0
  0
LINE
  5
B08
330
1E
100
AcDbEntity
  8
7
100
AcDbLine
 10
23.53149606299212
 20
27.62795275590551
 30
0.0
 11
23.53149606299212
 21
27.68602362204724
 31
0.0
  0
LINE
  5
B09
330
1E
100
AcDbEntity
  8
7
100
AcDbLine
 10
23.53149606299212
 20
27.68602362204724
 30
0.0
 11
23.53149606299212
 21
27.74015748031496
 31
0.0
  0
LINE
  5
B0A
330
1E
100
AcDbEntity
  8
7
100
AcDbLine
 10
23.53149606299212
 20
27.74015748031496
 30
0.0
 11
23.53149606299212
 21
27.78937007874015
 31
0.0
  0
LINE
  5
B0B
330
1E
100
AcDbEntity
  8
7
100
AcDbLine
 10
23.62106299212598
 20
27.56594488188976
 30
0.0
 11
23.62106299212598
 21
27.50196850393701
 31
0.0
  0
LINE
  5
B0C
330
1E
100
AcDbEntity
  8
7
100
AcDbLine
 10
23.62106299212598
 20
27.50196850393701
 30
0.0
 11
23.62106299212598
 21
27.43602362204724
 31
0.0
  0
LINE
  5
B0D
330
1E
100
AcDbEntity
  8
7
100
AcDbLine
 10
23.62106299212598
 20
27.43602362204724
 30
0.0
 11
23.62106299212598
 21
21.95275590551181
 31
0.0
  0
LINE
  5
B0E
330
1E
100
AcDbEntity
  8
7
100
AcDbLine
 10
23.62106299212598
 20
32.10334645669291
 30
0.0
 11
23.62106299212598
 21
27.78937007874015
 31
0.0
  0
LINE
  5
B0F
330
1E
100
AcDbEntity
  8
7
100
AcDbLine
 10
23.62106299212598
 20
27.78937007874015
 30
0.0
 11
23.62106299212598
 21
27.74015748031496
 31
0.0
  0
LINE
  5
B10
330
1E
100
AcDbEntity
  8
7
100
AcDbLine
 10
23.62106299212598
 20
27.74015748031496
 30
0.0
 11
23.62106299212598
 21
27.68602362204724
 31
0.0
  0
LINE
  5
B11
330
1E
100
AcDbEntity
  8
7
100
AcDbLine
 10
23.62106299212598
 20
27.68602362204724
 30
0.0
 11
23.62106299212598
 21
27.62795275590551
 31
0.0
  0
LINE
  5
B12
330
1E
100
AcDbEntity
  8
7
100
AcDbLine
 10
23.62106299212598
 20
27.62795275590551
 30
0.0
 11
23.62106299212598
 21
27.56594488188976
 31
0.0
  0
LINE
  5
B13
330
1E
100
AcDbEntity
  8
7
100
AcDbLine
 10
23.53149606299212
 20
32.10334645669291
 30
0.0
 11
23.53149606299212
 21
27.78937007874015
 31
0.0
  0
LINE
  5
B14
330
1E
100
AcDbEntity
  8
7
100
AcDbLine
 10
23.53149606299212
 20
27.78937007874015
 30
0.0
 11
23.62106299212598
 21
27.78937007874015
 31
0.0
  0
LINE
  5
B15
330
1E
100
AcDbEntity
  8
7
100
AcDbLine
 10
23.5009842519685
 20
22.07775590551181
 30
0.0
 11
23.51673228346456
 21
22.07775590551181
 31
0.0
  0
LINE
  5
B16
330
1E
100
AcDbEntity
  8
7
100
AcDbLine
 10
23.51673228346456
 20
22.07775590551181
 30
0.0
 11
23.52755905511811
 21
22.07775590551181
 31
0.0
  0
LINE
  5
B17
330
1E
100
AcDbEntity
  8
7
100
AcDbLine
 10
23.52755905511811
 20
22.07775590551181
 30
0.0
 11
23.53149606299212
 21
22.07775590551181
 31
0.0
  0
LINE
  5
B18
330
1E
100
AcDbEntity
  8
7
100
AcDbLine
 10
23.5009842519685
 20
32.21259842519685
 30
0.0
 11
23.53444881889763
 21
32.19291338582677
 31
0.0
  0
LINE
  5
B19
330
1E
100
AcDbEntity
  8
7
100
AcDbLine
 10
23.53444881889763
 20
32.19291338582677
 30
0.0
 11
23.56692913385827
 21
32.17224409448818
 31
0.0
  0
LINE
  5
B1A
330
1E
100
AcDbEntity
  8
7
100
AcDbLine
 10
23.56692913385827
 20
32.17224409448818
 30
0.0
 11
23.59448818897637
 21
32.1505905511811
 31
0.0
  0
LINE
  5
B1B
330
1E
100
AcDbEntity
  8
7
100
AcDbLine
 10
23.59448818897637
 20
32.1505905511811
 30
0.0
 11
23.60925196850393
 21
32.13385826771653
 31
0.0
  0
LINE
  5
B1C
330
1E
100
AcDbEntity
  8
7
100
AcDbLine
 10
23.60925196850393
 20
32.13385826771653
 30
0.0
 11
23.61811023622047
 21
32.11811023622047
 31
0.0
  0
LINE
  5
B1D
330
1E
100
AcDbEntity
  8
7
100
AcDbLine
 10
23.61811023622047
 20
32.11811023622047
 30
0.0
 11
23.62106299212598
 21
32.10334645669291
 31
0.0
  0
LINE
  5
B1E
330
1E
100
AcDbEntity
  8
7
100
AcDbLine
 10
23.5009842519685
 20
32.21259842519685
 30
0.0
 11
23.51377952755905
 21
32.18307086614173
 31
0.0
  0
LINE
  5
B1F
330
1E
100
AcDbEntity
  8
7
100
AcDbLine
 10
23.51377952755905
 20
32.18307086614173
 30
0.0
 11
23.5246062992126
 21
32.1505905511811
 31
0.0
  0
LINE
  5
B20
330
1E
100
AcDbEntity
  8
7
100
AcDbLine
 10
23.5246062992126
 20
32.1505905511811
 30
0.0
 11
23.52952755905512
 21
32.1259842519685
 31
0.0
  0
LINE
  5
B21
330
1E
100
AcDbEntity
  8
7
100
AcDbLine
 10
23.52952755905512
 20
32.1259842519685
 30
0.0
 11
23.53149606299212
 21
32.10334645669291
 31
0.0
  0
LINE
  5
B22
330
1E
100
AcDbEntity
  8
7
100
AcDbLine
 10
23.53149606299212
 20
32.10334645669291
 30
0.0
 11
23.62106299212598
 21
32.10334645669291
 31
0.0
  0
LINE
  5
B23
330
1E
100
AcDbEntity
  8
7
100
AcDbLine
 10
22.7509842519685
 20
22.07775590551181
 30
0.0
 11
22.70177165354331
 21
22.07283464566929
 31
0.0
  0
LINE
  5
B24
330
1E
100
AcDbEntity
  8
7
100
AcDbLine
 10
22.70177165354331
 20
22.07283464566929
 30
0.0
 11
22.65551181102362
 21
22.05905511811023
 31
0.0
  0
LINE
  5
B25
330
1E
100
AcDbEntity
  8
7
100
AcDbLine
 10
22.65551181102362
 20
22.05905511811023
 30
0.0
 11
22.61220472440944
 21
22.03543307086614
 31
0.0
  0
LINE
  5
B26
330
1E
100
AcDbEntity
  8
7
100
AcDbLine
 10
22.61220472440944
 20
22.03543307086614
 30
0.0
 11
22.57381889763779
 21
22.00492125984252
 31
0.0
  0
LINE
  5
B27
330
1E
100
AcDbEntity
  8
7
100
AcDbLine
 10
22.57381889763779
 20
22.00492125984252
 30
0.0
 11
22.54330708661417
 21
21.96653543307086
 31
0.0
  0
LINE
  5
B28
330
1E
100
AcDbEntity
  8
7
100
AcDbLine
 10
22.54330708661417
 20
21.96653543307086
 30
0.0
 11
22.51968503937008
 21
21.92322834645669
 31
0.0
  0
LINE
  5
B29
330
1E
100
AcDbEntity
  8
7
100
AcDbLine
 10
22.51968503937008
 20
21.92322834645669
 30
0.0
 11
22.50590551181102
 21
21.876968503937
 31
0.0
  0
LINE
  5
B2A
330
1E
100
AcDbEntity
  8
7
100
AcDbLine
 10
22.50590551181102
 20
21.876968503937
 30
0.0
 11
22.5009842519685
 21
21.82775590551181
 31
0.0
  0
LINE
  5
B2B
330
1E
100
AcDbEntity
  8
7
100
AcDbLine
 10
5.428149606299212
 20
22.00492125984252
 30
0.0
 11
5.389763779527558
 21
22.03543307086614
 31
0.0
  0
LINE
  5
B2C
330
1E
100
AcDbEntity
  8
7
100
AcDbLine
 10
5.389763779527558
 20
22.03543307086614
 30
0.0
 11
5.346456692913385
 21
22.05905511811023
 31
0.0
  0
LINE
  5
B2D
330
1E
100
AcDbEntity
  8
7
100
AcDbLine
 10
5.346456692913385
 20
22.05905511811023
 30
0.0
 11
5.3001968503937
 21
22.07283464566929
 31
0.0
  0
LINE
  5
B2E
330
1E
100
AcDbEntity
  8
7
100
AcDbLine
 10
5.3001968503937
 20
22.07283464566929
 30
0.0
 11
5.250984251968503
 21
22.07775590551181
 31
0.0
  0
LINE
  5
B2F
330
1E
100
AcDbEntity
  8
7
100
AcDbLine
 10
5.500984251968503
 20
21.82775590551181
 30
0.0
 11
5.496062992125983
 21
21.876968503937
 31
0.0
  0
LINE
  5
B30
330
1E
100
AcDbEntity
  8
7
100
AcDbLine
 10
5.496062992125983
 20
21.876968503937
 30
0.0
 11
5.482283464566928
 21
21.92322834645669
 31
0.0
  0
LINE
  5
B31
330
1E
100
AcDbEntity
  8
7
100
AcDbLine
 10
5.482283464566928
 20
21.92322834645669
 30
0.0
 11
5.458661417322834
 21
21.96653543307086
 31
0.0
  0
LINE
  5
B32
330
1E
100
AcDbEntity
  8
7
100
AcDbLine
 10
5.458661417322834
 20
21.96653543307086
 30
0.0
 11
5.428149606299212
 21
22.00492125984252
 31
0.0
  0
LINE
  5
B33
330
1E
100
AcDbEntity
  8
7
100
AcDbLine
 10
4.500984251968503
 20
32.21259842519685
 30
0.0
 11
4.500984251968503
 21
22.07775590551181
 31
0.0
  0
LINE
  5
B34
330
1E
100
AcDbEntity
  8
7
100
AcDbLine
 10
4.500984251968503
 20
22.07775590551181
 30
0.0
 11
5.250984251968503
 21
22.07775590551181
 31
0.0
  0
ENDSEC
  0
SECTION
  2
OBJECTS
  0
DICTIONARY
  5
C
330
0
100
AcDbDictionary
  3
ACAD_GROUP
350
D
  3
ACAD_LAYOUT
350
19
  3
ACAD_MLINESTYLE
350
16
  3
ACAD_PLOTSETTINGS
350
18
  3
ACAD_PLOTSTYLENAME
350
E
  3
ACDBHEADERROUNDTRIPXREC
350
B6A
  0
DICTIONARY
  5
B8D
330
1E
100
AcDbDictionary
280
     1
  3
ACAD_LAYOUTSELFREF
360
B8E
  0
DICTIONARY
  5
B8B
330
1A
100
AcDbDictionary
280
     1
  3
ACAD_LAYOUTSELFREF
360
B8C
  0
DICTIONARY
  5
D
102
{ACAD_REACTORS
330
C
102
}
330
C
100
AcDbDictionary
  0
DICTIONARY
  5
19
102
{ACAD_REACTORS
330
C
102
}
330
C
100
AcDbDictionary
  0
DICTIONARY
  5
16
102
{ACAD_REACTORS
330
C
102
}
330
C
100
AcDbDictionary
  3
STANDARD
350
17
  0
DICTIONARY
  5
18
102
{ACAD_REACTORS
330
C
102
}
330
C
100
AcDbDictionary
  0
ACDBDICTIONARYWDFLT
  5
E
102
{ACAD_REACTORS
330
C
102
}
330
C
100
AcDbDictionary
281
     1
  3
Normal
350
F
100
AcDbDictionaryWithDefault
340
F
  0
DICTIONARY
  5
B6A
102
{ACAD_REACTORS
330
C
102
}
330
C
100
AcDbDictionary
  3
CEPSNTYPE
350
B74
  3
DIMSTYLEDATA
350
B78
  3
FINGERPRINTGUID
350
B75
  3
HYPERLINKBASE
350
B6D
  3
INSUNITS
350
B73
  3
LAYOUTDICT
350
B6F
  3
LWETCUNION
350
B72
  3
PLOTSETDICT
350
B70
  3
PLOTSTYLNAMDICT
350
B71
  3
PSVPSCALE
350
B77
  3
PUCSBASE
350
B7B
  3
PUCSORGBACK
350
B81
  3
PUCSORGBOTTOM
350
B7D
  3
PUCSORGFRONT
350
B80
  3
PUCSORGLEFT
350
B7E
  3
PUCSORGRIGHT
350
B7F
  3
PUCSORGTOP
350
B7C
  3
PUCSORTHOREF
350
B79
  3
PUCSORTHOVIEW
350
B7A
  3
STYLESHEET
350
B6E
  3
TSTACKALIGN
350
B6B
  3
TSTACKSIZE
350
B6C
  3
UCSBASE
350
B84
  3
UCSORGBACK
350
B8A
  3
UCSORGBOTTOM
350
B86
  3
UCSORGFRONT
350
B89
  3
UCSORGLEFT
350
B87
  3
UCSORGRIGHT
350
B88
  3
UCSORGTOP
350
B85
  3
UCSORTHOREF
350
B82
  3
UCSORTHOVIEW
350
B83
  3
VERSIONGUID
350
B76
  0
XRECORD
  5
B8E
102
{ACAD_REACTORS
330
B8D
102
}
330
B8D
100
AcDbXrecord
340
1E
  0
XRECORD
  5
B8C
102
{ACAD_REACTORS
330
B8B
102
}
330
B8B
100
AcDbXrecord
340
1A
  0
MLINESTYLE
  5
17
102
{ACAD_REACTORS
330
16
102
}
330
16
100
AcDbMlineStyle
  2
STANDARD
 70
     0
  3

 62
   256
 51
90.0
 52
90.0
 71
     2
 49
0.5
 62
   256
  6
BYLAYER
 49
-0.5
 62
   256
  6
BYLAYER
  0
ACDBPLACEHOLDER
  5
F
102
{ACAD_REACTORS
330
E
102
}
330
E
100
AcDbPlaceHolder
280
     0
  0
XRECORD
  5
B74
102
{ACAD_REACTORS
330
B6A
102
}
330
B6A
100
AcDbXrecord
 90
        0
  0
XRECORD
  5
B78
102
{ACAD_REACTORS
330
B6A
102
}
330
B6A
100
AcDbXrecord
1000
DSTYLE
1002
{
1070
   279
 70
     2
1002
}
  0
XRECORD
  5
B75
102
{ACAD_REACTORS
330
B6A
102
}
330
B6A
100
AcDbXrecord
  1
{2C31D813-707B-4DEB-9FE3-B45B818A9983}
  0
XRECORD
  5
B6D
102
{ACAD_REACTORS
330
B6A
102
}
330
B6A
100
AcDbXrecord
  1

  0
XRECORD
  5
B73
102
{ACAD_REACTORS
330
B6A
102
}
330
B6A
100
AcDbXrecord
 90
        0
  0
XRECORD
  5
B6F
102
{ACAD_REACTORS
330
B6A
102
}
330
B6A
100
AcDbXrecord
340
19
  0
XRECORD
  5
B72
102
{ACAD_REACTORS
330
B6A
102
}
330
B6A
100
AcDbXrecord
 90
    14877
  0
XRECORD
  5
B70
102
{ACAD_REACTORS
330
B6A
102
}
330
B6A
100
AcDbXrecord
340
18
  0
XRECORD
  5
B71
102
{ACAD_REACTORS
330
B6A
102
}
330
B6A
100
AcDbXrecord
340
E
  0
XRECORD
  5
B77
102
{ACAD_REACTORS
330
B6A
102
}
330
B6A
100
AcDbXrecord
 40
0.0
  0
XRECORD
  5
B7B
102
{ACAD_REACTORS
330
B6A
102
}
330
B6A
100
AcDbXrecord
340
0
  0
XRECORD
  5
B81
102
{ACAD_REACTORS
330
B6A
102
}
330
B6A
100
AcDbXrecord
 10
0.0
 20
0.0
 30
0.0
  0
XRECORD
  5
B7D
102
{ACAD_REACTORS
330
B6A
102
}
330
B6A
100
AcDbXrecord
 10
0.0
 20
0.0
 30
0.0
  0
XRECORD
  5
B80
102
{ACAD_REACTORS
330
B6A
102
}
330
B6A
100
AcDbXrecord
 10
0.0
 20
0.0
 30
0.0
  0
XRECORD
  5
B7E
102
{ACAD_REACTORS
330
B6A
102
}
330
B6A
100
AcDbXrecord
 10
0.0
 20
0.0
 30
0.0
  0
XRECORD
  5
B7F
102
{ACAD_REACTORS
330
B6A
102
}
330
B6A
100
AcDbXrecord
 10
0.0
 20
0.0
 30
0.0
  0
XRECORD
  5
B7C
102
{ACAD_REACTORS
330
B6A
102
}
330
B6A
100
AcDbXrecord
 10
0.0
 20
0.0
 30
0.0
  0
XRECORD
  5
B79
102
{ACAD_REACTORS
330
B6A
102
}
330
B6A
100
AcDbXrecord
340
0
  0
XRECORD
  5
B7A
102
{ACAD_REACTORS
330
B6A
102
}
330
B6A
100
AcDbXrecord
 70
     0
  0
XRECORD
  5
B6E
102
{ACAD_REACTORS
330
B6A
102
}
330
B6A
100
AcDbXrecord
  1

  0
XRECORD
  5
B6B
102
{ACAD_REACTORS
330
B6A
102
}
330
B6A
100
AcDbXrecord
 90
        1
  0
XRECORD
  5
B6C
102
{ACAD_REACTORS
330
B6A
102
}
330
B6A
100
AcDbXrecord
 90
       70
  0
XRECORD
  5
B84
102
{ACAD_REACTORS
330
B6A
102
}
330
B6A
100
AcDbXrecord
340
0
  0
XRECORD
  5
B8A
102
{ACAD_REACTORS
330
B6A
102
}
330
B6A
100
AcDbXrecord
 10
0.0
 20
0.0
 30
0.0
  0
XRECORD
  5
B86
102
{ACAD_REACTORS
330
B6A
102
}
330
B6A
100
AcDbXrecord
 10
0.0
 20
0.0
 30
0.0
  0
XRECORD
  5
B89
102
{ACAD_REACTORS
330
B6A
102
}
330
B6A
100
AcDbXrecord
 10
0.0
 20
0.0
 30
0.0
  0
XRECORD
  5
B87
102
{ACAD_REACTORS
330
B6A
102
}
330
B6A
100
AcDbXrecord
 10
0.0
 20
0.0
 30
0.0
  0
XRECORD
  5
B88
102
{ACAD_REACTORS
330
B6A
102
}
330
B6A
100
AcDbXrecord
 10
0.0
 20
0.0
 30
0.0
  0
XRECORD
  5
B85
102
{ACAD_REACTORS
330
B6A
102
}
330
B6A
100
AcDbXrecord
 10
0.0
 20
0.0
 30
0.0
  0
XRECORD
  5
B82
102
{ACAD_REACTORS
330
B6A
102
}
330
B6A
100
AcDbXrecord
340
0
  0
XRECORD
  5
B83
102
{ACAD_REACTORS
330
B6A
102
}
330
B6A
100
AcDbXrecord
 70
     0
  0
XRECORD
  5
B76
102
{ACAD_REACTORS
330
B6A
102
}
330
B6A
100
AcDbXrecord
  1
{AFCF7A34-FB8A-46D5-9BAB-F49A9F6F5FE4}
  0
ENDSEC
  0
EOF
