999
DXF file: Y:\001_SCHNEIDER_PARIS\maxime fuentes - génération CAD 2D\TRAVAIL\XB4BW13G5_2D-Views\xb4bw13g5_2d-views_3.dxf
999
Pro/ENGINEER 2018260 by Parametric Technology Corporation
  0
SECTION
  2
HEADER
  9
$ACADVER
  1
AC1027
  9
$DWGCODEPAGE
  3
ANSI_1252
  9
$EXTMAX
 10
558.8
 20
431.8
 30
0.0
  9
$EXTMIN
 10
0.0
 20
0.0
 30
0.0
  9
$LIMMIN
 10
0.0
 20
0.0
  9
$LIMMAX
 10
558.8
 20
431.8
  9
$VIEWCTR
 10
279.4
 20
215.9
  9
$VIEWSIZE
 40
431.8
  9
$CLAYER
  8
0
  9
$LTSCALE
 40
30.734
  9
$CELTYPE
  6
BYLAYER
  9
$DIMSCALE
 40
1.0
  9
$DIMASZ
 40
3.5
  9
$DIMEXO
 40
1.0
  9
$DIMDLI
 40
21.2344
  9
$DIMEXE
 40
3.0
  9
$DIMCEN
 40
5.0292
  9
$DIMLFAC
 40
1.0
  9
$DIMBLK
  1
_FILLED
  9
$DIMALT
 70
0
  9
$DIMALTF
 40
0.0393700787
  9
$DIMTXT
 40
4.0
  9
$DIMTOL
 70
1
  9
$DIMLIM
 70
0
  9
$DIMTFAC
 40
1.0
  9
$DIMTP
 40
0.0001
  9
$DIMTM
 40
0.0001
  9
$DIMGAP
 40
0.625
  9
$DIMDSEP
 70
46
  9
$AUNITS
 70
0
  9
$PDMODE
 70
0
  9
$PDSIZE
 40
0.01
  9
$HANDSEED
  5
37A
  9
$TILEMODE
 70
1
  9
$MEASUREMENT
 70
1
  9
$INSUNITS
 70
4
  0
ENDSEC
  0
SECTION
  2
CLASSES
  0
CLASS
  1
ACDBDICTIONARYWDFLT
  2
AcDbDictionaryWithDefault
  3
AutoCAD 2000
 90
0
 91
1
280
0
281
0
  0
CLASS
  1
ACDBPLACEHOLDER
  2
AcDbPlaceHolder
  3
AutoCAD 2000
 90
0
 91
1
280
0
281
0
  0
CLASS
  1
LAYOUT
  2
AcDbLayout
  3
AutoCAD 2000
 90
0
 91
0
280
0
281
0
  0
ENDSEC
  0
SECTION
  2
TABLES
  0
TABLE
  2
VPORT
  5
8
100
AcDbSymbolTable
 70
2
  0
VPORT
  5
1F4
100
AcDbSymbolTableRecord
100
AcDbViewportTableRecord
  2
*ACTIVE
 70
0
 10
0.0
 20
0.0
 11
1.0
 21
1.0
 12
279.4
 22
215.9
 13
0.0
 23
0.0
 14
1.0
 24
1.0
 15
0.0
 25
0.0
 16
0.0
 26
0.0
 36
1.0
 17
0.0
 27
0.0
 37
0.0
 40
431.8
 41
1.2941176471
 42
50.0
 43
0.0
 44
0.0
 50
0.0
 51
0.0
 71
0
 72
100
 73
1
 74
1
 75
0
 76
0
 77
0
 78
0
  0
ENDTAB
  0
TABLE
  2
LTYPE
  5
5
100
AcDbSymbolTable
 70
6
  0
LTYPE
  5
14
100
AcDbSymbolTableRecord
100
AcDbLinetypeTableRecord
  2
BYBLOCK
 70
0
  3

 72
65
 73
0
 40
0.0
  0
LTYPE
  5
15
100
AcDbSymbolTableRecord
100
AcDbLinetypeTableRecord
  2
BYLAYER
 70
0
  3

 72
65
 73
0
 40
0.0
  0
LTYPE
  5
16
100
AcDbSymbolTableRecord
100
AcDbLinetypeTableRecord
  2
CONTINUOUS
 70
64
  3
Solid line
 72
65
 73
0
 40
0.0
  0
LTYPE
  5
1F5
100
AcDbSymbolTableRecord
100
AcDbLinetypeTableRecord
  2
CENTER
 70
64
  3
____ _ ____ _ ____ _ ____ _ ____ _ ____ _ ____
 72
65
 73
4
 40
0.6
 49
0.375
 74
0
 49
-0.075
 74
0
 49
0.075
 74
0
 49
-0.075
 74
0
  0
LTYPE
  5
1F6
100
AcDbSymbolTableRecord
100
AcDbLinetypeTableRecord
  2
HIDDEN
 70
64
  3
- - - - - - - - - - - - - - - - - - - -
 72
65
 73
2
 40
0.2
 49
0.1
 74
0
 49
-0.1
 74
0
  0
LTYPE
  5
1F7
100
AcDbSymbolTableRecord
100
AcDbLinetypeTableRecord
  2
PHANTOM
 70
64
  3
_____ _ _ _____ _ _ _____ _ _ _____
 72
65
 73
6
 40
0.8
 49
0.45
 74
0
 49
-0.05
 74
0
 49
0.1
 74
0
 49
-0.05
 74
0
 49
0.1
 74
0
 49
-0.05
 74
0
  0
LTYPE
  5
1F8
100
AcDbSymbolTableRecord
100
AcDbLinetypeTableRecord
  2
DOT
 70
64
  3
. . . . . . . . . . . . . . . . . . . .
 72
65
 73
2
 40
0.2
 49
0.1
 74
0
 49
-0.1
 74
0
  0
LTYPE
  5
1F9
100
AcDbSymbolTableRecord
100
AcDbLinetypeTableRecord
  2
DASHED
 70
64
  3
- - - - - - - - - - - - - - - - - - - -
 72
65
 73
2
 40
0.2
 49
0.1
 74
0
 49
-0.1
 74
0
  0
ENDTAB
  0
TABLE
  2
LAYER
  5
2
100
AcDbSymbolTable
 70
36
  0
LAYER
  5
10
100
AcDbSymbolTableRecord
100
AcDbLayerTableRecord
  2
0
 70
0
 62
7
  6
CONTINUOUS
370
-3
390
F
  0
LAYER
  5
1FA
100
AcDbSymbolTableRecord
100
AcDbLayerTableRecord
  2
DEFAULT_1
 70
0
 62
7
  6
CENTER
370
-3
390
F
  0
LAYER
  5
1FB
100
AcDbSymbolTableRecord
100
AcDbLayerTableRecord
  2
DEFAULT_2
 70
0
 62
8
  6
HIDDEN
370
-3
390
F
  0
LAYER
  5
1FC
100
AcDbSymbolTableRecord
100
AcDbLayerTableRecord
  2
DEFAULT_3
 70
0
 62
7
  6
PHANTOM
370
-3
390
F
  0
LAYER
  5
1FD
100
AcDbSymbolTableRecord
100
AcDbLayerTableRecord
  2
01_ALL_DTM_PLN
 70
0
 62
7
  6
CONTINUOUS
370
-3
390
F
  0
LAYER
  5
1FE
100
AcDbSymbolTableRecord
100
AcDbLayerTableRecord
  2
01__ASM_ALL_DTM_PLN
 70
0
 62
7
  6
CONTINUOUS
370
-3
390
F
  0
LAYER
  5
1FF
100
AcDbSymbolTableRecord
100
AcDbLayerTableRecord
  2
01__ASM_DEF_DTM_PLN
 70
0
 62
7
  6
CONTINUOUS
370
-3
390
F
  0
LAYER
  5
200
100
AcDbSymbolTableRecord
100
AcDbLayerTableRecord
  2
01___PRT_ALL_DTM_PLN
 70
0
 62
7
  6
CONTINUOUS
370
-3
390
F
  0
LAYER
  5
201
100
AcDbSymbolTableRecord
100
AcDbLayerTableRecord
  2
01___PRT_DEF_DTM_PLN
 70
0
 62
7
  6
CONTINUOUS
370
-3
390
F
  0
LAYER
  5
202
100
AcDbSymbolTableRecord
100
AcDbLayerTableRecord
  2
02_ALL_AXES
 70
0
 62
7
  6
CONTINUOUS
370
-3
390
F
  0
LAYER
  5
203
100
AcDbSymbolTableRecord
100
AcDbLayerTableRecord
  2
02__ASM_ALL_AXES
 70
0
 62
7
  6
CONTINUOUS
370
-3
390
F
  0
LAYER
  5
204
100
AcDbSymbolTableRecord
100
AcDbLayerTableRecord
  2
02___PRT_ALL_AXES
 70
0
 62
7
  6
CONTINUOUS
370
-3
390
F
  0
LAYER
  5
205
100
AcDbSymbolTableRecord
100
AcDbLayerTableRecord
  2
03_ALL_CURVES
 70
0
 62
7
  6
CONTINUOUS
370
-3
390
F
  0
LAYER
  5
206
100
AcDbSymbolTableRecord
100
AcDbLayerTableRecord
  2
03__ASM_ALL_CURVES
 70
0
 62
7
  6
CONTINUOUS
370
-3
390
F
  0
LAYER
  5
207
100
AcDbSymbolTableRecord
100
AcDbLayerTableRecord
  2
03___PRT_ALL_CURVES
 70
0
 62
7
  6
CONTINUOUS
370
-3
390
F
  0
LAYER
  5
208
100
AcDbSymbolTableRecord
100
AcDbLayerTableRecord
  2
04_ALL_DTM_PNT
 70
0
 62
7
  6
CONTINUOUS
370
-3
390
F
  0
LAYER
  5
209
100
AcDbSymbolTableRecord
100
AcDbLayerTableRecord
  2
04__ASM_ALL_DTM_PNT
 70
0
 62
7
  6
CONTINUOUS
370
-3
390
F
  0
LAYER
  5
20A
100
AcDbSymbolTableRecord
100
AcDbLayerTableRecord
  2
04___PRT_ALL_DTM_PNT
 70
0
 62
7
  6
CONTINUOUS
370
-3
390
F
  0
LAYER
  5
20B
100
AcDbSymbolTableRecord
100
AcDbLayerTableRecord
  2
05_ALL_DTM_CSYS
 70
0
 62
7
  6
CONTINUOUS
370
-3
390
F
  0
LAYER
  5
20C
100
AcDbSymbolTableRecord
100
AcDbLayerTableRecord
  2
05__ASM_ALL_DTM_CSYS
 70
0
 62
7
  6
CONTINUOUS
370
-3
390
F
  0
LAYER
  5
20D
100
AcDbSymbolTableRecord
100
AcDbLayerTableRecord
  2
05__ASM_DEF_DTM_CSYS
 70
0
 62
7
  6
CONTINUOUS
370
-3
390
F
  0
LAYER
  5
20E
100
AcDbSymbolTableRecord
100
AcDbLayerTableRecord
  2
05___PRT_ALL_DTM_CSYS
 70
0
 62
7
  6
CONTINUOUS
370
-3
390
F
  0
LAYER
  5
20F
100
AcDbSymbolTableRecord
100
AcDbLayerTableRecord
  2
05___PRT_DEF_DTM_CSYS
 70
0
 62
7
  6
CONTINUOUS
370
-3
390
F
  0
LAYER
  5
210
100
AcDbSymbolTableRecord
100
AcDbLayerTableRecord
  2
06_ALL_SURFS
 70
0
 62
7
  6
CONTINUOUS
370
-3
390
F
  0
LAYER
  5
211
100
AcDbSymbolTableRecord
100
AcDbLayerTableRecord
  2
06__ASM_ALL_SURFS
 70
0
 62
7
  6
CONTINUOUS
370
-3
390
F
  0
LAYER
  5
212
100
AcDbSymbolTableRecord
100
AcDbLayerTableRecord
  2
06___PRT_ALL_SURFS
 70
0
 62
7
  6
CONTINUOUS
370
-3
390
F
  0
LAYER
  5
213
100
AcDbSymbolTableRecord
100
AcDbLayerTableRecord
  2
07__ASM_ALL_SKELETONS
 70
0
 62
7
  6
CONTINUOUS
370
-3
390
F
  0
LAYER
  5
214
100
AcDbSymbolTableRecord
100
AcDbLayerTableRecord
  2
AXIS_1
 70
0
 62
7
  6
CONTINUOUS
370
-3
390
F
  0
LAYER
  5
215
100
AcDbSymbolTableRecord
100
AcDbLayerTableRecord
  2
CLOSED_SHELL
 70
0
 62
7
  6
CONTINUOUS
370
-3
390
F
  0
LAYER
  5
216
100
AcDbSymbolTableRecord
100
AcDbLayerTableRecord
  2
ORIENTED_CLOSED_SHE
 70
0
 62
7
  6
CONTINUOUS
370
-3
390
F
  0
ENDTAB
  0
TABLE
  2
STYLE
  5
3
100
AcDbSymbolTable
 70
1
  0
STYLE
  5
11
100
AcDbSymbolTableRecord
100
AcDbTextStyleTableRecord
  2
STANDARD
 70
0
 40
0.0
 41
0.6
 50
0.0
 71
0
 42
0.2
  3
txt
  4

  0
STYLE
  5
217
100
AcDbSymbolTableRecord
100
AcDbTextStyleTableRecord
  2
TEXTSTYLE_1
 70
0
 40
0.0
 41
0.8
 50
0.0
 71
0
 42
0.2
  3
gdt
  4

  0
ENDTAB
  0
TABLE
  2
VIEW
  5
6
100
AcDbSymbolTable
 70
0
  0
ENDTAB
  0
TABLE
  2
UCS
  5
7
100
AcDbSymbolTable
 70
0
  0
ENDTAB
  0
TABLE
  2
APPID
  5
9
100
AcDbSymbolTable
 70
1
  0
APPID
  5
218
100
AcDbSymbolTableRecord
100
AcDbRegAppTableRecord
  2
ACAD
 70
0
  0
ENDTAB
  0
TABLE
  2
BLOCK_RECORD
  5
1
100
AcDbSymbolTable
 70
0
  0
BLOCK_RECORD
  5
219
100
AcDbSymbolTableRecord
100
AcDbBlockTableRecord
  2
*Model_Space
  0
BLOCK_RECORD
  5
21A
100
AcDbSymbolTableRecord
100
AcDbBlockTableRecord
  2
*Paper_Space
  0
BLOCK_RECORD
  5
21B
100
AcDbSymbolTableRecord
100
AcDbBlockTableRecord
  2
_FILLED
  0
ENDTAB
  0
TABLE
  2
DIMSTYLE
  5
A
100
AcDbSymbolTable
 70
1
100
AcDbDimStyleTable
 71
0
  0
DIMSTYLE
105
21C
100
AcDbSymbolTableRecord
100
AcDbDimStyleTableRecord
  2
STANDARD
 70
0
  3

  4

 40
1.0
 41
3.5
 42
1.0
 43
0.38
 44
3.0
 45
0.0
 46
0.0
 47
0.0001
 48
0.0001
140
4.0
141
0.09
142
0.0
143
25.4
144
1.0
145
0.0
146
1.0
147
0.625
 71
1.0
 72
0.0
 73
0
 74
0
 75
0
 76
0
 77
1
 78
8
 79
2
170
0
171
3
172
0
173
0
174
0
175
0
176
0
177
0
178
0
270
2
179
4
271
4
272
4
273
2
274
2
275
0
280
0
281
0
282
0
283
1
284
8
285
0
286
0
287
3
288
0
340
11
278
46
341
21B
342
21B
343
21B
344
21B
  0
ENDTAB
  0
ENDSEC
  0
SECTION
  2
BLOCKS
  0
BLOCK
  5
20
100
AcDbEntity
  8
0
100
AcDbBlockBegin
  2
*Model_Space
 70
0
 10
0.0
 20
0.0
 30
0.0
  3
*Model_Space
  1

  0
ENDBLK
  5
21
100
AcDbEntity
  8
0
100
AcDbBlockEnd
  0
BLOCK
  5
1C
100
AcDbEntity
  8
0
100
AcDbBlockBegin
  2
*Paper_Space
 70
0
 10
0.0
 20
0.0
 30
0.0
  3
*Paper_Space
  1

  0
ENDBLK
  5
1D
100
AcDbEntity
  8
0
100
AcDbBlockEnd
  0
BLOCK
  5
21D
100
AcDbEntity
  8
0
100
AcDbBlockBegin
  2
_FILLED
 70
64
 10
0.0
 20
0.0
  3
_FILLED
  1

  0
SOLID
  5
21E
100
AcDbEntity
  8
0
  6
BYBLOCK
 62
0
100
AcDbTrace
 10
0.0
 20
0.0
 11
-1.0
 21
0.2857142857
 12
-1.0
 22
-0.2857142857
 13
-1.0
 23
-0.2857142857
  0
ENDBLK
  5
21F
100
AcDbEntity
  8
0
  6
BYBLOCK
 62
0
100
AcDbBlockEnd
  0
ENDSEC
  0
SECTION
  2
ENTITIES
  0
LINE
  5
220
100
AcDbEntity
  8
0
100
AcDbLine
 62
9
  6
CONTINUOUS
 10
243.6068294833
 20
204.819562018
 11
243.611974613
 21
204.8122140113
  0
LINE
  5
221
100
AcDbEntity
  8
0
100
AcDbLine
 62
9
  6
CONTINUOUS
 10
245.1575444102
 20
242.0969470284
 11
245.1382904773
 21
242.0866831372
  0
LINE
  5
222
100
AcDbEntity
  8
0
100
AcDbLine
 62
9
  6
CONTINUOUS
 10
245.1675561707
 20
201.5425987669
 11
245.1868101032
 21
201.5323348752
  0
LINE
  5
223
100
AcDbEntity
  8
0
100
AcDbLine
 62
7
  6
CONTINUOUS
 10
242.8062201314
 20
236.4586504298
 11
242.8062201314
 21
207.1862331228
  0
LINE
  5
224
100
AcDbEntity
  8
0
100
AcDbLine
 62
7
  6
CONTINUOUS
 10
242.8678308207
 20
243.5971659553
 11
242.8678308207
 21
236.7837598709
  0
LINE
  5
225
100
AcDbEntity
  8
0
100
AcDbLine
 62
7
  6
CONTINUOUS
 10
242.8678308207
 20
200.0477175975
 11
242.8678308207
 21
206.8611231367
  0
LINE
  5
226
100
AcDbEntity
  8
0
100
AcDbLine
 62
7
  6
CONTINUOUS
 10
243.5901557818
 20
205.8303569556
 11
243.5901557818
 21
201.931326923
  0
LINE
  5
227
100
AcDbEntity
  8
0
100
AcDbLine
 62
9
  6
CONTINUOUS
 10
243.6068294833
 20
205.8242882249
 11
243.6068294833
 21
204.819562018
  0
LINE
  5
228
100
AcDbEntity
  8
0
100
AcDbLine
 62
7
  6
CONTINUOUS
 10
243.611974613
 20
201.931326923
 11
243.611974613
 21
204.8122140113
  0
LINE
  5
229
100
AcDbEntity
  8
0
100
AcDbLine
 62
7
  6
CONTINUOUS
 10
243.6233204048
 20
204.910531093
 11
243.6233204048
 21
205.8182860197
  0
LINE
  5
22A
100
AcDbEntity
  8
0
100
AcDbLine
 62
7
  6
CONTINUOUS
 10
243.6233204048
 20
237.8265975329
 11
243.6233204048
 21
241.7135566291
  0
LINE
  5
22B
100
AcDbEntity
  8
0
100
AcDbLine
 62
9
  6
CONTINUOUS
 10
246.1429248553
 20
239.9329291432
 11
246.1224213001
 21
239.9254605179
  0
LINE
  5
22C
100
AcDbEntity
  8
0
100
AcDbLine
 62
7
  6
CONTINUOUS
 10
253.6646687864
 20
242.9733211708
 11
248.1204823221
 21
240.9554023249
  0
LINE
  5
22D
100
AcDbEntity
  8
0
100
AcDbLine
 62
7
  6
CONTINUOUS
 10
246.5514208958
 20
239.7464378337
 11
246.8005606672
 21
239.8371172947
  0
LINE
  5
22E
100
AcDbEntity
  8
0
100
AcDbLine
 62
7
  6
CONTINUOUS
 10
248.1204823221
 20
202.6894812278
 11
253.6646687863
 21
200.6715623819
  0
LINE
  5
22F
100
AcDbEntity
  8
0
100
AcDbLine
 62
7
  6
CONTINUOUS
 10
246.8005606598
 20
203.8077662607
 11
246.5826361319
 21
203.8870843003
  0
LINE
  5
230
100
AcDbEntity
  8
0
100
AcDbLine
 62
9
  6
CONTINUOUS
 10
243.6068294833
 20
205.8242882249
 11
243.5901557818
 21
205.8303569556
  0
LINE
  5
231
100
AcDbEntity
  8
0
100
AcDbLine
 62
7
  6
CONTINUOUS
 10
246.1333900043
 20
205.114774292
 11
245.2652247772
 21
205.4307605931
  0
LINE
  5
232
100
AcDbEntity
  8
0
100
AcDbLine
 62
7
  6
CONTINUOUS
 10
243.3927161269
 20
206.1122980057
 11
243.2704368626
 21
206.1568040173
  0
LINE
  5
233
100
AcDbEntity
  8
0
100
AcDbLine
 62
7
  6
CONTINUOUS
 10
243.4641999887
 20
206.2465405027
 11
248.6250483119
 21
204.368145329
  0
LINE
  5
234
100
AcDbEntity
  8
0
100
AcDbLine
 62
9
  6
CONTINUOUS
 10
246.1537072923
 20
203.708385989
 11
246.1740901924
 21
203.7006019753
  0
LINE
  5
235
100
AcDbEntity
  8
0
100
AcDbLine
 62
7
  6
CONTINUOUS
 10
243.2704368628
 20
237.4880795354
 11
243.4258807489
 21
237.5446564821
  0
LINE
  5
236
100
AcDbEntity
  8
0
100
AcDbLine
 62
7
  6
CONTINUOUS
 10
245.2652247772
 20
238.2141229596
 11
246.1333900043
 21
238.5301092606
  0
LINE
  5
237
100
AcDbEntity
  8
0
100
AcDbLine
 62
7
  6
CONTINUOUS
 10
248.6250483119
 20
239.2767382237
 11
243.4641999887
 21
237.39834305
  0
LINE
  5
238
100
AcDbEntity
  8
0
100
AcDbLine
 62
7
  6
CONTINUOUS
 10
275.617636036
 20
199.5839090044
 11
279.0176360359
 21
200.2996984781
  0
LINE
  5
239
100
AcDbEntity
  8
0
100
AcDbLine
 62
7
  6
CONTINUOUS
 10
273.1176360367
 20
199.5839090045
 11
275.617636036
 21
199.5839090045
  0
LINE
  5
23A
100
AcDbEntity
  8
0
100
AcDbLine
 62
7
  6
CONTINUOUS
 10
258.8767758551
 20
200.1727528191
 11
260.572424282
 21
200.364839367
  0
LWPOLYLINE
  5
23B
100
AcDbEntity
  8
0
100
AcDbPolyline
 62
7
  6
CONTINUOUS
 90
3
 70
0
 10
266.3905149197
 20
201.5895356831
 10
267.1132582338
 20
201.651590858
 10
267.9043886765
 20
201.6615914406
  0
LINE
  5
23C
100
AcDbEntity
  8
0
100
AcDbLine
 62
7
  6
CONTINUOUS
 10
265.906220131
 20
201.5728233898
 11
266.3905149111
 21
201.5895356803
  0
LINE
  5
23D
100
AcDbEntity
  8
0
100
AcDbLine
 62
9
  6
CONTINUOUS
 10
243.611974613
 20
201.931326923
 11
243.5901557818
 21
201.931326923
  0
LINE
  5
23E
100
AcDbEntity
  8
0
100
AcDbLine
 62
7
  6
CONTINUOUS
 10
273.117636036
 20
202.0839090045
 11
273.4176360367
 21
202.0839090045
  0
LINE
  5
23F
100
AcDbEntity
  8
0
100
AcDbLine
 62
7
  6
CONTINUOUS
 10
265.7381824707
 20
202.5632307069
 11
265.7561568112
 21
202.5632307069
  0
LINE
  5
240
100
AcDbEntity
  8
0
100
AcDbLine
 62
7
  6
CONTINUOUS
 10
279.0176360364
 20
203.0839090045
 11
279.4176360368
 21
203.0839090045
  0
LINE
  5
241
100
AcDbEntity
  8
0
100
AcDbLine
 62
7
  6
CONTINUOUS
 10
273.4176360367
 20
203.7349103476
 11
269.706220131
 21
202.9823077223
  0
LINE
  5
242
100
AcDbEntity
  8
0
100
AcDbLine
 62
7
  6
CONTINUOUS
 10
265.906220131
 20
202.2117419736
 11
263.0859809967
 21
201.6398525842
  0
LINE
  5
243
100
AcDbEntity
  8
0
100
AcDbLine
 62
7
  6
CONTINUOUS
 10
260.4729007084
 20
201.6104056271
 11
262.9885105992
 21
202.1205221584
  0
LINE
  5
244
100
AcDbEntity
  8
0
100
AcDbLine
 62
7
  6
CONTINUOUS
 10
279.4176360368
 20
205.452027775
 11
280.0528822744
 21
205.5808432994
  0
LINE
  5
245
100
AcDbEntity
  8
0
100
AcDbLine
 62
7
  6
CONTINUOUS
 10
275.7661211047
 20
205.1562958248
 11
277.366047781
 21
205.4807296925
  0
LINE
  5
246
100
AcDbEntity
  8
0
100
AcDbLine
 62
7
  6
CONTINUOUS
 10
277.2715349386
 20
205.9468142566
 11
275.3114286651
 21
205.5493430045
  0
LINE
  5
247
100
AcDbEntity
  8
0
100
AcDbLine
 62
9
  6
CONTINUOUS
 10
256.0461026783
 20
204.8977023352
 11
257.7515877268
 21
204.9704933672
  0
LINE
  5
248
100
AcDbEntity
  8
0
100
AcDbLine
 62
9
  6
CONTINUOUS
 10
279.4176360368
 20
203.3839090052
 11
273.4176360367
 21
203.3839090052
  0
LINE
  5
249
100
AcDbEntity
  8
0
100
AcDbLine
 62
7
  6
CONTINUOUS
 10
256.0293236077
 20
203.5224417756
 11
258.1062201303
 21
203.5224417756
  0
LINE
  5
24A
100
AcDbEntity
  8
0
100
AcDbLine
 62
7
  6
CONTINUOUS
 10
277.0501663755
 20
205.2839090045
 11
277.7137841764
 21
205.2839090045
  0
LINE
  5
24B
100
AcDbEntity
  8
0
100
AcDbLine
 62
7
  6
CONTINUOUS
 10
264.1452742475
 20
205.3224417763
 11
267.618478296
 21
205.3224417763
  0
LINE
  5
24C
100
AcDbEntity
  8
0
100
AcDbLine
 62
7
  6
CONTINUOUS
 10
259.2530045545
 20
206.4060722435
 11
258.1253734094
 21
206.8164964156
  0
LINE
  5
24D
100
AcDbEntity
  8
0
100
AcDbLine
 62
7
  6
CONTINUOUS
 10
258.0597133422
 20
200.1766005376
 11
257.3812421163
 21
203.5224417756
  0
LINE
  5
24E
100
AcDbEntity
  8
0
100
AcDbLine
 62
7
  6
CONTINUOUS
 10
247.6936473628
 20
203.855805333
 11
247.6423443412
 21
203.7148514402
  0
LINE
  5
24F
100
AcDbEntity
  8
0
100
AcDbLine
 62
7
  6
CONTINUOUS
 10
248.6250483119
 20
204.368145329
 11
248.3001291756
 21
203.4754373386
  0
LINE
  5
250
100
AcDbEntity
  8
0
100
AcDbLine
 62
7
  6
CONTINUOUS
 10
277.0338168363
 20
207.1191071902
 11
275.0737105645
 21
206.7216359384
  0
LINE
  5
251
100
AcDbEntity
  8
0
100
AcDbLine
 62
7
  6
CONTINUOUS
 10
275.2880407351
 20
207.2001618248
 11
276.9490787983
 21
207.5369878877
  0
LINE
  5
252
100
AcDbEntity
  8
0
100
AcDbLine
 62
7
  6
CONTINUOUS
 10
259.8729178533
 20
204.5691860471
 11
262.3885277441
 21
205.0793025784
  0
LINE
  5
253
100
AcDbEntity
  8
0
100
AcDbLine
 62
7
  6
CONTINUOUS
 10
279.4176360368
 20
208.5324729944
 11
279.4528994193
 21
208.5396237194
  0
LINE
  5
254
100
AcDbEntity
  8
0
100
AcDbLine
 62
7
  6
CONTINUOUS
 10
273.4176360367
 20
207.8162248995
 11
269.7062201312
 21
207.0636222743
  0
LINE
  5
255
100
AcDbEntity
  8
0
100
AcDbLine
 62
7
  6
CONTINUOUS
 10
263.8281805465
 20
205.8716707024
 11
262.2910573466
 21
205.5599721525
  0
LINE
  5
256
100
AcDbEntity
  8
0
100
AcDbLine
 62
9
  6
CONTINUOUS
 10
258.8050258814
 20
205.1752609543
 11
257.7515877268
 21
204.9704933671
  0
LINE
  5
257
100
AcDbEntity
  8
0
100
AcDbLine
 62
7
  6
CONTINUOUS
 10
259.4090428225
 20
206.8347838611
 11
258.1253734103
 21
206.8164964146
  0
LINE
  5
258
100
AcDbEntity
  8
0
100
AcDbLine
 62
7
  6
CONTINUOUS
 10
268.8230214455
 20
205.8224417763
 11
264.9650658578
 21
205.8224417763
  0
LINE
  5
259
100
AcDbEntity
  8
0
100
AcDbLine
 62
9
  6
CONTINUOUS
 10
243.6068294834
 20
205.8242882242
 11
243.6232603485
 21
205.8242882242
  0
LINE
  5
25A
100
AcDbEntity
  8
0
100
AcDbLine
 62
7
  6
CONTINUOUS
 10
276.2236763585
 20
207.4839090045
 11
275.551610633
 21
207.4839090045
  0
LINE
  5
25B
100
AcDbEntity
  8
0
100
AcDbLine
 62
7
  6
CONTINUOUS
 10
286.306220131
 20
207.7724417763
 11
293.3160451773
 21
207.7724417763
  0
LINE
  5
25C
100
AcDbEntity
  8
0
100
AcDbLine
 62
7
  6
CONTINUOUS
 10
263.4062201303
 20
206.6025362651
 11
265.7381840649
 21
202.5632279456
  0
LINE
  5
25D
100
AcDbEntity
  8
0
100
AcDbLine
 62
7
  6
CONTINUOUS
 10
247.6423443412
 20
239.9300321125
 11
247.6936473628
 21
239.7890782196
  0
LINE
  5
25E
100
AcDbEntity
  8
0
100
AcDbLine
 62
7
  6
CONTINUOUS
 10
248.3001291756
 20
240.1694462141
 11
248.6250483119
 21
239.2767382237
  0
LINE
  5
25F
100
AcDbEntity
  8
0
100
AcDbLine
 62
7
  6
CONTINUOUS
 10
258.8767706707
 20
200.1727783859
 11
258.8650883175
 21
200.2303892285
  0
LINE
  5
260
100
AcDbEntity
  8
0
100
AcDbLine
 62
7
  6
CONTINUOUS
 10
259.6468758479
 20
204.9291274314
 11
260.5724046458
 21
200.3649362021
  0
LINE
  5
261
100
AcDbEntity
  8
0
100
AcDbLine
 62
9
  6
CONTINUOUS
 10
260.4729007084
 20
201.6104056271
 11
259.8729178533
 21
204.5691860471
  0
LINE
  5
262
100
AcDbEntity
  8
0
100
AcDbLine
 62
9
  6
CONTINUOUS
 10
257.7515876467
 20
204.9704933281
 11
257.5607786468
 21
205.9521205349
  0
LINE
  5
263
100
AcDbEntity
  8
0
100
AcDbLine
 62
7
  6
CONTINUOUS
 10
256.3524923722
 20
205.7172534745
 11
256.3820338959
 21
205.722995765
  0
LINE
  5
264
100
AcDbEntity
  8
0
100
AcDbLine
 62
7
  6
CONTINUOUS
 10
257.0267410356
 20
205.8483141395
 11
257.895239092
 21
206.0171330595
  0
LINE
  5
265
100
AcDbEntity
  8
0
100
AcDbLine
 62
7
  6
CONTINUOUS
 10
269.056220131
 20
208.0474417763
 11
268.8230214455
 21
208.0474417763
  0
LINE
  5
266
100
AcDbEntity
  8
0
100
AcDbLine
 62
7
  6
CONTINUOUS
 10
269.1601352021
 20
208.3541959392
 11
269.6300902237
 21
208.3541959392
  0
LINE
  5
267
100
AcDbEntity
  8
0
100
AcDbLine
 62
7
  6
CONTINUOUS
 10
286.306220131
 20
208.4474417763
 11
285.056220131
 21
208.4474417763
  0
LINE
  5
268
100
AcDbEntity
  8
0
100
AcDbLine
 62
9
  6
CONTINUOUS
 10
273.4176360367
 20
209.3839090052
 11
279.4176360368
 21
209.3839090052
  0
LINE
  5
269
100
AcDbEntity
  8
0
100
AcDbLine
 62
7
  6
CONTINUOUS
 10
293.806220131
 20
209.7724417763
 11
298.5062201306
 21
209.7724417763
  0
LINE
  5
26A
100
AcDbEntity
  8
0
100
AcDbLine
 62
7
  6
CONTINUOUS
 10
273.4176360367
 20
209.8839090045
 11
279.4176360368
 21
209.8839090045
  0
LINE
  5
26B
100
AcDbEntity
  8
0
100
AcDbLine
 62
7
  6
CONTINUOUS
 10
262.8344994857
 20
210.0224417763
 11
263.406220131
 21
210.0224417763
  0
LINE
  5
26C
100
AcDbEntity
  8
0
100
AcDbLine
 62
7
  6
CONTINUOUS
 10
269.706220131
 20
208.2713967384
 11
269.6442991615
 21
208.2736130449
  0
LINE
  5
26D
100
AcDbEntity
  8
0
100
AcDbLine
 62
7
  6
CONTINUOUS
 10
269.2062201316
 20
209.4224417759
 11
269.0165993874
 21
209.5009852603
  0
LINE
  5
26E
100
AcDbEntity
  8
0
100
AcDbLine
 62
7
  6
CONTINUOUS
 10
263.406220131
 20
208.5224417764
 11
264.9650658579
 21
205.8224417763
  0
LINE
  5
26F
100
AcDbEntity
  8
0
100
AcDbLine
 62
7
  6
CONTINUOUS
 10
267.8979081166
 20
232.9661321364
 11
269.8525747758
 21
235.0648431576
  0
LINE
  5
270
100
AcDbEntity
  8
0
100
AcDbLine
 62
7
  6
CONTINUOUS
 10
271.2062315104
 20
210.6224417763
 11
273.4176360367
 21
210.6224417763
  0
LINE
  5
271
100
AcDbEntity
  8
0
100
AcDbLine
 62
7
  6
CONTINUOUS
 10
273.2062201307
 20
210.9901998692
 11
271.2062201317
 21
210.9901998692
  0
LINE
  5
272
100
AcDbEntity
  8
0
100
AcDbLine
 62
7
  6
CONTINUOUS
 10
285.056220131
 20
211.1474417763
 11
282.106220131
 21
211.1474417763
  0
LINE
  5
273
100
AcDbEntity
  8
0
100
AcDbLine
 62
7
  6
CONTINUOUS
 10
273.2062201317
 20
211.2951367405
 11
269.6169140752
 21
211.2951367405
  0
LINE
  5
274
100
AcDbEntity
  8
0
100
AcDbLine
 62
7
  6
CONTINUOUS
 10
280.506220131
 20
211.5224417763
 11
282.106220131
 21
211.5224417763
  0
LINE
  5
275
100
AcDbEntity
  8
0
100
AcDbLine
 62
7
  6
CONTINUOUS
 10
279.4176360368
 20
211.9224417763
 11
280.506220131
 21
211.9224417763
  0
LINE
  5
276
100
AcDbEntity
  8
0
100
AcDbLine
 62
7
  6
CONTINUOUS
 10
263.0859809967
 20
201.6398525837
 11
262.2910573465
 21
205.5599721531
  0
LINE
  5
277
100
AcDbEntity
  8
0
100
AcDbLine
 62
7
  6
CONTINUOUS
 10
262.6062201303
 20
209.9393548864
 11
262.6062201303
 21
214.1658238071
  0
LINE
  5
278
100
AcDbEntity
  8
0
100
AcDbLine
 62
7
  6
CONTINUOUS
 10
263.406220131
 20
206.6024653985
 11
263.406220131
 21
214.329037899
  0
LINE
  5
279
100
AcDbEntity
  8
0
100
AcDbLine
 62
7
  6
CONTINUOUS
 10
260.406220131
 20
205.6224417771
 11
260.9116489984
 21
209.3225814337
  0
LINE
  5
27A
100
AcDbEntity
  8
0
100
AcDbLine
 62
7
  6
CONTINUOUS
 10
254.690038996
 20
201.1497003646
 11
256.4378542513
 21
205.9517833098
  0
LINE
  5
27B
100
AcDbEntity
  8
0
100
AcDbLine
 62
7
  6
CONTINUOUS
 10
276.6190596783
 20
245.3573713499
 11
273.5984041168
 21
241.0421491179
  0
LINE
  5
27C
100
AcDbEntity
  8
0
100
AcDbLine
 62
7
  6
CONTINUOUS
 10
271.6807280079
 20
235.8580831387
 11
268.3282920075
 21
232.7224417763
  0
LINE
  5
27D
100
AcDbEntity
  8
0
100
AcDbLine
 62
9
  6
CONTINUOUS
 10
279.4176360368
 20
213.6839090053
 11
273.4176360367
 21
213.6839090053
  0
LINE
  5
27E
100
AcDbEntity
  8
0
100
AcDbLine
 62
7
  6
CONTINUOUS
 10
270.529457575
 20
214.0224417763
 11
273.4176360367
 21
214.0224417763
  0
LINE
  5
27F
100
AcDbEntity
  8
0
100
AcDbLine
 62
7
  6
CONTINUOUS
 10
279.4176360368
 20
215.2224417763
 11
281.706220131
 21
215.2224417763
  0
LINE
  5
280
100
AcDbEntity
  8
0
100
AcDbLine
 62
7
  6
CONTINUOUS
 10
255.6277697558
 20
238.1645064619
 11
254.1262234249
 21
242.2899711029
  0
LINE
  5
281
100
AcDbEntity
  8
0
100
AcDbLine
 62
7
  6
CONTINUOUS
 10
255.5450893553
 20
240.145951637
 11
254.6900389963
 21
242.4951831875
  0
LINE
  5
282
100
AcDbEntity
  8
0
100
AcDbLine
 62
7
  6
CONTINUOUS
 10
264.006220131
 20
234.1224417763
 11
264.006220131
 21
237.8224417763
  0
LINE
  5
283
100
AcDbEntity
  8
0
100
AcDbLine
 62
7
  6
CONTINUOUS
 10
264.806220131
 20
237.422441777
 11
264.806220131
 21
237.2724417767
  0
LINE
  5
284
100
AcDbEntity
  8
0
100
AcDbLine
 62
7
  6
CONTINUOUS
 10
264.806220131
 20
234.7224417759
 11
264.806220131
 21
234.1224417763
  0
LINE
  5
285
100
AcDbEntity
  8
0
100
AcDbLine
 62
7
  6
CONTINUOUS
 10
265.1062201307
 20
237.422441777
 11
265.1062201309
 21
237.2724417763
  0
LINE
  5
286
100
AcDbEntity
  8
0
100
AcDbLine
 62
7
  6
CONTINUOUS
 10
265.106220131
 20
234.7224417763
 11
265.106220131
 21
234.6224417763
  0
LINE
  5
287
100
AcDbEntity
  8
0
100
AcDbLine
 62
9
  6
CONTINUOUS
 10
265.106220131
 20
234.7224417763
 11
265.1062201309
 21
237.2724417763
  0
LINE
  5
288
100
AcDbEntity
  8
0
100
AcDbLine
 62
7
  6
CONTINUOUS
 10
265.906220131
 20
225.6224417763
 11
265.906220131
 21
218.0224417763
  0
LINE
  5
289
100
AcDbEntity
  8
0
100
AcDbLine
 62
7
  6
CONTINUOUS
 10
265.906220131
 20
201.5724483611
 11
265.906220131
 21
202.5055996306
  0
LINE
  5
28A
100
AcDbEntity
  8
0
100
AcDbLine
 62
7
  6
CONTINUOUS
 10
257.8297991552
 20
206.0044128253
 11
258.1253734086
 21
206.8164964142
  0
LINE
  5
28B
100
AcDbEntity
  8
0
100
AcDbLine
 62
9
  6
CONTINUOUS
 10
257.3853887468
 20
203.9643699385
 11
257.7515877268
 21
204.9704933671
  0
LINE
  5
28C
100
AcDbEntity
  8
0
100
AcDbLine
 62
7
  6
CONTINUOUS
 10
258.6670213163
 20
204.7960965281
 11
260.2233443948
 21
209.0720590462
  0
LINE
  5
28D
100
AcDbEntity
  8
0
100
AcDbLine
 62
7
  6
CONTINUOUS
 10
286.306220131
 20
216.9706475406
 11
285.056220131
 21
216.9706475406
  0
LINE
  5
28E
100
AcDbEntity
  8
0
100
AcDbLine
 62
7
  6
CONTINUOUS
 10
266.406220131
 20
217.1224417764
 11
266.406220131
 21
218.7224417763
  0
LINE
  5
28F
100
AcDbEntity
  8
0
100
AcDbLine
 62
7
  6
CONTINUOUS
 10
266.406220131
 20
224.9224417763
 11
266.406220131
 21
234.6224417763
  0
LINE
  5
290
100
AcDbEntity
  8
0
100
AcDbLine
 62
7
  6
CONTINUOUS
 10
266.406220131
 20
237.422441777
 11
266.406220131
 21
240.5224417763
  0
LINE
  5
291
100
AcDbEntity
  8
0
100
AcDbLine
 62
7
  6
CONTINUOUS
 10
267.306220131
 20
223.8224417763
 11
267.306220131
 21
223.792484303
  0
LINE
  5
292
100
AcDbEntity
  8
0
100
AcDbLine
 62
7
  6
CONTINUOUS
 10
267.306220131
 20
219.8523992497
 11
267.306220131
 21
219.8224417763
  0
LINE
  5
293
100
AcDbEntity
  8
0
100
AcDbLine
 62
7
  6
CONTINUOUS
 10
267.4062201317
 20
219.8700319478
 11
267.4062201317
 21
218.4364417771
  0
LINE
  5
294
100
AcDbEntity
  8
0
100
AcDbLine
 62
7
  6
CONTINUOUS
 10
267.406220131
 20
223.774851605
 11
267.406220131
 21
225.3759983418
  0
LINE
  5
295
100
AcDbEntity
  8
0
100
AcDbLine
 62
7
  6
CONTINUOUS
 10
267.406220131
 20
232.2224417756
 11
267.406220131
 21
232.5224417763
  0
LINE
  5
296
100
AcDbEntity
  8
0
100
AcDbLine
 62
7
  6
CONTINUOUS
 10
267.406220131
 20
238.572441777
 11
267.406220131
 21
240.5224417763
  0
LINE
  5
297
100
AcDbEntity
  8
0
100
AcDbLine
 62
7
  6
CONTINUOUS
 10
267.606220131
 20
224.6907745889
 11
267.606220131
 21
225.1558607309
  0
LINE
  5
298
100
AcDbEntity
  8
0
100
AcDbLine
 62
7
  6
CONTINUOUS
 10
267.906220131
 20
224.2724417763
 11
267.906220131
 21
218.5191437154
  0
LINE
  5
299
100
AcDbEntity
  8
0
100
AcDbLine
 62
7
  6
CONTINUOUS
 10
266.406220131
 20
217.8224417763
 11
266.8280456369
 21
217.8224417763
  0
LINE
  5
29A
100
AcDbEntity
  8
0
100
AcDbLine
 62
7
  6
CONTINUOUS
 10
265.906220131
 20
218.0224417763
 11
266.406220131
 21
218.0224417763
  0
LINE
  5
29B
100
AcDbEntity
  8
0
100
AcDbLine
 62
7
  6
CONTINUOUS
 10
266.406220131
 20
218.7224417767
 11
267.4062201317
 21
218.7224417767
  0
LINE
  5
29C
100
AcDbEntity
  8
0
100
AcDbLine
 62
7
  6
CONTINUOUS
 10
281.706220131
 20
218.8224417763
 11
279.4176360368
 21
218.8224417763
  0
LINE
  5
29D
100
AcDbEntity
  8
0
100
AcDbLine
 62
7
  6
CONTINUOUS
 10
267.306220131
 20
219.8224417763
 11
265.906220131
 21
219.8224417763
  0
LINE
  5
29E
100
AcDbEntity
  8
0
100
AcDbLine
 62
7
  6
CONTINUOUS
 10
280.6070171828
 20
207.2334336409
 11
279.4528994193
 21
208.5396237194
  0
LINE
  5
29F
100
AcDbEntity
  8
0
100
AcDbLine
 62
7
  6
CONTINUOUS
 10
269.7062201314
 20
207.9224417765
 11
269.5770780205
 21
208.65484308
  0
LINE
  5
2A0
100
AcDbEntity
  8
0
100
AcDbLine
 62
7
  6
CONTINUOUS
 10
268.8230214455
 20
208.9224417763
 11
268.8230214455
 21
205.8224417767
  0
LINE
  5
2A1
100
AcDbEntity
  8
0
100
AcDbLine
 62
7
  6
CONTINUOUS
 10
269.056220131
 20
209.2724417753
 11
269.056220131
 21
208.0474800879
  0
LINE
  5
2A2
100
AcDbEntity
  8
0
100
AcDbLine
 62
7
  6
CONTINUOUS
 10
269.2062201317
 20
209.4224417758
 11
269.2062201317
 21
210.0677019274
  0
LINE
  5
2A3
100
AcDbEntity
  8
0
100
AcDbLine
 62
7
  6
CONTINUOUS
 10
269.706220131
 20
205.0182035098
 11
269.706220131
 21
202.3724417765
  0
LINE
  5
2A4
100
AcDbEntity
  8
0
100
AcDbLine
 62
7
  6
CONTINUOUS
 10
269.7062201314
 20
205.0224100605
 11
269.706220131
 21
208.2732986362
  0
LINE
  5
2A5
100
AcDbEntity
  8
0
100
AcDbLine
 62
7
  6
CONTINUOUS
 10
269.906220131
 20
236.3069717227
 11
269.906220131
 21
235.2011527982
  0
LINE
  5
2A6
100
AcDbEntity
  8
0
100
AcDbLine
 62
7
  6
CONTINUOUS
 10
271.206220131
 20
210.9901998692
 11
271.206220131
 21
210.6224309399
  0
LINE
  5
2A7
100
AcDbEntity
  8
0
100
AcDbLine
 62
7
  6
CONTINUOUS
 10
267.906220131
 20
218.9364417764
 11
266.9920065686
 21
218.0222282139
  0
LINE
  5
2A8
100
AcDbEntity
  8
0
100
AcDbLine
 62
7
  6
CONTINUOUS
 10
267.306220131
 20
219.8523992497
 11
267.906220131
 21
219.9581954381
  0
LINE
  5
2A9
100
AcDbEntity
  8
0
100
AcDbLine
 62
7
  6
CONTINUOUS
 10
267.606104688
 20
232.7224417763
 11
267.2562201311
 21
234.5224417763
  0
LINE
  5
2AA
100
AcDbEntity
  8
0
100
AcDbLine
 62
7
  6
CONTINUOUS
 10
267.2063299186
 20
234.8606035762
 11
267.5574605572
 21
233.0541930421
  0
LINE
  5
2AB
100
AcDbEntity
  8
0
100
AcDbLine
 62
7
  6
CONTINUOUS
 10
271.306220131
 20
238.5724417763
 11
271.306220131
 21
245.0224417763
  0
LINE
  5
2AC
100
AcDbEntity
  8
0
100
AcDbLine
 62
7
  6
CONTINUOUS
 10
271.6807280079
 20
235.8580831386
 11
271.6807280079
 21
238.5724417757
  0
LINE
  5
2AD
100
AcDbEntity
  8
0
100
AcDbLine
 62
7
  6
CONTINUOUS
 10
272.806220131
 20
238.572441777
 11
272.806220131
 21
245.0224417763
  0
LINE
  5
2AE
100
AcDbEntity
  8
0
100
AcDbLine
 62
7
  6
CONTINUOUS
 10
273.1176360367
 20
202.0839090045
 11
273.1176360367
 21
199.5839090045
  0
LINE
  5
2AF
100
AcDbEntity
  8
0
100
AcDbLine
 62
7
  6
CONTINUOUS
 10
273.206220131
 20
238.572441777
 11
273.206220131
 21
222.0224417755
  0
LINE
  5
2B0
100
AcDbEntity
  8
0
100
AcDbLine
 62
7
  6
CONTINUOUS
 10
273.206220131
 20
210.9901998637
 11
273.206220131
 21
211.2951367419
  0
LINE
  5
2B1
100
AcDbEntity
  8
0
100
AcDbLine
 62
7
  6
CONTINUOUS
 10
273.4176360367
 20
199.5839090038
 11
273.4176360367
 21
240.4686867732
  0
LINE
  5
2B2
100
AcDbEntity
  8
0
100
AcDbLine
 62
7
  6
CONTINUOUS
 10
266.6443380925
 20
202.4110436006
 11
267.7857759555
 21
205.8224417763
  0
LINE
  5
2B3
100
AcDbEntity
  8
0
100
AcDbLine
 62
7
  6
CONTINUOUS
 10
268.8230214455
 20
208.9224417762
 11
273.206220131
 21
222.0224417762
  0
LINE
  5
2B4
100
AcDbEntity
  8
0
100
AcDbLine
 62
7
  6
CONTINUOUS
 10
262.9905586561
 20
214.9538345605
 11
266.406220131
 21
217.6224417771
  0
LINE
  5
2B5
100
AcDbEntity
  8
0
100
AcDbLine
 62
7
  6
CONTINUOUS
 10
267.7104359033
 20
218.1223405351
 11
263.7977885876
 21
215.1226442597
  0
LINE
  5
2B6
100
AcDbEntity
  8
0
100
AcDbLine
 62
7
  6
CONTINUOUS
 10
267.306220131
 20
223.8224417763
 11
265.906220131
 21
223.8224417763
  0
LINE
  5
2B7
100
AcDbEntity
  8
0
100
AcDbLine
 62
7
  6
CONTINUOUS
 10
267.606220131
 20
224.6907745889
 11
267.8400458078
 21
224.6907745889
  0
LINE
  5
2B8
100
AcDbEntity
  8
0
100
AcDbLine
 62
7
  6
CONTINUOUS
 10
267.406220131
 20
224.922441776
 11
266.406220131
 21
224.922441776
  0
LINE
  5
2B9
100
AcDbEntity
  8
0
100
AcDbLine
 62
7
  6
CONTINUOUS
 10
267.906220131
 20
223.6866881146
 11
267.306220131
 21
223.792484303
  0
LINE
  5
2BA
100
AcDbEntity
  8
0
100
AcDbLine
 62
7
  6
CONTINUOUS
 10
257.9681165756
 20
237.8224417763
 11
255.5450893553
 21
240.145951637
  0
LINE
  5
2BB
100
AcDbEntity
  8
0
100
AcDbLine
 62
7
  6
CONTINUOUS
 10
275.3140635889
 20
205.5363490314
 11
275.0693299668
 21
206.7432385999
  0
LINE
  5
2BC
100
AcDbEntity
  8
0
100
AcDbLine
 62
9
  6
CONTINUOUS
 10
269.1601352021
 20
208.3541959392
 11
268.8230214455
 21
207.3466710166
  0
LINE
  5
2BD
100
AcDbEntity
  8
0
100
AcDbLine
 62
9
  6
CONTINUOUS
 10
268.313020518
 20
205.8224417763
 11
268.045567342
 21
205.0231099923
  0
LINE
  5
2BE
100
AcDbEntity
  8
0
100
AcDbLine
 62
7
  6
CONTINUOUS
 10
269.5770780207
 20
208.65484308
 11
269.7062148869
 21
209.04079249
  0
LINE
  5
2BF
100
AcDbEntity
  8
0
100
AcDbLine
 62
7
  6
CONTINUOUS
 10
265.906220131
 20
225.6224417771
 11
266.406220131
 21
225.6224417771
  0
LINE
  5
2C0
100
AcDbEntity
  8
0
100
AcDbLine
 62
7
  6
CONTINUOUS
 10
285.056220131
 20
227.0742360121
 11
286.306220131
 21
227.0742360121
  0
LINE
  5
2C1
100
AcDbEntity
  8
0
100
AcDbLine
 62
9
  6
CONTINUOUS
 10
276.949078798
 20
207.5369878876
 11
277.033816838
 21
207.1191071905
  0
LINE
  5
2C2
100
AcDbEntity
  8
0
100
AcDbLine
 62
9
  6
CONTINUOUS
 10
277.2715349386
 20
205.9468142566
 11
277.366047781
 21
205.4807296925
  0
LINE
  5
2C3
100
AcDbEntity
  8
0
100
AcDbLine
 62
7
  6
CONTINUOUS
 10
277.8688179954
 20
205.5172529595
 11
277.4164839069
 21
207.7479121074
  0
LINE
  5
2C4
100
AcDbEntity
  8
0
100
AcDbLine
 62
7
  6
CONTINUOUS
 10
258.1062201303
 20
203.5224417756
 11
260.406220131
 21
205.6224417771
  0
LINE
  5
2C5
100
AcDbEntity
  8
0
100
AcDbLine
 62
7
  6
CONTINUOUS
 10
281.706220131
 20
229.8486767983
 11
279.4176360368
 21
229.8486767983
  0
LINE
  5
2C6
100
AcDbEntity
  8
0
100
AcDbLine
 62
7
  6
CONTINUOUS
 10
266.6537288159
 20
232.2224417763
 11
266.406220131
 21
232.3224417763
  0
LINE
  5
2C7
100
AcDbEntity
  8
0
100
AcDbLine
 62
7
  6
CONTINUOUS
 10
279.4528994193
 20
208.5396237194
 11
280.0528822748
 21
205.5808432995
  0
LINE
  5
2C8
100
AcDbEntity
  8
0
100
AcDbLine
 62
7
  6
CONTINUOUS
 10
279.0176360368
 20
203.0839090045
 11
279.0176360368
 21
200.299698478
  0
LINE
  5
2C9
100
AcDbEntity
  8
0
100
AcDbLine
 62
7
  6
CONTINUOUS
 10
279.4176360368
 20
245.2839090049
 11
279.4176360368
 21
203.0839090038
  0
LINE
  5
2CA
100
AcDbEntity
  8
0
100
AcDbLine
 62
7
  6
CONTINUOUS
 10
280.506220131
 20
211.5224453039
 11
280.506220131
 21
211.9224417763
  0
LINE
  5
2CB
100
AcDbEntity
  8
0
100
AcDbLine
 62
7
  6
CONTINUOUS
 10
280.506220131
 20
232.1224417763
 11
280.506220131
 21
232.3302058403
  0
LINE
  5
2CC
100
AcDbEntity
  8
0
100
AcDbLine
 62
7
  6
CONTINUOUS
 10
269.7062485245
 20
209.040781235
 11
271.2062315571
 21
210.6224309398
  0
LINE
  5
2CD
100
AcDbEntity
  8
0
100
AcDbLine
 62
7
  6
CONTINUOUS
 10
268.8817543851
 20
209.0979760294
 11
269.2062201316
 21
209.4224417759
  0
LINE
  5
2CE
100
AcDbEntity
  8
0
100
AcDbLine
 62
7
  6
CONTINUOUS
 10
259.2412905454
 20
208.7146206769
 11
263.406220131
 21
210.2305310736
  0
LINE
  5
2CF
100
AcDbEntity
  8
0
100
AcDbLine
 62
7
  6
CONTINUOUS
 10
279.4176360368
 20
230.5077231506
 11
281.706220131
 21
230.5077231506
  0
LINE
  5
2D0
100
AcDbEntity
  8
0
100
AcDbLine
 62
7
  6
CONTINUOUS
 10
281.7062201303
 20
232.1224417763
 11
279.4176360368
 21
232.1224417763
  0
LINE
  5
2D1
100
AcDbEntity
  8
0
100
AcDbLine
 62
7
  6
CONTINUOUS
 10
266.406220131
 20
232.2224417763
 11
267.406220131
 21
232.2224417763
  0
LINE
  5
2D2
100
AcDbEntity
  8
0
100
AcDbLine
 62
7
  6
CONTINUOUS
 10
264.0062201308
 20
234.1224417763
 11
259.2350900941
 21
235.4008622167
  0
LINE
  5
2D3
100
AcDbEntity
  8
0
100
AcDbLine
 62
9
  6
CONTINUOUS
 10
259.4363450764
 20
235.6575189602
 11
264.006220131
 21
234.4330246309
  0
LINE
  5
2D4
100
AcDbEntity
  8
0
100
AcDbLine
 62
7
  6
CONTINUOUS
 10
281.706220131
 20
218.8224417763
 11
281.706220131
 21
215.2224417763
  0
LINE
  5
2D5
100
AcDbEntity
  8
0
100
AcDbLine
 62
7
  6
CONTINUOUS
 10
281.706220131
 20
229.8486767983
 11
281.706220131
 21
232.1224417763
  0
LINE
  5
2D6
100
AcDbEntity
  8
0
100
AcDbLine
 62
7
  6
CONTINUOUS
 10
282.106220131
 20
211.1474417763
 11
282.106220131
 21
232.8974417763
  0
LINE
  5
2D7
100
AcDbEntity
  8
0
100
AcDbLine
 62
7
  6
CONTINUOUS
 10
267.406220131
 20
232.5224417763
 11
266.406220131
 21
232.5224417763
  0
LINE
  5
2D8
100
AcDbEntity
  8
0
100
AcDbLine
 62
7
  6
CONTINUOUS
 10
279.4176360368
 20
232.5224417763
 11
282.106220131
 21
232.5224417763
  0
LINE
  5
2D9
100
AcDbEntity
  8
0
100
AcDbLine
 62
7
  6
CONTINUOUS
 10
267.6061046879
 20
232.7224417763
 11
268.3282920075
 21
232.7224417763
  0
LINE
  5
2DA
100
AcDbEntity
  8
0
100
AcDbLine
 62
7
  6
CONTINUOUS
 10
285.056220131
 20
232.8974417763
 11
282.106220131
 21
232.8974417763
  0
LINE
  5
2DB
100
AcDbEntity
  8
0
100
AcDbLine
 62
7
  6
CONTINUOUS
 10
266.406220131
 20
234.1224417763
 11
264.0062201308
 21
234.1224417763
  0
LINE
  5
2DC
100
AcDbEntity
  8
0
100
AcDbLine
 62
7
  6
CONTINUOUS
 10
293.806220131
 20
234.2724417763
 11
298.5062201306
 21
234.2724417763
  0
LINE
  5
2DD
100
AcDbEntity
  8
0
100
AcDbLine
 62
7
  6
CONTINUOUS
 10
267.2562201311
 20
234.5224417763
 11
266.406220131
 21
234.5224417763
  0
LINE
  5
2DE
100
AcDbEntity
  8
0
100
AcDbLine
 62
7
  6
CONTINUOUS
 10
266.3836007603
 20
234.6224417763
 11
265.106220131
 21
234.6224417763
  0
LINE
  5
2DF
100
AcDbEntity
  8
0
100
AcDbLine
 62
7
  6
CONTINUOUS
 10
265.106220131
 20
234.7224417763
 11
264.006220131
 21
234.7224417763
  0
LINE
  5
2E0
100
AcDbEntity
  8
0
100
AcDbLine
 62
7
  6
CONTINUOUS
 10
264.806220131
 20
234.2032470042
 11
266.0763299543
 21
234.1224417763
  0
LINE
  5
2E1
100
AcDbEntity
  8
0
100
AcDbLine
 62
7
  6
CONTINUOUS
 10
269.8062201317
 20
236.4801768031
 11
268.2205794854
 21
237.3956468573
  0
LINE
  5
2E2
100
AcDbEntity
  8
0
100
AcDbLine
 62
7
  6
CONTINUOUS
 10
285.056220131
 20
208.4474417763
 11
285.056220131
 21
235.5974417763
  0
LINE
  5
2E3
100
AcDbEntity
  8
0
100
AcDbLine
 62
7
  6
CONTINUOUS
 10
280.6070171828
 20
207.2334336409
 11
280.0528822745
 21
205.5808432996
  0
LINE
  5
2E4
100
AcDbEntity
  8
0
100
AcDbLine
 62
7
  6
CONTINUOUS
 10
267.010004482
 20
235.0224417763
 11
266.7836007302
 21
235.0224417763
  0
LINE
  5
2E5
100
AcDbEntity
  8
0
100
AcDbLine
 62
7
  6
CONTINUOUS
 10
286.306220131
 20
235.5974417763
 11
285.056220131
 21
235.5974417763
  0
LINE
  5
2E6
100
AcDbEntity
  8
0
100
AcDbLine
 62
7
  6
CONTINUOUS
 10
286.306220131
 20
236.2724417763
 11
293.3160451773
 21
236.2724417763
  0
LINE
  5
2E7
100
AcDbEntity
  8
0
100
AcDbLine
 62
7
  6
CONTINUOUS
 10
264.006220131
 20
237.2724417763
 11
265.106220131
 21
237.2724417763
  0
LINE
  5
2E8
100
AcDbEntity
  8
0
100
AcDbLine
 62
7
  6
CONTINUOUS
 10
286.306220131
 20
207.7725721157
 11
286.306220131
 21
236.272311437
  0
LINE
  5
2E9
100
AcDbEntity
  8
0
100
AcDbLine
 62
7
  6
CONTINUOUS
 10
276.2236763575
 20
207.4839090049
 11
277.259394722
 21
207.8608796592
  0
LINE
  5
2EA
100
AcDbEntity
  8
0
100
AcDbLine
 62
7
  6
CONTINUOUS
 10
268.1205794857
 20
237.422441777
 11
265.1062201307
 21
237.422441777
  0
LINE
  5
2EB
100
AcDbEntity
  8
0
100
AcDbLine
 62
7
  6
CONTINUOUS
 10
264.006220131
 20
237.4224417763
 11
264.806220131
 21
237.4224417763
  0
LINE
  5
2EC
100
AcDbEntity
  8
0
100
AcDbLine
 62
7
  6
CONTINUOUS
 10
264.006220131
 20
237.8224417763
 11
256.6418960539
 21
237.8224417763
  0
LINE
  5
2ED
100
AcDbEntity
  8
0
100
AcDbLine
 62
7
  6
CONTINUOUS
 10
266.406220131
 20
238.5724417763
 11
273.4176360367
 21
238.5724417763
  0
LINE
  5
2EE
100
AcDbEntity
  8
0
100
AcDbLine
 62
9
  6
CONTINUOUS
 10
273.4176360367
 20
239.072441777
 11
272.806220131
 21
239.072441777
  0
LINE
  5
2EF
100
AcDbEntity
  8
0
100
AcDbLine
 62
9
  6
CONTINUOUS
 10
271.306220131
 20
239.072441777
 11
267.406220131
 21
239.072441777
  0
LINE
  5
2F0
100
AcDbEntity
  8
0
100
AcDbLine
 62
7
  6
CONTINUOUS
 10
271.306220131
 20
239.3224417763
 11
272.806220131
 21
239.3224417763
  0
LINE
  5
2F1
100
AcDbEntity
  8
0
100
AcDbLine
 62
7
  6
CONTINUOUS
 10
269.7062201315
 20
202.3724417766
 11
267.9045350334
 21
201.6616491807
  0
LINE
  5
2F2
100
AcDbEntity
  8
0
100
AcDbLine
 62
7
  6
CONTINUOUS
 10
277.0501663759
 20
205.2839090038
 11
276.25270756
 21
204.9936577334
  0
LINE
  5
2F3
100
AcDbEntity
  8
0
100
AcDbLine
 62
9
  6
CONTINUOUS
 10
267.406220131
 20
240.0224417763
 11
271.306220131
 21
240.0224417763
  0
LINE
  5
2F4
100
AcDbEntity
  8
0
100
AcDbLine
 62
9
  6
CONTINUOUS
 10
272.806220131
 20
240.0224417763
 11
273.4176360367
 21
240.0224417763
  0
LINE
  5
2F5
100
AcDbEntity
  8
0
100
AcDbLine
 62
7
  6
CONTINUOUS
 10
273.4176360367
 20
240.5224417763
 11
272.806220131
 21
240.5224417763
  0
LINE
  5
2F6
100
AcDbEntity
  8
0
100
AcDbLine
 62
7
  6
CONTINUOUS
 10
271.306220131
 20
240.5224417763
 11
266.406220131
 21
240.5224417763
  0
LINE
  5
2F7
100
AcDbEntity
  8
0
100
AcDbLine
 62
7
  6
CONTINUOUS
 10
243.6451304153
 20
241.7135566293
 11
243.6233159958
 21
241.7135566293
  0
LINE
  5
2F8
100
AcDbEntity
  8
0
100
AcDbLine
 62
9
  6
CONTINUOUS
 10
271.306220131
 20
243.0596521974
 11
272.806220131
 21
243.0596521974
  0
LINE
  5
2F9
100
AcDbEntity
  8
0
100
AcDbLine
 62
7
  6
CONTINUOUS
 10
271.306220131
 20
243.322441777
 11
272.806220131
 21
243.322441777
  0
LINE
  5
2FA
100
AcDbEntity
  8
0
100
AcDbLine
 62
9
  6
CONTINUOUS
 10
293.3160451773
 20
236.2724417763
 11
293.3160451773
 21
207.7724417763
  0
LINE
  5
2FB
100
AcDbEntity
  8
0
100
AcDbLine
 62
9
  6
CONTINUOUS
 10
293.4114854149
 20
207.8425894556
 11
293.4114854149
 21
236.202294097
  0
LINE
  5
2FC
100
AcDbEntity
  8
0
100
AcDbLine
 62
7
  6
CONTINUOUS
 10
293.806220131
 20
209.1724417763
 11
293.806220131
 21
234.8724417748
  0
LINE
  5
2FD
100
AcDbEntity
  8
0
100
AcDbLine
 62
7
  6
CONTINUOUS
 10
271.306220131
 20
245.0224417763
 11
272.806220131
 21
245.0224417763
  0
LINE
  5
2FE
100
AcDbEntity
  8
0
100
AcDbLine
 62
7
  6
CONTINUOUS
 10
277.4382915983
 20
245.7839090045
 11
278.9176360368
 21
245.7839090045
  0
LINE
  5
2FF
100
AcDbEntity
  8
0
100
AcDbLine
 62
7
  6
CONTINUOUS
 10
293.8062201311
 20
209.1724417763
 11
293.4114854149
 21
207.8425894557
  0
LINE
  5
300
100
AcDbEntity
  8
0
100
AcDbLine
 62
7
  6
CONTINUOUS
 10
293.4114854149
 20
236.2022940945
 11
293.8062201311
 21
234.8724417748
  0
LINE
  5
301
100
AcDbEntity
  8
0
100
AcDbLine
 62
7
  6
CONTINUOUS
 10
298.506220131
 20
234.2724417763
 11
298.506220131
 21
209.7724417763
  0
LINE
  5
302
100
AcDbEntity
  8
0
100
AcDbLine
 62
9
  6
CONTINUOUS
 10
298.6491101387
 20
210.2824426026
 11
298.6491101375
 21
233.7624409497
  0
LINE
  5
303
100
AcDbEntity
  8
0
100
AcDbLine
 62
7
  6
CONTINUOUS
 10
299.0038831128
 20
231.122441777
 11
299.0038831128
 21
212.9224417757
  0
ARC
  5
304
100
AcDbEntity
  8
0
100
AcDbCircle
 62
7
  6
CONTINUOUS
 10
228.3517988319
 20
210.5067474123
 40
19.077675039
100
AcDbArc
 50
331.938788418
 51
339.0983608331
  0
ARC
  5
305
100
AcDbEntity
  8
0
100
AcDbCircle
 62
7
  6
CONTINUOUS
 10
228.3517988319
 20
210.5067474123
 40
19.0558562078
100
AcDbArc
 50
331.9387884189
 51
339.0983585251
  0
ARC
  5
306
100
AcDbEntity
  8
0
100
AcDbCircle
 62
7
  6
CONTINUOUS
 10
229.7247159722
 20
209.7886807406
 40
18.4606503157
100
AcDbArc
 50
325.895956777
 51
339.6413554372
  0
ARC
  5
307
100
AcDbEntity
  8
0
100
AcDbCircle
 62
7
  6
CONTINUOUS
 10
244.025969265
 20
200.0477175975
 40
1.1581384443
100
AcDbArc
 50
180.0000000075
 51
328.2239659876
  0
ARC
  5
308
100
AcDbEntity
  8
0
100
AcDbCircle
 62
7
  6
CONTINUOUS
 10
244.0100442189
 20
199.9979193485
 40
1.1422133981
100
AcDbArc
 50
179.9999999644
 51
326.12397568
  0
ARC
  5
309
100
AcDbEntity
  8
0
100
AcDbCircle
 62
7
  6
CONTINUOUS
 10
243.806220131
 20
207.1862331232
 40
1.0
100
AcDbArc
 50
180.0000000229
 51
250.0000000499
  0
ARC
  5
30A
100
AcDbEntity
  8
0
100
AcDbCircle
 62
7
  6
CONTINUOUS
 10
243.3209687415
 20
205.8153001469
 40
0.3036953476
100
AcDbArc
 50
52.5644856467
 51
61.8658548777
  0
ARC
  5
30B
100
AcDbEntity
  8
0
100
AcDbCircle
 62
7
  6
CONTINUOUS
 10
243.9122893555
 20
204.8121529103
 40
0.3003226153
100
AcDbArc
 50
164.1951845175
 51
179.9904520402
  0
ARC
  5
30C
100
AcDbEntity
  8
0
100
AcDbCircle
 62
7
  6
CONTINUOUS
 10
243.1678308207
 20
205.874896231
 40
0.3
100
AcDbArc
 50
70.0000002129
 51
179.9999999583
  0
ARC
  5
30D
100
AcDbEntity
  8
0
100
AcDbCircle
 62
7
  6
CONTINUOUS
 10
243.3233504789
 20
205.8182859918
 40
0.2999699264
100
AcDbArc
 50
0.0000273633
 51
1.1465333953
  0
ARC
  5
30E
100
AcDbEntity
  8
0
100
AcDbCircle
 62
7
  6
CONTINUOUS
 10
243.8959875454
 20
204.8141230824
 40
0.2892092095
100
AcDbArc
 50
160.5276400432
 51
178.9224188843
  0
ARC
  5
30F
100
AcDbEntity
  8
0
100
AcDbCircle
 62
7
  6
CONTINUOUS
 10
254.3853268521
 20
210.8382064675
 40
7.5
100
AcDbArc
 50
278.6854020143
 51
302.9938995369
  0
ARC
  5
310
100
AcDbEntity
  8
0
100
AcDbCircle
 62
7
  6
CONTINUOUS
 10
254.3853268521
 20
210.8382064675
 40
5.5
100
AcDbArc
 50
292.3498201199
 51
338.3336396344
  0
ARC
  5
311
100
AcDbEntity
  8
0
100
AcDbCircle
 62
7
  6
CONTINUOUS
 10
257.8017401653
 20
200.4903771261
 40
5.403937413
100
AcDbArc
 50
104.1389503043
 51
104.6733889428
  0
ARC
  5
312
100
AcDbEntity
  8
0
100
AcDbCircle
 62
7
  6
CONTINUOUS
 10
254.3853268521
 20
210.8382064675
 40
5.3
100
AcDbArc
 50
292.7846949054
 51
336.3795194086
  0
ARC
  5
313
100
AcDbEntity
  8
0
100
AcDbCircle
 62
7
  6
CONTINUOUS
 10
257.7250834362
 20
200.784229301
 40
5.1002512716
100
AcDbArc
 50
104.6765197737
 51
104.9089514315
  0
ARC
  5
314
100
AcDbEntity
  8
0
100
AcDbCircle
 62
7
  6
CONTINUOUS
 10
257.67129222
 20
200.9860397778
 40
4.8913949574
100
AcDbArc
 50
104.908274117
 51
105.21917866
  0
ARC
  5
315
100
AcDbEntity
  8
0
100
AcDbCircle
 62
7
  6
CONTINUOUS
 10
257.5876553436
 20
201.2926526032
 40
4.573579755
100
AcDbArc
 50
105.2164975385
 51
105.7960914612
  0
ARC
  5
316
100
AcDbEntity
  8
0
100
AcDbCircle
 62
7
  6
CONTINUOUS
 10
245.1983588274
 20
203.6381106164
 40
1.8
100
AcDbArc
 50
9.4899063601
 51
42.1608171311
  0
ARC
  5
317
100
AcDbEntity
  8
0
100
AcDbCircle
 62
7
  6
CONTINUOUS
 10
245.7913698614
 20
204.175081671
 40
1.0
100
AcDbArc
 50
42.1608171251
 51
70.0000000293
  0
ARC
  5
318
100
AcDbEntity
  8
0
100
AcDbCircle
 62
7
  6
CONTINUOUS
 10
244.4383355161
 20
201.931326923
 40
0.8481797343
100
AcDbArc
 50
179.9999999428
 51
331.9387884218
  0
ARC
  5
319
100
AcDbEntity
  8
0
100
AcDbCircle
 62
7
  6
CONTINUOUS
 10
244.4383355161
 20
201.931326923
 40
0.8263609032
100
AcDbArc
 50
179.9999999649
 51
331.9387884429
  0
ARC
  5
31A
100
AcDbEntity
  8
0
100
AcDbCircle
 62
7
  6
CONTINUOUS
 10
253.9382849004
 20
201.4233164791
 40
0.8
100
AcDbArc
 50
250.0000000466
 51
339.9999999849
  0
ARC
  5
31B
100
AcDbEntity
  8
0
100
AcDbCircle
 62
7
  6
CONTINUOUS
 10
249.0518832723
 20
203.2018212244
 40
0.8
100
AcDbArc
 50
160.0000000366
 51
249.9999999273
  0
ARC
  5
31C
100
AcDbEntity
  8
0
100
AcDbCircle
 62
7
  6
CONTINUOUS
 10
248.3940984378
 20
203.4412353248
 40
0.8
100
AcDbArc
 50
159.999999955
 51
249.9999999366
  0
ARC
  5
31D
100
AcDbEntity
  8
0
100
AcDbCircle
 62
7
  6
CONTINUOUS
 10
246.941893266
 20
204.1294214472
 40
0.8
100
AcDbArc
 50
340.0000000347
 51
69.9999999193
  0
ARC
  5
31E
100
AcDbEntity
  8
0
100
AcDbCircle
 62
7
  6
CONTINUOUS
 10
256.2866293967
 20
206.2138093572
 40
0.5
100
AcDbArc
 50
281.0000001596
 51
292.3498202155
  0
ARC
  5
31F
100
AcDbEntity
  8
0
100
AcDbCircle
 62
7
  6
CONTINUOUS
 10
258.1971750062
 20
204.9671066004
 40
0.5
100
AcDbArc
 50
302.9938992629
 51
339.9999989481
  0
ARC
  5
320
100
AcDbEntity
  8
0
100
AcDbCircle
 62
7
  6
CONTINUOUS
 10
246.7205422474
 20
203.4828348032
 40
0.3327250237
100
AcDbArc
 50
354.4167180045
 51
44.3213381843
  0
ARC
  5
321
100
AcDbEntity
  8
0
100
AcDbCircle
 62
7
  6
CONTINUOUS
 10
246.4525507443
 20
203.5938442448
 40
0.3200477629
100
AcDbArc
 50
69.9776352017
 51
159.0475257506
  0
ARC
  5
322
100
AcDbEntity
  8
0
100
AcDbCircle
 62
7
  6
CONTINUOUS
 10
246.4730562642
 20
203.5863810788
 40
0.3200475457
100
AcDbArc
 50
69.9776518296
 51
159.1089009675
  0
ARC
  5
323
100
AcDbEntity
  8
0
100
AcDbCircle
 62
7
  6
CONTINUOUS
 10
246.6979546227
 20
203.5258584713
 40
0.3
100
AcDbArc
 50
23.6684388411
 51
70.0000012778
  0
ARC
  5
324
100
AcDbEntity
  8
0
100
AcDbCircle
 62
7
  6
CONTINUOUS
 10
246.6778308207
 20
203.8854213943
 40
0.3
100
AcDbArc
 50
342.7382692171
 51
9.4899064002
  0
ARC
  5
325
100
AcDbEntity
  8
0
100
AcDbCircle
 62
7
  6
CONTINUOUS
 10
245.3678308207
 20
205.7126683791
 40
0.3
100
AcDbArc
 50
190.352690366
 51
249.9999998897
  0
ARC
  5
326
100
AcDbEntity
  8
0
100
AcDbCircle
 62
7
  6
CONTINUOUS
 10
246.7978308207
 20
203.453340633
 40
0.25
100
AcDbArc
 50
339.6261881335
 51
36.9170417103
  0
ARC
  5
327
100
AcDbEntity
  8
0
100
AcDbCircle
 62
7
  6
CONTINUOUS
 10
247.1696348133
 20
203.7326017852
 40
0.215
100
AcDbArc
 50
203.6684390554
 51
216.902095512
  0
ARC
  5
328
100
AcDbEntity
  8
0
100
AcDbCircle
 62
7
  6
CONTINUOUS
 10
247.1696348133
 20
203.7326017852
 40
0.215
100
AcDbArc
 50
162.7382685386
 51
190.0258013897
  0
ARC
  5
329
100
AcDbEntity
  8
0
100
AcDbCircle
 62
7
  6
CONTINUOUS
 10
260.5027110523
 20
201.4633976565
 40
0.15
100
AcDbArc
 50
101.4630316251
 51
191.4628868654
  0
ARC
  5
32A
100
AcDbEntity
  8
0
100
AcDbCircle
 62
7
  6
CONTINUOUS
 10
259.8431075094
 20
204.7161940175
 40
0.15
100
AcDbArc
 50
191.4631763827
 51
281.4630316251
  0
ARC
  5
32B
100
AcDbEntity
  8
0
100
AcDbCircle
 62
7
  6
CONTINUOUS
 10
256.1136592548
 20
222.120044673
 40
44.0999996935
100
AcDbArc
 50
15.3075362026
 51
15.9956611933
  0
ARC
  5
32C
100
AcDbEntity
  8
0
100
AcDbCircle
 62
7
  6
CONTINUOUS
 10
256.1136592548
 20
221.9248388797
 40
44.0999996935
100
AcDbArc
 50
344.0043388067
 51
344.6924637974
  0
ARC
  5
32D
100
AcDbEntity
  8
0
100
AcDbCircle
 62
7
  6
CONTINUOUS
 10
236.3458583959
 20
253.5441691191
 40
29.207815959
100
AcDbArc
 50
321.5976549309
 51
322.2373704812
  0
ARC
  5
32E
100
AcDbEntity
  8
0
100
AcDbCircle
 62
7
  6
CONTINUOUS
 10
228.3517988319
 20
233.1381361403
 40
19.0445104156
100
AcDbArc
 50
20.9031934192
 51
28.0612115807
  0
ARC
  5
32F
100
AcDbEntity
  8
0
100
AcDbCircle
 62
7
  6
CONTINUOUS
 10
228.3517988319
 20
233.1381361403
 40
19.0226915844
100
AcDbArc
 50
20.9038929773
 51
28.061211581
  0
ARC
  5
330
100
AcDbEntity
  8
0
100
AcDbCircle
 62
7
  6
CONTINUOUS
 10
229.7247159722
 20
233.856202812
 40
18.4606503157
100
AcDbArc
 50
20.3584363494
 51
34.104043223
  0
ARC
  5
331
100
AcDbEntity
  8
0
100
AcDbCircle
 62
9
  6
CONTINUOUS
 10
254.3853268521
 20
232.8066770851
 40
5.7999999994
100
AcDbArc
 50
29.4407887093
 51
59.8583892327
  0
ARC
  5
332
100
AcDbEntity
  8
0
100
AcDbCircle
 62
7
  6
CONTINUOUS
 10
254.3853268521
 20
232.8066770851
 40
5.5
100
AcDbArc
 50
28.1427561138
 51
76.9442688529
  0
ARC
  5
333
100
AcDbEntity
  8
0
100
AcDbCircle
 62
7
  6
CONTINUOUS
 10
245.1983588274
 20
240.0067729362
 40
1.8
100
AcDbArc
 50
317.8391828689
 51
350.5100936399
  0
ARC
  5
334
100
AcDbEntity
  8
0
100
AcDbCircle
 62
7
  6
CONTINUOUS
 10
244.025969265
 20
243.5971659551
 40
1.1581384443
100
AcDbArc
 50
31.7760340123
 51
179.9999999925
  0
ARC
  5
335
100
AcDbEntity
  8
0
100
AcDbCircle
 62
7
  6
CONTINUOUS
 10
244.0100442198
 20
243.6469642035
 40
1.1422133981
100
AcDbArc
 50
33.8760242845
 51
179.9999999848
  0
ARC
  5
336
100
AcDbEntity
  8
0
100
AcDbCircle
 62
7
  6
CONTINUOUS
 10
243.806220131
 20
236.4586504294
 40
1.0
100
AcDbArc
 50
109.9999999502
 51
179.9999999771
  0
ARC
  5
337
100
AcDbEntity
  8
0
100
AcDbCircle
 62
7
  6
CONTINUOUS
 10
245.7913698614
 20
239.4698018816
 40
1.0
100
AcDbArc
 50
289.9999999707
 51
317.8391828749
  0
ARC
  5
338
100
AcDbEntity
  8
0
100
AcDbCircle
 62
7
  6
CONTINUOUS
 10
244.4383355161
 20
241.7135566296
 40
0.8150151109
100
AcDbArc
 50
28.0612115465
 51
180.0000000403
  0
ARC
  5
339
100
AcDbEntity
  8
0
100
AcDbCircle
 62
7
  6
CONTINUOUS
 10
249.0518832723
 20
240.4430623282
 40
0.8
100
AcDbArc
 50
110.0000000663
 51
199.9999999634
  0
ARC
  5
33A
100
AcDbEntity
  8
0
100
AcDbCircle
 62
7
  6
CONTINUOUS
 10
253.3744693279
 20
242.0163549875
 40
0.8
100
AcDbArc
 50
20.0000000405
 51
110.0000000573
  0
ARC
  5
33B
100
AcDbEntity
  8
0
100
AcDbCircle
 62
7
  6
CONTINUOUS
 10
246.941893266
 20
239.5154621054
 40
0.8
100
AcDbArc
 50
289.9999999129
 51
19.9999999653
  0
ARC
  5
33C
100
AcDbEntity
  8
0
100
AcDbCircle
 62
7
  6
CONTINUOUS
 10
248.3940984378
 20
240.2036482278
 40
0.8
100
AcDbArc
 50
110.0000000634
 51
200.000000045
  0
ARC
  5
33D
100
AcDbEntity
  8
0
100
AcDbCircle
 62
7
  6
CONTINUOUS
 10
253.9382849004
 20
242.2215670735
 40
0.8
100
AcDbArc
 50
19.9999999744
 51
109.9999999451
  0
ARC
  5
33E
100
AcDbEntity
  8
0
100
AcDbCircle
 62
7
  6
CONTINUOUS
 10
244.4383355161
 20
241.7135566296
 40
0.7931962798
100
AcDbArc
 50
28.0612115548
 51
180.0000000217
  0
ARC
  5
33F
100
AcDbEntity
  8
0
100
AcDbCircle
 62
7
  6
CONTINUOUS
 10
246.7205422483
 20
240.1620487488
 40
0.3327250237
100
AcDbArc
 50
315.6784669882
 51
5.5820982255
  0
ARC
  5
340
100
AcDbEntity
  8
0
100
AcDbCircle
 62
7
  6
CONTINUOUS
 10
246.4418878131
 20
240.0471586008
 40
0.3200478378
100
AcDbArc
 50
200.8921384163
 51
290.0134033756
  0
ARC
  5
341
100
AcDbEntity
  8
0
100
AcDbCircle
 62
7
  6
CONTINUOUS
 10
246.4213619644
 20
240.0393340761
 40
0.3197153091
100
AcDbArc
 50
225.1743304321
 51
290.0451608759
  0
ARC
  5
342
100
AcDbEntity
  8
0
100
AcDbCircle
 62
7
  6
CONTINUOUS
 10
246.6979546227
 20
240.1190250813
 40
0.3
100
AcDbArc
 50
290.0000002393
 51
336.3315625081
  0
ARC
  5
343
100
AcDbEntity
  8
0
100
AcDbCircle
 62
7
  6
CONTINUOUS
 10
243.1678308207
 20
237.7699873216
 40
0.3
100
AcDbArc
 50
180.0000000955
 51
289.999999836
  0
ARC
  5
344
100
AcDbEntity
  8
0
100
AcDbCircle
 62
7
  6
CONTINUOUS
 10
245.3678308207
 20
237.9322151735
 40
0.3
100
AcDbArc
 50
110.0000001102
 51
169.647309634
  0
ARC
  5
345
100
AcDbEntity
  8
0
100
AcDbCircle
 62
7
  6
CONTINUOUS
 10
246.6778308207
 20
239.7594621583
 40
0.3
100
AcDbArc
 50
350.5100935998
 51
17.2617307829
  0
ARC
  5
346
100
AcDbEntity
  8
0
100
AcDbCircle
 62
7
  6
CONTINUOUS
 10
246.7978308207
 20
240.1915429196
 40
0.25
100
AcDbArc
 50
323.0898687862
 51
20.358436684
  0
ARC
  5
347
100
AcDbEntity
  8
0
100
AcDbCircle
 62
7
  6
CONTINUOUS
 10
247.1696348133
 20
239.9122817674
 40
0.215
100
AcDbArc
 50
143.0898689462
 51
156.331559062
  0
ARC
  5
348
100
AcDbEntity
  8
0
100
AcDbCircle
 62
7
  6
CONTINUOUS
 10
247.1696348133
 20
239.9122817674
 40
0.215
100
AcDbArc
 50
169.9741986103
 51
197.2617314614
  0
ARC
  5
349
100
AcDbEntity
  8
0
100
AcDbCircle
 62
7
  6
CONTINUOUS
 10
281.7163143757
 20
224.7385019952
 40
16.8988175353
100
AcDbArc
 50
205.0314928092
 51
206.0804972539
  0
ARC
  5
34A
100
AcDbEntity
  8
0
100
AcDbCircle
 62
7
  6
CONTINUOUS
 10
277.7310788003
 20
221.7131990542
 40
10.5536116632
100
AcDbArc
 50
163.6121475773
 51
168.0488950234
  0
ARC
  5
34B
100
AcDbEntity
  8
0
100
AcDbCircle
 62
7
  6
CONTINUOUS
 10
289.0038831129
 20
212.9224417777
 40
9.9999999999
100
AcDbArc
 50
344.6924637938
 51
359.9999999887
  0
ARC
  5
34C
100
AcDbEntity
  8
0
100
AcDbCircle
 62
7
  6
CONTINUOUS
 10
268.406220131
 20
216.6080146516
 40
2.0
100
AcDbArc
 50
135.0000000026
 51
162.7430140596
  0
ARC
  5
34D
100
AcDbEntity
  8
0
100
AcDbCircle
 62
7
  6
CONTINUOUS
 10
276.4176360368
 20
206.3839090045
 40
1.7
100
AcDbArc
 50
319.6797849185
 51
60.320215042
  0
ARC
  5
34E
100
AcDbEntity
  8
0
100
AcDbCircle
 62
7
  6
CONTINUOUS
 10
266.406220131
 20
224.2724417763
 40
1.5
100
AcDbArc
 50
0.0
 51
90.0
  0
ARC
  5
34F
100
AcDbEntity
  8
0
100
AcDbCircle
 62
7
  6
CONTINUOUS
 10
276.4176360368
 20
206.3839090045
 40
1.4
100
AcDbArc
 50
128.2132106786
 51
263.2344993764
  0
ARC
  5
350
100
AcDbEntity
  8
0
100
AcDbCircle
 62
7
  6
CONTINUOUS
 10
264.406220131
 20
214.3290378982
 40
1.0
100
AcDbArc
 50
127.4761795473
 51
179.9999999553
  0
ARC
  5
351
100
AcDbEntity
  8
0
100
AcDbCircle
 62
7
  6
CONTINUOUS
 10
263.606220131
 20
214.1658238071
 40
1.0
100
AcDbArc
 50
127.9999999868
 51
179.9999999989
  0
ARC
  5
352
100
AcDbEntity
  8
0
100
AcDbCircle
 62
7
  6
CONTINUOUS
 10
267.406220131
 20
218.5191437154
 40
0.5
100
AcDbArc
 50
307.476179622
 51
359.9999999977
  0
ARC
  5
353
100
AcDbEntity
  8
0
100
AcDbCircle
 62
7
  6
CONTINUOUS
 10
293.3160451773
 20
207.8724417763
 40
0.1
100
AcDbArc
 50
270.0
 51
342.6310749103
  0
ARC
  5
354
100
AcDbEntity
  8
0
100
AcDbCircle
 62
7
  6
CONTINUOUS
 10
289.0038831129
 20
231.122441775
 40
9.9999999999
100
AcDbArc
 50
0.0000000113
 51
15.3075362062
  0
ARC
  5
355
100
AcDbEntity
  8
0
100
AcDbCircle
 62
7
  6
CONTINUOUS
 10
277.4382915983
 20
244.7839090045
 40
1.0
100
AcDbArc
 50
90.0000000266
 51
145.0079797369
  0
ARC
  5
356
100
AcDbEntity
  8
0
100
AcDbCircle
 62
7
  6
CONTINUOUS
 10
274.4176360367
 20
240.4686867737
 40
1.0
100
AcDbArc
 50
145.0079797909
 51
180.0000000286
  0
ARC
  5
357
100
AcDbEntity
  8
0
100
AcDbCircle
 62
7
  6
CONTINUOUS
 10
278.9176360368
 20
245.2839090045
 40
0.5
100
AcDbArc
 50
0.0000000458
 51
90.0000001955
  0
ARC
  5
358
100
AcDbEntity
  8
0
100
AcDbCircle
 62
7
  6
CONTINUOUS
 10
269.706220131
 20
235.2011527982
 40
0.2
100
AcDbArc
 50
317.0352562344
 51
359.9999999427
  0
ARC
  5
359
100
AcDbEntity
  8
0
100
AcDbCircle
 62
7
  6
CONTINUOUS
 10
269.706220131
 20
236.3069717225
 40
0.2
100
AcDbArc
 50
359.9999997422
 51
59.9999998169
  0
ARC
  5
35A
100
AcDbEntity
  8
0
100
AcDbCircle
 62
7
  6
CONTINUOUS
 10
268.1205794849
 20
237.2224417763
 40
0.2
100
AcDbArc
 50
59.9999999061
 51
89.9999997708
  0
ARC
  5
35B
100
AcDbEntity
  8
0
100
AcDbCircle
 62
7
  6
CONTINUOUS
 10
266.3836007302
 20
234.8224417763
 40
0.2
100
AcDbArc
 50
270.000025382
 51
0.0000063025
  0
ARC
  5
35C
100
AcDbEntity
  8
0
100
AcDbCircle
 62
7
  6
CONTINUOUS
 10
266.7836007302
 20
234.8224417763
 40
0.2
100
AcDbArc
 50
90.0000001876
 51
179.9999936975
  0
ARC
  5
35D
100
AcDbEntity
  8
0
100
AcDbCircle
 62
7
  6
CONTINUOUS
 10
267.010004482
 20
234.8224417767
 40
0.2
100
AcDbArc
 50
11.0000001099
 51
89.999999346
  0
ARC
  5
35E
100
AcDbEntity
  8
0
100
AcDbCircle
 62
7
  6
CONTINUOUS
 10
267.7515534722
 20
233.1024417763
 40
0.2000000001
100
AcDbArc
 50
193.959954446
 51
317.0352563026
  0
ARC
  5
35F
100
AcDbEntity
  8
0
100
AcDbCircle
 62
7
  6
CONTINUOUS
 10
293.3160451773
 20
236.1724417763
 40
0.1
100
AcDbArc
 50
17.3689250897
 51
90.0
  0
SPLINE
  5
360
100
AcDbEntity
  8
0
100
AcDbSpline
 62
7
  6
CONTINUOUS
 70
0
 71
3
 72
11
 73
7
 74
0
 42
0.0000001
 43
0.0000001
 44
0.0000000001
 40
0.0
 40
0.0
 40
0.0
 40
0.0
 40
0.1532675971
 40
0.3815434407
 40
0.6744779155
 40
1.0
 40
1.0
 40
1.0
 40
1.0
 10
265.9062204117
 20
202.5053938396
 30
0.0
 10
265.906219744
 20
202.5140807958
 30
0.0
 10
265.8917674326
 20
202.5339967137
 30
0.0
 10
265.8566842795
 20
202.5493704097
 30
0.0
 10
265.8096881925
 20
202.5604285258
 30
0.0
 10
265.7746041355
 20
202.5631528718
 30
0.0
 10
265.7561542474
 20
202.5632321185
 30
0.0
  0
SPLINE
  5
361
100
AcDbEntity
  8
0
100
AcDbSpline
 62
7
  6
CONTINUOUS
 70
0
 71
3
 72
18
 73
14
 74
0
 42
0.0000001
 43
0.0000001
 44
0.0000000001
 40
0.0
 40
0.0
 40
0.0
 40
0.0
 40
0.2283191237
 40
0.4377445043
 40
0.6200502013
 40
0.764512884
 40
0.8707243816
 40
0.9109305048
 40
0.9432237457
 40
0.9680698392
 40
0.9857944891
 40
0.99643865
 40
1.0
 40
1.0
 40
1.0
 40
1.0
 10
266.504159732
 20
201.8735765125
 30
0.0
 10
266.5006442724
 20
201.8507123296
 30
0.0
 10
266.4892674795
 20
201.8075323193
 30
0.0
 10
266.4645526107
 20
201.7496628831
 30
0.0
 10
266.4394198213
 20
201.7014952463
 30
0.0
 10
266.4204606518
 20
201.6619094103
 30
0.0
 10
266.409904106
 20
201.6343438396
 30
0.0
 10
266.4043334152
 20
201.6171349901
 30
0.0
 10
266.4016636275
 20
201.6075919236
 30
0.0
 10
266.3995665385
 20
201.6004233467
 30
0.0
 10
266.3985152384
 20
201.5948478248
 30
0.0
 10
266.3970835523
 20
201.5923655608
 30
0.0
 10
266.3973222737
 20
201.5903101261
 30
0.0
 10
266.3969687863
 20
201.5902377078
 30
0.0
  0
SPLINE
  5
362
100
AcDbEntity
  8
0
100
AcDbSpline
 62
7
  6
CONTINUOUS
 70
0
 71
3
 72
8
 73
4
 74
0
 42
0.0000001
 43
0.0000001
 44
0.0000000001
 40
0.0
 40
0.0
 40
0.0
 40
0.0
 40
1.0
 40
1.0
 40
1.0
 40
1.0
 10
267.2838875566
 20
204.3225003119
 30
0.0
 10
266.4301163394
 20
204.3222502164
 30
0.0
 10
265.5763450287
 20
204.3222336308
 30
0.0
 10
264.7225737963
 20
204.32242466
 30
0.0
  0
SPLINE
  5
363
100
AcDbEntity
  8
0
100
AcDbSpline
 62
9
  6
CONTINUOUS
 70
0
 71
3
 72
21
 73
17
 74
0
 42
0.0000001
 43
0.0000001
 44
0.0000000001
 40
0.0
 40
0.0
 40
0.0
 40
0.0
 40
0.1950103754
 40
0.3829587207
 40
0.5557593912
 40
0.7071537616
 40
0.7730403668
 40
0.8314824367
 40
0.8818935876
 40
0.9238356294
 40
0.9568854552
 40
0.9807131838
 40
0.9891110624
 40
0.9951370189
 40
0.9987709651
 40
1.0
 40
1.0
 40
1.0
 40
1.0
 10
268.0455716569
 20
205.0231197599
 30
0.0
 10
268.0146678986
 20
205.033188961
 30
0.0
 10
267.9539945718
 20
205.0530091163
 30
0.0
 10
267.8661437533
 20
205.0823823778
 30
0.0
 10
267.7854688056
 20
205.1102734139
 30
0.0
 10
267.7238823298
 20
205.131114316
 30
0.0
 10
267.6802412003
 20
205.1455109993
 30
0.0
 10
267.6525528677
 20
205.154551121
 30
0.0
 10
267.6286547994
 20
205.1623095763
 30
0.0
 10
267.608746505
 20
205.1687440763
 30
0.0
 10
267.5931554013
 20
205.1738808456
 30
0.0
 10
267.582702101
 20
205.1772893554
 30
0.0
 10
267.5768576923
 20
205.1794236408
 30
0.0
 10
267.5737188214
 20
205.180339528
 30
0.0
 10
267.5725577258
 20
205.1811401291
 30
0.0
 10
267.5712477362
 20
205.1812845144
 30
0.0
 10
267.5713127347
 20
205.1814787746
 30
0.0
  0
SPLINE
  5
364
100
AcDbEntity
  8
0
100
AcDbSpline
 62
7
  6
CONTINUOUS
 70
0
 71
3
 72
10
 73
6
 74
0
 42
0.0000001
 43
0.0000001
 44
0.0000000001
 40
0.0
 40
0.0
 40
0.0
 40
0.0
 40
0.205014925
 40
0.4421810347
 40
1.0
 40
1.0
 40
1.0
 40
1.0
 10
266.5044683405
 20
201.8741481923
 30
0.0
 10
266.5174553998
 20
201.9085380429
 30
0.0
 10
266.5488579424
 20
201.9813996186
 30
0.0
 10
266.6244108242
 20
202.1440058676
 30
0.0
 10
266.6901321581
 20
202.2705930755
 30
0.0
 10
266.7376093916
 20
202.3586269096
 30
0.0
  0
SPLINE
  5
365
100
AcDbEntity
  8
0
100
AcDbSpline
 62
7
  6
CONTINUOUS
 70
0
 71
3
 72
13
 73
9
 74
0
 42
0.0000001
 43
0.0000001
 44
0.0000000001
 40
0.0
 40
0.0
 40
0.0
 40
0.0
 40
0.1039833002
 40
0.2175645301
 40
0.4642181837
 40
0.7274770314
 40
0.8631001352
 40
1.0
 40
1.0
 40
1.0
 40
1.0
 10
266.7376093916
 20
202.3586269096
 30
0.0
 10
266.7865178089
 20
202.4493144911
 30
0.0
 10
266.8913518503
 20
202.6377016312
 30
0.0
 10
267.1164379606
 20
203.0388439104
 30
0.0
 10
267.416297791
 20
203.5790484034
 30
0.0
 10
267.7014492224
 20
204.1521203429
 30
0.0
 10
267.9104343032
 20
204.6403886264
 30
0.0
 10
268.0022586115
 20
204.8944834138
 30
0.0
 10
268.0460666767
 20
205.0228666365
 30
0.0
  0
SPLINE
  5
366
100
AcDbEntity
  8
0
100
AcDbSpline
 62
7
  6
CONTINUOUS
 70
0
 71
3
 72
13
 73
9
 74
0
 42
0.0000001
 43
0.0000001
 44
0.0000000001
 40
0.0
 40
0.0
 40
0.0
 40
0.0
 40
0.2501886922
 40
0.3740645239
 40
0.4971370145
 40
0.6210245233
 40
0.7472394396
 40
1.0
 40
1.0
 40
1.0
 40
1.0
 10
266.6437218757
 20
202.4111813476
 30
0.0
 10
266.6322871094
 20
202.3663130643
 30
0.0
 10
266.6134432634
 20
202.2996791816
 30
0.0
 10
266.59263235
 20
202.2100342337
 30
0.0
 10
266.5793486053
 20
202.1427008977
 30
0.0
 10
266.5653597089
 20
202.0750577253
 30
0.0
 10
266.542173937
 20
201.9848879537
 30
0.0
 10
266.5201745382
 20
201.9182110603
 30
0.0
 10
266.5044683405
 20
201.8741481923
 30
0.0
  0
SPLINE
  5
367
100
AcDbEntity
  8
0
100
AcDbSpline
 62
7
  6
CONTINUOUS
 70
0
 71
3
 72
8
 73
4
 74
0
 42
0.0000001
 43
0.0000001
 44
0.0000000001
 40
0.0
 40
0.0
 40
0.0
 40
0.0
 40
1.0
 40
1.0
 40
1.0
 40
1.0
 10
269.1601340967
 20
208.3541957638
 30
0.0
 10
269.1249543998
 20
208.3541956441
 30
0.0
 10
269.0895895711
 20
208.3482467889
 30
0.0
 10
269.0557485102
 20
208.3386346264
 30
0.0
  0
SPLINE
  5
368
100
AcDbEntity
  8
0
100
AcDbSpline
 62
7
  6
CONTINUOUS
 70
0
 71
3
 72
8
 73
4
 74
0
 42
0.0000001
 43
0.0000001
 44
0.0000000001
 40
0.0
 40
0.0
 40
0.0
 40
0.0
 40
1.0
 40
1.0
 40
1.0
 40
1.0
 10
269.7062201314
 20
205.0224100605
 30
0.0
 10
269.1526696665
 20
205.0231644494
 30
0.0
 10
268.5991174221
 20
205.0221124169
 30
0.0
 10
268.045567342
 20
205.0231099923
 30
0.0
  0
SPLINE
  5
369
100
AcDbEntity
  8
0
100
AcDbSpline
 62
7
  6
CONTINUOUS
 70
0
 71
3
 72
8
 73
4
 74
0
 42
0.0000001
 43
0.0000001
 44
0.0000000001
 40
0.0
 40
0.0
 40
0.0
 40
0.0
 40
1.0
 40
1.0
 40
1.0
 40
1.0
 10
243.5285885376
 20
206.0262249986
 30
0.0
 10
243.5000884853
 20
206.0574024201
 30
0.0
 10
243.4642079612
 20
206.083065635
 30
0.0
 10
243.4254399219
 20
206.0998383424
 30
0.0
  0
SPLINE
  5
36A
100
AcDbEntity
  8
0
100
AcDbSpline
 62
7
  6
CONTINUOUS
 70
0
 71
3
 72
9
 73
5
 74
0
 42
0.0000001
 43
0.0000001
 44
0.0000000001
 40
0.0
 40
0.0
 40
0.0
 40
0.0
 40
0.669451576
 40
1.0
 40
1.0
 40
1.0
 40
1.0
 10
243.6232603486
 20
205.8242882243
 30
0.0
 10
243.6220579728
 20
205.8843664765
 30
0.0
 10
243.5924614137
 20
205.9734431424
 30
0.0
 10
243.529144733
 20
206.0384079126
 30
0.0
 10
243.505575466
 20
206.0564457904
 30
0.0
  0
SPLINE
  5
36B
100
AcDbEntity
  8
0
100
AcDbSpline
 62
7
  6
CONTINUOUS
 70
0
 71
3
 72
8
 73
4
 74
0
 42
0.0000001
 43
0.0000001
 44
0.0000000001
 40
0.0
 40
0.0
 40
0.0
 40
0.0
 40
1.0
 40
1.0
 40
1.0
 40
1.0
 10
246.122421298
 20
239.9254605232
 30
0.0
 10
246.1384459848
 20
239.8835045275
 30
0.0
 10
246.1641115726
 20
239.8442228878
 30
0.0
 10
246.195978005
 20
239.8125744021
 30
0.0
  0
SPLINE
  5
36C
100
AcDbEntity
  8
0
100
AcDbSpline
 62
7
  6
CONTINUOUS
 70
0
 71
3
 72
14
 73
10
 74
0
 42
0.0000001
 43
0.0000001
 44
0.0000000001
 40
0.0
 40
0.0
 40
0.0
 40
0.0
 40
0.2357610804
 40
0.3502738411
 40
0.4640001626
 40
0.580892098
 40
0.7082475556
 40
0.8500880313
 40
1.0
 40
1.0
 40
1.0
 40
1.0
 10
257.895239092
 20
206.0171330595
 30
0.0
 10
258.018398161
 20
206.0410727574
 30
0.0
 10
258.2070927431
 20
206.05824746
 30
0.0
 10
258.4522022249
 20
206.0186307516
 30
0.0
 10
258.6242352561
 20
205.9482986889
 30
0.0
 10
258.7722460435
 20
205.8213026744
 30
0.0
 10
258.8627791188
 20
205.6297092729
 30
0.0
 10
258.8713118312
 20
205.4021594665
 30
0.0
 10
258.8323115988
 20
205.2502278417
 30
0.0
 10
258.8050258593
 20
205.1752608942
 30
0.0
  0
SPLINE
  5
36D
100
AcDbEntity
  8
0
100
AcDbSpline
 62
7
  6
CONTINUOUS
 70
0
 71
3
 72
9
 73
5
 74
0
 42
0.0000001
 43
0.0000001
 44
0.0000000001
 40
0.0
 40
0.0
 40
0.0
 40
0.0
 40
0.5000291077
 40
1.0
 40
1.0
 40
1.0
 40
1.0
 10
243.3927161269
 20
206.1122980057
 30
0.0
 10
243.4492423507
 20
206.0917241427
 30
0.0
 10
243.5520720821
 20
206.0137864864
 30
0.0
 10
243.5901557826
 20
205.8905039044
 30
0.0
 10
243.5901557825
 20
205.8303569568
 30
0.0
  0
SPLINE
  5
36E
100
AcDbEntity
  8
0
100
AcDbSpline
 62
7
  6
CONTINUOUS
 70
0
 71
3
 72
8
 73
4
 74
0
 42
0.0000001
 43
0.0000001
 44
0.0000000001
 40
0.0
 40
0.0
 40
0.0
 40
0.0
 40
1.0
 40
1.0
 40
1.0
 40
1.0
 10
257.0267410356
 20
205.8483141395
 30
0.0
 10
256.844286471
 20
205.8128484454
 30
0.0
 10
256.6619330716
 20
205.7760236043
 30
0.0
 10
256.4816972167
 20
205.7306086265
 30
0.0
  0
SPLINE
  5
36F
100
AcDbEntity
  8
0
100
AcDbSpline
 62
9
  6
CONTINUOUS
 70
0
 71
3
 72
8
 73
4
 74
0
 42
0.0000001
 43
0.0000001
 44
0.0000000001
 40
0.0
 40
0.0
 40
0.0
 40
0.0
 40
1.0
 40
1.0
 40
1.0
 40
1.0
 10
243.6068292427
 20
205.8242881389
 30
0.0
 10
243.6068260732
 20
205.8547036153
 30
0.0
 10
243.6019724276
 20
205.8854465722
 30
0.0
 10
243.5928224162
 20
205.9144530974
 30
0.0
  0
SPLINE
  5
370
100
AcDbEntity
  8
0
100
AcDbSpline
 62
9
  6
CONTINUOUS
 70
0
 71
3
 72
8
 73
4
 74
0
 42
0.0000001
 43
0.0000001
 44
0.0000000001
 40
0.0
 40
0.0
 40
0.0
 40
0.0
 40
1.0
 40
1.0
 40
1.0
 40
1.0
 10
243.5928224162
 20
205.9144530974
 30
0.0
 10
243.5798951249
 20
205.955434008
 30
0.0
 10
243.5575816018
 20
205.9945082503
 30
0.0
 10
243.5285885376
 20
206.0262249986
 30
0.0
  0
ELLIPSE
  5
371
100
AcDbEntity
  8
0
100
AcDbEllipse
 62
7
  6
CONTINUOUS
 10
276.506220131
 20
222.0224417763
 30
0.0
 11
21.0
 21
-0.0
 31
0.0
 40
0.5
 41
1.3791491318
 42
1.4317070624
  0
ELLIPSE
  5
372
100
AcDbEntity
  8
0
100
AcDbEllipse
 62
7
  6
CONTINUOUS
 10
271.9318668084
 20
205.4742826557
 30
0.0
 11
21.1923502607
 21
4.2973945382
 31
0.0
 40
0.153091273
 41
-2.3150444015
 42
-2.265844451
  0
ELLIPSE
  5
373
100
AcDbEntity
  8
0
100
AcDbEllipse
 62
7
  6
CONTINUOUS
 10
277.136689968
 20
206.6117943565
 30
0.0
 11
-0.1028731299
 21
0.507312834
 31
0.0
 40
0.9659258263
 41
-1.5707963263
 42
0.0000000035
  0
ELLIPSE
  5
374
100
AcDbEntity
  8
0
100
AcDbEllipse
 62
7
  6
CONTINUOUS
 10
277.049595562
 20
207.0412953345
 30
0.0
 11
-0.100516764
 21
0.4956925531
 31
0.0
 40
0.9885695586
 41
-1.5707963281
 42
-0.0000000007
  0
ELLIPSE
  5
375
100
AcDbEntity
  8
0
100
AcDbEllipse
 62
7
  6
CONTINUOUS
 10
277.2607051549
 20
206.000220703
 30
0.0
 11
-0.1053426262
 21
0.5194910107
 31
0.0
 40
0.9432820939
 41
-3.1415926521
 42
-1.5707963273
  0
ELLIPSE
  5
376
100
AcDbEntity
  8
0
100
AcDbEllipse
 62
7
  6
CONTINUOUS
 10
277.1686618087
 20
206.4541270906
 30
0.0
 11
-0.1028731299
 21
0.507312834
 31
0.0
 40
0.9659258263
 41
-3.1415926524
 42
-1.5707963262
  0
ELLIPSE
  5
377
100
AcDbEntity
  8
0
100
AcDbEllipse
 62
7
  6
CONTINUOUS
 10
243.3232747068
 20
237.8265642692
 30
0.0
 11
-0.281956417
 21
-0.1026237431
 31
0.0
 40
0.9998275239
 41
1.5707963229
 42
2.7925822388
  0
ENDSEC
  0
SECTION
  2
OBJECTS
  0
DICTIONARY
  5
C
100
AcDbDictionary
280
0
281
1
  3
ACAD_GROUP
350
D
  3
ACAD_MLINESTYLE
350
17
  3
ACAD_LAYOUT
350
1A
  3
ACAD_PLOTSETTINGS
350
19
  3
ACAD_PLOTSTYLENAME
350
E
  0
DICTIONARY
  5
D
102
{ACAD_REACTORS
330
C
102
}
100
AcDbDictionary
280
0
281
1
  0
ACDBDICTIONARYWDFLT
  5
E
102
{ACAD_REACTORS
330
C
102
}
100
AcDbDictionary
281
1
  3
Normal
350
F
100
AcDbDictionaryWithDefault
340
F
  0
DICTIONARY
  5
17
102
{ACAD_REACTORS
330
C
102
}
100
AcDbDictionary
280
0
281
1
  3
Standard
350
18
  0
DICTIONARY
  5
19
102
{ACAD_REACTORS
330
C
102
}
100
AcDbDictionary
281
1
  0
DICTIONARY
  5
1A
102
{ACAD_REACTORS
330
C
102
}
100
AcDbDictionary
281
1
  3
Model
350
378
  3
Layout1
350
379
  0
ACDBPLACEHOLDER
  5
F
102
{ACAD_REACTORS
330
E
102
}
  0
MLINESTYLE
  5
18
102
{ACAD_REACTORS
330
17
102
}
100
AcDbMlineStyle
  2
STANDARD
 70
0
  3

 62
256
 51
90.0
 52
90.0
 71
2
 49
0.5
 62
256
  6
BYLAYER
 49
-0.5
 62
256
  6
BYLAYER
  0
LAYOUT
  5
378
102
{ACAD_REACTORS
330
1A
102
}
100
AcDbPlotSettings
  1

  2
none_device
  4
ANSI_C_(22.00_x_17.00_Inches)
  6

 40
0.0
 41
0.0
 42
0.0
 43
0.0
 44
558.8
 45
431.8
 46
0.0
 47
0.0
 48
0.0
 49
0.0
140
0.0
141
0.0
142
1.0
143
1.0
 70
1024
 72
1
 73
0
 74
0
  7

 75
0
147
1.0
148
0.0
149
0.0
100
AcDbLayout
  1
Model
 70
0
 71
0
 10
0.0
 20
0.0
 11
558.8
 21
431.8
 12
0.0
 22
0.0
 32
0.0
 14
0.0
 24
0.0
 34
0.0
 15
0.0
 25
0.0
 35
0.0
146
0.0
 13
0.0
 23
0.0
 33
0.0
 16
1.0
 26
0.0
 36
0.0
 17
0.0
 27
1.0
 37
0.0
 76
0
330
219
345
0
346
0
  0
LAYOUT
  5
379
102
{ACAD_REACTORS
330
1A
102
}
100
AcDbPlotSettings
  1

  2
none_device
  4
ANSI_C_(22.00_x_17.00_Inches)
  6

 40
0.0
 41
0.0
 42
0.0
 43
0.0
 44
558.8
 45
431.8
 46
0.0
 47
0.0
 48
0.0
 49
0.0
140
0.0
141
0.0
142
1.0
143
1.0
 70
0
 72
1
 73
0
 74
0
  7

 75
0
147
1.0
148
0.0
149
0.0
100
AcDbLayout
  1
Layout1
 70
0
 71
1
 10
0.0
 20
0.0
 11
558.8
 21
431.8
 12
0.0
 22
0.0
 32
0.0
 14
0.0
 24
0.0
 34
0.0
 15
0.0
 25
0.0
 35
0.0
146
0.0
 13
0.0
 23
0.0
 33
0.0
 16
1.0
 26
0.0
 36
0.0
 17
0.0
 27
1.0
 37
0.0
 76
0
330
21A
345
0
346
0
  0
ENDSEC
  0
EOF
