999
DXF file: C:\Users\sesa63760\Dev\_Creo\CAD\MCADID0003738_3D-CAD\drw0001_1.dxf
999
Pro/ENGINEER 2019471 by Parametric Technology Corporation
  0
SECTION
  2
HEADER
  9
$ACADVER
  1
AC1024
  9
$DWGCODEPAGE
  3
ANSI_1252
  9
$EXTMAX
 10
57.2570221946
 20
80.9777885324
 30
0.0
  9
$EXTMIN
 10
0.0
 20
0.0
 30
0.0
  9
$LIMMIN
 10
0.0
 20
0.0
  9
$LIMMAX
 10
57.2570221946
 20
80.9777885324
  9
$VIEWCTR
 10
28.6285110973
 20
40.4888942662
  9
$VIEWSIZE
 40
80.9777885324
  9
$CLAYER
  8
0
  9
$LTSCALE
 40
5.2785521414
  9
$CELTYPE
  6
BYLAYER
  9
$DIMSCALE
 40
1.0
  9
$DIMASZ
 40
0.6816312166
  9
$DIMEXO
 40
1.0
  9
$DIMDLI
 40
3.6469996613
  9
$DIMEXE
 40
1.0
  9
$DIMCEN
 40
0.8637630777
  9
$DIMLFAC
 40
1.0
  9
$DIMBLK
  1
_FILLED
  9
$DIMALT
 70
0
  9
$DIMALTF
 40
0.0393700787
  9
$DIMTXT
 40
0.9542837032
  9
$DIMTOL
 70
1
  9
$DIMLIM
 70
0
  9
$DIMTFAC
 40
1.0
  9
$DIMTP
 40
0.01
  9
$DIMTM
 40
0.01
  9
$DIMGAP
 40
0.625
  9
$DIMDSEP
 70
46
  9
$AUNITS
 70
0
  9
$PDMODE
 70
3
  9
$PDSIZE
 40
0.3125
  9
$HANDSEED
  5
3B8
  9
$TILEMODE
 70
1
  9
$MEASUREMENT
 70
1
  9
$INSUNITS
 70
4
  0
ENDSEC
  0
SECTION
  2
CLASSES
  0
CLASS
  1
ACDBDICTIONARYWDFLT
  2
AcDbDictionaryWithDefault
  3
AutoCAD 2000
 90
0
 91
1
280
0
281
0
  0
CLASS
  1
ACDBPLACEHOLDER
  2
AcDbPlaceHolder
  3
AutoCAD 2000
 90
0
 91
1
280
0
281
0
  0
CLASS
  1
LAYOUT
  2
AcDbLayout
  3
AutoCAD 2000
 90
0
 91
0
280
0
281
0
  0
ENDSEC
  0
SECTION
  2
TABLES
  0
TABLE
  2
VPORT
  5
8
100
AcDbSymbolTable
 70
2
  0
VPORT
  5
1F4
100
AcDbSymbolTableRecord
100
AcDbViewportTableRecord
  2
*ACTIVE
 70
0
 10
0.0
 20
0.0
 11
1.0
 21
1.0
 12
28.6285110973
 22
40.4888942662
 13
0.0
 23
0.0
 14
1.0
 24
1.0
 15
0.0
 25
0.0
 16
0.0
 26
0.0
 36
1.0
 17
0.0
 27
0.0
 37
0.0
 40
80.9777885324
 41
0.7070707071
 42
50.0
 43
0.0
 44
0.0
 50
0.0
 51
0.0
 71
0
 72
100
 73
1
 74
1
 75
0
 76
0
 77
0
 78
0
  0
ENDTAB
  0
TABLE
  2
LTYPE
  5
5
100
AcDbSymbolTable
 70
6
  0
LTYPE
  5
14
100
AcDbSymbolTableRecord
100
AcDbLinetypeTableRecord
  2
BYBLOCK
 70
0
  3

 72
65
 73
0
 40
0.0
  0
LTYPE
  5
15
100
AcDbSymbolTableRecord
100
AcDbLinetypeTableRecord
  2
BYLAYER
 70
0
  3

 72
65
 73
0
 40
0.0
  0
LTYPE
  5
16
100
AcDbSymbolTableRecord
100
AcDbLinetypeTableRecord
  2
CONTINUOUS
 70
64
  3
Solid line
 72
65
 73
0
 40
0.0
  0
LTYPE
  5
1F5
100
AcDbSymbolTableRecord
100
AcDbLinetypeTableRecord
  2
CENTER
 70
64
  3
____ _ ____ _ ____ _ ____ _ ____ _ ____ _ ____
 72
65
 73
4
 40
0.6
 49
0.375
 74
0
 49
-0.075
 74
0
 49
0.075
 74
0
 49
-0.075
 74
0
  0
LTYPE
  5
1F6
100
AcDbSymbolTableRecord
100
AcDbLinetypeTableRecord
  2
HIDDEN
 70
64
  3
- - - - - - - - - - - - - - - - - - - -
 72
65
 73
2
 40
0.2
 49
0.1
 74
0
 49
-0.1
 74
0
  0
LTYPE
  5
1F7
100
AcDbSymbolTableRecord
100
AcDbLinetypeTableRecord
  2
PHANTOM
 70
64
  3
_____ _ _ _____ _ _ _____ _ _ _____
 72
65
 73
6
 40
0.8
 49
0.45
 74
0
 49
-0.05
 74
0
 49
0.1
 74
0
 49
-0.05
 74
0
 49
0.1
 74
0
 49
-0.05
 74
0
  0
LTYPE
  5
1F8
100
AcDbSymbolTableRecord
100
AcDbLinetypeTableRecord
  2
DOT
 70
64
  3
. . . . . . . . . . . . . . . . . . . .
 72
65
 73
2
 40
0.2
 49
0.1
 74
0
 49
-0.1
 74
0
  0
LTYPE
  5
1F9
100
AcDbSymbolTableRecord
100
AcDbLinetypeTableRecord
  2
DASHED
 70
64
  3
- - - - - - - - - - - - - - - - - - - -
 72
65
 73
2
 40
0.2
 49
0.1
 74
0
 49
-0.1
 74
0
  0
ENDTAB
  0
TABLE
  2
LAYER
  5
2
100
AcDbSymbolTable
 70
36
  0
LAYER
  5
10
100
AcDbSymbolTableRecord
100
AcDbLayerTableRecord
  2
0
 70
0
 62
7
  6
CONTINUOUS
370
-3
390
F
  0
LAYER
  5
1FA
100
AcDbSymbolTableRecord
100
AcDbLayerTableRecord
  2
DEFAULT_1
 70
0
 62
7
  6
CENTER
370
-3
390
F
  0
LAYER
  5
1FB
100
AcDbSymbolTableRecord
100
AcDbLayerTableRecord
  2
DEFAULT_2
 70
0
 62
7
  6
HIDDEN
370
-3
390
F
  0
LAYER
  5
1FC
100
AcDbSymbolTableRecord
100
AcDbLayerTableRecord
  2
DEFAULT_3
 70
0
 62
7
  6
PHANTOM
370
-3
390
F
  0
LAYER
  5
1FD
100
AcDbSymbolTableRecord
100
AcDbLayerTableRecord
  2
00_COMPONENTS
 70
0
 62
7
  6
CONTINUOUS
370
-3
390
F
  0
LAYER
  5
1FE
100
AcDbSymbolTableRecord
100
AcDbLayerTableRecord
  2
01_1_DEFAULT_DATUMS
 70
0
 62
7
  6
CONTINUOUS
370
-3
390
F
  0
LAYER
  5
1FF
100
AcDbSymbolTableRecord
100
AcDbLayerTableRecord
  2
01_PLANES
 70
0
 62
7
  6
CONTINUOUS
370
-3
390
F
  0
LAYER
  5
200
100
AcDbSymbolTableRecord
100
AcDbLayerTableRecord
  2
02_COORD_SYS
 70
0
 62
7
  6
CONTINUOUS
370
-3
390
F
  0
LAYER
  5
201
100
AcDbSymbolTableRecord
100
AcDbLayerTableRecord
  2
03_AXES
 70
0
 62
7
  6
CONTINUOUS
370
-3
390
F
  0
LAYER
  5
202
100
AcDbSymbolTableRecord
100
AcDbLayerTableRecord
  2
04_POINTS
 70
0
 62
7
  6
CONTINUOUS
370
-3
390
F
  0
LAYER
  5
203
100
AcDbSymbolTableRecord
100
AcDbLayerTableRecord
  2
05_CURVES
 70
0
 62
7
  6
CONTINUOUS
370
-3
390
F
  0
LAYER
  5
204
100
AcDbSymbolTableRecord
100
AcDbLayerTableRecord
  2
06_SURFS
 70
0
 62
7
  6
CONTINUOUS
370
-3
390
F
  0
LAYER
  5
205
100
AcDbSymbolTableRecord
100
AcDbLayerTableRecord
  2
07_COSMETICS
 70
0
 62
7
  6
CONTINUOUS
370
-3
390
F
  0
LAYER
  5
206
100
AcDbSymbolTableRecord
100
AcDbLayerTableRecord
  2
1
 70
0
 62
7
  6
CONTINUOUS
370
-3
390
F
  0
LAYER
  5
207
100
AcDbSymbolTableRecord
100
AcDbLayerTableRecord
  2
10_NOTES
 70
0
 62
7
  6
CONTINUOUS
370
-3
390
F
  0
LAYER
  5
208
100
AcDbSymbolTableRecord
100
AcDbLayerTableRecord
  2
11_NOTES_PUB
 70
0
 62
7
  6
CONTINUOUS
370
-3
390
F
  0
LAYER
  5
209
100
AcDbSymbolTableRecord
100
AcDbLayerTableRecord
  2
13_REF_GTOL
 70
0
 62
7
  6
CONTINUOUS
370
-3
390
F
  0
LAYER
  5
20A
100
AcDbSymbolTableRecord
100
AcDbLayerTableRecord
  2
16_MISC
 70
0
 62
7
  6
CONTINUOUS
370
-3
390
F
  0
LAYER
  5
20B
100
AcDbSymbolTableRecord
100
AcDbLayerTableRecord
  2
17_NO_PRINT
 70
0
 62
7
  6
CONTINUOUS
370
-3
390
F
  0
LAYER
  5
20C
100
AcDbSymbolTableRecord
100
AcDbLayerTableRecord
  2
18_DATUM_CAMS_JOINTS
 70
0
 62
7
  6
CONTINUOUS
370
-3
390
F
  0
LAYER
  5
20D
100
AcDbSymbolTableRecord
100
AcDbLayerTableRecord
  2
19_DATUM_FUNCTIONAL
 70
0
 62
7
  6
CONTINUOUS
370
-3
390
F
  0
LAYER
  5
20E
100
AcDbSymbolTableRecord
100
AcDbLayerTableRecord
  2
20_DATUM_KINEMATIC_SCHEME
 70
0
 62
7
  6
CONTINUOUS
370
-3
390
F
  0
ENDTAB
  0
TABLE
  2
STYLE
  5
3
100
AcDbSymbolTable
 70
1
  0
STYLE
  5
11
100
AcDbSymbolTableRecord
100
AcDbTextStyleTableRecord
  2
STANDARD
 70
0
 40
0.0
 41
1.0
 50
0.0
 71
0
 42
0.2
  3
ARIAL.TTF
  4

  0
STYLE
  5
20F
100
AcDbSymbolTableRecord
100
AcDbTextStyleTableRecord
  2
TEXTSTYLE_1
 70
0
 40
0.0
 41
0.8
 50
0.0
 71
0
 42
0.2
  3
gdt
  4

  0
ENDTAB
  0
TABLE
  2
VIEW
  5
6
100
AcDbSymbolTable
 70
0
  0
ENDTAB
  0
TABLE
  2
UCS
  5
7
100
AcDbSymbolTable
 70
0
  0
ENDTAB
  0
TABLE
  2
APPID
  5
9
100
AcDbSymbolTable
 70
1
  0
APPID
  5
210
100
AcDbSymbolTableRecord
100
AcDbRegAppTableRecord
  2
ACAD
 70
0
  0
ENDTAB
  0
TABLE
  2
BLOCK_RECORD
  5
1
100
AcDbSymbolTable
 70
0
  0
BLOCK_RECORD
  5
211
100
AcDbSymbolTableRecord
100
AcDbBlockTableRecord
  2
*Model_Space
  0
BLOCK_RECORD
  5
212
100
AcDbSymbolTableRecord
100
AcDbBlockTableRecord
  2
*Paper_Space
  0
BLOCK_RECORD
  5
213
100
AcDbSymbolTableRecord
100
AcDbBlockTableRecord
  2
_FILLED
  0
ENDTAB
  0
TABLE
  2
DIMSTYLE
  5
A
100
AcDbSymbolTable
 70
1
100
AcDbDimStyleTable
 71
0
  0
DIMSTYLE
105
214
100
AcDbSymbolTableRecord
100
AcDbDimStyleTableRecord
  2
STANDARD
 70
0
  3

  4

 40
1.0
 41
0.6816312166
 42
1.0
 43
0.38
 44
1.0
 45
0.0
 46
0.0
 47
0.01
 48
0.01
140
0.9542837032
141
0.09
142
0.0
143
25.4
144
1.0
145
0.0
146
1.0
147
0.625
 71
1
 72
0
 73
0
 74
0
 75
0
 76
0
 77
1
 78
8
 79
2
170
0
171
1
172
0
173
0
174
0
175
0
176
0
177
0
178
0
270
2
179
2
271
2
272
2
273
2
274
2
275
0
280
0
281
0
282
0
283
1
284
8
285
0
286
0
287
3
288
0
340
11
278
46
341
213
342
213
343
213
344
213
  0
ENDTAB
  0
ENDSEC
  0
SECTION
  2
BLOCKS
  0
BLOCK
  5
20
100
AcDbEntity
  8
0
100
AcDbBlockBegin
  2
*Model_Space
 70
0
 10
0.0
 20
0.0
 30
0.0
  3
*Model_Space
  1

  0
ENDBLK
  5
21
100
AcDbEntity
  8
0
100
AcDbBlockEnd
  0
BLOCK
  5
1C
100
AcDbEntity
  8
0
100
AcDbBlockBegin
  2
*Paper_Space
 70
0
 10
0.0
 20
0.0
 30
0.0
  3
*Paper_Space
  1

  0
ENDBLK
  5
1D
100
AcDbEntity
  8
0
100
AcDbBlockEnd
  0
BLOCK
  5
215
100
AcDbEntity
  8
0
100
AcDbBlockBegin
  2
_FILLED
 70
64
 10
0.0
 20
0.0
  3
_FILLED
  1

  0
SOLID
  5
216
100
AcDbEntity
  8
0
  6
BYBLOCK
 62
0
100
AcDbTrace
 10
0.0
 20
0.0
 11
-1.0
 21
0.25
 12
-1.0
 22
-0.25
 13
-1.0
 23
-0.25
  0
ENDBLK
  5
217
100
AcDbEntity
  8
0
  6
BYBLOCK
 62
0
100
AcDbBlockEnd
  0
ENDSEC
  0
SECTION
  2
ENTITIES
  0
LINE
  5
218
100
AcDbEntity
  8
0
100
AcDbLine
 62
7
  6
BYLAYER
 10
16.5722529603
 20
69.5599652815
 11
17.0955735077
 21
69.8621027369
  0
LINE
  5
219
100
AcDbEntity
  8
0
100
AcDbLine
 62
7
  6
BYLAYER
 10
16.6972524007
 20
69.5475842117
 11
17.2420190208
 21
69.8621034891
  0
LINE
  5
21A
100
AcDbEntity
  8
0
100
AcDbLine
 62
7
  6
BYLAYER
 10
20.0953167326
 20
68.2250315529
 11
20.0839512724
 21
68.2184697405
  0
LINE
  5
21B
100
AcDbEntity
  8
0
100
AcDbLine
 62
7
  6
BYLAYER
 10
18.1956213306
 20
65.9799198076
 11
18.3370444975
 21
66.0615700237
  0
LWPOLYLINE
  5
21C
100
AcDbEntity
  8
0
100
AcDbPolyline
 62
7
  6
BYLAYER
 90
3
 70
0
 10
28.4728858874
 20
13.8307180606
 10
29.0732007683
 20
13.7617791193
 10
30.008426079
 20
13.8691831678
  0
LINE
  5
21D
100
AcDbEntity
  8
0
100
AcDbLine
 62
7
  6
BYLAYER
 10
17.6425403912
 20
69.6308675993
 11
17.5627800874
 21
69.521933377
  0
LINE
  5
21E
100
AcDbEntity
  8
0
100
AcDbLine
 62
7
  6
BYLAYER
 10
20.0009692038
 20
63.3479707894
 11
18.1956213306
 21
62.3056589305
  0
LINE
  5
21F
100
AcDbEntity
  8
0
100
AcDbLine
 62
7
  6
BYLAYER
 10
18.3370432756
 20
62.0607102962
 11
20.1434525197
 21
63.1036349341
  0
LINE
  5
220
100
AcDbEntity
  8
0
100
AcDbLine
 62
7
  6
BYLAYER
 10
24.8080930799
 20
65.4939274157
 11
24.2633264598
 21
65.1794081383
  0
LINE
  5
221
100
AcDbEntity
  8
0
100
AcDbLine
 62
7
  6
BYLAYER
 10
24.440103891
 20
64.8732223454
 11
24.9116475114
 21
65.1454665565
  0
LINE
  5
222
100
AcDbEntity
  8
0
100
AcDbLine
 62
7
  6
BYLAYER
 10
26.81061385
 20
64.3349171483
 11
26.8219793102
 21
64.3414789606
  0
LINE
  5
223
100
AcDbEntity
  8
0
100
AcDbLine
 62
7
  6
BYLAYER
 10
18.1956213306
 20
65.9799198076
 11
18.2370458926
 21
66.0714732386
  0
LINE
  5
224
100
AcDbEntity
  8
0
100
AcDbLine
 62
7
  6
BYLAYER
 10
20.882639508
 20
60.7543419469
 11
20.7412163411
 21
60.6726917308
  0
LINE
  5
225
100
AcDbEntity
  8
0
100
AcDbLine
 62
7
  6
BYLAYER
 10
20.8826382861
 20
60.7543440633
 11
20.8412137241
 21
60.6627906323
  0
LINE
  5
226
100
AcDbEntity
  8
0
100
AcDbLine
 62
7
  6
BYLAYER
 10
16.1879745713
 20
23.9669912548
 11
16.1879745713
 21
20.2464964779
  0
LINE
  5
227
100
AcDbEntity
  8
0
100
AcDbLine
 62
7
  6
BYLAYER
 10
16.4472524007
 20
69.3434586074
 11
16.4472524007
 21
57.6348139458
  0
LINE
  5
228
100
AcDbEntity
  8
0
100
AcDbLine
 62
7
  6
BYLAYER
 10
16.4741279703
 20
57.5697111425
 11
16.4741279703
 21
69.2783558041
  0
LINE
  5
229
100
AcDbEntity
  8
0
100
AcDbLine
 62
7
  6
BYLAYER
 10
17.052377863
 20
18.3840238832
 11
17.052377863
 21
22.1045186602
  0
LINE
  5
22A
100
AcDbEntity
  8
0
100
AcDbLine
 62
7
  6
BYLAYER
 10
17.0731725353
 20
25.4336526257
 11
17.0731725353
 21
47.8874690955
  0
LWPOLYLINE
  5
22B
100
AcDbEntity
  8
0
100
AcDbPolyline
 62
7
  6
BYLAYER
 90
7
 70
0
 10
21.30054429
 20
52.943910649
 10
20.2248402957
 20
51.9250933442
 10
19.5759437656
 20
50.0609258862
 10
20.0676247572
 20
48.1823315538
 10
21.6431185177
 20
46.5109683531
 10
24.1090571703
 20
45.2523434207
 10
27.1935368032
 20
44.5524039009
  0
LWPOLYLINE
  5
22C
100
AcDbEntity
  8
0
100
AcDbPolyline
 62
7
  6
BYLAYER
 90
3
 70
0
 10
21.9045974789
 20
52.5951682675
 10
20.8752028196
 20
51.7237353432
 10
20.0992927055
 20
49.9175998623
  0
LINE
  5
22D
100
AcDbEntity
  8
0
100
AcDbLine
 62
7
  6
BYLAYER
 10
23.8446862032
 20
52.970435161
 11
23.800725648
 21
52.9450546741
  0
LINE
  5
22E
100
AcDbEntity
  8
0
100
AcDbLine
 62
7
  6
BYLAYER
 10
26.9264274806
 20
54.6000487089
 11
24.440103891
 21
53.1645776838
  0
LINE
  5
22F
100
AcDbEntity
  8
0
100
AcDbLine
 62
7
  6
BYLAYER
 10
24.3655964753
 20
52.9017242342
 11
26.7643381354
 21
54.2866301106
  0
LINE
  5
230
100
AcDbEntity
  8
0
100
AcDbLine
 62
7
  6
BYLAYER
 10
24.5885003415
 20
52.955656866
 11
24.485287365
 21
52.8960671819
  0
LINE
  5
231
100
AcDbEntity
  8
0
100
AcDbLine
 62
7
  6
BYLAYER
 10
24.9767174911
 20
52.9291676
 11
24.8352967236
 21
52.8475187693
  0
LINE
  5
232
100
AcDbEntity
  8
0
100
AcDbLine
 62
7
  6
BYLAYER
 10
25.1171404074
 20
52.9127229454
 11
24.9757196399
 21
52.8310741146
  0
LINE
  5
233
100
AcDbEntity
  8
0
100
AcDbLine
 62
7
  6
BYLAYER
 10
24.713178362
 20
52.5434603794
 11
24.6047516371
 21
52.4808605543
  0
LINE
  5
234
100
AcDbEntity
  8
0
100
AcDbLine
 62
7
  6
BYLAYER
 10
24.36353521
 20
52.9005830071
 11
24.3655964753
 21
52.9017242342
  0
LWPOLYLINE
  5
235
100
AcDbEntity
  8
0
100
AcDbPolyline
 62
7
  6
BYLAYER
 90
4
 70
0
 10
16.4472524242
 20
57.634874204
 10
16.4565493041
 20
57.5431082552
 10
16.5230523461
 20
57.3760509811
 10
16.5712873475
 20
57.3077200359
  0
LINE
  5
236
100
AcDbEntity
  8
0
100
AcDbLine
 62
7
  6
BYLAYER
 10
18.0089576312
 20
69.4193105393
 11
18.0089576312
 21
69.7253223195
  0
LINE
  5
237
100
AcDbEntity
  8
0
100
AcDbLine
 62
7
  6
BYLAYER
 10
18.0361487391
 20
67.4939214857
 11
18.0361487391
 21
55.7852768241
  0
LINE
  5
238
100
AcDbEntity
  8
0
100
AcDbLine
 62
7
  6
BYLAYER
 10
18.0824972102
 20
55.748318589
 11
18.0824972102
 21
67.4569632506
  0
LINE
  5
239
100
AcDbEntity
  8
0
100
AcDbLine
 62
7
  6
BYLAYER
 10
18.1956213306
 20
62.3056589305
 11
18.1956213306
 21
65.9799198076
  0
LWPOLYLINE
  5
23A
100
AcDbEntity
  8
0
100
AcDbPolyline
 62
7
  6
BYLAYER
 90
3
 70
0
 10
20.0733957691
 20
49.9287251046
 10
20.4547026952
 20
51.4255597713
 10
21.6380914562
 20
52.7490321105
  0
LINE
  5
23B
100
AcDbEntity
  8
0
100
AcDbLine
 62
7
  6
BYLAYER
 10
23.800725648
 20
52.9450546741
 11
23.8153009691
 21
52.9790089489
  0
LINE
  5
23C
100
AcDbEntity
  8
0
100
AcDbLine
 62
7
  6
BYLAYER
 10
37.8630588613
 20
70.6982572379
 11
37.505363762
 21
70.2360620936
  0
LINE
  5
23D
100
AcDbEntity
  8
0
100
AcDbLine
 62
7
  6
BYLAYER
 10
35.3117490826
 20
65.5090533027
 11
35.6694441819
 21
65.971248447
  0
LINE
  5
23E
100
AcDbEntity
  8
0
100
AcDbLine
 62
7
  6
BYLAYER
 10
32.4545808138
 20
64.1704230149
 11
32.2172006354
 21
63.863963017
  0
LINE
  5
23F
100
AcDbEntity
  8
0
100
AcDbLine
 62
7
  6
BYLAYER
 10
35.037010618
 20
65.0419389236
 11
35.8333677994
 21
65.9459886656
  0
LINE
  5
240
100
AcDbEntity
  8
0
100
AcDbLine
 62
7
  6
BYLAYER
 10
20.483471106
 20
62.9073295528
 11
20.4658289715
 21
64.8325449498
  0
LINE
  5
241
100
AcDbEntity
  8
0
100
AcDbLine
 62
7
  6
BYLAYER
 10
20.0009692038
 20
63.3479707894
 11
19.9894897275
 21
65.1075533191
  0
LINE
  5
242
100
AcDbEntity
  8
0
100
AcDbLine
 62
7
  6
BYLAYER
 10
20.3302973892
 20
64.9107923752
 11
20.3427442227
 21
62.9885764188
  0
LINE
  5
243
100
AcDbEntity
  8
0
100
AcDbLine
 62
7
  6
BYLAYER
 10
19.8651284836
 20
53.9924677274
 11
19.8651284836
 21
54.4993011023
  0
LINE
  5
244
100
AcDbEntity
  8
0
100
AcDbLine
 62
7
  6
BYLAYER
 10
20.8826382861
 20
64.4286049404
 11
20.8826382861
 21
60.7543440633
  0
LINE
  5
245
100
AcDbEntity
  8
0
100
AcDbLine
 62
7
  6
BYLAYER
 10
20.9957624064
 20
65.7750268558
 11
20.9957624064
 21
54.0663821942
  0
LINE
  5
246
100
AcDbEntity
  8
0
100
AcDbLine
 62
7
  6
BYLAYER
 10
21.0597772485
 20
54.0396235822
 11
21.0597772485
 21
65.7482682439
  0
LINE
  5
247
100
AcDbEntity
  8
0
100
AcDbLine
 62
7
  6
BYLAYER
 10
21.7398532849
 20
50.8468304954
 11
21.7398532849
 21
52.6902812205
  0
LINE
  5
248
100
AcDbEntity
  8
0
100
AcDbLine
 62
7
  6
BYLAYER
 10
23.9729911964
 20
52.9329993592
 11
23.944554344
 21
52.8620170163
  0
LINE
  5
249
100
AcDbEntity
  8
0
100
AcDbLine
 62
7
  6
BYLAYER
 10
35.6694441819
 20
65.971248447
 11
35.3644876653
 21
65.4796794035
  0
LINE
  5
24A
100
AcDbEntity
  8
0
100
AcDbLine
 62
7
  6
BYLAYER
 10
26.9341809648
 20
47.7516679773
 11
26.8664426844
 21
47.7125586382
  0
LINE
  5
24B
100
AcDbEntity
  8
0
100
AcDbLine
 62
7
  6
BYLAYER
 10
26.2878525332
 20
47.1566952098
 11
26.7828197884
 21
47.4424692529
  0
LINE
  5
24C
100
AcDbEntity
  8
0
100
AcDbLine
 62
7
  6
BYLAYER
 10
16.4557719235
 20
57.5974550584
 11
16.4472524007
 21
57.6348139458
  0
LINE
  5
24D
100
AcDbEntity
  8
0
100
AcDbLine
 62
7
  6
BYLAYER
 10
20.0997588261
 20
68.0572411551
 11
20.0836593542
 21
68.2214471499
  0
LINE
  5
24E
100
AcDbEntity
  8
0
100
AcDbLine
 62
7
  6
BYLAYER
 10
22.7700708161
 20
48.8703015573
 11
22.7700214616
 21
48.8732868307
  0
LINE
  5
24F
100
AcDbEntity
  8
0
100
AcDbLine
 62
7
  6
BYLAYER
 10
23.0138004006
 20
72.6089968592
 11
23.0285767536
 21
66.3663255898
  0
LINE
  5
250
100
AcDbEntity
  8
0
100
AcDbLine
 62
7
  6
BYLAYER
 10
22.2919225353
 20
10.1650574241
 11
22.2919225353
 21
15.0148904094
  0
LINE
  5
251
100
AcDbEntity
  8
0
100
AcDbLine
 62
7
  6
BYLAYER
 10
22.4721130877
 20
52.0024426007
 11
22.4721130877
 21
52.2675203903
  0
LINE
  5
252
100
AcDbEntity
  8
0
100
AcDbLine
 62
7
  6
BYLAYER
 10
22.7700214616
 20
49.1631486106
 11
22.7700214616
 21
48.8732868307
  0
LINE
  5
253
100
AcDbEntity
  8
0
100
AcDbLine
 62
7
  6
BYLAYER
 10
22.8139570497
 20
48.8057951873
 11
22.8139570497
 21
48.8703015573
  0
LINE
  5
254
100
AcDbEntity
  8
0
100
AcDbLine
 62
7
  6
BYLAYER
 10
24.1234751144
 20
18.022111115
 11
24.1234751144
 21
14.301616338
  0
LINE
  5
255
100
AcDbEntity
  8
0
100
AcDbLine
 62
7
  6
BYLAYER
 10
24.1505653425
 20
64.8464628836
 11
24.1505653425
 21
53.137818222
  0
LINE
  5
256
100
AcDbEntity
  8
0
100
AcDbLine
 62
7
  6
BYLAYER
 10
24.440103891
 20
53.1645776838
 11
24.440103891
 21
64.8732223454
  0
LINE
  5
257
100
AcDbEntity
  8
0
100
AcDbLine
 62
7
  6
BYLAYER
 10
22.7704184756
 20
48.8702897389
 11
22.770388645
 21
48.8695757737
  0
LINE
  5
258
100
AcDbEntity
  8
0
100
AcDbLine
 62
7
  6
BYLAYER
 10
37.505363762
 20
70.2360620936
 11
35.3117490826
 21
65.5090533027
  0
LINE
  5
259
100
AcDbEntity
  8
0
100
AcDbLine
 62
7
  6
BYLAYER
 10
35.6694441819
 20
65.971248447
 11
37.8630588613
 21
70.6982572379
  0
LINE
  5
25A
100
AcDbEntity
  8
0
100
AcDbLine
 62
7
  6
BYLAYER
 10
33.7400908333
 20
48.9829672667
 11
33.6214939085
 21
48.914495709
  0
LINE
  5
25B
100
AcDbEntity
  8
0
100
AcDbLine
 62
7
  6
BYLAYER
 10
33.7193796369
 20
48.9371886725
 11
33.6007827122
 21
48.8687171148
  0
LINE
  5
25C
100
AcDbEntity
  8
0
100
AcDbLine
 62
7
  6
BYLAYER
 10
16.5698159705
 20
57.30645063
 11
16.4741279703
 21
57.5697111425
  0
LINE
  5
25D
100
AcDbEntity
  8
0
100
AcDbLine
 62
7
  6
BYLAYER
 10
18.1213877066
 20
55.5330475583
 11
18.0361487391
 21
55.7852768241
  0
LINE
  5
25E
100
AcDbEntity
  8
0
100
AcDbLine
 62
7
  6
BYLAYER
 10
16.4472524007
 20
69.3434586074
 11
16.4557719235
 21
69.30609972
  0
LINE
  5
25F
100
AcDbEntity
  8
0
100
AcDbLine
 62
7
  6
BYLAYER
 10
21.7398532849
 20
50.8468304954
 11
21.8250485127
 21
50.4696771948
  0
LINE
  5
260
100
AcDbEntity
  8
0
100
AcDbLine
 62
7
  6
BYLAYER
 10
24.8352967236
 20
52.8475187693
 11
24.8352967236
 21
52.9785267805
  0
LINE
  5
261
100
AcDbEntity
  8
0
100
AcDbLine
 62
7
  6
BYLAYER
 10
24.9767174911
 20
52.9635212973
 11
24.9767174911
 21
52.9291676
  0
LINE
  5
262
100
AcDbEntity
  8
0
100
AcDbLine
 62
7
  6
BYLAYER
 10
25.5135708474
 20
52.9065583476
 11
25.5135708474
 21
52.7670699071
  0
LINE
  5
263
100
AcDbEntity
  8
0
100
AcDbLine
 62
7
  6
BYLAYER
 10
25.5135708474
 20
52.2719882931
 11
25.5135708474
 21
52.1324998525
  0
LINE
  5
264
100
AcDbEntity
  8
0
100
AcDbLine
 62
7
  6
BYLAYER
 10
25.8586902726
 20
53.7637571944
 11
25.8586902726
 21
50.5321614977
  0
LINE
  5
265
100
AcDbEntity
  8
0
100
AcDbLine
 62
7
  6
BYLAYER
 10
26.9264274806
 20
63.1823056153
 11
26.9264274806
 21
54.6000487089
  0
LINE
  5
266
100
AcDbEntity
  8
0
100
AcDbLine
 62
7
  6
BYLAYER
 10
35.8333677994
 20
65.9459886656
 11
38.0269407916
 21
70.672907625
  0
LINE
  5
267
100
AcDbEntity
  8
0
100
AcDbLine
 62
7
  6
BYLAYER
 10
36.4612239783
 20
65.318143937
 11
38.6547969706
 21
70.0450628964
  0
LINE
  5
268
100
AcDbEntity
  8
0
100
AcDbLine
 62
7
  6
BYLAYER
 10
41.0731725353
 20
27.8364536696
 11
41.0939672076
 21
27.8199708079
  0
LINE
  5
269
100
AcDbEntity
  8
0
100
AcDbLine
 62
7
  6
BYLAYER
 10
19.3741856341
 20
68.9693069059
 11
19.1988470178
 21
69.7227301504
  0
LINE
  5
26A
100
AcDbEntity
  8
0
100
AcDbLine
 62
7
  6
BYLAYER
 10
24.7419692565
 20
49.6707099676
 11
24.7939138289
 21
49.3768390481
  0
LINE
  5
26B
100
AcDbEntity
  8
0
100
AcDbLine
 62
7
  6
BYLAYER
 10
27.3494255913
 20
13.8025755079
 11
27.3494255913
 21
17.5230702848
  0
LINE
  5
26C
100
AcDbEntity
  8
0
100
AcDbLine
 62
7
  6
BYLAYER
 10
27.5516441882
 20
49.6526251554
 11
27.5516441882
 21
46.0706126666
  0
LINE
  5
26D
100
AcDbEntity
  8
0
100
AcDbLine
 62
7
  6
BYLAYER
 10
27.7637762225
 20
46.1519650037
 11
27.7637762225
 21
49.5734021781
  0
LINE
  5
26E
100
AcDbEntity
  8
0
100
AcDbLine
 62
7
  6
BYLAYER
 10
27.9051954383
 20
49.5205876593
 11
27.9051954383
 21
46.5605154789
  0
LINE
  5
26F
100
AcDbEntity
  8
0
100
AcDbLine
 62
7
  6
BYLAYER
 10
28.1173274726
 20
46.5605173325
 11
28.1173274726
 21
49.4413646819
  0
LINE
  5
270
100
AcDbEntity
  8
0
100
AcDbLine
 62
7
  6
BYLAYER
 10
28.6005842291
 20
49.3763615168
 11
28.6005842291
 21
46.2815214017
  0
LINE
  5
271
100
AcDbEntity
  8
0
100
AcDbLine
 62
7
  6
BYLAYER
 10
33.331481126
 20
48.6405529772
 11
33.2551437904
 21
48.4865967154
  0
LINE
  5
272
100
AcDbEntity
  8
0
100
AcDbLine
 62
7
  6
BYLAYER
 10
41.0733258249
 20
27.8371665194
 11
41.0939672076
 21
27.8199708079
  0
LINE
  5
273
100
AcDbEntity
  8
0
100
AcDbLine
 62
7
  6
BYLAYER
 10
22.8139570497
 20
48.8057951873
 11
22.7700708161
 21
48.8703015573
  0
LINE
  5
274
100
AcDbEntity
  8
0
100
AcDbLine
 62
7
  6
BYLAYER
 10
23.7679707239
 20
52.9927856741
 11
23.7844826987
 21
52.9544323331
  0
LINE
  5
275
100
AcDbEntity
  8
0
100
AcDbLine
 62
7
  6
BYLAYER
 10
24.5692492883
 20
53.0193025387
 11
24.7590596552
 21
52.3917727939
  0
LINE
  5
276
100
AcDbEntity
  8
0
100
AcDbLine
 62
7
  6
BYLAYER
 10
24.6047516371
 20
52.4808605543
 11
24.485287365
 21
52.8960671819
  0
LINE
  5
277
100
AcDbEntity
  8
0
100
AcDbLine
 62
7
  6
BYLAYER
 10
22.9179515443
 20
73.333031186
 11
23.0138004006
 21
72.6089968592
  0
LINE
  5
278
100
AcDbEntity
  8
0
100
AcDbLine
 62
7
  6
BYLAYER
 10
31.217870946
 20
66.7863939036
 11
31.2010907721
 21
73.8756336599
  0
LINE
  5
279
100
AcDbEntity
  8
0
100
AcDbLine
 62
7
  6
BYLAYER
 10
31.2221540065
 20
63.6806679537
 11
31.217870946
 21
66.7863939036
  0
LINE
  5
27A
100
AcDbEntity
  8
0
100
AcDbLine
 62
7
  6
BYLAYER
 10
33.060123674
 20
47.5656941794
 11
32.7831487849
 21
46.9622645542
  0
LINE
  5
27B
100
AcDbEntity
  8
0
100
AcDbLine
 62
7
  6
BYLAYER
 10
33.6902937612
 20
46.9364882935
 11
33.4150139865
 21
46.336751719
  0
LINE
  5
27C
100
AcDbEntity
  8
0
100
AcDbLine
 62
7
  6
BYLAYER
 10
38.6547969706
 20
56.8993739806
 11
36.4612239783
 21
52.1724550212
  0
LINE
  5
27D
100
AcDbEntity
  8
0
100
AcDbLine
 62
7
  6
BYLAYER
 10
38.6165474902
 20
56.7228793807
 11
36.422974498
 21
51.9959604214
  0
LINE
  5
27E
100
AcDbEntity
  8
0
100
AcDbLine
 62
7
  6
BYLAYER
 10
33.060123674
 20
47.5656941794
 11
33.6979126397
 21
48.9247947699
  0
LINE
  5
27F
100
AcDbEntity
  8
0
100
AcDbLine
 62
7
  6
BYLAYER
 10
35.6133377666
 20
51.0469550465
 11
33.6856622534
 21
46.9391622353
  0
LWPOLYLINE
  5
280
100
AcDbEntity
  8
0
100
AcDbPolyline
 62
7
  6
BYLAYER
 90
8
 70
0
 10
33.2650615081
 20
48.5334217039
 10
33.2837078935
 20
48.57252256
 10
33.3338005844
 20
48.6438559508
 10
33.390917033
 20
48.7067313241
 10
33.4227679233
 20
48.7372435577
 10
33.490930306
 20
48.7946921247
 10
33.5620184652
 20
48.8450525653
 10
33.6007574629
 20
48.8687025519
  0
LINE
  5
281
100
AcDbEntity
  8
0
100
AcDbLine
 62
7
  6
BYLAYER
 10
16.5857047918
 20
57.2873850529
 11
18.1226330537
 21
55.531616122
  0
LINE
  5
282
100
AcDbEntity
  8
0
100
AcDbLine
 62
7
  6
BYLAYER
 10
18.0361487391
 20
55.7852768241
 11
16.4741279703
 21
57.5697111425
  0
LINE
  5
283
100
AcDbEntity
  8
0
100
AcDbLine
 62
7
  6
BYLAYER
 10
16.5857047918
 20
57.2873850529
 11
16.5698159705
 21
57.30645063
  0
LINE
  5
284
100
AcDbEntity
  8
0
100
AcDbLine
 62
7
  6
BYLAYER
 10
26.6278045869
 20
47.3807482206
 11
26.6331567882
 21
47.3714781231
  0
LINE
  5
285
100
AcDbEntity
  8
0
100
AcDbLine
 62
7
  6
BYLAYER
 10
26.8449365842
 20
47.4909532911
 11
26.7982132944
 21
47.5718787697
  0
LINE
  5
286
100
AcDbEntity
  8
0
100
AcDbLine
 62
7
  6
BYLAYER
 10
26.8129494926
 20
47.5803868894
 11
26.8630186885
 21
47.4936662481
  0
LINE
  5
287
100
AcDbEntity
  8
0
100
AcDbLine
 62
7
  6
BYLAYER
 10
26.8137290787
 20
47.6157385815
 11
26.8771623487
 21
47.5058711522
  0
LINE
  5
288
100
AcDbEntity
  8
0
100
AcDbLine
 62
7
  6
BYLAYER
 10
26.9061227252
 20
47.8002652931
 11
26.9341809648
 21
47.7516679773
  0
LINE
  5
289
100
AcDbEntity
  8
0
100
AcDbLine
 62
7
  6
BYLAYER
 10
26.9962477406
 20
48.0176208362
 11
27.0825325604
 21
47.8681741602
  0
LINE
  5
28A
100
AcDbEntity
  8
0
100
AcDbLine
 62
7
  6
BYLAYER
 10
27.0018929635
 20
48.0445451684
 11
27.0984251303
 21
47.8773499249
  0
LINE
  5
28B
100
AcDbEntity
  8
0
100
AcDbLine
 62
7
  6
BYLAYER
 10
32.7831487849
 20
46.9622645542
 11
32.7831487849
 21
49.5290452905
  0
LINE
  5
28C
100
AcDbEntity
  8
0
100
AcDbLine
 62
7
  6
BYLAYER
 10
33.2482089946
 20
49.623890595
 11
33.2482089946
 21
48.5432791201
  0
LINE
  5
28D
100
AcDbEntity
  8
0
100
AcDbLine
 62
7
  6
BYLAYER
 10
36.422974498
 20
51.9959604214
 11
36.4612239783
 21
52.1724550212
  0
LWPOLYLINE
  5
28E
100
AcDbEntity
  8
0
100
AcDbPolyline
 62
7
  6
BYLAYER
 90
8
 70
0
 10
27.1935368032
 20
44.5524039009
 10
30.491313712
 20
44.5054322041
 10
33.6118017815
 20
45.1104005689
 10
36.2007482691
 20
46.3025995691
 10
37.9215047748
 20
47.9323569323
 10
38.5704013049
 20
49.7965243903
 10
38.0787203134
 20
51.6751187228
 10
36.869420609
 20
52.9580048091
  0
LINE
  5
28F
100
AcDbEntity
  8
0
100
AcDbLine
 62
7
  6
BYLAYER
 10
22.0164870671
 20
49.0258992989
 11
22.6711595381
 21
48.6479408885
  0
LINE
  5
290
100
AcDbEntity
  8
0
100
AcDbLine
 62
7
  6
BYLAYER
 10
22.7538046702
 20
48.6002278348
 11
23.2845354362
 21
48.2938239985
  0
LINE
  5
291
100
AcDbEntity
  8
0
100
AcDbLine
 62
7
  6
BYLAYER
 10
25.5226099641
 20
47.0017289002
 11
27.4076917965
 21
45.9134251083
  0
LINE
  5
292
100
AcDbEntity
  8
0
100
AcDbLine
 62
7
  6
BYLAYER
 10
27.490327767
 20
45.8657173438
 11
28.1449582061
 21
45.4877831995
  0
LINE
  5
293
100
AcDbEntity
  8
0
100
AcDbLine
 62
7
  6
BYLAYER
 10
22.8619417431
 20
48.5835899538
 11
23.1867857022
 21
48.3960496007
  0
LINE
  5
294
100
AcDbEntity
  8
0
100
AcDbLine
 62
7
  6
BYLAYER
 10
25.581330788
 20
47.0136202269
 11
27.3750965917
 21
45.9780354091
  0
LINE
  5
295
100
AcDbEntity
  8
0
100
AcDbLine
 62
7
  6
BYLAYER
 10
27.4393780466
 20
46.0964610691
 11
25.7807804159
 21
47.0540099988
  0
LINE
  5
296
100
AcDbEntity
  8
0
100
AcDbLine
 62
7
  6
BYLAYER
 10
23.0636644246
 20
48.6226674362
 11
22.926223198
 21
48.7020156138
  0
LINE
  5
297
100
AcDbEntity
  8
0
100
AcDbLine
 62
7
  6
BYLAYER
 10
28.6005842291
 20
46.2815214017
 11
28.1173274726
 21
46.5605173325
  0
LINE
  5
298
100
AcDbEntity
  8
0
100
AcDbLine
 62
7
  6
BYLAYER
 10
35.8544225353
 20
10.1650574241
 11
35.8544225353
 21
14.9687519219
  0
LINE
  5
299
100
AcDbEntity
  8
0
100
AcDbLine
 62
7
  6
BYLAYER
 10
36.4612239783
 20
52.1724550212
 11
36.4612239783
 21
65.318143937
  0
LINE
  5
29A
100
AcDbEntity
  8
0
100
AcDbLine
 62
7
  6
BYLAYER
 10
38.6547969706
 20
56.8993739806
 11
38.6165474902
 21
56.7228793807
  0
LINE
  5
29B
100
AcDbEntity
  8
0
100
AcDbLine
 62
7
  6
BYLAYER
 10
27.1471342364
 20
48.9844062783
 11
27.0720704464
 21
49.0277424462
  0
LINE
  5
29C
100
AcDbEntity
  8
0
100
AcDbLine
 62
7
  6
BYLAYER
 10
27.053828992
 20
49.2747719046
 11
27.3733018755
 21
49.0903323693
  0
LINE
  5
29D
100
AcDbEntity
  8
0
100
AcDbLine
 62
7
  6
BYLAYER
 10
27.0995290043
 20
49.2754013684
 11
27.4187379563
 21
49.0911142072
  0
LINE
  5
29E
100
AcDbEntity
  8
0
100
AcDbLine
 62
7
  6
BYLAYER
 10
25.9933132811
 20
50.2346005016
 11
19.9997514921
 21
53.6949067313
  0
LINE
  5
29F
100
AcDbEntity
  8
0
100
AcDbLine
 62
7
  6
BYLAYER
 10
25.8586902726
 20
50.5321614977
 11
19.8651284836
 21
53.9924677274
  0
LINE
  5
2A0
100
AcDbEntity
  8
0
100
AcDbLine
 62
7
  6
BYLAYER
 10
18.2304157252
 20
55.4430816023
 11
21.1170899271
 21
53.7764971779
  0
LINE
  5
2A1
100
AcDbEntity
  8
0
100
AcDbLine
 62
7
  6
BYLAYER
 10
20.9957624064
 20
54.0663821942
 11
18.0824972102
 21
55.748318589
  0
LINE
  5
2A2
100
AcDbEntity
  8
0
100
AcDbLine
 62
7
  6
BYLAYER
 10
24.9757196399
 20
52.8310741146
 11
25.5135708474
 21
52.2719882931
  0
LINE
  5
2A3
100
AcDbEntity
  8
0
100
AcDbLine
 62
7
  6
BYLAYER
 10
25.5135708474
 20
52.1324998525
 11
24.8352967236
 21
52.8475187693
  0
LINE
  5
2A4
100
AcDbEntity
  8
0
100
AcDbLine
 62
7
  6
BYLAYER
 10
24.9767174911
 20
52.9291676
 11
25.0364883383
 21
52.8661587295
  0
LINE
  5
2A5
100
AcDbEntity
  8
0
100
AcDbLine
 62
7
  6
BYLAYER
 10
31.2010907721
 20
73.8756336599
 11
31.1052419158
 21
74.5996679866
  0
LINE
  5
2A6
100
AcDbEntity
  8
0
100
AcDbLine
 62
7
  6
BYLAYER
 10
37.0086730784
 20
19.0173645942
 11
37.0086730784
 21
15.2968698173
  0
LINE
  5
2A7
100
AcDbEntity
  8
0
100
AcDbLine
 62
7
  6
BYLAYER
 10
38.6547969706
 20
70.0450628964
 11
38.6547969706
 21
56.8993739806
  0
LINE
  5
2A8
100
AcDbEntity
  8
0
100
AcDbLine
 62
7
  6
BYLAYER
 10
38.8706924125
 20
57.8462461334
 11
38.8706924125
 21
70.9919350492
  0
LINE
  5
2A9
100
AcDbEntity
  8
0
100
AcDbLine
 62
7
  6
BYLAYER
 10
35.0404434009
 20
46.15699667
 11
33.6902937612
 21
46.9364882935
  0
LINE
  5
2AA
100
AcDbEntity
  8
0
100
AcDbLine
 62
7
  6
BYLAYER
 10
24.7590596552
 20
52.3917727939
 11
24.6047516371
 21
52.4808605543
  0
LINE
  5
2AB
100
AcDbEntity
  8
0
100
AcDbLine
 62
7
  6
BYLAYER
 10
23.944554344
 20
52.8620170163
 11
23.800725648
 21
52.9450546741
  0
LINE
  5
2AC
100
AcDbEntity
  8
0
100
AcDbLine
 62
7
  6
BYLAYER
 10
23.7844826987
 20
52.9544323331
 11
23.6669315397
 21
53.022298991
  0
LINE
  5
2AD
100
AcDbEntity
  8
0
100
AcDbLine
 62
7
  6
BYLAYER
 10
24.485287365
 20
52.8960671819
 11
24.4205422009
 21
52.9334469743
  0
LINE
  5
2AE
100
AcDbEntity
  8
0
100
AcDbLine
 62
7
  6
BYLAYER
 10
16.4741279703
 20
69.2783558041
 11
18.0361487391
 21
67.4939214857
  0
LINE
  5
2AF
100
AcDbEntity
  8
0
100
AcDbLine
 62
7
  6
BYLAYER
 10
16.6972524007
 20
69.5475842117
 11
18.2592731695
 21
67.7631498934
  0
LINE
  5
2B0
100
AcDbEntity
  8
0
100
AcDbLine
 62
7
  6
BYLAYER
 10
39.3702202636
 20
16.6603015817
 11
39.3702202636
 21
20.3807963587
  0
LINE
  5
2B1
100
AcDbEntity
  8
0
100
AcDbLine
 62
7
  6
BYLAYER
 10
41.0731725353
 20
25.4336526257
 11
41.0731725353
 21
47.8874690955
  0
LINE
  5
2B2
100
AcDbEntity
  8
0
100
AcDbLine
 62
7
  6
BYLAYER
 10
24.8352967236
 20
52.9785267805
 11
25.5135708474
 21
52.9065583476
  0
LINE
  5
2B3
100
AcDbEntity
  8
0
100
AcDbLine
 62
7
  6
BYLAYER
 10
25.5135708474
 20
52.7670699071
 11
24.9757196399
 21
52.8310741146
  0
LINE
  5
2B4
100
AcDbEntity
  8
0
100
AcDbLine
 62
7
  6
BYLAYER
 10
25.1171404074
 20
52.9127229454
 11
25.5087587413
 21
52.8661204264
  0
LWPOLYLINE
  5
2B5
100
AcDbEntity
  8
0
100
AcDbPolyline
 62
7
  6
BYLAYER
 90
6
 70
0
 10
24.1644437913
 20
52.8797207407
 10
24.1957151296
 20
52.8735195531
 10
24.24115881
 20
52.8709505791
 10
24.2857230653
 20
52.8758086134
 10
24.3280167108
 20
52.8875705318
 10
24.3621882319
 20
52.9028390753
  0
LINE
  5
2B6
100
AcDbEntity
  8
0
100
AcDbLine
 62
7
  6
BYLAYER
 10
24.1636073329
 20
52.8773829117
 11
24.1637647109
 21
52.877346566
  0
LINE
  5
2B7
100
AcDbEntity
  8
0
100
AcDbLine
 62
7
  6
BYLAYER
 10
21.192600769
 20
53.7442393778
 11
24.1636073329
 21
52.8773829117
  0
LINE
  5
2B8
100
AcDbEntity
  8
0
100
AcDbLine
 62
7
  6
BYLAYER
 10
24.1505653425
 20
53.137818222
 11
21.0597772485
 21
54.0396235822
  0
LWPOLYLINE
  5
2B9
100
AcDbEntity
  8
0
100
AcDbPolyline
 62
7
  6
BYLAYER
 90
3
 70
0
 10
37.9831640604
 20
49.9056069162
 10
37.6892805841
 20
51.0469732459
 10
36.5677430603
 20
52.3079214386
  0
LINE
  5
2BA
100
AcDbEntity
  8
0
100
AcDbLine
 62
7
  6
BYLAYER
 10
41.9583704993
 20
25.9574982133
 11
41.9583704993
 21
22.2370034363
  0
LINE
  5
2BB
100
AcDbEntity
  8
0
100
AcDbLine
 62
7
  6
BYLAYER
 10
20.7412163411
 20
60.6726917308
 11
18.3370432756
 21
62.0607102962
  0
LWPOLYLINE
  5
2BC
100
AcDbEntity
  8
0
100
AcDbPolyline
 62
7
  6
BYLAYER
 90
3
 70
0
 10
36.6890947789
 20
52.5694216218
 10
37.7650717806
 20
51.2766276646
 10
38.0729493014
 20
49.928725172
  0
LINE
  5
2BD
100
AcDbEntity
  8
0
100
AcDbLine
 62
7
  6
BYLAYER
 10
20.1434525197
 20
63.1036349341
 11
20.8826382861
 21
62.6768754875
  0
LINE
  5
2BE
100
AcDbEntity
  8
0
100
AcDbLine
 62
7
  6
BYLAYER
 10
18.3370432756
 20
66.0615721401
 11
20.7412163411
 21
64.6735535747
  0
LINE
  5
2BF
100
AcDbEntity
  8
0
100
AcDbLine
 62
7
  6
BYLAYER
 10
32.7697960061
 20
64.1704230149
 11
32.9085334378
 21
63.9913117121
  0
LINE
  5
2C0
100
AcDbEntity
  8
0
100
AcDbLine
 62
7
  6
BYLAYER
 10
20.8412137241
 20
60.6627906323
 11
20.7412163411
 21
60.6726917308
  0
LINE
  5
2C1
100
AcDbEntity
  8
0
100
AcDbLine
 62
7
  6
BYLAYER
 10
18.0824972102
 20
67.4569632506
 11
20.9957624064
 21
65.7750268558
  0
LINE
  5
2C2
100
AcDbEntity
  8
0
100
AcDbLine
 62
7
  6
BYLAYER
 10
21.1725383658
 20
66.0812134986
 11
18.2592731695
 21
67.7631498934
  0
LINE
  5
2C3
100
AcDbEntity
  8
0
100
AcDbLine
 62
7
  6
BYLAYER
 10
27.2013432913
 20
63.8234722845
 11
24.9116475114
 21
65.1454665565
  0
LINE
  5
2C4
100
AcDbEntity
  8
0
100
AcDbLine
 62
7
  6
BYLAYER
 10
17.5627800874
 20
69.521933377
 11
24.2188900686
 21
65.6791134238
  0
LINE
  5
2C5
100
AcDbEntity
  8
0
100
AcDbLine
 62
7
  6
BYLAYER
 10
17.2420190208
 20
69.8621034891
 11
20.0836593542
 21
68.2214471499
  0
LINE
  5
2C6
100
AcDbEntity
  8
0
100
AcDbLine
 62
7
  6
BYLAYER
 10
24.4075717096
 20
65.7251633055
 11
27.2327521377
 21
64.094009831
  0
LINE
  5
2C7
100
AcDbEntity
  8
0
100
AcDbLine
 62
7
  6
BYLAYER
 10
21.0597772485
 20
65.7482682439
 11
24.1505653425
 21
64.8464628836
  0
LINE
  5
2C8
100
AcDbEntity
  8
0
100
AcDbLine
 62
7
  6
BYLAYER
 10
21.1725383658
 20
66.0812134986
 11
24.2633264598
 21
65.1794081383
  0
LINE
  5
2C9
100
AcDbEntity
  8
0
100
AcDbLine
 62
7
  6
BYLAYER
 10
18.2370458926
 20
66.0714732386
 11
18.3370432756
 21
66.0615721401
  0
LINE
  5
2CA
100
AcDbEntity
  8
0
100
AcDbLine
 62
7
  6
BYLAYER
 10
24.4075717096
 20
65.7251633055
 11
24.2188900686
 21
65.6791134238
  0
LINE
  5
2CB
100
AcDbEntity
  8
0
100
AcDbLine
 62
7
  6
BYLAYER
 10
31.217870946
 20
66.7863939036
 11
24.1854436245
 21
65.6984233005
  0
LINE
  5
2CC
100
AcDbEntity
  8
0
100
AcDbLine
 62
7
  6
BYLAYER
 10
17.0955563526
 20
69.8621072203
 11
17.2420190208
 21
69.8621034891
  0
LINE
  5
2CD
100
AcDbEntity
  8
0
100
AcDbLine
 62
7
  6
BYLAYER
 10
16.6972524007
 20
69.5475842117
 11
16.5722529603
 21
69.5599652815
  0
LINE
  5
2CE
100
AcDbEntity
  8
0
100
AcDbLine
 62
7
  6
BYLAYER
 10
23.0138004006
 20
72.6089968592
 11
31.2010907721
 21
73.8756336599
  0
LINE
  5
2CF
100
AcDbEntity
  8
0
100
AcDbLine
 62
7
  6
BYLAYER
 10
31.1052419158
 20
74.5996679866
 11
22.9179515443
 21
73.333031186
  0
LINE
  5
2D0
100
AcDbEntity
  8
0
100
AcDbLine
 62
7
  6
BYLAYER
 10
31.0613277117
 20
74.694282865
 11
22.8741929305
 21
73.4276701354
  0
LINE
  5
2D1
100
AcDbEntity
  8
0
100
AcDbLine
 62
7
  6
BYLAYER
 10
30.9619499563
 20
74.8059144975
 11
22.7748151751
 21
73.5393017678
  0
ARC
  5
2D2
100
AcDbEntity
  8
0
100
AcDbCircle
 62
7
  6
BYLAYER
 10
28.959315914
 20
55.9072527598
 40
6.205278837
100
AcDbArc
 50
240.0214681753
 51
242.2472825632
  0
ARC
  5
2D3
100
AcDbEntity
  8
0
100
AcDbCircle
 62
7
  6
BYLAYER
 10
24.2920905795
 20
48.9060871627
 40
3.1534862526
100
AcDbArc
 50
0.0235513085
 51
2.4979561131
  0
ARC
  5
2D4
100
AcDbEntity
  8
0
100
AcDbCircle
 62
7
  6
BYLAYER
 10
24.1663290085
 20
49.0378805876
 40
3.0320498961
100
AcDbArc
 50
3.4759037133
 51
4.6266325167
  0
ARC
  5
2D5
100
AcDbEntity
  8
0
100
AcDbCircle
 62
7
  6
BYLAYER
 10
24.5253282216
 20
48.9069512477
 40
2.9202483761
100
AcDbArc
 50
357.4042902103
 51
0.0084788333
  0
ARC
  5
2D6
100
AcDbEntity
  8
0
100
AcDbCircle
 62
7
  6
BYLAYER
 10
24.2784876582
 20
49.0815000604
 40
2.8905001882
100
AcDbArc
 50
3.1026979687
 51
3.8566447092
  0
ARC
  5
2D7
100
AcDbEntity
  8
0
100
AcDbCircle
 62
7
  6
BYLAYER
 10
24.6645610476
 20
48.5644104231
 40
2.282935836
100
AcDbArc
 50
350.1722459997
 51
350.8683876192
  0
ARC
  5
2D8
100
AcDbEntity
  8
0
100
AcDbCircle
 62
7
  6
BYLAYER
 10
24.7362560899
 20
48.5518279337
 40
2.2101452354
100
AcDbArc
 50
348.7074744363
 51
350.1764054418
  0
ARC
  5
2D9
100
AcDbEntity
  8
0
100
AcDbCircle
 62
7
  6
BYLAYER
 10
24.9404017769
 20
48.6216768626
 40
2.1463131386
100
AcDbArc
 50
347.9252448471
 51
348.6260278318
  0
ARC
  5
2DA
100
AcDbEntity
  8
0
100
AcDbCircle
 62
7
  6
BYLAYER
 10
24.8238204749
 20
48.5343954086
 40
2.1208624729
100
AcDbArc
 50
347.4332187459
 51
348.706078642
  0
ARC
  5
2DB
100
AcDbEntity
  8
0
100
AcDbCircle
 62
7
  6
BYLAYER
 10
25.0017918077
 20
48.6084007564
 40
2.0835041376
100
AcDbArc
 50
346.4450644267
 51
347.9291041054
  0
ARC
  5
2DC
100
AcDbEntity
  8
0
100
AcDbCircle
 62
7
  6
BYLAYER
 10
25.0770557655
 20
48.5903013734
 40
2.0060945199
100
AcDbArc
 50
345.1550530382
 51
346.4437806917
  0
ARC
  5
2DD
100
AcDbEntity
  8
0
100
AcDbCircle
 62
7
  6
BYLAYER
 10
25.1720678197
 20
48.5649243568
 40
1.9077520244
100
AcDbArc
 50
342.265100947
 51
345.1606848553
  0
ARC
  5
2DE
100
AcDbEntity
  8
0
100
AcDbCircle
 62
7
  6
BYLAYER
 10
25.2900848973
 20
48.527934006
 40
1.7840759688
100
AcDbArc
 50
340.5029372337
 51
342.2420698376
  0
ARC
  5
2DF
100
AcDbEntity
  8
0
100
AcDbCircle
 62
7
  6
BYLAYER
 10
25.3403224997
 20
48.5102979787
 40
1.7308328921
100
AcDbArc
 50
339.6710547764
 51
340.4982208577
  0
ARC
  5
2E0
100
AcDbEntity
  8
0
100
AcDbCircle
 62
7
  6
BYLAYER
 10
25.520543169
 20
48.9178509977
 40
1.6654154364
100
AcDbArc
 50
341.3351078753
 51
344.7718147429
  0
ARC
  5
2E1
100
AcDbEntity
  8
0
100
AcDbCircle
 62
7
  6
BYLAYER
 10
25.6144375561
 20
48.8872626445
 40
1.5666703757
100
AcDbArc
 50
340.7056588262
 51
341.295988899
  0
ARC
  5
2E2
100
AcDbEntity
  8
0
100
AcDbCircle
 62
7
  6
BYLAYER
 10
25.6485749168
 20
48.8752399894
 40
1.5304778497
100
AcDbArc
 50
339.4562279946
 51
340.7081924857
  0
ARC
  5
2E3
100
AcDbEntity
  8
0
100
AcDbCircle
 62
7
  6
BYLAYER
 10
25.7050487122
 20
48.8539696837
 40
1.4701313077
100
AcDbArc
 50
336.5057262746
 51
339.4601121125
  0
ARC
  5
2E4
100
AcDbEntity
  8
0
100
AcDbCircle
 62
7
  6
BYLAYER
 10
25.6979702777
 20
48.3380252918
 40
1.3330550697
100
AcDbArc
 50
325.8027944161
 51
328.4096120824
  0
ARC
  5
2E5
100
AcDbEntity
  8
0
100
AcDbCircle
 62
7
  6
BYLAYER
 10
26.0473255609
 20
48.5787774708
 40
1.2636498356
100
AcDbArc
 50
325.2227973159
 51
326.2837314985
  0
ARC
  5
2E6
100
AcDbEntity
  8
0
100
AcDbCircle
 62
7
  6
BYLAYER
 10
25.6683077572
 20
48.172892723
 40
1.1934451182
100
AcDbArc
 50
318.5432145552
 51
319.4990579279
  0
ARC
  5
2E7
100
AcDbEntity
  8
0
100
AcDbCircle
 62
7
  6
BYLAYER
 10
26.7969294376
 20
48.9318489892
 40
1.1881351785
100
AcDbArc
 50
276.633529003
 51
280.9846263105
  0
ARC
  5
2E8
100
AcDbEntity
  8
0
100
AcDbCircle
 62
7
  6
BYLAYER
 10
25.086040846
 20
48.4226409253
 40
1.1130546056
100
AcDbArc
 50
271.0185413995
 51
271.9046660973
  0
ARC
  5
2E9
100
AcDbEntity
  8
0
100
AcDbCircle
 62
7
  6
BYLAYER
 10
26.2471479534
 20
48.3699368498
 40
1.0710494525
100
AcDbArc
 50
301.705259138
 51
305.1007633564
  0
ARC
  5
2EA
100
AcDbEntity
  8
0
100
AcDbCircle
 62
7
  6
BYLAYER
 10
26.2492874032
 20
48.3665537408
 40
1.0670468425
100
AcDbArc
 50
300.0005560388
 51
301.7029946638
  0
ARC
  5
2EB
100
AcDbEntity
  8
0
100
AcDbCircle
 62
7
  6
BYLAYER
 10
26.1967658683
 20
48.4502523187
 40
1.0660085924
100
AcDbArc
 50
306.3059038364
 51
312.5771714511
  0
ARC
  5
2EC
100
AcDbEntity
  8
0
100
AcDbCircle
 62
7
  6
BYLAYER
 10
25.1025056469
 20
48.2683850232
 40
0.9577276674
100
AcDbArc
 50
281.1551501413
 51
281.864798535
  0
ARC
  5
2ED
100
AcDbEntity
  8
0
100
AcDbCircle
 62
7
  6
BYLAYER
 10
25.1072504473
 20
48.2465198137
 40
0.935354064
100
AcDbArc
 50
281.8557401578
 51
286.9142075334
  0
ARC
  5
2EE
100
AcDbEntity
  8
0
100
AcDbCircle
 62
7
  6
BYLAYER
 10
21.2278264907
 20
53.864626268
 40
0.1254249728
100
AcDbArc
 50
249.6287767776
 51
253.6792020942
  0
ARC
  5
2EF
100
AcDbEntity
  8
0
100
AcDbCircle
 62
7
  6
BYLAYER
 10
27.1214050105
 20
49.01870421
 40
0.0402438754
100
AcDbArc
 50
240.0722632563
 51
258.5168793009
  0
ARC
  5
2F0
100
AcDbEntity
  8
0
100
AcDbCircle
 62
7
  6
BYLAYER
 10
22.9353615864
 20
60.9616800044
 40
4.381160347
100
AcDbArc
 50
121.0998518393
 51
125.4231165932
  0
ARC
  5
2F1
100
AcDbEntity
  8
0
100
AcDbCircle
 62
7
  6
BYLAYER
 10
22.1226285667
 20
71.225981737
 40
3.6188239125
100
AcDbArc
 50
226.6153361732
 51
228.2571116252
  0
ARC
  5
2F2
100
AcDbEntity
  8
0
100
AcDbCircle
 62
7
  6
BYLAYER
 10
21.764097254
 20
70.9592370006
 40
3.3150498116
100
AcDbArc
 50
221.0146712503
 51
225.9159586737
  0
ARC
  5
2F3
100
AcDbEntity
  8
0
100
AcDbCircle
 62
7
  6
BYLAYER
 10
20.1306343382
 20
69.7254300819
 40
2.1216802261
100
AcDbArc
 50
180.0029101109
 51
189.641985633
  0
ARC
  5
2F4
100
AcDbEntity
  8
0
100
AcDbCircle
 62
7
  6
BYLAYER
 10
16.8020628679
 20
69.2237628205
 40
0.3412826732
100
AcDbArc
 50
124.218234173
 51
140.3001387915
  0
ARC
  5
2F5
100
AcDbEntity
  8
0
100
AcDbCircle
 62
7
  6
BYLAYER
 10
16.6972524007
 20
69.3434586074
 40
0.25
100
AcDbArc
 50
119.9998519061
 51
180.0
  0
ARC
  5
2F6
100
AcDbEntity
  8
0
100
AcDbCircle
 62
7
  6
BYLAYER
 10
16.5727957072
 20
69.3648695533
 40
0.1312248114
100
AcDbArc
 50
216.2074986982
 51
221.2449007483
  0
ARC
  5
2F7
100
AcDbEntity
  8
0
100
AcDbCircle
 62
7
  6
BYLAYER
 10
29.7354687418
 20
31.7074824596
 40
18.2882106264
100
AcDbArc
 50
239.9875657401
 51
252.1296576525
  0
ARC
  5
2F8
100
AcDbEntity
  8
0
100
AcDbCircle
 62
7
  6
BYLAYER
 10
34.1004592025
 20
53.2684640071
 40
2.6027765989
100
AcDbArc
 50
331.5150252364
 51
335.0964366432
  0
ARC
  5
2F9
100
AcDbEntity
  8
0
100
AcDbCircle
 62
7
  6
BYLAYER
 10
34.3635907743
 20
47.6527694581
 40
1.4637830748
100
AcDbArc
 50
120.4623382346
 51
122.0891281725
  0
ARC
  5
2FA
100
AcDbEntity
  8
0
100
AcDbCircle
 62
7
  6
BYLAYER
 10
42.5016895721
 20
89.2915776829
 40
30.7545916844
100
AcDbArc
 50
223.2347142633
 51
224.1575265197
  0
ARC
  5
2FB
100
AcDbEntity
  8
0
100
AcDbCircle
 62
7
  6
BYLAYER
 10
29.5640438405
 20
70.096984132
 40
6.3753241224
100
AcDbArc
 50
244.5257188831
 51
248.4540129033
  0
SPLINE
  5
2FC
100
AcDbEntity
  8
0
100
AcDbSpline
 62
7
  6
BYLAYER
 70
0
 71
3
 72
18
 73
14
 74
0
 42
0.0000001
 43
0.0000001
 44
0.0000000001
 40
0.0
 40
0.0
 40
0.0
 40
0.0
 40
0.1569238059
 40
0.3073656987
 40
0.448841736
 40
0.5795709051
 40
0.6986998811
 40
0.7540711764
 40
0.8068422136
 40
0.8573352117
 40
0.9059823948
 40
0.9533288168
 40
1.0
 40
1.0
 40
1.0
 40
1.0
 10
27.2924649996
 20
44.8353681765
 30
0.0
 10
26.7958252983
 20
44.8932438749
 30
0.0
 10
25.827860944
 20
45.0552288124
 30
0.0
 10
24.4480186829
 20
45.4419259448
 30
0.0
 10
23.2002309496
 20
45.9582402444
 30
0.0
 10
22.1201285876
 20
46.5897531815
 30
0.0
 10
21.3667313679
 20
47.2142133115
 30
0.0
 10
20.8850914695
 20
47.7566206346
 30
0.0
 10
20.5925536038
 20
48.1702163886
 30
0.0
 10
20.3621356644
 20
48.5973411138
 30
0.0
 10
20.1960543867
 20
49.0351133334
 30
0.0
 10
20.0956046476
 20
49.479983651
 30
0.0
 10
20.0732062689
 20
49.7800184211
 30
0.0
 10
20.0732118862
 20
49.9287251069
 30
0.0
  0
SPLINE
  5
2FD
100
AcDbEntity
  8
0
100
AcDbSpline
 62
7
  6
BYLAYER
 70
0
 71
3
 72
25
 73
21
 74
0
 42
0.0000001
 43
0.0000001
 44
0.0000000001
 40
0.0
 40
0.0
 40
0.0
 40
0.0
 40
0.021331794
 40
0.0428922708
 40
0.0648974211
 40
0.087542645
 40
0.1353172853
 40
0.1872176738
 40
0.2436554328
 40
0.304602777
 40
0.3696892899
 40
0.4382857362
 40
0.5095721553
 40
0.5825966257
 40
0.6563273012
 40
0.7297039959
 40
0.8016826492
 40
0.8712696604
 40
0.9376261015
 40
1.0
 40
1.0
 40
1.0
 40
1.0
 10
35.854415425
 20
10.1650574287
 30
0.0
 10
35.8544132171
 20
10.068858512
 30
0.0
 10
35.841958681
 20
9.8752088707
 30
0.0
 10
35.786347919
 20
9.5871444422
 30
0.0
 10
35.694063236
 20
9.3023968602
 30
0.0
 10
35.5199132521
 20
8.9228272268
 30
0.0
 10
35.2075071833
 20
8.4630623055
 30
0.0
 10
34.7084094877
 20
7.9619516432
 30
0.0
 10
34.0898671314
 20
7.5099664395
 30
0.0
 10
33.3651622126
 20
7.115827089
 30
0.0
 10
32.5494480621
 20
6.7871893807
 30
0.0
 10
31.6598554249
 20
6.5307934762
 30
0.0
 10
30.7151780674
 20
6.352009888
 30
0.0
 10
29.7354999761
 20
6.2545953267
 30
0.0
 10
28.7416981201
 20
6.2405920485
 30
0.0
 10
27.7549518423
 20
6.3103249831
 30
0.0
 10
26.7963580765
 20
6.4623557592
 30
0.0
 10
25.886119459
 20
6.6933717945
 30
0.0
 10
25.0438930882
 20
6.9986107354
 30
0.0
 10
24.5217254773
 20
7.2560119278
 30
0.0
 10
24.2781246392
 20
7.3966517556
 30
0.0
  0
SPLINE
  5
2FE
100
AcDbEntity
  8
0
100
AcDbSpline
 62
7
  6
BYLAYER
 70
0
 71
3
 72
9
 73
5
 74
0
 42
0.0000001
 43
0.0000001
 44
0.0000000001
 40
0.0
 40
0.0
 40
0.0
 40
0.0
 40
0.2549976169
 40
1.0
 40
1.0
 40
1.0
 40
1.0
 10
27.0852574917
 20
47.8580082886
 30
0.0
 10
27.0728713013
 20
47.8401726921
 30
0.0
 10
27.0225002508
 20
47.7715018161
 30
0.0
 10
26.9647326998
 20
47.7081942976
 30
0.0
 10
26.9180087657
 20
47.6652790694
 30
0.0
  0
SPLINE
  5
2FF
100
AcDbEntity
  8
0
100
AcDbSpline
 62
7
  6
BYLAYER
 70
0
 71
3
 72
9
 73
5
 74
0
 42
0.0000001
 43
0.0000001
 44
0.0000000001
 40
0.0
 40
0.0
 40
0.0
 40
0.0
 40
0.3751598265
 40
1.0
 40
1.0
 40
1.0
 40
1.0
 10
26.8763070358
 20
47.5041893143
 30
0.0
 10
26.8748913289
 20
47.5026090256
 30
0.0
 10
26.8704507006
 20
47.4990453026
 30
0.0
 10
26.865909836
 20
47.4956981188
 30
0.0
 10
26.8630186885
 20
47.4936662481
 30
0.0
  0
SPLINE
  5
300
100
AcDbEntity
  8
0
100
AcDbSpline
 62
7
  6
BYLAYER
 70
0
 71
3
 72
9
 73
5
 74
0
 42
0.0000001
 43
0.0000001
 44
0.0000000001
 40
0.0
 40
0.0
 40
0.0
 40
0.0
 40
0.2410794929
 40
1.0
 40
1.0
 40
1.0
 40
1.0
 10
27.1624421926
 20
49.2759160598
 30
0.0
 10
27.1594079342
 20
49.3209435303
 30
0.0
 10
27.1425023266
 20
49.5074170738
 30
0.0
 10
27.109066684
 20
49.6922640709
 30
0.0
 10
27.0761244578
 20
49.8304604229
 30
0.0
  0
SPLINE
  5
301
100
AcDbEntity
  8
0
100
AcDbSpline
 62
7
  6
BYLAYER
 70
0
 71
3
 72
9
 73
5
 74
0
 42
0.0000001
 43
0.0000001
 44
0.0000000001
 40
0.0
 40
0.0
 40
0.0
 40
0.0
 40
0.4571225284
 40
1.0
 40
1.0
 40
1.0
 40
1.0
 10
27.4187434079
 20
49.0911248602
 30
0.0
 10
27.4259939016
 20
49.0869391357
 30
0.0
 10
27.4386115526
 20
49.0720121571
 30
0.0
 10
27.4421483088
 20
49.0534610589
 30
0.0
 10
27.4425803168
 20
49.0435279152
 30
0.0
  0
SPLINE
  5
302
100
AcDbEntity
  8
0
100
AcDbSpline
 62
7
  6
BYLAYER
 70
0
 71
3
 72
9
 73
5
 74
0
 42
0.0000001
 43
0.0000001
 44
0.0000000001
 40
0.0
 40
0.0
 40
0.0
 40
0.0
 40
0.5000271299
 40
1.0
 40
1.0
 40
1.0
 40
1.0
 10
24.4921720426
 20
50.1035885057
 30
0.0
 10
24.5476825902
 20
50.0409160225
 30
0.0
 10
24.6455027401
 20
49.903516771
 30
0.0
 10
24.7155919891
 20
49.7501061881
 30
0.0
 10
24.7421135708
 20
49.6707062786
 30
0.0
  0
SPLINE
  5
303
100
AcDbEntity
  8
0
100
AcDbSpline
 62
7
  6
BYLAYER
 70
0
 71
3
 72
18
 73
14
 74
0
 42
0.0000001
 43
0.0000001
 44
0.0000000001
 40
0.0
 40
0.0
 40
0.0
 40
0.0
 40
0.0550832351
 40
0.1099589089
 40
0.1652059091
 40
0.2211219854
 40
0.2778257969
 40
0.3356609761
 40
0.4557931181
 40
0.5831239474
 40
0.717492595
 40
0.8573165324
 40
1.0
 40
1.0
 40
1.0
 40
1.0
 10
26.2878525332
 20
47.1566952098
 30
0.0
 10
26.2201007976
 20
47.1175781021
 30
0.0
 10
26.0783318461
 20
47.0502190319
 30
0.0
 10
25.8523222603
 20
46.9838895363
 30
0.0
 10
25.6177395789
 20
46.9524619836
 30
0.0
 10
25.3786076499
 20
46.9541609843
 30
0.0
 10
25.1381726737
 20
46.9875665148
 30
0.0
 10
24.8152806456
 20
47.0728136245
 30
0.0
 10
24.4166824632
 20
47.2511847516
 30
0.0
 10
23.9663038808
 20
47.5571643201
 30
0.0
 10
23.5456277116
 20
47.944938365
 30
0.0
 10
23.1652833849
 20
48.4006000554
 30
0.0
 10
22.9466752078
 20
48.7384042392
 30
0.0
 10
22.846830118
 20
48.9147499716
 30
0.0
  0
SPLINE
  5
304
100
AcDbEntity
  8
0
100
AcDbSpline
 62
7
  6
BYLAYER
 70
0
 71
3
 72
11
 73
7
 74
0
 42
0.0000001
 43
0.0000001
 44
0.0000000001
 40
0.0
 40
0.0
 40
0.0
 40
0.0
 40
0.2618137344
 40
0.5181911175
 40
0.7652800371
 40
1.0
 40
1.0
 40
1.0
 40
1.0
 10
22.846830118
 20
48.9147499716
 30
0.0
 10
22.7530683395
 20
49.0803514001
 30
0.0
 10
22.585652002
 20
49.4187928942
 30
0.0
 10
22.3969661994
 20
49.9434160217
 30
0.0
 10
22.2786492399
 20
50.4682048907
 30
0.0
 10
22.2493279071
 20
50.81877054
 30
0.0
 10
22.2493279071
 20
50.9893797501
 30
0.0
  0
SPLINE
  5
305
100
AcDbEntity
  8
0
100
AcDbSpline
 62
7
  6
BYLAYER
 70
0
 71
3
 72
11
 73
7
 74
0
 42
0.0000001
 43
0.0000001
 44
0.0000000001
 40
0.0
 40
0.0
 40
0.0
 40
0.0
 40
0.2617743429
 40
0.5146399897
 40
0.7598511849
 40
1.0
 40
1.0
 40
1.0
 40
1.0
 10
22.2493279071
 20
50.9893797501
 30
0.0
 10
22.2493279071
 20
51.1014960058
 30
0.0
 10
22.2614912434
 20
51.3221803617
 30
0.0
 10
22.3205207849
 20
51.6432102379
 30
0.0
 10
22.4222512235
 20
51.9438370686
 30
0.0
 10
22.5211208097
 20
52.1281296993
 30
0.0
 10
22.577827594
 20
52.2139395087
 30
0.0
  0
SPLINE
  5
306
100
AcDbEntity
  8
0
100
AcDbSpline
 62
7
  6
BYLAYER
 70
0
 71
3
 72
9
 73
5
 74
0
 42
0.0000001
 43
0.0000001
 44
0.0000000001
 40
0.0
 40
0.0
 40
0.0
 40
0.0
 40
0.2560851049
 40
1.0
 40
1.0
 40
1.0
 40
1.0
 10
20.0953167326
 20
68.2250315529
 30
0.0
 10
20.0612628301
 20
68.248788679
 30
0.0
 10
19.9295868044
 20
68.3434033997
 30
0.0
 10
19.8032494863
 20
68.4455204401
 30
0.0
 10
19.7132551983
 20
68.5258323928
 30
0.0
  0
SPLINE
  5
307
100
AcDbEntity
  8
0
100
AcDbSpline
 62
7
  6
BYLAYER
 70
0
 71
3
 72
9
 73
5
 74
0
 42
0.0000001
 43
0.0000001
 44
0.0000000001
 40
0.0
 40
0.0
 40
0.0
 40
0.0
 40
0.256749317
 40
1.0
 40
1.0
 40
1.0
 40
1.0
 10
19.63688373
 20
68.5959704981
 30
0.0
 10
19.6078352898
 20
68.6234349019
 30
0.0
 10
19.49653113
 20
68.7323168767
 30
0.0
 10
19.3927939751
 20
68.8490283921
 30
0.0
 10
19.3212981317
 20
68.9400268238
 30
0.0
  0
SPLINE
  5
308
100
AcDbEntity
  8
0
100
AcDbSpline
 62
7
  6
BYLAYER
 70
0
 71
3
 72
12
 73
8
 74
0
 42
0.0000001
 43
0.0000001
 44
0.0000000001
 40
0.0
 40
0.0
 40
0.0
 40
0.0
 40
0.1139541092
 40
0.2352555804
 40
0.4917179482
 40
0.7528121042
 40
1.0
 40
1.0
 40
1.0
 40
1.0
 10
33.7193796369
 20
48.9371886725
 30
0.0
 10
33.7728673393
 20
48.9680696275
 30
0.0
 10
33.8784220068
 20
49.0404839755
 30
0.0
 10
34.0777041929
 20
49.2182176006
 30
0.0
 10
34.2945172157
 20
49.491966217
 30
0.0
 10
34.4845408312
 20
49.8629068819
 30
0.0
 10
34.5580045561
 20
50.1314873234
 30
0.0
 10
34.5759813636
 20
50.2642495667
 30
0.0
  0
SPLINE
  5
309
100
AcDbEntity
  8
0
100
AcDbSpline
 62
7
  6
BYLAYER
 70
0
 71
3
 72
9
 73
5
 74
0
 42
0.0000001
 43
0.0000001
 44
0.0000000001
 40
0.0
 40
0.0
 40
0.0
 40
0.0
 40
0.2468084973
 40
1.0
 40
1.0
 40
1.0
 40
1.0
 10
35.311749083
 20
65.5090533024
 30
0.0
 10
35.3039832565
 20
65.4923187637
 30
0.0
 10
35.2716079396
 20
65.4249400623
 30
0.0
 10
35.2356595502
 20
65.3592874514
 30
0.0
 10
35.2068216682
 20
65.3109336515
 30
0.0
  0
SPLINE
  5
30A
100
AcDbEntity
  8
0
100
AcDbSpline
 62
7
  6
BYLAYER
 70
0
 71
3
 72
17
 73
13
 74
0
 42
0.0000001
 43
0.0000001
 44
0.0000000001
 40
0.0
 40
0.0
 40
0.0
 40
0.0
 40
0.0500581616
 40
0.1014818295
 40
0.1545865221
 40
0.2096494393
 40
0.3261146987
 40
0.451223485
 40
0.5837427009
 40
0.7213829145
 40
0.8612023268
 40
1.0
 40
1.0
 40
1.0
 40
1.0
 10
38.616469546
 20
72.1154697495
 30
0.0
 10
38.5560287456
 20
72.2456918291
 30
0.0
 10
38.4138894325
 20
72.5009578959
 30
0.0
 10
38.1480970894
 20
72.8571767253
 30
0.0
 10
37.8315739561
 20
73.1892155891
 30
0.0
 10
37.3384089606
 20
73.6053513112
 30
0.0
 10
36.6101409277
 20
74.0546721451
 30
0.0
 10
35.6160058748
 20
74.4675401418
 30
0.0
 10
34.5167736811
 20
74.7572362414
 30
0.0
 10
33.3490568633
 20
74.9166063823
 30
0.0
 10
32.1530637105
 20
74.9413812094
 30
0.0
 10
31.3553364808
 20
74.8667744189
 30
0.0
 10
30.9619499563
 20
74.8059144975
 30
0.0
  0
SPLINE
  5
30B
100
AcDbEntity
  8
0
100
AcDbSpline
 62
7
  6
BYLAYER
 70
0
 71
3
 72
9
 73
5
 74
0
 42
0.0000001
 43
0.0000001
 44
0.0000000001
 40
0.0
 40
0.0
 40
0.0
 40
0.0
 40
0.496570906
 40
1.0
 40
1.0
 40
1.0
 40
1.0
 10
38.8706924125
 20
70.9919350492
 30
0.0
 10
38.8706924125
 20
71.1837503842
 30
0.0
 10
38.8264055686
 20
71.5712437786
 30
0.0
 10
38.6983390766
 20
71.9390786287
 30
0.0
 10
38.616469546
 20
72.1154697495
 30
0.0
  0
SPLINE
  5
30C
100
AcDbEntity
  8
0
100
AcDbSpline
 62
7
  6
BYLAYER
 70
0
 71
3
 72
11
 73
7
 74
0
 42
0.0000001
 43
0.0000001
 44
0.0000000001
 40
0.0
 40
0.0
 40
0.0
 40
0.0
 40
0.277650218
 40
0.549803049
 40
0.7946262755
 40
1.0
 40
1.0
 40
1.0
 40
1.0
 10
32.6568709244
 20
64.226012428
 30
0.0
 10
32.6369552782
 20
64.2290931586
 30
0.0
 10
32.5967767672
 20
64.2309755858
 30
0.0
 10
32.539336869
 20
64.2222690132
 30
0.0
 10
32.490105777
 20
64.2030143782
 30
0.0
 10
32.4637099665
 20
64.1822131013
 30
0.0
 10
32.4545916764
 20
64.1704206899
 30
0.0
  0
SPLINE
  5
30D
100
AcDbEntity
  8
0
100
AcDbSpline
 62
7
  6
BYLAYER
 70
0
 71
3
 72
9
 73
5
 74
0
 42
0.0000001
 43
0.0000001
 44
0.0000000001
 40
0.0
 40
0.0
 40
0.0
 40
0.0
 40
0.4499497469
 40
1.0
 40
1.0
 40
1.0
 40
1.0
 10
32.7697914642
 20
64.1704217837
 30
0.0
 10
32.758045899
 20
64.1855947787
 30
0.0
 10
32.7215850416
 20
64.2108949572
 30
0.0
 10
32.6800519405
 20
64.2224265807
 30
0.0
 10
32.6568709244
 20
64.226012428
 30
0.0
  0
SPLINE
  5
30E
100
AcDbEntity
  8
0
100
AcDbSpline
 62
7
  6
BYLAYER
 70
0
 71
3
 72
11
 73
7
 74
0
 42
0.0000001
 43
0.0000001
 44
0.0000000001
 40
0.0
 40
0.0
 40
0.0
 40
0.0
 40
0.2372428334
 40
0.4999989082
 40
0.7627555772
 40
1.0
 40
1.0
 40
1.0
 40
1.0
 10
20.7412163411
 20
64.6735535747
 30
0.0
 10
20.7612944536
 20
64.6619617333
 30
0.0
 10
20.7992878394
 20
64.629982867
 30
0.0
 10
20.8436323329
 20
64.5693845825
 30
0.0
 10
20.8739401139
 20
64.5006819768
 30
0.0
 10
20.8826382861
 20
64.4517891719
 30
0.0
 10
20.8826382861
 20
64.4286049404
 30
0.0
  0
SPLINE
  5
30F
100
AcDbEntity
  8
0
100
AcDbSpline
 62
7
  6
BYLAYER
 70
0
 71
3
 72
9
 73
5
 74
0
 42
0.0000001
 43
0.0000001
 44
0.0000000001
 40
0.0
 40
0.0
 40
0.0
 40
0.0
 40
0.4919855491
 40
1.0
 40
1.0
 40
1.0
 40
1.0
 10
37.680659369
 20
70.9893669145
 30
0.0
 10
37.6794865773
 20
70.8618046758
 30
0.0
 10
37.6476659911
 20
70.6020376153
 30
0.0
 10
37.5608119292
 20
70.3555470577
 30
0.0
 10
37.5053637624
 20
70.2360620933
 30
0.0
  0
SPLINE
  5
310
100
AcDbEntity
  8
0
100
AcDbSpline
 62
7
  6
BYLAYER
 70
0
 71
3
 72
17
 73
13
 74
0
 42
0.0000001
 43
0.0000001
 44
0.0000000001
 40
0.0
 40
0.0
 40
0.0
 40
0.0
 40
0.0982418624
 40
0.1521761653
 40
0.2092284686
 40
0.2692085671
 40
0.3318203299
 40
0.4633061622
 40
0.6000987589
 40
0.7379755183
 40
0.8725939076
 40
1.0
 40
1.0
 40
1.0
 40
1.0
 10
35.3645540609
 20
65.479662021
 30
0.0
 10
35.1884936922
 20
65.2555029408
 30
0.0
 10
34.8632964529
 20
64.948119893
 30
0.0
 10
34.361670026
 20
64.6056907834
 30
0.0
 10
33.9261401822
 20
64.3664866212
 30
0.0
 10
33.448577966
 20
64.1562723536
 30
0.0
 10
32.7518150202
 20
63.9135760176
 30
0.0
 10
31.8123660259
 20
63.6999047178
 30
0.0
 10
30.6361160591
 20
63.5898158829
 30
0.0
 10
29.446020679
 20
63.6270436771
 30
0.0
 10
28.2971595004
 20
63.8096407863
 30
0.0
 10
27.5664933651
 20
64.0312777792
 30
0.0
 10
27.222719533
 20
64.167147865
 30
0.0
  0
SPLINE
  5
311
100
AcDbEntity
  8
0
100
AcDbSpline
 62
7
  6
BYLAYER
 70
0
 71
3
 72
9
 73
5
 74
0
 42
0.0000001
 43
0.0000001
 44
0.0000000001
 40
0.0
 40
0.0
 40
0.0
 40
0.0
 40
0.2542544109
 40
1.0
 40
1.0
 40
1.0
 40
1.0
 10
19.5115063754
 20
68.718460388
 30
0.0
 10
19.4985392247
 20
68.7389476679
 30
0.0
 10
19.4487831946
 20
68.8203036797
 30
0.0
 10
19.404125294
 20
68.904800732
 30
0.0
 10
19.3741856341
 20
68.9693069059
 30
0.0
  0
SPLINE
  5
312
100
AcDbEntity
  8
0
100
AcDbSpline
 62
7
  6
BYLAYER
 70
0
 71
3
 72
16
 73
12
 74
0
 42
0.0000001
 43
0.0000001
 44
0.0000000001
 40
0.0
 40
0.0
 40
0.0
 40
0.0
 40
0.1484963767
 40
0.2911492038
 40
0.426383933
 40
0.5535314358
 40
0.6728200771
 40
0.7855445047
 40
0.8937372857
 40
0.9469216802
 40
1.0
 40
1.0
 40
1.0
 40
1.0
 10
22.7748151751
 20
73.5393017678
 30
0.0
 10
22.4515286566
 20
73.4892868566
 30
0.0
 10
21.8219900105
 20
73.3596401306
 30
0.0
 10
20.9259520978
 20
73.0714211687
 30
0.0
 10
20.1133318297
 20
72.696925738
 30
0.0
 10
19.4030798247
 20
72.2410972767
 30
0.0
 10
18.8128181842
 20
71.7077947882
 30
0.0
 10
18.3623760333
 20
71.1018571107
 30
0.0
 10
18.1217467392
 20
70.5403733456
 30
0.0
 10
18.0252004184
 20
70.0766810752
 30
0.0
 10
18.0089576312
 20
69.8422520599
 30
0.0
 10
18.0089576312
 20
69.7253223195
 30
0.0
  0
SPLINE
  5
313
100
AcDbEntity
  8
0
100
AcDbSpline
 62
7
  6
BYLAYER
 70
0
 71
3
 72
11
 73
7
 74
0
 42
0.0000001
 43
0.0000001
 44
0.0000000001
 40
0.0
 40
0.0
 40
0.0
 40
0.0
 40
0.2339140199
 40
0.4770850758
 40
0.7320823703
 40
1.0
 40
1.0
 40
1.0
 40
1.0
 10
18.2878857576
 20
55.4042024221
 30
0.0
 10
18.371749716
 20
55.2323566556
 30
0.0
 10
18.5770746325
 20
54.897837162
 30
0.0
 10
18.9727267401
 20
54.4457605081
 30
0.0
 10
19.4510998999
 20
54.0386234459
 30
0.0
 10
19.8100783862
 20
53.8044120727
 30
0.0
 10
19.9997514921
 20
53.6949067313
 30
0.0
  0
SPLINE
  5
314
100
AcDbEntity
  8
0
100
AcDbSpline
 62
7
  6
BYLAYER
 70
0
 71
3
 72
9
 73
5
 74
0
 42
0.0000001
 43
0.0000001
 44
0.0000000001
 40
0.0
 40
0.0
 40
0.0
 40
0.0
 40
0.503427871
 40
1.0
 40
1.0
 40
1.0
 40
1.0
 10
38.6165474902
 20
56.7228793807
 30
0.0
 10
38.6983927044
 20
56.8992472043
 30
0.0
 10
38.8264197833
 20
57.2670293284
 30
0.0
 10
38.8706924125
 20
57.6544608016
 30
0.0
 10
38.8706924125
 20
57.8462461334
 30
0.0
  0
SPLINE
  5
315
100
AcDbEntity
  8
0
100
AcDbSpline
 62
7
  6
BYLAYER
 70
0
 71
3
 72
22
 73
18
 74
0
 42
0.0000001
 43
0.0000001
 44
0.0000000001
 40
0.0
 40
0.0
 40
0.0
 40
0.0
 40
0.0601633714
 40
0.1231694062
 40
0.1885575336
 40
0.2558947411
 40
0.3938613879
 40
0.4632067062
 40
0.5318221911
 40
0.5990374816
 40
0.6642648307
 40
0.7270289027
 40
0.7870090936
 40
0.8440854002
 40
0.8983531115
 40
0.9501560005
 40
1.0
 40
1.0
 40
1.0
 40
1.0
 10
25.9933132811
 20
50.2346005016
 30
0.0
 10
26.1938543305
 20
50.118820692
 30
0.0
 10
26.6183535144
 20
49.9053840902
 30
0.0
 10
27.2968923268
 20
49.6451285576
 30
0.0
 10
28.0228433546
 20
49.4399950809
 30
0.0
 10
29.0465689627
 20
49.2416433009
 30
0.0
 10
30.1059743584
 20
49.1649299293
 30
0.0
 10
31.1678350035
 20
49.2083582986
 30
0.0
 10
31.9529208227
 20
49.3013164346
 30
0.0
 10
32.7125411118
 20
49.453434543
 30
0.0
 10
33.4351395306
 20
49.6627178441
 30
0.0
 10
34.1098503913
 20
49.9268954011
 30
0.0
 10
34.7268444493
 20
50.2433739835
 30
0.0
 10
35.2770713798
 20
50.6096651681
 30
0.0
 10
35.7520174829
 20
51.0235896144
 30
0.0
 10
36.1421699721
 20
51.482688683
 30
0.0
 10
36.3422186654
 20
51.8219401005
 30
0.0
 10
36.422974498
 20
51.9959604214
 30
0.0
  0
SPLINE
  5
316
100
AcDbEntity
  8
0
100
AcDbSpline
 62
7
  6
BYLAYER
 70
0
 71
3
 72
21
 73
17
 74
0
 42
0.0000001
 43
0.0000001
 44
0.0000000001
 40
0.0
 40
0.0
 40
0.0
 40
0.0
 40
0.0438991801
 40
0.0888434019
 40
0.1357581737
 40
0.1853725741
 40
0.2381827928
 40
0.2944579663
 40
0.3542706542
 40
0.4175184118
 40
0.4839635375
 40
0.5532515242
 40
0.6984431859
 40
0.8489295885
 40
0.9247386657
 40
1.0
 40
1.0
 40
1.0
 40
1.0
 10
38.0731331843
 20
49.9287251696
 30
0.0
 10
38.0731259283
 20
49.7366373461
 30
0.0
 10
38.0353788376
 20
49.3469018056
 30
0.0
 10
37.8670684308
 20
48.7739239545
 30
0.0
 10
37.5903223568
 20
48.2169261588
 30
0.0
 10
37.2095224273
 20
47.6829331715
 30
0.0
 10
36.7300434272
 20
47.1778819772
 30
0.0
 10
36.1580932801
 20
46.7072749119
 30
0.0
 10
35.500564328
 20
46.2764992421
 30
0.0
 10
34.7654641868
 20
45.8903457496
 30
0.0
 10
33.9615470408
 20
45.5533619084
 30
0.0
 10
32.7928030202
 20
45.1690807885
 30
0.0
 10
31.2243435358
 20
44.8404435235
 30
0.0
 10
29.5988576736
 20
44.7170776515
 30
0.0
 10
28.2788939523
 20
44.7423874031
 30
0.0
 10
27.6195693031
 20
44.7972492143
 30
0.0
 10
27.2924649996
 20
44.8353681765
 30
0.0
  0
SPLINE
  5
317
100
AcDbEntity
  8
0
100
AcDbSpline
 62
7
  6
BYLAYER
 70
0
 71
3
 72
14
 73
10
 74
0
 42
0.0000001
 43
0.0000001
 44
0.0000000001
 40
0.0
 40
0.0
 40
0.0
 40
0.0
 40
0.1220717656
 40
0.2440496777
 40
0.3665805327
 40
0.4897875041
 40
0.6141955573
 40
0.740373062
 40
1.0
 40
1.0
 40
1.0
 40
1.0
 10
17.0731725353
 20
47.8874690955
 30
0.0
 10
17.0731725353
 20
48.16269773
 30
0.0
 10
17.1133601923
 20
48.7137970997
 30
0.0
 10
17.2925728282
 20
49.5233565471
 30
0.0
 10
17.5829670025
 20
50.3026814529
 30
0.0
 10
17.9764211124
 20
51.0412297356
 30
0.0
 10
18.4625185093
 20
51.7322093733
 30
0.0
 10
19.2282279554
 20
52.5931459128
 30
0.0
 10
19.906692702
 20
53.1487606564
 30
0.0
 10
20.3893662456
 20
53.4799413105
 30
0.0
  0
SPLINE
  5
318
100
AcDbEntity
  8
0
100
AcDbSpline
 62
7
  6
BYLAYER
 70
0
 71
3
 72
15
 73
11
 74
0
 42
0.0000001
 43
0.0000001
 44
0.0000000001
 40
0.0
 40
0.0
 40
0.0
 40
0.0
 40
0.1325200892
 40
0.2617305221
 40
0.3881696409
 40
0.5124492016
 40
0.6352610319
 40
0.7572306192
 40
0.8786216692
 40
1.0
 40
1.0
 40
1.0
 40
1.0
 10
37.2875689249
 20
53.7841051746
 30
0.0
 10
37.5635501442
 20
53.6152361807
 30
0.0
 10
38.0944114728
 20
53.2576066395
 30
0.0
 10
38.8262740805
 20
52.652989548
 30
0.0
 10
39.4751366184
 20
51.9873278045
 30
0.0
 10
40.0313130293
 20
51.2616376341
 30
0.0
 10
40.4836339535
 20
50.479145137
 30
0.0
 10
40.8188997722
 20
49.6469467561
 30
0.0
 10
41.0264873748
 20
48.7775916406
 30
0.0
 10
41.0731725353
 20
48.183813148
 30
0.0
 10
41.0731725353
 20
47.8874690955
 30
0.0
  0
SPLINE
  5
319
100
AcDbEntity
  8
0
100
AcDbSpline
 62
7
  6
BYLAYER
 70
0
 71
3
 72
14
 73
10
 74
0
 42
0.0000001
 43
0.0000001
 44
0.0000000001
 40
0.0
 40
0.0
 40
0.0
 40
0.0
 40
0.1485933762
 40
0.2896316956
 40
0.5484448528
 40
0.6678499169
 40
0.7818448457
 40
0.8919411052
 40
1.0
 40
1.0
 40
1.0
 40
1.0
 10
24.2781246392
 20
7.3966517556
 30
0.0
 10
24.1252426356
 20
7.4849162247
 30
0.0
 10
23.8341143386
 20
7.6695288783
 30
0.0
 10
23.3184403683
 20
8.068468763
 30
0.0
 10
22.8886878389
 20
8.520661465
 30
0.0
 10
22.5780568222
 20
9.0180841518
 30
0.0
 10
22.4137053388
 20
9.3933946086
 30
0.0
 10
22.3142676465
 20
9.7769922319
 30
0.0
 10
22.2919266992
 20
10.036681269
 30
0.0
 10
22.2919296456
 20
10.1650574194
 30
0.0
  0
SPLINE
  5
31A
100
AcDbEntity
  8
0
100
AcDbSpline
 62
7
  6
BYLAYER
 70
0
 71
3
 72
9
 73
5
 74
0
 42
0.0000001
 43
0.0000001
 44
0.0000000001
 40
0.0
 40
0.0
 40
0.0
 40
0.0
 40
0.5163605516
 40
1.0
 40
1.0
 40
1.0
 40
1.0
 10
16.1879745713
 20
23.9669912548
 30
0.0
 10
16.3297298704
 20
24.3717376985
 30
0.0
 10
16.6130563623
 20
25.1525401233
 30
0.0
 10
16.918424321
 20
25.9250803758
 30
0.0
 10
17.0731709189
 20
26.2957519902
 30
0.0
  0
SPLINE
  5
31B
100
AcDbEntity
  8
0
100
AcDbSpline
 62
7
  6
BYLAYER
 70
0
 71
3
 72
10
 73
6
 74
0
 42
0.0000001
 43
0.0000001
 44
0.0000000001
 40
0.0
 40
0.0
 40
0.0
 40
0.0
 40
0.2403293928
 40
0.486252238
 40
1.0
 40
1.0
 40
1.0
 40
1.0
 10
41.9583704993
 20
25.9574982133
 30
0.0
 10
41.9210338119
 20
26.1186219416
 30
0.0
 10
41.8276248142
 20
26.440771804
 30
0.0
 10
41.5682841091
 20
27.0791554498
 30
0.0
 10
41.2992646009
 20
27.5321233855
 30
0.0
 10
41.0939672076
 20
27.8199708079
 30
0.0
  0
SPLINE
  5
31C
100
AcDbEntity
  8
0
100
AcDbSpline
 62
7
  6
BYLAYER
 70
0
 71
3
 72
9
 73
5
 74
0
 42
0.0000001
 43
0.0000001
 44
0.0000000001
 40
0.0
 40
0.0
 40
0.0
 40
0.0
 40
0.5119901292
 40
1.0
 40
1.0
 40
1.0
 40
1.0
 10
17.052377863
 20
18.3840238832
 30
0.0
 10
17.6214470796
 20
17.9095634309
 30
0.0
 10
18.7627755971
 20
17.0177297563
 30
0.0
 10
19.9763264735
 20
16.2245117281
 30
0.0
 10
20.5879264887
 20
15.8714122829
 30
0.0
  0
SPLINE
  5
31D
100
AcDbEntity
  8
0
100
AcDbSpline
 62
7
  6
BYLAYER
 70
0
 71
3
 72
12
 73
8
 74
0
 42
0.0000001
 43
0.0000001
 44
0.0000000001
 40
0.0
 40
0.0
 40
0.0
 40
0.0
 40
0.2999485269
 40
0.4388458946
 40
0.5691125916
 40
0.8020085043
 40
1.0
 40
1.0
 40
1.0
 40
1.0
 10
41.9583704993
 20
22.2370034363
 30
0.0
 10
41.7546377229
 20
21.6552959643
 30
0.0
 10
41.4437439522
 20
20.8084746898
 30
0.0
 10
41.0010689933
 20
19.7259008103
 30
0.0
 10
40.5831523212
 20
18.7825516491
 30
0.0
 10
40.0646505889
 20
17.7513971463
 30
0.0
 10
39.600750805
 20
16.9955307674
 30
0.0
 10
39.3702202636
 20
16.6603015817
 30
0.0
  0
SPLINE
  5
31E
100
AcDbEntity
  8
0
100
AcDbSpline
 62
7
  6
BYLAYER
 70
0
 71
3
 72
9
 73
5
 74
0
 42
0.0000001
 43
0.0000001
 44
0.0000000001
 40
0.0
 40
0.0
 40
0.0
 40
0.0
 40
0.5437089387
 40
1.0
 40
1.0
 40
1.0
 40
1.0
 10
27.0750184654
 20
49.0328487925
 30
0.0
 10
27.0760560113
 20
49.0225342577
 30
0.0
 10
27.0806115591
 20
49.0035237189
 30
0.0
 10
27.0937929558
 20
48.9881768956
 30
0.0
 10
27.1013270455
 20
48.9838266408
 30
0.0
  0
SPLINE
  5
31F
100
AcDbEntity
  8
0
100
AcDbSpline
 62
7
  6
BYLAYER
 70
0
 71
3
 72
9
 73
5
 74
0
 42
0.0000001
 43
0.0000001
 44
0.0000000001
 40
0.0
 40
0.0
 40
0.0
 40
0.0
 40
0.4839262544
 40
1.0
 40
1.0
 40
1.0
 40
1.0
 10
39.3702202636
 20
16.6603015817
 30
0.0
 10
39.0176344771
 20
16.3961573949
 30
0.0
 10
38.2526636862
 20
15.8979857898
 30
0.0
 10
37.4379230746
 20
15.4878585956
 30
0.0
 10
37.0086730784
 20
15.2968698173
 30
0.0
  0
SPLINE
  5
320
100
AcDbEntity
  8
0
100
AcDbSpline
 62
7
  6
BYLAYER
 70
0
 71
3
 72
13
 73
9
 74
0
 42
0.0000001
 43
0.0000001
 44
0.0000000001
 40
0.0
 40
0.0
 40
0.0
 40
0.0
 40
0.2548385715
 40
0.3814544684
 40
0.5072724421
 40
0.6321182786
 40
0.755881012
 40
1.0
 40
1.0
 40
1.0
 40
1.0
 10
37.0086730784
 20
15.2968698173
 30
0.0
 10
36.2186657125
 20
15.026365141
 30
0.0
 10
35.0208374931
 20
14.6630090455
 30
0.0
 10
33.4008792741
 20
14.2884863479
 30
0.0
 10
32.1838141407
 20
14.0685933677
 30
0.0
 10
30.9664353884
 20
13.9117589034
 30
0.0
 10
29.3563653227
 20
13.7852994851
 30
0.0
 10
28.1489007036
 20
13.7761880453
 30
0.0
 10
27.3494255913
 20
13.8025755079
 30
0.0
  0
SPLINE
  5
321
100
AcDbEntity
  8
0
100
AcDbSpline
 62
7
  6
BYLAYER
 70
0
 71
3
 72
9
 73
5
 74
0
 42
0.0000001
 43
0.0000001
 44
0.0000000001
 40
0.0
 40
0.0
 40
0.0
 40
0.0
 40
0.5128680516
 40
1.0
 40
1.0
 40
1.0
 40
1.0
 10
26.8889295562
 20
49.9024179993
 30
0.0
 10
26.9354538173
 20
49.7574694973
 30
0.0
 10
27.0130268068
 20
49.4704162837
 30
0.0
 10
27.0605468058
 20
49.1767156307
 30
0.0
 10
27.0750184654
 20
49.0328487925
 30
0.0
  0
SPLINE
  5
322
100
AcDbEntity
  8
0
100
AcDbSpline
 62
7
  6
BYLAYER
 70
0
 71
3
 72
9
 73
5
 74
0
 42
0.0000001
 43
0.0000001
 44
0.0000000001
 40
0.0
 40
0.0
 40
0.0
 40
0.0
 40
0.5056172058
 40
1.0
 40
1.0
 40
1.0
 40
1.0
 10
27.3494255913
 20
13.8025755079
 30
0.0
 10
26.8004769039
 20
13.8449736518
 30
0.0
 10
25.717490288
 20
13.9692964917
 30
0.0
 10
24.6472288906
 20
14.1771063148
 30
0.0
 10
24.1234751144
 20
14.301616338
 30
0.0
  0
SPLINE
  5
323
100
AcDbEntity
  8
0
100
AcDbSpline
 62
7
  6
BYLAYER
 70
0
 71
3
 72
10
 73
6
 74
0
 42
0.0000001
 43
0.0000001
 44
0.0000000001
 40
0.0
 40
0.0
 40
0.0
 40
0.0
 40
0.513747762
 40
0.7596706072
 40
1.0
 40
1.0
 40
1.0
 40
1.0
 10
17.052377863
 20
18.3840238832
 30
0.0
 10
16.8470804696
 20
18.6718713056
 30
0.0
 10
16.5780609614
 20
19.1248392413
 30
0.0
 10
16.3187202564
 20
19.7632228872
 30
0.0
 10
16.2253112587
 20
20.0853727496
 30
0.0
 10
16.1879745713
 20
20.2464964779
 30
0.0
  0
SPLINE
  5
324
100
AcDbEntity
  8
0
100
AcDbSpline
 62
7
  6
BYLAYER
 70
0
 71
3
 72
11
 73
7
 74
0
 42
0.0000001
 43
0.0000001
 44
0.0000000001
 40
0.0
 40
0.0
 40
0.0
 40
0.0
 40
0.2310199139
 40
0.4904525407
 40
0.7552830646
 40
1.0
 40
1.0
 40
1.0
 40
1.0
 10
27.4425803168
 20
48.7746984938
 30
0.0
 10
27.4420908686
 20
48.7640097704
 30
0.0
 10
27.4370744339
 20
48.7415012317
 30
0.0
 10
27.4219686585
 20
48.7097091924
 30
0.0
 10
27.4004979646
 20
48.6810278891
 30
0.0
 10
27.3827209262
 20
48.6651284885
 30
0.0
 10
27.3733018755
 20
48.6588238722
 30
0.0
  0
SPLINE
  5
325
100
AcDbEntity
  8
0
100
AcDbSpline
 62
7
  6
BYLAYER
 70
0
 71
3
 72
11
 73
7
 74
0
 42
0.0000001
 43
0.0000001
 44
0.0000000001
 40
0.0
 40
0.0
 40
0.0
 40
0.0
 40
0.2463759094
 40
0.5129289183
 40
0.7726431311
 40
1.0
 40
1.0
 40
1.0
 40
1.0
 10
27.1471342364
 20
48.5075465801
 30
0.0
 10
27.1376825352
 20
48.5012290867
 30
0.0
 10
27.1198351153
 20
48.4853165889
 30
0.0
 10
27.0981067541
 20
48.4568180316
 30
0.0
 10
27.0823156287
 20
48.4256456738
 30
0.0
 10
27.0762047814
 20
48.40373374
 30
0.0
 10
27.0750184654
 20
48.3933100185
 30
0.0
  0
SPLINE
  5
326
100
AcDbEntity
  8
0
100
AcDbSpline
 62
7
  6
BYLAYER
 70
0
 71
3
 72
9
 73
5
 74
0
 42
0.0000001
 43
0.0000001
 44
0.0000000001
 40
0.0
 40
0.0
 40
0.0
 40
0.0
 40
0.254238958
 40
1.0
 40
1.0
 40
1.0
 40
1.0
 10
27.0750184654
 20
48.3933100185
 30
0.0
 10
27.0731276328
 20
48.3766959674
 30
0.0
 10
27.0650269702
 20
48.3114257598
 30
0.0
 10
27.0542371082
 20
48.2464833911
 30
0.0
 10
27.0445631788
 20
48.1983981326
 30
0.0
  0
SPLINE
  5
327
100
AcDbEntity
  8
0
100
AcDbSpline
 62
7
  6
BYLAYER
 70
0
 71
3
 72
9
 73
5
 74
0
 42
0.0000001
 43
0.0000001
 44
0.0000000001
 40
0.0
 40
0.0
 40
0.0
 40
0.0
 40
0.2575109144
 40
1.0
 40
1.0
 40
1.0
 40
1.0
 10
26.9633479496
 20
47.9089903295
 30
0.0
 10
26.9544244629
 20
47.8849061305
 30
0.0
 10
26.9176826672
 20
47.7921777449
 30
0.0
 10
26.8722892822
 20
47.7027900309
 30
0.0
 10
26.8334863517
 20
47.6397137106
 30
0.0
  0
SPLINE
  5
328
100
AcDbEntity
  8
0
100
AcDbSpline
 62
7
  6
BYLAYER
 70
0
 71
3
 72
9
 73
5
 74
0
 42
0.0000001
 43
0.0000001
 44
0.0000000001
 40
0.0
 40
0.0
 40
0.0
 40
0.0
 40
0.2556128853
 40
1.0
 40
1.0
 40
1.0
 40
1.0
 10
26.8005507731
 20
47.5887909693
 30
0.0
 10
26.7868125782
 20
47.5685803184
 30
0.0
 10
26.7308746687
 20
47.4910371522
 30
0.0
 10
26.6659086681
 20
47.4199124847
 30
0.0
 10
26.6130683888
 20
47.3722401009
 30
0.0
  0
SPLINE
  5
329
100
AcDbEntity
  8
0
100
AcDbSpline
 62
7
  6
BYLAYER
 70
0
 71
3
 72
11
 73
7
 74
0
 42
0.0000001
 43
0.0000001
 44
0.0000000001
 40
0.0
 40
0.0
 40
0.0
 40
0.0
 40
0.404909094
 40
0.7091209223
 40
0.9062135574
 40
1.0
 40
1.0
 40
1.0
 40
1.0
 10
26.6130683888
 20
47.3722401009
 30
0.0
 10
26.6110815146
 20
47.3704475474
 30
0.0
 10
26.6076689735
 20
47.3672959233
 30
0.0
 10
26.6034460562
 20
47.36284744
 30
0.0
 10
26.6011223676
 20
47.3600127491
 30
0.0
 10
26.6001535066
 20
47.3578907791
 30
0.0
 10
26.6004621375
 20
47.3573532607
 30
0.0
  0
SPLINE
  5
32A
100
AcDbEntity
  8
0
100
AcDbSpline
 62
7
  6
BYLAYER
 70
0
 71
3
 72
15
 73
11
 74
0
 42
0.0000001
 43
0.0000001
 44
0.0000000001
 40
0.0
 40
0.0
 40
0.0
 40
0.0
 40
0.1066335375
 40
0.2278299998
 40
0.3609893074
 40
0.5005353232
 40
0.6400696977
 40
0.7729396661
 40
0.8937795135
 40
1.0
 40
1.0
 40
1.0
 40
1.0
 10
22.0165115048
 20
49.0258851903
 30
0.0
 10
22.0456308135
 20
49.0429933573
 30
0.0
 10
22.1049079778
 20
49.0846485539
 30
0.0
 10
22.1890873257
 20
49.1624696444
 30
0.0
 10
22.2692860935
 20
49.2584421875
 30
0.0
 10
22.341211432
 20
49.3677616265
 30
0.0
 10
22.3994910467
 20
49.4848433907
 30
0.0
 10
22.4415793333
 20
49.6024054693
 30
0.0
 10
22.4661315044
 20
49.7140315034
 30
0.0
 10
22.4721130905
 20
49.7859952062
 30
0.0
 10
22.4721130877
 20
49.8196375024
 30
0.0
  0
SPLINE
  5
32B
100
AcDbEntity
  8
0
100
AcDbSpline
 62
7
  6
BYLAYER
 70
0
 71
3
 72
11
 73
7
 74
0
 42
0.0000001
 43
0.0000001
 44
0.0000000001
 40
0.0
 40
0.0
 40
0.0
 40
0.0
 40
0.2347460921
 40
0.4745624225
 40
0.7279840384
 40
1.0
 40
1.0
 40
1.0
 40
1.0
 10
26.7643236091
 20
54.286652607
 30
0.0
 10
26.7893299058
 20
54.30108999
 30
0.0
 10
26.8359852495
 20
54.3377519013
 30
0.0
 10
26.8881705464
 20
54.4119570303
 30
0.0
 10
26.9198814232
 20
54.5016660993
 30
0.0
 10
26.9264274806
 20
54.5665895749
 30
0.0
 10
26.9264274806
 20
54.6000487089
 30
0.0
  0
SPLINE
  5
32C
100
AcDbEntity
  8
0
100
AcDbSpline
 62
7
  6
BYLAYER
 70
0
 71
3
 72
15
 73
11
 74
0
 42
0.0000001
 43
0.0000001
 44
0.0000000001
 40
0.0
 40
0.0
 40
0.0
 40
0.0
 40
0.1352419917
 40
0.2580530881
 40
0.3719186067
 40
0.4823428408
 40
0.595754729
 40
0.7177484453
 40
0.8520692556
 40
1.0
 40
1.0
 40
1.0
 40
1.0
 10
21.6698254437
 20
51.3787837394
 30
0.0
 10
21.5691441411
 20
51.2951645501
 30
0.0
 10
21.3899758717
 20
51.1184844015
 30
0.0
 10
21.1932054666
 20
50.8130286967
 30
0.0
 10
21.0905988581
 20
50.4883195519
 30
0.0
 10
21.0893523368
 20
50.1563441011
 30
0.0
 10
21.1897474203
 20
49.8321878775
 30
0.0
 10
21.384595145
 20
49.5277898403
 30
0.0
 10
21.665288278
 20
49.251614186
 30
0.0
 10
21.8925875801
 20
49.0976122319
 30
0.0
 10
22.0164870671
 20
49.0258992989
 30
0.0
  0
SPLINE
  5
32D
100
AcDbEntity
  8
0
100
AcDbSpline
 62
7
  6
BYLAYER
 70
0
 71
3
 72
12
 73
8
 74
0
 42
0.0000001
 43
0.0000001
 44
0.0000000001
 40
0.0
 40
0.0
 40
0.0
 40
0.0
 40
0.1576446414
 40
0.2567694496
 40
0.3720286806
 40
0.6537613773
 40
1.0
 40
1.0
 40
1.0
 40
1.0
 10
24.3654721629
 20
52.9016945236
 30
0.0
 10
24.3783093024
 20
52.9091062059
 30
0.0
 10
24.395041998
 20
52.928158213
 30
0.0
 10
24.4106440292
 20
52.9593957188
 30
0.0
 10
24.4258297442
 20
53.0036881334
 30
0.0
 10
24.4375032944
 20
53.0729338327
 30
0.0
 10
24.4400825756
 20
53.1320213026
 30
0.0
 10
24.440103891
 20
53.1645776838
 30
0.0
  0
SPLINE
  5
32E
100
AcDbEntity
  8
0
100
AcDbSpline
 62
7
  6
BYLAYER
 70
0
 71
3
 72
9
 73
5
 74
0
 42
0.0000001
 43
0.0000001
 44
0.0000000001
 40
0.0
 40
0.0
 40
0.0
 40
0.0
 40
0.2462038705
 40
1.0
 40
1.0
 40
1.0
 40
1.0
 10
21.1171166655
 20
53.7765178548
 30
0.0
 10
21.1132062837
 20
53.7787754795
 30
0.0
 10
21.0976754385
 20
53.7885473835
 30
0.0
 10
21.0836741094
 20
53.8007044734
 30
0.0
 10
21.0742284284
 20
53.810798668
 30
0.0
  0
SPLINE
  5
32F
100
AcDbEntity
  8
0
100
AcDbSpline
 62
7
  6
BYLAYER
 70
0
 71
3
 72
10
 73
6
 74
0
 42
0.0000001
 43
0.0000001
 44
0.0000000001
 40
0.0
 40
0.0
 40
0.0
 40
0.0
 40
0.4453821847
 40
0.7090802164
 40
1.0
 40
1.0
 40
1.0
 40
1.0
 10
21.0742284284
 20
53.810798668
 30
0.0
 10
21.04660838
 20
53.8403150307
 30
0.0
 10
21.0168588344
 20
53.9006038207
 30
0.0
 10
20.9987709234
 20
53.9894788437
 30
0.0
 10
20.9957632671
 20
54.0399777253
 30
0.0
 10
20.9957624064
 20
54.0663821942
 30
0.0
  0
SPLINE
  5
330
100
AcDbEntity
  8
0
100
AcDbSpline
 62
7
  6
BYLAYER
 70
0
 71
3
 72
11
 73
7
 74
0
 42
0.0000001
 43
0.0000001
 44
0.0000000001
 40
0.0
 40
0.0
 40
0.0
 40
0.0
 40
0.2237457937
 40
0.4631166124
 40
0.7211088795
 40
1.0
 40
1.0
 40
1.0
 40
1.0
 10
21.8311081542
 20
50.4706352597
 30
0.0
 10
21.8600105699
 20
50.4078209758
 30
0.0
 10
21.9328033693
 20
50.283507456
 30
0.0
 10
22.0771549892
 20
50.1125494399
 30
0.0
 10
22.2584508498
 20
49.9542263153
 30
0.0
 10
22.3974726894
 20
49.8627017686
 30
0.0
 10
22.4721130871
 20
49.8196100459
 30
0.0
  0
SPLINE
  5
331
100
AcDbEntity
  8
0
100
AcDbSpline
 62
7
  6
BYLAYER
 70
0
 71
3
 72
14
 73
10
 74
0
 42
0.0000001
 43
0.0000001
 44
0.0000000001
 40
0.0
 40
0.0
 40
0.0
 40
0.0
 40
0.3144330346
 40
0.4630892678
 40
0.5965059163
 40
0.7114765954
 40
0.8100402175
 40
0.901667618
 40
1.0
 40
1.0
 40
1.0
 40
1.0
 10
32.5675058956
 20
64.0334486471
 30
0.0
 10
32.5991297277
 20
64.0285567893
 30
0.0
 10
32.647387933
 20
64.0290133507
 30
0.0
 10
32.7062970858
 20
64.0446295714
 30
0.0
 10
32.7428428245
 20
64.0626593753
 30
0.0
 10
32.7699681599
 20
64.0860425312
 30
0.0
 10
32.7852643298
 20
64.1142175219
 30
0.0
 10
32.7853593179
 20
64.1448148393
 30
0.0
 10
32.7759172626
 20
64.1625084388
 30
0.0
 10
32.7697914642
 20
64.1704217837
 30
0.0
  0
SPLINE
  5
332
100
AcDbEntity
  8
0
100
AcDbSpline
 62
7
  6
BYLAYER
 70
0
 71
3
 72
13
 73
9
 74
0
 42
0.0000001
 43
0.0000001
 44
0.0000000001
 40
0.0
 40
0.0
 40
0.0
 40
0.0
 40
0.1106866908
 40
0.2266752823
 40
0.3480027876
 40
0.4743556051
 40
0.7362905087
 40
1.0
 40
1.0
 40
1.0
 40
1.0
 10
33.060123674
 20
47.5656941794
 30
0.0
 10
33.0601263351
 20
47.5304570233
 30
0.0
 10
33.0687733485
 20
47.4580987956
 30
0.0
 10
33.1050122459
 20
47.3526536084
 30
0.0
 10
33.1634435213
 20
47.2519026209
 30
0.0
 10
33.2687687883
 20
47.1275848236
 30
0.0
 10
33.4404329356
 20
47.0046360516
 30
0.0
 10
33.6023190719
 20
46.9513897397
 30
0.0
 10
33.6852376067
 20
46.9382573317
 30
0.0
  0
SPLINE
  5
333
100
AcDbEntity
  8
0
100
AcDbSpline
 62
7
  6
BYLAYER
 70
0
 71
3
 72
15
 73
11
 74
0
 42
0.0000001
 43
0.0000001
 44
0.0000000001
 40
0.0
 40
0.0
 40
0.0
 40
0.0
 40
0.1062204865
 40
0.2270603339
 40
0.3599303023
 40
0.4994646768
 40
0.6390106926
 40
0.7721700002
 40
0.8933664625
 40
1.0
 40
1.0
 40
1.0
 40
1.0
 10
28.6005842291
 20
46.2815214017
 30
0.0
 10
28.6005842319
 20
46.2478791056
 30
0.0
 10
28.5946026458
 20
46.1759154028
 30
0.0
 10
28.5700504747
 20
46.0642893687
 30
0.0
 10
28.527962188
 20
45.94672729
 30
0.0
 10
28.4696825733
 20
45.8296455258
 30
0.0
 10
28.3977572348
 20
45.7203260868
 30
0.0
 10
28.317558467
 20
45.6243535438
 30
0.0
 10
28.2333791191
 20
45.5465324532
 30
0.0
 10
28.1741019548
 20
45.5048772566
 30
0.0
 10
28.1449826462
 20
45.4877690897
 30
0.0
  0
SPLINE
  5
334
100
AcDbEntity
  8
0
100
AcDbSpline
 62
7
  6
BYLAYER
 70
0
 71
3
 72
13
 73
9
 74
0
 42
0.0000001
 43
0.0000001
 44
0.0000000001
 40
0.0
 40
0.0
 40
0.0
 40
0.0
 40
0.2533912815
 40
0.3901185663
 40
0.5272828813
 40
0.6600747046
 40
0.7845411328
 40
1.0
 40
1.0
 40
1.0
 40
1.0
 10
33.4150139865
 20
46.336751719
 30
0.0
 10
33.3349409822
 20
46.3488493326
 30
0.0
 10
33.2135940841
 20
46.3868990266
 30
0.0
 10
33.0680415768
 20
46.4727524115
 30
0.0
 10
32.9672259289
 20
46.5557716208
 30
0.0
 10
32.8851355167
 20
46.6524613934
 30
0.0
 10
32.8096413836
 20
46.7838810278
 30
0.0
 10
32.7833145933
 20
46.8934059177
 30
0.0
 10
32.7831487849
 20
46.9622645542
 30
0.0
  0
SPLINE
  5
335
100
AcDbEntity
  8
0
100
AcDbSpline
 62
7
  6
BYLAYER
 70
0
 71
3
 72
20
 73
16
 74
0
 42
0.0000001
 43
0.0000001
 44
0.0000000001
 40
0.0
 40
0.0
 40
0.0
 40
0.0
 40
0.0597522022
 40
0.1229671576
 40
0.1890839221
 40
0.2574976565
 40
0.3982428815
 40
0.5390945229
 40
0.6738186021
 40
0.7372267811
 40
0.7972440276
 40
0.8535251938
 40
0.9059416876
 40
0.9546312728
 40
1.0
 40
1.0
 40
1.0
 40
1.0
 10
28.1449582061
 20
45.4877831995
 30
0.0
 10
28.2451981778
 20
45.4300573031
 30
0.0
 10
28.4584714059
 20
45.3231153195
 30
0.0
 10
28.800889561
 20
45.1922904534
 30
0.0
 10
29.1700144156
 20
45.0888921152
 30
0.0
 10
29.6939105822
 20
44.9886734423
 30
0.0
 10
30.372809312
 20
44.9412500551
 30
0.0
 10
31.1789932935
 20
45.0058184107
 30
0.0
 10
31.8204346387
 20
45.1599553129
 30
0.0
 10
32.2864442175
 20
45.3423196005
 30
0.0
 10
32.5967039376
 20
45.5011594008
 30
0.0
 10
32.8695620394
 20
45.6820619718
 30
0.0
 10
33.100516273
 20
45.8823397348
 30
0.0
 10
33.2851207632
 20
46.0990864174
 30
0.0
 10
33.3782234085
 20
46.2570000946
 30
0.0
 10
33.4150139865
 20
46.336751719
 30
0.0
  0
SPLINE
  5
336
100
AcDbEntity
  8
0
100
AcDbSpline
 62
7
  6
BYLAYER
 70
0
 71
3
 72
10
 73
6
 74
0
 42
0.0000001
 43
0.0000001
 44
0.0000000001
 40
0.0
 40
0.0
 40
0.0
 40
0.0
 40
0.0919480019
 40
0.2823151635
 40
1.0
 40
1.0
 40
1.0
 40
1.0
 10
26.6004621375
 20
47.3573532607
 30
0.0
 10
26.6007090789
 20
47.3569231821
 30
0.0
 10
26.602572264
 20
47.3567485946
 30
0.0
 10
26.6074416121
 20
47.3583136693
 30
0.0
 10
26.6120814456
 20
47.3603882529
 30
0.0
 10
26.6155561226
 20
47.3620942853
 30
0.0
  0
SPLINE
  5
337
100
AcDbEntity
  8
0
100
AcDbSpline
 62
7
  6
BYLAYER
 70
0
 71
3
 72
9
 73
5
 74
0
 42
0.0000001
 43
0.0000001
 44
0.0000000001
 40
0.0
 40
0.0
 40
0.0
 40
0.0
 40
0.2177144233
 40
1.0
 40
1.0
 40
1.0
 40
1.0
 10
26.6155561226
 20
47.3620942853
 30
0.0
 10
26.61685556
 20
47.3627322963
 30
0.0
 10
26.6227917399
 20
47.3657286675
 30
0.0
 10
26.6286251671
 20
47.3689246125
 30
0.0
 10
26.6331567882
 20
47.3714781231
 30
0.0
  0
SPLINE
  5
338
100
AcDbEntity
  8
0
100
AcDbSpline
 62
7
  6
BYLAYER
 70
0
 71
3
 72
12
 73
8
 74
0
 42
0.0000001
 43
0.0000001
 44
0.0000000001
 40
0.0
 40
0.0
 40
0.0
 40
0.0
 40
0.2622718979
 40
0.3924407962
 40
0.5213364359
 40
0.7707750025
 40
1.0
 40
1.0
 40
1.0
 40
1.0
 10
27.6965336497
 20
46.067020257
 30
0.0
 10
27.6850741346
 20
46.0603540008
 30
0.0
 10
27.6663855539
 20
46.0526180846
 30
0.0
 10
27.6402207414
 20
46.0487023718
 30
0.0
 10
27.6144292426
 20
46.0491021495
 30
0.0
 10
27.5840711383
 20
46.0550318136
 30
0.0
 10
27.5615134617
 20
46.0645418248
 30
0.0
 10
27.5516441882
 20
46.0706126666
 30
0.0
  0
SPLINE
  5
339
100
AcDbEntity
  8
0
100
AcDbSpline
 62
7
  6
BYLAYER
 70
0
 71
3
 72
9
 73
5
 74
0
 42
0.0000001
 43
0.0000001
 44
0.0000000001
 40
0.0
 40
0.0
 40
0.0
 40
0.0
 40
0.4995032562
 40
1.0
 40
1.0
 40
1.0
 40
1.0
 10
27.7637762225
 20
46.1522647854
 30
0.0
 10
27.7565661604
 20
46.1354595878
 30
0.0
 10
27.7389978948
 20
46.1029908462
 30
0.0
 10
27.7121058108
 20
46.076676292
 30
0.0
 10
27.6965336497
 20
46.0670202578
 30
0.0
  0
SPLINE
  5
33A
100
AcDbEntity
  8
0
100
AcDbSpline
 62
7
  6
BYLAYER
 70
0
 71
3
 72
11
 73
7
 74
0
 42
0.0000001
 43
0.0000001
 44
0.0000000001
 40
0.0
 40
0.0
 40
0.0
 40
0.0
 40
0.2438841167
 40
0.5339078615
 40
0.8048449257
 40
1.0
 40
1.0
 40
1.0
 40
1.0
 10
27.9334824627
 20
46.0297914593
 30
0.0
 10
27.9187243515
 20
46.0383118611
 30
0.0
 10
27.8870436334
 20
46.0580489926
 30
0.0
 10
27.8406590868
 20
46.0898834686
 30
0.0
 10
27.7985098033
 20
46.1217528925
 30
0.0
 10
27.7736022254
 20
46.1428097759
 30
0.0
 10
27.7637762577
 20
46.1522647651
 30
0.0
  0
SPLINE
  5
33B
100
AcDbEntity
  8
0
100
AcDbSpline
 62
7
  6
BYLAYER
 70
0
 71
3
 72
12
 73
8
 74
0
 42
0.0000001
 43
0.0000001
 44
0.0000000001
 40
0.0
 40
0.0
 40
0.0
 40
0.0
 40
0.1190550429
 40
0.2446543792
 40
0.4976799584
 40
0.7489432565
 40
1.0
 40
1.0
 40
1.0
 40
1.0
 10
27.4856391976
 20
45.8684241694
 30
0.0
 10
27.5046589146
 20
45.8614424147
 30
0.0
 10
27.545350625
 20
45.8512914118
 30
0.0
 10
27.6300936146
 20
45.8449529764
 30
0.0
 10
27.7378966823
 20
45.8645187559
 30
0.0
 10
27.8511341925
 20
45.9300485759
 30
0.0
 10
27.9092553062
 20
45.9946002797
 30
0.0
 10
27.9334826216
 20
46.029791568
 30
0.0
  0
SPLINE
  5
33C
100
AcDbEntity
  8
0
100
AcDbSpline
 62
7
  6
BYLAYER
 70
0
 71
3
 72
9
 73
5
 74
0
 42
0.0000001
 43
0.0000001
 44
0.0000000001
 40
0.0
 40
0.0
 40
0.0
 40
0.0
 40
0.4763265213
 40
1.0
 40
1.0
 40
1.0
 40
1.0
 10
27.4076917965
 20
45.9134251083
 30
0.0
 10
27.419494194
 20
45.9038408525
 30
0.0
 10
27.445518163
 20
45.8850351339
 30
0.0
 10
27.4748362488
 20
45.8719946786
 30
0.0
 10
27.490327767
 20
45.8657173438
 30
0.0
  0
SPLINE
  5
33D
100
AcDbEntity
  8
0
100
AcDbSpline
 62
7
  6
BYLAYER
 70
0
 71
3
 72
9
 73
5
 74
0
 42
0.0000001
 43
0.0000001
 44
0.0000000001
 40
0.0
 40
0.0
 40
0.0
 40
0.0
 40
0.480832289
 40
1.0
 40
1.0
 40
1.0
 40
1.0
 10
27.3750965917
 20
45.9780354091
 30
0.0
 10
27.3772636028
 20
45.9655195545
 30
0.0
 10
27.3861136592
 20
45.9399939857
 30
0.0
 10
27.4033861326
 20
45.9192646117
 30
0.0
 10
27.4135420241
 20
45.910047629
 30
0.0
  0
SPLINE
  5
33E
100
AcDbEntity
  8
0
100
AcDbSpline
 62
7
  6
BYLAYER
 70
0
 71
3
 72
11
 73
7
 74
0
 42
0.0000001
 43
0.0000001
 44
0.0000000001
 40
0.0
 40
0.0
 40
0.0
 40
0.0
 40
0.2308509336
 40
0.4762805424
 40
0.7337248721
 40
1.0
 40
1.0
 40
1.0
 40
1.0
 10
20.5879264887
 20
42.988539249
 30
0.0
 10
21.0169336549
 20
42.7408574494
 30
0.0
 10
21.9360078275
 20
42.2873400471
 30
0.0
 10
23.4183593164
 20
41.748951251
 30
0.0
 10
25.0199610293
 20
41.3403807849
 30
0.0
 10
26.1313494602
 20
41.1624652558
 30
0.0
 10
26.698895821
 20
41.0963264798
 30
0.0
  0
SPLINE
  5
33F
100
AcDbEntity
  8
0
100
AcDbSpline
 62
7
  6
BYLAYER
 70
0
 71
3
 72
14
 73
10
 74
0
 42
0.0000001
 43
0.0000001
 44
0.0000000001
 40
0.0
 40
0.0
 40
0.0
 40
0.0
 40
0.1084193837
 40
0.2087590664
 40
0.3096089824
 40
0.4192351634
 40
0.5429829787
 40
0.6825485898
 40
1.0
 40
1.0
 40
1.0
 40
1.0
 10
32.4545916764
 20
64.1704206899
 30
0.0
 10
32.4498106338
 20
64.1642375108
 30
0.0
 10
32.4420909363
 20
64.1509822555
 30
0.0
 10
32.4381175284
 20
64.1284833861
 30
0.0
 10
32.4430642542
 20
64.1060859799
 30
0.0
 10
32.4560672764
 20
64.0853568471
 30
0.0
 10
32.4761631398
 20
64.0671069511
 30
0.0
 10
32.5125132794
 20
64.045921561
 30
0.0
 10
32.5448896355
 20
64.0369471329
 30
0.0
 10
32.5675058956
 20
64.0334486471
 30
0.0
  0
SPLINE
  5
340
100
AcDbEntity
  8
0
100
AcDbSpline
 62
7
  6
BYLAYER
 70
0
 71
3
 72
19
 73
15
 74
0
 42
0.0000001
 43
0.0000001
 44
0.0000000001
 40
0.0
 40
0.0
 40
0.0
 40
0.0
 40
0.0602076988
 40
0.1236579134
 40
0.1898691982
 40
0.2582342831
 40
0.3985661322
 40
0.5391310732
 40
0.673398597
 40
0.7365247629
 40
0.7964357703
 40
0.8528179564
 40
0.9055018695
 40
1.0
 40
1.0
 40
1.0
 40
1.0
 10
28.6005842289
 20
46.2815077007
 30
0.0
 10
28.6806436412
 20
46.2352874483
 30
0.0
 10
28.8511358208
 20
46.1506378464
 30
0.0
 10
29.1245914692
 20
46.0484326062
 30
0.0
 10
29.41819638
 20
45.967919949
 30
0.0
 10
29.833372576
 20
45.8897955707
 30
0.0
 10
30.3704297345
 20
45.8514100409
 30
0.0
 10
31.0084530015
 20
45.9002501993
 30
0.0
 10
31.5150304627
 20
46.0255300623
 30
0.0
 10
31.8824753461
 20
46.1720451177
 30
0.0
 10
32.1276770865
 20
46.2985678279
 30
0.0
 10
32.3446561866
 20
46.4421926456
 30
0.0
 10
32.5821504966
 20
46.6455200744
 30
0.0
 10
32.7227641233
 20
46.830319719
 30
0.0
 10
32.7831488267
 20
46.9622508534
 30
0.0
  0
SPLINE
  5
341
100
AcDbEntity
  8
0
100
AcDbSpline
 62
7
  6
BYLAYER
 70
0
 71
3
 72
9
 73
5
 74
0
 42
0.0000001
 43
0.0000001
 44
0.0000000001
 40
0.0
 40
0.0
 40
0.0
 40
0.0
 40
0.2338790389
 40
1.0
 40
1.0
 40
1.0
 40
1.0
 10
27.1133932903
 20
48.9792658803
 30
0.0
 10
27.1160273708
 20
48.9787329915
 30
0.0
 10
27.1275201997
 20
48.9775682635
 30
0.0
 10
27.1391607744
 20
48.9806750679
 30
0.0
 10
27.1471342364
 20
48.9844062783
 30
0.0
  0
SPLINE
  5
342
100
AcDbEntity
  8
0
100
AcDbSpline
 62
7
  6
BYLAYER
 70
0
 71
3
 72
11
 73
7
 74
0
 42
0.0000001
 43
0.0000001
 44
0.0000000001
 40
0.0
 40
0.0
 40
0.0
 40
0.0
 40
0.2895368706
 40
0.5491085983
 40
0.7822509632
 40
1.0
 40
1.0
 40
1.0
 40
1.0
 10
25.8586902726
 20
50.5321614977
 30
0.0
 10
25.8586902726
 20
50.4992463643
 30
0.0
 10
25.8637140196
 20
50.4366146395
 30
0.0
 10
25.8890331412
 20
50.3505469399
 30
0.0
 10
25.931739929
 20
50.2806810847
 30
0.0
 10
25.971890539
 20
50.2470035206
 30
0.0
 10
25.9933283797
 20
50.2346266537
 30
0.0
  0
SPLINE
  5
343
100
AcDbEntity
  8
0
100
AcDbSpline
 62
7
  6
BYLAYER
 70
0
 71
3
 72
22
 73
18
 74
0
 42
0.0000001
 43
0.0000001
 44
0.0000000001
 40
0.0
 40
0.0
 40
0.0
 40
0.0
 40
0.0456496141
 40
0.0946134927
 40
0.1472201001
 40
0.2035560077
 40
0.2634594026
 40
0.3265928813
 40
0.3924846605
 40
0.4605530008
 40
0.6004461283
 40
0.6709235251
 40
0.7407445921
 40
0.8091930906
 40
0.8755910175
 40
0.9393632279
 40
1.0
 40
1.0
 40
1.0
 40
1.0
 10
36.388149425
 20
52.0271262328
 30
0.0
 10
36.3064924786
 20
51.8764614679
 30
0.0
 10
36.1072708274
 20
51.5798502062
 30
0.0
 10
35.7280340813
 20
51.1751989136
 30
0.0
 10
35.2653214727
 20
50.801974747
 30
0.0
 10
34.7265420602
 20
50.4655653238
 30
0.0
 10
34.1198654163
 20
50.1708056802
 30
0.0
 10
33.4546725918
 20
49.9220450826
 30
0.0
 10
32.7411199785
 20
49.7230584038
 30
0.0
 10
31.7311965059
 20
49.5265526174
 30
0.0
 10
30.6846547358
 20
49.4439512048
 30
0.0
 10
29.6325894106
 20
49.4738028759
 30
0.0
 10
28.8521860823
 20
49.5529583652
 30
0.0
 10
28.0950021704
 20
49.687588639
 30
0.0
 10
27.3725981822
 20
49.8755745972
 30
0.0
 10
26.6962526638
 20
50.1140528562
 30
0.0
 10
26.2712219744
 20
50.309772622
 30
0.0
 10
26.0697875316
 20
50.4157947411
 30
0.0
  0
SPLINE
  5
344
100
AcDbEntity
  8
0
100
AcDbSpline
 62
7
  6
BYLAYER
 70
0
 71
3
 72
9
 73
5
 74
0
 42
0.0000001
 43
0.0000001
 44
0.0000000001
 40
0.0
 40
0.0
 40
0.0
 40
0.0
 40
0.4685365624
 40
1.0
 40
1.0
 40
1.0
 40
1.0
 10
27.099534539
 20
49.2754123018
 30
0.0
 10
27.0931660357
 20
49.2790888522
 30
0.0
 10
27.0769806456
 20
49.2827645476
 30
0.0
 10
27.0613851883
 20
49.2783044976
 30
0.0
 10
27.053828992
 20
49.2747719046
 30
0.0
  0
SPLINE
  5
345
100
AcDbEntity
  8
0
100
AcDbSpline
 62
7
  6
BYLAYER
 70
0
 71
3
 72
11
 73
7
 74
0
 42
0.0000001
 43
0.0000001
 44
0.0000000001
 40
0.0
 40
0.0
 40
0.0
 40
0.0
 40
0.2372428334
 40
0.4999989082
 40
0.7627555772
 40
1.0
 40
1.0
 40
1.0
 40
1.0
 10
18.3370432756
 20
62.0607102962
 30
0.0
 10
18.3169651631
 20
62.0723021376
 30
0.0
 10
18.2789717773
 20
62.1042810039
 30
0.0
 10
18.2346272838
 20
62.1648792884
 30
0.0
 10
18.2043195027
 20
62.2335818941
 30
0.0
 10
18.1956213306
 20
62.282474699
 30
0.0
 10
18.1956213306
 20
62.3056589305
 30
0.0
  0
SPLINE
  5
346
100
AcDbEntity
  8
0
100
AcDbSpline
 62
7
  6
BYLAYER
 70
0
 71
3
 72
12
 73
8
 74
0
 42
0.0000001
 43
0.0000001
 44
0.0000000001
 40
0.0
 40
0.0
 40
0.0
 40
0.0
 40
0.2547889928
 40
0.3868322856
 40
0.5184812849
 40
0.7713519379
 40
1.0
 40
1.0
 40
1.0
 40
1.0
 10
18.2592731695
 20
67.7631498934
 30
0.0
 10
18.229039359
 20
67.7543283321
 30
0.0
 10
18.1851436908
 20
67.733022515
 30
0.0
 10
18.1345644101
 20
67.6934547149
 30
0.0
 10
18.0901923759
 20
67.6472654001
 30
0.0
 10
18.0497006633
 20
67.581876278
 30
0.0
 10
18.0361487391
 20
67.5221846978
 30
0.0
 10
18.0361487391
 20
67.4939214857
 30
0.0
  0
SPLINE
  5
347
100
AcDbEntity
  8
0
100
AcDbSpline
 62
7
  6
BYLAYER
 70
0
 71
3
 72
11
 73
7
 74
0
 42
0.0000001
 43
0.0000001
 44
0.0000000001
 40
0.0
 40
0.0
 40
0.0
 40
0.0
 40
0.2370168542
 40
0.49962705
 40
0.7624286491
 40
1.0
 40
1.0
 40
1.0
 40
1.0
 10
18.0824972102
 20
67.4569632506
 30
0.0
 10
18.0824972102
 20
67.4859158695
 30
0.0
 10
18.0933478736
 20
67.5469875223
 30
0.0
 10
18.131198929
 20
67.6328364213
 30
0.0
 10
18.1866154974
 20
67.7086293731
 30
0.0
 10
18.234140769
 20
67.7486397818
 30
0.0
 10
18.2592731695
 20
67.7631498934
 30
0.0
  0
SPLINE
  5
348
100
AcDbEntity
  8
0
100
AcDbSpline
 62
7
  6
BYLAYER
 70
0
 71
3
 72
9
 73
5
 74
0
 42
0.0000001
 43
0.0000001
 44
0.0000000001
 40
0.0
 40
0.0
 40
0.0
 40
0.0
 40
0.2338149527
 40
1.0
 40
1.0
 40
1.0
 40
1.0
 10
18.0361487391
 20
67.4939214857
 30
0.0
 10
18.0391997985
 20
67.4904359911
 30
0.0
 10
18.0529946168
 20
67.4761821691
 30
0.0
 10
18.0693514588
 20
67.4645527821
 30
0.0
 10
18.0824972102
 20
67.4569632506
 30
0.0
  0
SPLINE
  5
349
100
AcDbEntity
  8
0
100
AcDbSpline
 62
7
  6
BYLAYER
 70
0
 71
3
 72
9
 73
5
 74
0
 42
0.0000001
 43
0.0000001
 44
0.0000000001
 40
0.0
 40
0.0
 40
0.0
 40
0.0
 40
0.2428678774
 40
1.0
 40
1.0
 40
1.0
 40
1.0
 10
16.4741279703
 20
69.2783558041
 30
0.0
 10
16.4741279703
 20
69.2820813135
 30
0.0
 10
16.4745984894
 20
69.2974194545
 30
0.0
 10
16.4768720732
 20
69.3126849771
 30
0.0
 10
16.4794307697
 20
69.3240137655
 30
0.0
  0
SPLINE
  5
34A
100
AcDbEntity
  8
0
100
AcDbSpline
 62
7
  6
BYLAYER
 70
0
 71
3
 72
9
 73
5
 74
0
 42
0.0000001
 43
0.0000001
 44
0.0000000001
 40
0.0
 40
0.0
 40
0.0
 40
0.0
 40
0.2386768277
 40
1.0
 40
1.0
 40
1.0
 40
1.0
 10
16.4794307697
 20
69.3240137655
 30
0.0
 10
16.4817597782
 20
69.3343255961
 30
0.0
 10
16.4944432084
 20
69.3768591928
 30
0.0
 10
16.5179622777
 20
69.4157991442
 30
0.0
 10
16.5394796029
 20
69.4417625727
 30
0.0
  0
SPLINE
  5
34B
100
AcDbEntity
  8
0
100
AcDbSpline
 62
7
  6
BYLAYER
 70
0
 71
3
 72
9
 73
5
 74
0
 42
0.0000001
 43
0.0000001
 44
0.0000000001
 40
0.0
 40
0.0
 40
0.0
 40
0.0
 40
0.2565899805
 40
1.0
 40
1.0
 40
1.0
 40
1.0
 10
16.610143729
 20
69.5059700265
 30
0.0
 10
16.6169890389
 20
69.510619947
 30
0.0
 10
16.6443319014
 20
69.5277273459
 30
0.0
 10
16.6742364503
 20
69.5408686634
 30
0.0
 10
16.6972524007
 20
69.5475842117
 30
0.0
  0
SPLINE
  5
34C
100
AcDbEntity
  8
0
100
AcDbSpline
 62
7
  6
BYLAYER
 70
0
 71
3
 72
9
 73
5
 74
0
 42
0.0000001
 43
0.0000001
 44
0.0000000001
 40
0.0
 40
0.0
 40
0.0
 40
0.0
 40
0.2437757343
 40
1.0
 40
1.0
 40
1.0
 40
1.0
 10
16.4557719235
 20
69.30609972
 30
0.0
 10
16.456518616
 20
69.3044909415
 30
0.0
 10
16.4597557549
 20
69.297972964
 30
0.0
 10
16.4636664043
 20
69.2917958636
 30
0.0
 10
16.4669126366
 20
69.2873535777
 30
0.0
  0
SPLINE
  5
34D
100
AcDbEntity
  8
0
100
AcDbSpline
 62
7
  6
BYLAYER
 70
0
 71
3
 72
9
 73
5
 74
0
 42
0.0000001
 43
0.0000001
 44
0.0000000001
 40
0.0
 40
0.0
 40
0.0
 40
0.0
 40
0.2583755782
 40
1.0
 40
1.0
 40
1.0
 40
1.0
 10
19.3212981317
 20
68.9400268238
 30
0.0
 10
19.2904891035
 20
68.979239918
 30
0.0
 10
19.1752559612
 20
69.1340763409
 30
0.0
 10
19.0767560555
 20
69.3016576179
 30
0.0
 10
19.0164944878
 20
69.4314935335
 30
0.0
  0
SPLINE
  5
34E
100
AcDbEntity
  8
0
100
AcDbSpline
 62
7
  6
BYLAYER
 70
0
 71
3
 72
9
 73
5
 74
0
 42
0.0000001
 43
0.0000001
 44
0.0000000001
 40
0.0
 40
0.0
 40
0.0
 40
0.0
 40
0.2666089911
 40
1.0
 40
1.0
 40
1.0
 40
1.0
 10
18.0824972102
 20
55.748318589
 30
0.0
 10
18.0779240194
 20
55.7509588622
 30
0.0
 10
18.0611306518
 20
55.7614439053
 30
0.0
 10
18.0457164214
 20
55.7743468155
 30
0.0
 10
18.0361487391
 20
55.7852768241
 30
0.0
  0
SPLINE
  5
34F
100
AcDbEntity
  8
0
100
AcDbSpline
 62
7
  6
BYLAYER
 70
0
 71
3
 72
17
 73
13
 74
0
 42
0.0000001
 43
0.0000001
 44
0.0000000001
 40
0.0
 40
0.0
 40
0.0
 40
0.0
 40
0.0473027185
 40
0.0951917795
 40
0.1442676816
 40
0.1950446172
 40
0.3031492247
 40
0.4218916399
 40
0.5519423671
 40
0.6927214828
 40
0.8428095514
 40
1.0
 40
1.0
 40
1.0
 40
1.0
 10
19.1988435121
 20
69.7227301397
 30
0.0
 10
19.1980982184
 20
69.8041732361
 30
0.0
 10
19.2083368453
 20
69.9684118961
 30
0.0
 10
19.2587477875
 20
70.2124220308
 30
0.0
 10
19.3437973166
 20
70.4529758862
 30
0.0
 10
19.505546353
 20
70.773363507
 30
0.0
 10
19.7970454759
 20
71.1575515582
 30
0.0
 10
20.2593429401
 20
71.5670278223
 30
0.0
 10
20.8287335146
 20
71.926298024
 30
0.0
 10
21.4903323818
 20
72.2268647524
 30
0.0
 10
22.2269596164
 20
72.4612358484
 30
0.0
 10
22.7463295664
 20
72.5676170637
 30
0.0
 10
23.0138004005
 20
72.6089968593
 30
0.0
  0
SPLINE
  5
350
100
AcDbEntity
  8
0
100
AcDbSpline
 62
7
  6
BYLAYER
 70
0
 71
3
 72
9
 73
5
 74
0
 42
0.0000001
 43
0.0000001
 44
0.0000000001
 40
0.0
 40
0.0
 40
0.0
 40
0.0
 40
0.527844403
 40
1.0
 40
1.0
 40
1.0
 40
1.0
 10
18.0824972102
 20
55.748318589
 30
0.0
 10
18.0824958972
 20
55.7077861149
 30
0.0
 10
18.090720741
 20
55.630548255
 30
0.0
 10
18.1210418488
 20
55.5582737965
 30
0.0
 10
18.1410241434
 20
55.5280211892
 30
0.0
  0
SPLINE
  5
351
100
AcDbEntity
  8
0
100
AcDbSpline
 62
7
  6
BYLAYER
 70
0
 71
3
 72
9
 73
5
 74
0
 42
0.0000001
 43
0.0000001
 44
0.0000000001
 40
0.0
 40
0.0
 40
0.0
 40
0.0
 40
0.505172406
 40
1.0
 40
1.0
 40
1.0
 40
1.0
 10
18.1410241434
 20
55.5280211892
 30
0.0
 10
18.1523886949
 20
55.510815592
 30
0.0
 10
18.1785943879
 20
55.4790125297
 30
0.0
 10
18.2115268138
 20
55.4541800908
 30
0.0
 10
18.2289530528
 20
55.4439685101
 30
0.0
  0
SPLINE
  5
352
100
AcDbEntity
  8
0
100
AcDbSpline
 62
7
  6
BYLAYER
 70
0
 71
3
 72
9
 73
5
 74
0
 42
0.0000001
 43
0.0000001
 44
0.0000000001
 40
0.0
 40
0.0
 40
0.0
 40
0.0
 40
0.2616077486
 40
1.0
 40
1.0
 40
1.0
 40
1.0
 10
21.0597772485
 20
54.0396235822
 30
0.0
 10
21.0539616872
 20
54.0413204001
 30
0.0
 10
21.0319170398
 20
54.0484019483
 30
0.0
 10
21.0105706082
 20
54.0578328684
 30
0.0
 10
20.9957624064
 20
54.0663821942
 30
0.0
  0
SPLINE
  5
353
100
AcDbEntity
  8
0
100
AcDbSpline
 62
7
  6
BYLAYER
 70
0
 71
3
 72
11
 73
7
 74
0
 42
0.0000001
 43
0.0000001
 44
0.0000000001
 40
0.0
 40
0.0
 40
0.0
 40
0.0
 40
0.23721727
 40
0.499998382
 40
0.7627803746
 40
1.0
 40
1.0
 40
1.0
 40
1.0
 10
21.1725383658
 20
66.0812134986
 30
0.0
 10
21.1474434171
 20
66.0667250097
 30
0.0
 10
21.0999493304
 20
66.026754369
 30
0.0
 10
21.0445161374
 20
65.9510034906
 30
0.0
 10
21.0066308807
 20
65.8651210357
 30
0.0
 10
20.9957624064
 20
65.8040042511
 30
0.0
 10
20.9957624064
 20
65.7750268558
 30
0.0
  0
SPLINE
  5
354
100
AcDbEntity
  8
0
100
AcDbSpline
 62
7
  6
BYLAYER
 70
0
 71
3
 72
12
 73
8
 74
0
 42
0.0000001
 43
0.0000001
 44
0.0000000001
 40
0.0
 40
0.0
 40
0.0
 40
0.0
 40
0.2471584674
 40
0.5193640724
 40
0.7812166667
 40
0.8978635448
 40
1.0
 40
1.0
 40
1.0
 40
1.0
 10
21.0597772485
 20
65.7482682439
 30
0.0
 10
21.0597772485
 20
65.7776893114
 30
0.0
 10
21.0666969757
 20
65.8395242285
 30
0.0
 10
21.0902819612
 20
65.9296941261
 30
0.0
 10
21.1200894405
 20
66.0015983116
 30
0.0
 10
21.1489710061
 20
66.0510669743
 30
0.0
 10
21.1645304712
 20
66.0720651839
 30
0.0
 10
21.1725383658
 20
66.0812134986
 30
0.0
  0
SPLINE
  5
355
100
AcDbEntity
  8
0
100
AcDbSpline
 62
7
  6
BYLAYER
 70
0
 71
3
 72
9
 73
5
 74
0
 42
0.0000001
 43
0.0000001
 44
0.0000000001
 40
0.0
 40
0.0
 40
0.0
 40
0.0
 40
0.2376746792
 40
1.0
 40
1.0
 40
1.0
 40
1.0
 10
20.9957624064
 20
65.7750268558
 30
0.0
 10
21.0005293675
 20
65.7722747119
 30
0.0
 10
21.0209906359
 20
65.7613994173
 30
0.0
 10
21.0428289979
 20
65.7532132685
 30
0.0
 10
21.0597772485
 20
65.7482682439
 30
0.0
  0
SPLINE
  5
356
100
AcDbEntity
  8
0
100
AcDbSpline
 62
7
  6
BYLAYER
 70
0
 71
3
 72
12
 73
8
 74
0
 42
0.0000001
 43
0.0000001
 44
0.0000000001
 40
0.0
 40
0.0
 40
0.0
 40
0.0
 40
0.1018815523
 40
0.2184401765
 40
0.4802497565
 40
0.7526277277
 40
1.0
 40
1.0
 40
1.0
 40
1.0
 10
24.2633264598
 20
65.1794081383
 30
0.0
 10
24.2553385746
 20
65.1702826827
 30
0.0
 10
24.2398102283
 20
65.1493130719
 30
0.0
 10
24.2109234752
 20
65.0999018097
 30
0.0
 10
24.1811042644
 20
65.0279951081
 30
0.0
 10
24.1574956146
 20
64.9377901484
 30
0.0
 10
24.1505653425
 20
64.8759093134
 30
0.0
 10
24.1505653425
 20
64.8464628836
 30
0.0
  0
SPLINE
  5
357
100
AcDbEntity
  8
0
100
AcDbSpline
 62
7
  6
BYLAYER
 70
0
 71
3
 72
11
 73
7
 74
0
 42
0.0000001
 43
0.0000001
 44
0.0000000001
 40
0.0
 40
0.0
 40
0.0
 40
0.0
 40
0.2372183035
 40
0.5000004485
 40
0.762782414
 40
1.0
 40
1.0
 40
1.0
 40
1.0
 10
24.440103891
 20
64.8732223454
 30
0.0
 10
24.440103891
 20
64.902199596
 30
0.0
 10
24.4292354077
 20
64.9633162797
 30
0.0
 10
24.3913498318
 20
65.0491986329
 30
0.0
 10
24.3359160886
 20
65.124949398
 30
0.0
 10
24.2884215609
 20
65.1649198027
 30
0.0
 10
24.2633264598
 20
65.1794081383
 30
0.0
  0
SPLINE
  5
358
100
AcDbEntity
  8
0
100
AcDbSpline
 62
7
  6
BYLAYER
 70
0
 71
3
 72
11
 73
7
 74
0
 42
0.0000001
 43
0.0000001
 44
0.0000000001
 40
0.0
 40
0.0
 40
0.0
 40
0.0
 40
0.2537799638
 40
0.5162257894
 40
0.7700737155
 40
1.0
 40
1.0
 40
1.0
 40
1.0
 10
24.1505653425
 20
64.8464628836
 30
0.0
 10
24.174719752
 20
64.8394153038
 30
0.0
 10
24.2254685217
 20
64.8303484482
 30
0.0
 10
24.3022032792
 20
64.8303612943
 30
0.0
 10
24.3753631098
 20
64.8437496968
 30
0.0
 10
24.420361486
 20
64.8618241306
 30
0.0
 10
24.440103891
 20
64.8732223454
 30
0.0
  0
SPLINE
  5
359
100
AcDbEntity
  8
0
100
AcDbSpline
 62
7
  6
BYLAYER
 70
0
 71
3
 72
9
 73
5
 74
0
 42
0.0000001
 43
0.0000001
 44
0.0000000001
 40
0.0
 40
0.0
 40
0.0
 40
0.0
 40
0.2616116808
 40
1.0
 40
1.0
 40
1.0
 40
1.0
 10
24.869475788
 20
65.4370759767
 30
0.0
 10
24.8651769167
 20
65.4430069253
 30
0.0
 10
24.8477568517
 20
65.4649178392
 30
0.0
 10
24.8259979727
 20
65.4835902549
 30
0.0
 10
24.8080930799
 20
65.4939274157
 30
0.0
  0
SPLINE
  5
35A
100
AcDbEntity
  8
0
100
AcDbSpline
 62
7
  6
BYLAYER
 70
0
 71
3
 72
9
 73
5
 74
0
 42
0.0000001
 43
0.0000001
 44
0.0000000001
 40
0.0
 40
0.0
 40
0.0
 40
0.0
 40
0.2454381646
 40
1.0
 40
1.0
 40
1.0
 40
1.0
 10
24.9116475114
 20
65.1454665565
 30
0.0
 10
24.9165147768
 20
65.1618452554
 30
0.0
 10
24.9311516719
 20
65.2299899175
 30
0.0
 10
24.9262154473
 20
65.3025179944
 30
0.0
 10
24.9107079627
 20
65.3527069659
 30
0.0
  0
SPLINE
  5
35B
100
AcDbEntity
  8
0
100
AcDbSpline
 62
7
  6
BYLAYER
 70
0
 71
3
 72
9
 73
5
 74
0
 42
0.0000001
 43
0.0000001
 44
0.0000000001
 40
0.0
 40
0.0
 40
0.0
 40
0.0
 40
0.2573556095
 40
1.0
 40
1.0
 40
1.0
 40
1.0
 10
24.9107079627
 20
65.3527069659
 30
0.0
 10
24.9083241521
 20
65.3604220147
 30
0.0
 10
24.8979549774
 20
65.3900315614
 30
0.0
 10
24.8831508608
 20
65.4182091282
 30
0.0
 10
24.869475788
 20
65.4370759767
 30
0.0
  0
SPLINE
  5
35C
100
AcDbEntity
  8
0
100
AcDbSpline
 62
7
  6
BYLAYER
 70
0
 71
3
 72
11
 73
7
 74
0
 42
0.0000001
 43
0.0000001
 44
0.0000000001
 40
0.0
 40
0.0
 40
0.0
 40
0.0
 40
0.300828936
 40
0.5689648035
 40
0.8000447275
 40
1.0
 40
1.0
 40
1.0
 40
1.0
 10
27.2013432913
 20
63.8234722845
 30
0.0
 10
27.2166241932
 20
63.8401697484
 30
0.0
 10
27.2431395706
 20
63.8740366467
 30
0.0
 10
27.2724983377
 20
63.9269167377
 30
0.0
 10
27.2890557422
 20
63.9772165255
 30
0.0
 10
27.2902289761
 20
64.0104656382
 30
0.0
 10
27.2873533706
 20
64.0252328459
 30
0.0
  0
SPLINE
  5
35D
100
AcDbEntity
  8
0
100
AcDbSpline
 62
7
  6
BYLAYER
 70
0
 71
3
 72
11
 73
7
 74
0
 42
0.0000001
 43
0.0000001
 44
0.0000000001
 40
0.0
 40
0.0
 40
0.0
 40
0.0
 40
0.2576011724
 40
0.5193356829
 40
0.7711062145
 40
1.0
 40
1.0
 40
1.0
 40
1.0
 10
27.2013432913
 20
63.8234722845
 30
0.0
 10
27.1601079971
 20
63.7784144178
 30
0.0
 10
27.0849003142
 20
63.6800693136
 30
0.0
 10
26.9981425281
 20
63.5182421729
 30
0.0
 10
26.9416200662
 20
63.3506693848
 30
0.0
 10
26.9264274806
 20
63.2365772908
 30
0.0
 10
26.9264274806
 20
63.1823056153
 30
0.0
  0
SPLINE
  5
35E
100
AcDbEntity
  8
0
100
AcDbSpline
 62
7
  6
BYLAYER
 70
0
 71
3
 72
13
 73
9
 74
0
 42
0.0000001
 43
0.0000001
 44
0.0000000001
 40
0.0
 40
0.0
 40
0.0
 40
0.0
 40
0.110683015
 40
0.226675139
 40
0.3480246388
 40
0.4744070329
 40
0.7363624156
 40
1.0
 40
1.0
 40
1.0
 40
1.0
 10
36.4612239783
 20
65.318143937
 30
0.0
 10
36.4612239783
 20
65.3534809432
 30
0.0
 10
36.4525276688
 20
65.42604834
 30
0.0
 10
36.4160819448
 20
65.5317710722
 30
0.0
 10
36.3573423094
 20
65.6327527784
 30
0.0
 10
36.2514873802
 20
65.7572678324
 30
0.0
 10
36.0790608726
 20
65.8802046792
 30
0.0
 10
35.9165483303
 20
65.9331221204
 30
0.0
 10
35.8333677994
 20
65.9459886656
 30
0.0
  0
SPLINE
  5
35F
100
AcDbEntity
  8
0
100
AcDbSpline
 62
7
  6
BYLAYER
 70
0
 71
3
 72
21
 73
17
 74
0
 42
0.0000001
 43
0.0000001
 44
0.0000000001
 40
0.0
 40
0.0
 40
0.0
 40
0.0
 40
0.0649852404
 40
0.1323400699
 40
0.2716510823
 40
0.4131540031
 40
0.4831493131
 40
0.5517758106
 40
0.6184463569
 40
0.682636413
 40
0.7439026199
 40
0.8019066609
 40
0.8564445587
 40
0.9074826023
 40
0.9552131969
 40
1.0
 40
1.0
 40
1.0
 40
1.0
 10
26.9264274806
 20
63.1823056153
 30
0.0
 10
27.1395481925
 20
63.1036471612
 30
0.0
 10
27.5805979696
 20
62.9619871937
 30
0.0
 10
28.5051285386
 20
62.7419389705
 30
0.0
 10
29.7171371926
 20
62.5908897567
 30
0.0
 10
30.9473244281
 20
62.6033753953
 30
0.0
 10
31.9210559698
 20
62.7133321164
 30
0.0
 10
32.6273779674
 20
62.8439390373
 30
0.0
 10
33.3025149623
 20
63.0212403432
 30
0.0
 10
33.9373586394
 20
63.2427718353
 30
0.0
 10
34.5233149785
 20
63.5056019749
 30
0.0
 10
35.0524430669
 20
63.8063316436
 30
0.0
 10
35.5176723208
 20
64.1409256615
 30
0.0
 10
35.9127143907
 20
64.5053677903
 30
0.0
 10
36.2317659608
 20
64.8949578659
 30
0.0
 10
36.3953194721
 20
65.1761266616
 30
0.0
 10
36.4612239783
 20
65.318143937
 30
0.0
  0
SPLINE
  5
360
100
AcDbEntity
  8
0
100
AcDbSpline
 62
7
  6
BYLAYER
 70
0
 71
3
 72
17
 73
13
 74
0
 42
0.0000001
 43
0.0000001
 44
0.0000000001
 40
0.0
 40
0.0
 40
0.0
 40
0.0
 40
0.2219382363
 40
0.4204798086
 40
0.5920983728
 40
0.7344168369
 40
0.8464944323
 40
0.9276166133
 40
0.9566142123
 40
0.9780659454
 40
0.9922368296
 40
1.0
 40
1.0
 40
1.0
 40
1.0
 10
24.1505653425
 20
53.137818222
 30
0.0
 10
24.1505814281
 20
53.1184506681
 30
0.0
 10
24.1507276841
 20
53.0817573426
 30
0.0
 10
24.1513570855
 20
53.0300900479
 30
0.0
 10
24.1523943017
 20
52.9853809261
 30
0.0
 10
24.1538319858
 20
52.9482251833
 30
0.0
 10
24.155625351
 20
52.9190106301
 30
0.0
 10
24.1575114957
 20
52.8996776468
 30
0.0
 10
24.1593121979
 20
52.8883645121
 30
0.0
 10
24.1606001359
 20
52.882811431
 30
0.0
 10
24.1617925293
 20
52.879327943
 30
0.0
 10
24.1630103822
 20
52.8775729195
 30
0.0
 10
24.1636581685
 20
52.8773746233
 30
0.0
  0
SPLINE
  5
361
100
AcDbEntity
  8
0
100
AcDbSpline
 62
7
  6
BYLAYER
 70
0
 71
3
 72
11
 73
7
 74
0
 42
0.0000001
 43
0.0000001
 44
0.0000000001
 40
0.0
 40
0.0
 40
0.0
 40
0.0
 40
0.225226924
 40
0.4837657444
 40
0.7514390109
 40
1.0
 40
1.0
 40
1.0
 40
1.0
 10
24.440103891
 20
53.1645776838
 30
0.0
 10
24.4207695462
 20
53.1534150612
 30
0.0
 10
24.3757310195
 20
53.1355693868
 30
0.0
 10
24.3021743113
 20
53.1214560876
 30
0.0
 10
24.2249607885
 20
53.1220874641
 30
0.0
 10
24.1742174466
 20
53.1309172008
 30
0.0
 10
24.1505653425
 20
53.137818222
 30
0.0
  0
SPLINE
  5
362
100
AcDbEntity
  8
0
100
AcDbSpline
 62
7
  6
BYLAYER
 70
0
 71
3
 72
10
 73
6
 74
0
 42
0.0000001
 43
0.0000001
 44
0.0000000001
 40
0.0
 40
0.0
 40
0.0
 40
0.0
 40
0.2996170605
 40
0.5671355348
 40
1.0
 40
1.0
 40
1.0
 40
1.0
 10
21.0597772485
 20
54.0396235822
 30
0.0
 10
21.0597761743
 20
54.013348831
 30
0.0
 10
21.0622260853
 20
53.9634580719
 30
0.0
 10
21.0771874568
 20
53.8772623654
 30
0.0
 10
21.1017070306
 20
53.818117646
 30
0.0
 10
21.1261660443
 20
53.7890882869
 30
0.0
  0
SPLINE
  5
363
100
AcDbEntity
  8
0
100
AcDbSpline
 62
7
  6
BYLAYER
 70
0
 71
3
 72
9
 73
5
 74
0
 42
0.0000001
 43
0.0000001
 44
0.0000000001
 40
0.0
 40
0.0
 40
0.0
 40
0.0
 40
0.5144877654
 40
1.0
 40
1.0
 40
1.0
 40
1.0
 10
21.1261660443
 20
53.7890882869
 30
0.0
 10
21.1341491402
 20
53.7796134913
 30
0.0
 10
21.1517380774
 20
53.7627765885
 30
0.0
 10
21.1732054449
 20
53.7511159784
 30
0.0
 10
21.1841659004
 20
53.7470457566
 30
0.0
  0
SPLINE
  5
364
100
AcDbEntity
  8
0
100
AcDbSpline
 62
7
  6
BYLAYER
 70
0
 71
3
 72
9
 73
5
 74
0
 42
0.0000001
 43
0.0000001
 44
0.0000000001
 40
0.0
 40
0.0
 40
0.0
 40
0.0
 40
0.5080363221
 40
1.0
 40
1.0
 40
1.0
 40
1.0
 10
38.6547969706
 20
70.0450628964
 30
0.0
 10
38.724442461
 20
70.1951415993
 30
0.0
 10
38.8329721339
 20
70.5050508727
 30
0.0
 10
38.8707071232
 20
70.8317181613
 30
0.0
 10
38.8707071245
 20
70.9919350492
 30
0.0
  0
SPLINE
  5
365
100
AcDbEntity
  8
0
100
AcDbSpline
 62
7
  6
BYLAYER
 70
0
 71
3
 72
13
 73
9
 74
0
 42
0.0000001
 43
0.0000001
 44
0.0000000001
 40
0.0
 40
0.0
 40
0.0
 40
0.0
 40
0.2636375844
 40
0.5255929671
 40
0.6519753612
 40
0.773324861
 40
0.889316985
 40
1.0
 40
1.0
 40
1.0
 40
1.0
 10
38.0269407916
 20
70.672907625
 30
0.0
 10
38.1101213225
 20
70.6600410798
 30
0.0
 10
38.2726338649
 20
70.6071236386
 30
0.0
 10
38.4450603725
 20
70.4841867918
 30
0.0
 10
38.5509153017
 20
70.3596717378
 30
0.0
 10
38.609654937
 20
70.2586900315
 30
0.0
 10
38.646100661
 20
70.1529672994
 30
0.0
 10
38.6547969706
 20
70.0803999026
 30
0.0
 10
38.6547969706
 20
70.0450628964
 30
0.0
  0
SPLINE
  5
366
100
AcDbEntity
  8
0
100
AcDbSpline
 62
7
  6
BYLAYER
 70
0
 71
3
 72
9
 73
5
 74
0
 42
0.0000001
 43
0.0000001
 44
0.0000000001
 40
0.0
 40
0.0
 40
0.0
 40
0.0
 40
0.2553838073
 40
1.0
 40
1.0
 40
1.0
 40
1.0
 10
16.4741279703
 20
57.5697111425
 30
0.0
 10
16.4722593184
 20
57.5718458686
 30
0.0
 10
16.4652033253
 20
57.5804248543
 30
0.0
 10
16.4592544124
 20
57.589951899
 30
0.0
 10
16.4557719235
 20
57.5974550584
 30
0.0
  0
SPLINE
  5
367
100
AcDbEntity
  8
0
100
AcDbSpline
 62
7
  6
BYLAYER
 70
0
 71
3
 72
11
 73
7
 74
0
 42
0.0000001
 43
0.0000001
 44
0.0000000001
 40
0.0
 40
0.0
 40
0.0
 40
0.0
 40
0.3466424995
 40
0.4798508104
 40
0.6334251087
 40
1.0
 40
1.0
 40
1.0
 40
1.0
 10
30.9624745761
 20
74.8059908042
 30
0.0
 10
30.980130678
 20
74.8084128617
 30
0.0
 10
31.0035205245
 20
74.7887000969
 30
0.0
 10
31.0228507327
 20
74.7635998135
 30
0.0
 10
31.0412914868
 20
74.7351873921
 30
0.0
 10
31.053393459
 20
74.7113775243
 30
0.0
 10
31.0613277117
 20
74.694282865
 30
0.0
  0
SPLINE
  5
368
100
AcDbEntity
  8
0
100
AcDbSpline
 62
7
  6
BYLAYER
 70
0
 71
3
 72
11
 73
7
 74
0
 42
0.0000001
 43
0.0000001
 44
0.0000000001
 40
0.0
 40
0.0
 40
0.0
 40
0.0
 40
0.2177490368
 40
0.4508914017
 40
0.7104631294
 40
1.0
 40
1.0
 40
1.0
 40
1.0
 10
19.9997665907
 20
53.6949328834
 30
0.0
 10
19.97832875
 20
53.7073097504
 30
0.0
 10
19.9381781399
 20
53.7409873144
 30
0.0
 10
19.8954713522
 20
53.8108531697
 30
0.0
 10
19.8701522306
 20
53.8969208692
 30
0.0
 10
19.8651284836
 20
53.9595525941
 30
0.0
 10
19.8651284836
 20
53.9924677274
 30
0.0
  0
SPLINE
  5
369
100
AcDbEntity
  8
0
100
AcDbSpline
 62
7
  6
BYLAYER
 70
0
 71
3
 72
9
 73
5
 74
0
 42
0.0000001
 43
0.0000001
 44
0.0000000001
 40
0.0
 40
0.0
 40
0.0
 40
0.0
 40
0.2575805696
 40
1.0
 40
1.0
 40
1.0
 40
1.0
 10
27.1005956171
 20
49.8216092586
 30
0.0
 10
27.1115849778
 20
49.7759847638
 30
0.0
 10
27.1510620396
 20
49.5981186998
 30
0.0
 10
27.1775966462
 20
49.4172758975
 30
0.0
 10
27.1884989467
 20
49.2824525346
 30
0.0
  0
SPLINE
  5
36A
100
AcDbEntity
  8
0
100
AcDbSpline
 62
7
  6
BYLAYER
 70
0
 71
3
 72
9
 73
5
 74
0
 42
0.0000001
 43
0.0000001
 44
0.0000000001
 40
0.0
 40
0.0
 40
0.0
 40
0.0
 40
0.4919636779
 40
1.0
 40
1.0
 40
1.0
 40
1.0
 10
38.8707071245
 20
57.8462461334
 30
0.0
 10
38.8707071232
 20
57.6860292455
 30
0.0
 10
38.8329721339
 20
57.3593619569
 30
0.0
 10
38.724442461
 20
57.0494526835
 30
0.0
 10
38.6547969706
 20
56.8993739806
 30
0.0
  0
SPLINE
  5
36B
100
AcDbEntity
  8
0
100
AcDbSpline
 62
7
  6
BYLAYER
 70
0
 71
3
 72
23
 73
19
 74
0
 42
0.0000001
 43
0.0000001
 44
0.0000000001
 40
0.0
 40
0.0
 40
0.0
 40
0.0
 40
0.0752554014
 40
0.1510426984
 40
0.2266790989
 40
0.3015821502
 40
0.3751571662
 40
0.446837917
 40
0.5161151951
 40
0.5825493103
 40
0.6457872489
 40
0.7055890324
 40
0.7618564857
 40
0.8146579276
 40
0.8642638812
 40
0.9111717965
 40
0.9561081629
 40
1.0
 40
1.0
 40
1.0
 40
1.0
 10
26.698895821
 20
41.0963264798
 30
0.0
 10
27.1350737403
 20
41.0454966697
 30
0.0
 10
28.0141251603
 20
40.9723311231
 30
0.0
 10
29.3374451226
 20
40.9469539525
 30
0.0
 10
30.6577072273
 20
41.0058323436
 30
0.0
 10
31.9586159372
 20
41.1481707598
 30
0.0
 10
33.2245969436
 20
41.3721719225
 30
0.0
 10
34.4402933759
 20
41.6752144966
 30
0.0
 10
35.5909952647
 20
42.053671829
 30
0.0
 10
36.6628783172
 20
42.5029413643
 30
0.0
 10
37.643040507
 20
43.0177851467
 30
0.0
 10
38.5197019726
 20
43.5922284785
 30
0.0
 10
39.2823694976
 20
44.2196299605
 30
0.0
 10
39.9216534538
 20
44.8930744226
 30
0.0
 10
40.4293617624
 20
45.6050787853
 30
0.0
 10
40.7984459415
 20
46.3477108206
 30
0.0
 10
41.0227447058
 20
47.1117156311
 30
0.0
 10
41.0731575649
 20
47.6313518389
 30
0.0
 10
41.0731473624
 20
47.8874690951
 30
0.0
  0
SPLINE
  5
36C
100
AcDbEntity
  8
0
100
AcDbSpline
 62
7
  6
BYLAYER
 70
0
 71
3
 72
9
 73
5
 74
0
 42
0.0000001
 43
0.0000001
 44
0.0000000001
 40
0.0
 40
0.0
 40
0.0
 40
0.0
 40
0.2744180828
 40
1.0
 40
1.0
 40
1.0
 40
1.0
 10
19.8651284836
 20
53.9924677274
 30
0.0
 10
19.7061383015
 20
54.0842586752
 30
0.0
 10
19.1435236293
 20
54.4441765423
 30
0.0
 10
18.6447961112
 20
54.9235627154
 30
0.0
 10
18.3870232055
 20
55.3348757484
 30
0.0
  0
SPLINE
  5
36D
100
AcDbEntity
  8
0
100
AcDbSpline
 62
7
  6
BYLAYER
 70
0
 71
3
 72
11
 73
7
 74
0
 42
0.0000001
 43
0.0000001
 44
0.0000000001
 40
0.0
 40
0.0
 40
0.0
 40
0.0
 40
0.3675062797
 40
0.5212602642
 40
0.6544558491
 40
1.0
 40
1.0
 40
1.0
 40
1.0
 10
22.8741929305
 20
73.4276701354
 30
0.0
 10
22.8662152333
 20
73.4448583973
 30
0.0
 10
22.8540520786
 20
73.4687877843
 30
0.0
 10
22.8354852183
 20
73.497312603
 30
0.0
 10
22.8161095469
 20
73.5224073021
 30
0.0
 10
22.7924194262
 20
73.5420468597
 30
0.0
 10
22.7748152631
 20
73.5393011987
 30
0.0
  0
SPLINE
  5
36E
100
AcDbEntity
  8
0
100
AcDbSpline
 62
7
  6
BYLAYER
 70
0
 71
3
 72
9
 73
5
 74
0
 42
0.0000001
 43
0.0000001
 44
0.0000000001
 40
0.0
 40
0.0
 40
0.0
 40
0.0
 40
0.4955529446
 40
1.0
 40
1.0
 40
1.0
 40
1.0
 10
26.2878434464
 20
47.1567109484
 30
0.0
 10
26.3389261276
 20
47.1862035269
 30
0.0
 10
26.4372245631
 20
47.2544151151
 30
0.0
 10
26.5229884541
 20
47.3377669104
 30
0.0
 10
26.5627415022
 20
47.3827664509
 30
0.0
  0
SPLINE
  5
36F
100
AcDbEntity
  8
0
100
AcDbSpline
 62
7
  6
BYLAYER
 70
0
 71
3
 72
9
 73
5
 74
0
 42
0.0000001
 43
0.0000001
 44
0.0000000001
 40
0.0
 40
0.0
 40
0.0
 40
0.0
 40
0.2447075245
 40
1.0
 40
1.0
 40
1.0
 40
1.0
 10
26.5757978005
 20
47.397797199
 30
0.0
 10
26.5899191011
 20
47.4143300404
 30
0.0
 10
26.6457876743
 20
47.4834507013
 30
0.0
 10
26.6942079574
 20
47.558508597
 30
0.0
 10
26.7265240468
 20
47.6173244854
 30
0.0
  0
SPLINE
  5
370
100
AcDbEntity
  8
0
100
AcDbSpline
 62
7
  6
BYLAYER
 70
0
 71
3
 72
9
 73
5
 74
0
 42
0.0000001
 43
0.0000001
 44
0.0000000001
 40
0.0
 40
0.0
 40
0.0
 40
0.0
 40
0.2386147219
 40
1.0
 40
1.0
 40
1.0
 40
1.0
 10
26.7265240468
 20
47.6173244854
 30
0.0
 10
26.7451506691
 20
47.6512252872
 30
0.0
 10
26.817441083
 20
47.796456609
 30
0.0
 10
26.867010465
 20
47.952477156
 30
0.0
 10
26.8938735988
 20
48.0729436847
 30
0.0
  0
SPLINE
  5
371
100
AcDbEntity
  8
0
100
AcDbSpline
 62
7
  6
BYLAYER
 70
0
 71
3
 72
9
 73
5
 74
0
 42
0.0000001
 43
0.0000001
 44
0.0000000001
 40
0.0
 40
0.0
 40
0.0
 40
0.0
 40
0.2418364989
 40
1.0
 40
1.0
 40
1.0
 40
1.0
 10
26.918563855
 20
48.2021020248
 30
0.0
 10
26.9239503735
 20
48.2356082733
 30
0.0
 10
26.9431641927
 20
48.3746422714
 30
0.0
 10
26.9506093105
 20
48.5152177007
 30
0.0
 10
26.9506093105
 20
48.6216093534
 30
0.0
  0
SPLINE
  5
372
100
AcDbEntity
  8
0
100
AcDbSpline
 62
7
  6
BYLAYER
 70
0
 71
3
 72
15
 73
11
 74
0
 42
0.0000001
 43
0.0000001
 44
0.0000000001
 40
0.0
 40
0.0
 40
0.0
 40
0.0
 40
0.108011885
 40
0.2180603231
 40
0.3319982487
 40
0.4513598656
 40
0.5772685821
 40
0.7104897738
 40
0.8514400344
 40
1.0
 40
1.0
 40
1.0
 40
1.0
 10
17.0731977081
 20
47.8874690958
 30
0.0
 10
17.0732067577
 20
47.6602928697
 30
0.0
 10
17.1126042788
 20
47.2007292984
 30
0.0
 10
17.2887574736
 20
46.521959388
 30
0.0
 10
17.5793813731
 20
45.8577724038
 30
0.0
 10
17.9809849297
 20
45.2150049097
 30
0.0
 10
18.4888617789
 20
44.5993492364
 30
0.0
 10
19.0979924397
 20
44.0162876988
 30
0.0
 10
19.8022526485
 20
43.4712891855
 30
0.0
 10
20.3173274722
 20
43.1447661297
 30
0.0
 10
20.5879264887
 20
42.988539249
 30
0.0
  0
SPLINE
  5
373
100
AcDbEntity
  8
0
100
AcDbSpline
 62
7
  6
BYLAYER
 70
0
 71
3
 72
11
 73
7
 74
0
 42
0.0000001
 43
0.0000001
 44
0.0000000001
 40
0.0
 40
0.0
 40
0.0
 40
0.0
 40
0.2540205173
 40
0.5000025196
 40
0.7459832079
 40
1.0
 40
1.0
 40
1.0
 40
1.0
 10
37.8629999656
 20
72.3471929064
 30
0.0
 10
37.9236512453
 20
72.2165173408
 30
0.0
 10
38.0181659014
 20
71.946546258
 30
0.0
 10
38.0672042983
 20
71.5227286515
 30
0.0
 10
38.0181966656
 20
71.098909556
 30
0.0
 10
37.9237010197
 20
70.8289347076
 30
0.0
 10
37.8630588613
 20
70.6982572379
 30
0.0
  0
SPLINE
  5
374
100
AcDbEntity
  8
0
100
AcDbSpline
 62
7
  6
BYLAYER
 70
0
 71
3
 72
17
 73
13
 74
0
 42
0.0000001
 43
0.0000001
 44
0.0000000001
 40
0.0
 40
0.0
 40
0.0
 40
0.0
 40
0.1422978838
 40
0.2858198501
 40
0.4269032565
 40
0.5620789753
 40
0.6883752866
 40
0.7475376549
 40
0.8037809907
 40
0.8570406062
 40
0.9073919034
 40
1.0
 40
1.0
 40
1.0
 40
1.0
 10
31.1052419158
 20
74.5996679866
 30
0.0
 10
31.458387247
 20
74.6543022859
 30
0.0
 10
32.1748743875
 20
74.7217303651
 30
0.0
 10
33.2488684028
 20
74.7016795889
 30
0.0
 10
34.2962952832
 20
74.5625448617
 30
0.0
 10
35.2776390812
 20
74.309508921
 30
0.0
 10
36.0264689038
 20
74.0048845765
 30
0.0
 10
36.557499317
 20
73.7095545196
 30
0.0
 10
36.9087655601
 20
73.4718582444
 30
0.0
 10
37.2183875706
 20
73.2150176061
 30
0.0
 10
37.5617042571
 20
72.8609652394
 30
0.0
 10
37.7650911035
 20
72.5581413973
 30
0.0
 10
37.8629999656
 20
72.3471929064
 30
0.0
  0
SPLINE
  5
375
100
AcDbEntity
  8
0
100
AcDbSpline
 62
7
  6
BYLAYER
 70
0
 71
3
 72
21
 73
17
 74
0
 42
0.0000001
 43
0.0000001
 44
0.0000000001
 40
0.0
 40
0.0
 40
0.0
 40
0.0
 40
0.0511670304
 40
0.1008843956
 40
0.1499583015
 40
0.1993325306
 40
0.2499332221
 40
0.3025560722
 40
0.3578413977
 40
0.4162429929
 40
0.478045493
 40
0.5433606439
 40
0.6121678575
 40
0.684306451
 40
0.8374449193
 40
1.0
 40
1.0
 40
1.0
 40
1.0
 10
19.0164944878
 20
69.4314935335
 30
0.0
 10
18.9707344555
 20
69.5300853213
 30
0.0
 10
18.8947570295
 20
69.7315637383
 30
0.0
 10
18.8315308782
 20
70.0452306646
 30
0.0
 10
18.8225056741
 20
70.3614082846
 30
0.0
 10
18.8676411134
 20
70.6763188562
 30
0.0
 10
18.9663789803
 20
70.9865403438
 30
0.0
 10
19.1171599767
 20
71.2889866443
 30
0.0
 10
19.3183891127
 20
71.5806505337
 30
0.0
 10
19.5676759022
 20
71.8590221807
 30
0.0
 10
19.8626518311
 20
72.1214960746
 30
0.0
 10
20.2003319549
 20
72.3658720079
 30
0.0
 10
20.5775986401
 20
72.5897819417
 30
0.0
 10
21.1396248892
 20
72.8638921356
 30
0.0
 10
21.9191418947
 20
73.1393400097
 30
0.0
 10
22.5766968451
 20
73.2802364589
 30
0.0
 10
22.9179515443
 20
73.333031186
 30
0.0
  0
SPLINE
  5
376
100
AcDbEntity
  8
0
100
AcDbSpline
 62
7
  6
BYLAYER
 70
0
 71
3
 72
11
 73
7
 74
0
 42
0.0000001
 43
0.0000001
 44
0.0000000001
 40
0.0
 40
0.0
 40
0.0
 40
0.0
 40
0.2449194656
 40
0.4919712047
 40
0.7431195028
 40
1.0
 40
1.0
 40
1.0
 40
1.0
 10
41.0731737165
 20
25.4336526244
 30
0.0
 10
41.0731722202
 20
25.2823810252
 30
0.0
 10
41.0558685004
 20
24.9782453718
 30
0.0
 10
40.9781874406
 20
24.5249563882
 30
0.0
 10
40.8491851904
 20
24.0758725148
 30
0.0
 10
40.7310866329
 20
23.7844706611
 30
0.0
 10
40.6642953814
 20
23.6405551763
 30
0.0
  0
SPLINE
  5
377
100
AcDbEntity
  8
0
100
AcDbSpline
 62
7
  6
BYLAYER
 70
0
 71
3
 72
9
 73
5
 74
0
 42
0.0000001
 43
0.0000001
 44
0.0000000001
 40
0.0
 40
0.0
 40
0.0
 40
0.0
 40
0.4865840784
 40
1.0
 40
1.0
 40
1.0
 40
1.0
 10
18.8527699588
 20
69.4061640894
 30
0.0
 10
18.9037895355
 20
69.2962404064
 30
0.0
 10
19.0267555825
 20
69.0784465726
 30
0.0
 10
19.1788834781
 20
68.8802487109
 30
0.0
 10
19.2627543846
 20
68.7837280709
 30
0.0
  0
SPLINE
  5
378
100
AcDbEntity
  8
0
100
AcDbSpline
 62
7
  6
BYLAYER
 70
0
 71
3
 72
21
 73
17
 74
0
 42
0.0000001
 43
0.0000001
 44
0.0000000001
 40
0.0
 40
0.0
 40
0.0
 40
0.0
 40
0.1625550965
 40
0.3156935794
 40
0.3878321739
 40
0.456639389
 40
0.52195454
 40
0.5837570391
 40
0.6421586319
 40
0.6974439545
 40
0.7500668012
 40
0.8006674898
 40
0.8500417152
 40
0.8991156141
 40
0.9488329721
 40
1.0
 40
1.0
 40
1.0
 40
1.0
 10
22.8741929305
 20
73.4276701354
 30
0.0
 10
22.5224449551
 20
73.3732520178
 30
0.0
 10
21.8446707824
 20
73.2280231181
 30
0.0
 10
21.0411843416
 20
72.9441054675
 30
0.0
 10
20.4618763254
 20
72.6615666131
 30
0.0
 10
20.0730090683
 20
72.4307716561
 30
0.0
 10
19.7249456268
 20
72.1788813903
 30
0.0
 10
19.4208995023
 20
71.9083366736
 30
0.0
 10
19.1639474196
 20
71.6214053702
 30
0.0
 10
18.9565307181
 20
71.3207731098
 30
0.0
 10
18.8011133822
 20
71.0090268959
 30
0.0
 10
18.6993394637
 20
70.6892664172
 30
0.0
 10
18.6528161766
 20
70.3646726869
 30
0.0
 10
18.662118908
 20
70.0387729608
 30
0.0
 10
18.7272891929
 20
69.7154611247
 30
0.0
 10
18.8056028534
 20
69.5077874715
 30
0.0
 10
18.8527699588
 20
69.4061640894
 30
0.0
  0
SPLINE
  5
379
100
AcDbEntity
  8
0
100
AcDbSpline
 62
7
  6
BYLAYER
 70
0
 71
3
 72
9
 73
5
 74
0
 42
0.0000001
 43
0.0000001
 44
0.0000000001
 40
0.0
 40
0.0
 40
0.0
 40
0.0
 40
0.47722126
 40
1.0
 40
1.0
 40
1.0
 40
1.0
 10
28.1173274726
 20
46.5605173325
 30
0.0
 10
28.0968658223
 20
46.5723303454
 30
0.0
 10
28.0482273344
 20
46.5869366726
 30
0.0
 10
27.9980160498
 20
46.5868872522
 30
0.0
 10
27.9724380111
 20
46.5829301328
 30
0.0
  0
SPLINE
  5
37A
100
AcDbEntity
  8
0
100
AcDbSpline
 62
7
  6
BYLAYER
 70
0
 71
3
 72
11
 73
7
 74
0
 42
0.0000001
 43
0.0000001
 44
0.0000000001
 40
0.0
 40
0.0
 40
0.0
 40
0.0
 40
0.2639607799
 40
0.5244910413
 40
0.7723673127
 40
1.0
 40
1.0
 40
1.0
 40
1.0
 10
27.9334826216
 20
46.029791568
 30
0.0
 10
27.962005235
 20
46.0709612362
 30
0.0
 10
28.0131779826
 20
46.1567144865
 30
0.0
 10
28.071260828
 20
46.2917482973
 30
0.0
 10
28.1078732382
 20
46.4270117832
 30
0.0
 10
28.1173274629
 20
46.517325605
 30
0.0
 10
28.1173274621
 20
46.5605173386
 30
0.0
  0
SPLINE
  5
37B
100
AcDbEntity
  8
0
100
AcDbSpline
 62
7
  6
BYLAYER
 70
0
 71
3
 72
9
 73
5
 74
0
 42
0.0000001
 43
0.0000001
 44
0.0000000001
 40
0.0
 40
0.0
 40
0.0
 40
0.0
 40
0.2662835713
 40
1.0
 40
1.0
 40
1.0
 40
1.0
 10
27.9724380111
 20
46.5829301328
 30
0.0
 10
27.9662020241
 20
46.5819653777
 30
0.0
 10
27.9429573495
 20
46.5774305843
 30
0.0
 10
27.9202529792
 20
46.5692090931
 30
0.0
 10
27.9051954383
 20
46.5605154789
 30
0.0
  0
SPLINE
  5
37C
100
AcDbEntity
  8
0
100
AcDbSpline
 62
7
  6
BYLAYER
 70
0
 71
3
 72
11
 73
7
 74
0
 42
0.0000001
 43
0.0000001
 44
0.0000000001
 40
0.0
 40
0.0
 40
0.0
 40
0.0
 40
0.2639563044
 40
0.5245087008
 40
0.7723667909
 40
1.0
 40
1.0
 40
1.0
 40
1.0
 10
27.7637762225
 20
46.1519650037
 30
0.0
 10
27.7857293794
 20
46.1836522824
 30
0.0
 10
27.8250118875
 20
46.2497248547
 30
0.0
 10
27.8696833448
 20
46.3536621737
 30
0.0
 10
27.8979295915
 20
46.4577572258
 30
0.0
 10
27.9051954383
 20
46.5272712243
 30
0.0
 10
27.9051954383
 20
46.5605154789
 30
0.0
  0
SPLINE
  5
37D
100
AcDbEntity
  8
0
100
AcDbSpline
 62
7
  6
BYLAYER
 70
0
 71
3
 72
10
 73
6
 74
0
 42
0.0000001
 43
0.0000001
 44
0.0000000001
 40
0.0
 40
0.0
 40
0.0
 40
0.0
 40
0.5471493773
 40
0.7816319477
 40
1.0
 40
1.0
 40
1.0
 40
1.0
 10
33.7400908333
 20
48.9829672667
 30
0.0
 10
33.7400908333
 20
48.9734271663
 30
0.0
 10
33.7380137599
 20
48.9593817913
 30
0.0
 10
33.7288726594
 20
48.9442739048
 30
0.0
 10
33.7226823999
 20
48.939083053
 30
0.0
 10
33.719385036
 20
48.9371793209
 30
0.0
  0
SPLINE
  5
37E
100
AcDbEntity
  8
0
100
AcDbSpline
 62
7
  6
BYLAYER
 70
0
 71
3
 72
9
 73
5
 74
0
 42
0.0000001
 43
0.0000001
 44
0.0000000001
 40
0.0
 40
0.0
 40
0.0
 40
0.0
 40
0.2869701951
 40
1.0
 40
1.0
 40
1.0
 40
1.0
 10
33.2482089946
 20
48.5432791201
 30
0.0
 10
33.2482015901
 20
48.5390648431
 30
0.0
 10
33.2484151265
 20
48.5243915097
 30
0.0
 10
33.2494272139
 20
48.509649443
 30
0.0
 10
33.2514294026
 20
48.4993714883
 30
0.0
  0
SPLINE
  5
37F
100
AcDbEntity
  8
0
100
AcDbSpline
 62
7
  6
BYLAYER
 70
0
 71
3
 72
9
 73
5
 74
0
 42
0.0000001
 43
0.0000001
 44
0.0000000001
 40
0.0
 40
0.0
 40
0.0
 40
0.0
 40
0.2847822083
 40
1.0
 40
1.0
 40
1.0
 40
1.0
 10
33.2514294026
 20
48.4993714883
 30
0.0
 10
33.2516711248
 20
48.4981306411
 30
0.0
 10
33.2526011855
 20
48.4937940162
 30
0.0
 10
33.2538466863
 20
48.4894945747
 30
0.0
 10
33.2551437904
 20
48.4865967154
 30
0.0
  0
SPLINE
  5
380
100
AcDbEntity
  8
0
100
AcDbSpline
 62
7
  6
BYLAYER
 70
0
 71
3
 72
9
 73
5
 74
0
 42
0.0000001
 43
0.0000001
 44
0.0000000001
 40
0.0
 40
0.0
 40
0.0
 40
0.0
 40
0.2413614823
 40
1.0
 40
1.0
 40
1.0
 40
1.0
 10
33.5859738311
 20
48.8929197635
 30
0.0
 10
33.5725036966
 20
48.8844667319
 30
0.0
 10
33.5173058926
 20
48.8484870113
 30
0.0
 10
33.4651451663
 20
48.8077903559
 30
0.0
 10
33.4279523868
 20
48.7743957584
 30
0.0
  0
SPLINE
  5
381
100
AcDbEntity
  8
0
100
AcDbSpline
 62
7
  6
BYLAYER
 70
0
 71
3
 72
9
 73
5
 74
0
 42
0.0000001
 43
0.0000001
 44
0.0000000001
 40
0.0
 40
0.0
 40
0.0
 40
0.0
 40
0.2457899713
 40
1.0
 40
1.0
 40
1.0
 40
1.0
 10
33.4279523868
 20
48.7743957584
 30
0.0
 10
33.4217861647
 20
48.7688592401
 30
0.0
 10
33.3969539086
 20
48.7460525074
 30
0.0
 10
33.3732197169
 20
48.7220406299
 30
0.0
 10
33.3560969148
 20
48.7032405924
 30
0.0
  0
SPLINE
  5
382
100
AcDbEntity
  8
0
100
AcDbSpline
 62
7
  6
BYLAYER
 70
0
 71
3
 72
9
 73
5
 74
0
 42
0.0000001
 43
0.0000001
 44
0.0000000001
 40
0.0
 40
0.0
 40
0.0
 40
0.0
 40
0.4945555626
 40
1.0
 40
1.0
 40
1.0
 40
1.0
 10
33.3560969148
 20
48.7032405924
 30
0.0
 10
33.3346064507
 20
48.6796450657
 30
0.0
 10
33.2935771227
 20
48.6295994869
 30
0.0
 10
33.2612173154
 20
48.5731909882
 30
0.0
 10
33.2482089946
 20
48.5432791201
 30
0.0
  0
SPLINE
  5
383
100
AcDbEntity
  8
0
100
AcDbSpline
 62
7
  6
BYLAYER
 70
0
 71
3
 72
10
 73
6
 74
0
 42
0.0000001
 43
0.0000001
 44
0.0000000001
 40
0.0
 40
0.0
 40
0.0
 40
0.0
 40
0.4675350368
 40
0.7353212494
 40
1.0
 40
1.0
 40
1.0
 40
1.0
 10
33.2551437904
 20
48.4865967154
 30
0.0
 10
33.2548713548
 20
48.4940834307
 30
0.0
 10
33.256563754
 20
48.5059326919
 30
0.0
 10
33.261032978
 20
48.5213003586
 30
0.0
 10
33.2636394601
 20
48.5294321813
 30
0.0
 10
33.2650680073
 20
48.533425501
 30
0.0
  0
SPLINE
  5
384
100
AcDbEntity
  8
0
100
AcDbSpline
 62
7
  6
BYLAYER
 70
0
 71
3
 72
12
 73
8
 74
0
 42
0.0000001
 43
0.0000001
 44
0.0000000001
 40
0.0
 40
0.0
 40
0.0
 40
0.0
 40
0.1126302088
 40
0.2336454085
 40
0.4915922071
 40
0.7541818848
 40
1.0
 40
1.0
 40
1.0
 40
1.0
 10
33.7400908333
 20
48.9829672667
 30
0.0
 10
33.7905938541
 20
49.0121250253
 30
0.0
 10
33.8906319357
 20
49.0810187023
 30
0.0
 10
34.0802765749
 20
49.2515358055
 30
0.0
 10
34.2869973413
 20
49.5152135168
 30
0.0
 10
34.4665758562
 20
49.8715242054
 30
0.0
 10
34.5346302776
 20
50.1288710124
 30
0.0
 10
34.5499806985
 20
50.2552175076
 30
0.0
  0
SPLINE
  5
385
100
AcDbEntity
  8
0
100
AcDbSpline
 62
7
  6
BYLAYER
 70
0
 71
3
 72
18
 73
14
 74
0
 42
0.0000001
 43
0.0000001
 44
0.0000000001
 40
0.0
 40
0.0
 40
0.0
 40
0.0
 40
0.0926002618
 40
0.1429473015
 40
0.1962024101
 40
0.2524409853
 40
0.3115983458
 40
0.3735205623
 40
0.437968674
 40
0.5731329412
 40
0.7142043915
 40
0.857714185
 40
1.0
 40
1.0
 40
1.0
 40
1.0
 10
38.0268800849
 20
72.3725464215
 30
0.0
 10
37.9259606119
 20
72.5899813919
 30
0.0
 10
37.7163196721
 20
72.9021171755
 30
0.0
 10
37.3624466141
 20
73.2670552505
 30
0.0
 10
37.043302917
 20
73.53179712
 30
0.0
 10
36.6812399212
 20
73.77678759
 30
0.0
 10
36.2796330964
 20
74.0001887908
 30
0.0
 10
35.8422370904
 20
74.1996935053
 30
0.0
 10
35.2069682823
 20
74.4352320218
 30
0.0
 10
34.3503794428
 20
74.6560319127
 30
0.0
 10
33.2709027653
 20
74.7994274271
 30
0.0
 10
32.1638403916
 20
74.8200996225
 30
0.0
 10
31.4253318724
 20
74.7505971087
 30
0.0
 10
31.0613277117
 20
74.694282865
 30
0.0
  0
SPLINE
  5
386
100
AcDbEntity
  8
0
100
AcDbSpline
 62
7
  6
BYLAYER
 70
0
 71
3
 72
11
 73
7
 74
0
 42
0.0000001
 43
0.0000001
 44
0.0000000001
 40
0.0
 40
0.0
 40
0.0
 40
0.0
 40
0.2540167921
 40
0.4999974804
 40
0.7459794827
 40
1.0
 40
1.0
 40
1.0
 40
1.0
 10
38.0269407916
 20
70.672907625
 30
0.0
 10
38.0894476359
 20
70.8076032966
 30
0.0
 10
38.1868489287
 20
71.0858796025
 30
0.0
 10
38.2373634973
 20
71.5227307127
 30
0.0
 10
38.1868172186
 20
71.959580288
 30
0.0
 10
38.089396331
 20
72.2378527125
 30
0.0
 10
38.0268800849
 20
72.3725464215
 30
0.0
  0
SPLINE
  5
387
100
AcDbEntity
  8
0
100
AcDbSpline
 62
7
  6
BYLAYER
 70
0
 71
3
 72
15
 73
11
 74
0
 42
0.0000001
 43
0.0000001
 44
0.0000000001
 40
0.0
 40
0.0
 40
0.0
 40
0.0
 40
0.1255658076
 40
0.2573481328
 40
0.3921701143
 40
0.5266505839
 40
0.6574140586
 40
0.7813898294
 40
0.8961003444
 40
1.0
 40
1.0
 40
1.0
 40
1.0
 10
27.2873533706
 20
64.0252328459
 30
0.0
 10
27.6100457259
 20
63.9067252593
 30
0.0
 10
28.2893423838
 20
63.7109707129
 30
0.0
 10
29.3518041925
 20
63.5412281569
 30
0.0
 10
30.4511288329
 20
63.4922562052
 30
0.0
 10
31.5462460441
 20
63.5658795364
 30
0.0
 10
32.5966401508
 20
63.759384891
 30
0.0
 10
33.5637612876
 20
64.065798094
 30
0.0
 10
34.4118818344
 20
64.4739467338
 30
0.0
 10
34.9032646549
 20
64.8232167485
 30
0.0
 10
35.1154619823
 20
65.0126462413
 30
0.0
  0
SPLINE
  5
388
100
AcDbEntity
  8
0
100
AcDbSpline
 62
7
  6
BYLAYER
 70
0
 71
3
 72
10
 73
6
 74
0
 42
0.0000001
 43
0.0000001
 44
0.0000000001
 40
0.0
 40
0.0
 40
0.0
 40
0.0
 40
0.2329782898
 40
0.478697967
 40
1.0
 40
1.0
 40
1.0
 40
1.0
 10
26.9506093105
 20
48.6216093534
 30
0.0
 10
26.9506093105
 20
48.7292828205
 30
0.0
 10
26.9387490472
 20
48.9506448913
 30
0.0
 10
26.8716196454
 20
49.4083334815
 30
0.0
 10
26.7752741607
 20
49.7515365159
 30
0.0
 10
26.6939814209
 20
49.9783328094
 30
0.0
  0
SPLINE
  5
389
100
AcDbEntity
  8
0
100
AcDbSpline
 62
7
  6
BYLAYER
 70
0
 71
3
 72
11
 73
7
 74
0
 42
0.0000001
 43
0.0000001
 44
0.0000000001
 40
0.0
 40
0.0
 40
0.0
 40
0.0
 40
0.2283896459
 40
0.4746901812
 40
0.7338308066
 40
1.0
 40
1.0
 40
1.0
 40
1.0
 10
22.4250702597
 20
50.7444305703
 30
0.0
 10
22.4250702597
 20
50.6019562587
 30
0.0
 10
22.4506928317
 20
50.3055700654
 30
0.0
 10
22.5528962707
 20
49.8581413969
 30
0.0
 10
22.7169437814
 20
49.4044609197
 30
0.0
 10
22.8627797504
 20
49.1101134267
 30
0.0
 10
22.9445858975
 20
48.9656222553
 30
0.0
  0
SPLINE
  5
38A
100
AcDbEntity
  8
0
100
AcDbSpline
 62
7
  6
BYLAYER
 70
0
 71
3
 72
14
 73
10
 74
0
 42
0.0000001
 43
0.0000001
 44
0.0000000001
 40
0.0
 40
0.0
 40
0.0
 40
0.0
 40
0.289228568
 40
0.4283231295
 40
0.5607581717
 40
0.6848367705
 40
0.799452035
 40
0.9042709478
 40
1.0
 40
1.0
 40
1.0
 40
1.0
 10
22.9445858975
 20
48.9656222553
 30
0.0
 10
23.0792694687
 20
48.7277356459
 30
0.0
 10
23.3111709841
 20
48.3920535929
 30
0.0
 10
23.6731523725
 20
48.0040176901
 30
0.0
 10
23.9561788393
 20
47.7584209682
 30
0.0
 10
24.2470915705
 20
47.5608045433
 30
0.0
 10
24.5390432211
 20
47.4159968854
 30
0.0
 10
24.8250797826
 20
47.3278567964
 30
0.0
 10
25.0153614997
 20
47.3081520534
 30
0.0
 10
25.1058264654
 20
47.3097621878
 30
0.0
  0
SPLINE
  5
38B
100
AcDbEntity
  8
0
100
AcDbSpline
 62
7
  6
BYLAYER
 70
0
 71
3
 72
9
 73
5
 74
0
 42
0.0000001
 43
0.0000001
 44
0.0000000001
 40
0.0
 40
0.0
 40
0.0
 40
0.0
 40
0.2543569335
 40
1.0
 40
1.0
 40
1.0
 40
1.0
 10
25.1230349658
 20
47.3102012684
 30
0.0
 10
25.1370931267
 20
47.3106690516
 30
0.0
 10
25.1923201943
 20
47.313561708
 30
0.0
 10
25.2473388337
 20
47.3207740271
 30
0.0
 10
25.287793792
 20
47.3287518032
 30
0.0
  0
SPLINE
  5
38C
100
AcDbEntity
  8
0
100
AcDbSpline
 62
7
  6
BYLAYER
 70
0
 71
3
 72
15
 73
11
 74
0
 42
0.0000001
 43
0.0000001
 44
0.0000000001
 40
0.0
 40
0.0
 40
0.0
 40
0.0
 40
0.1105223807
 40
0.2205874218
 40
0.3330448904
 40
0.4504154921
 40
0.5747320368
 40
0.7074231129
 40
0.8492371455
 40
1.0
 40
1.0
 40
1.0
 40
1.0
 10
25.3793818387
 20
47.3516277918
 30
0.0
 10
25.4346274034
 20
47.3684562188
 30
0.0
 10
25.5420104113
 20
47.4127143102
 30
0.0
 10
25.6873492004
 20
47.5104581174
 30
0.0
 10
25.8131969092
 20
47.6373301681
 30
0.0
 10
25.9179044497
 20
47.7910478443
 30
0.0
 10
26.0001876127
 20
47.9693936866
 30
0.0
 10
26.0593511022
 20
48.1698914885
 30
0.0
 10
26.0946658635
 20
48.3897960823
 30
0.0
 10
26.1020811731
 20
48.5428231113
 30
0.0
 10
26.1020811731
 20
48.6216019388
 30
0.0
  0
SPLINE
  5
38D
100
AcDbEntity
  8
0
100
AcDbSpline
 62
7
  6
BYLAYER
 70
0
 71
3
 72
11
 73
7
 74
0
 42
0.0000001
 43
0.0000001
 44
0.0000000001
 40
0.0
 40
0.0
 40
0.0
 40
0.0
 40
0.2279260713
 40
0.4748223772
 40
0.7345788849
 40
1.0
 40
1.0
 40
1.0
 40
1.0
 10
26.1020811731
 20
48.6216019388
 30
0.0
 10
26.1020811731
 20
48.7780276044
 30
0.0
 10
26.0711999495
 20
49.1042165604
 30
0.0
 10
25.9493610827
 20
49.5949388294
 30
0.0
 10
25.7550758551
 20
50.0893847493
 30
0.0
 10
25.582934283
 20
50.4072250114
 30
0.0
 10
25.4866582632
 20
50.5618621754
 30
0.0
  0
SPLINE
  5
38E
100
AcDbEntity
  8
0
100
AcDbSpline
 62
7
  6
BYLAYER
 70
0
 71
3
 72
14
 73
10
 74
0
 42
0.0000001
 43
0.0000001
 44
0.0000000001
 40
0.0
 40
0.0
 40
0.0
 40
0.0
 40
0.1088431109
 40
0.2187625509
 40
0.3320291314
 40
0.450580998
 40
0.5759392312
 40
0.7091588456
 40
1.0
 40
1.0
 40
1.0
 40
1.0
 10
23.042017761
 20
51.9747776146
 30
0.0
 10
22.9938822561
 20
51.9531543942
 30
0.0
 10
22.9008500125
 20
51.900769386
 30
0.0
 10
22.7768187208
 20
51.7968514182
 30
0.0
 10
22.6697858323
 20
51.6693352641
 30
0.0
 10
22.581037377
 20
51.5198481725
 30
0.0
 10
22.5113173148
 20
51.3501797811
 30
0.0
 10
22.442665999
 20
51.0922360425
 30
0.0
 10
22.4250702597
 20
50.8854359171
 30
0.0
 10
22.4250702597
 20
50.7444305703
 30
0.0
  0
SPLINE
  5
38F
100
AcDbEntity
  8
0
100
AcDbSpline
 62
7
  6
BYLAYER
 70
0
 71
3
 72
17
 73
13
 74
0
 42
0.0000001
 43
0.0000001
 44
0.0000000001
 40
0.0
 40
0.0
 40
0.0
 40
0.0
 40
0.1325745799
 40
0.2475318309
 40
0.3000306131
 40
0.3506588572
 40
0.4009302751
 40
0.4523969759
 40
0.56371791
 40
0.6920541167
 40
0.8385006165
 40
1.0
 40
1.0
 40
1.0
 40
1.0
 10
23.7332376039
 20
49.989193461
 30
0.0
 10
23.7332376039
 20
50.0371877813
 30
0.0
 10
23.7421249535
 20
50.1272951547
 30
0.0
 10
23.7835241445
 20
50.2301261804
 30
0.0
 10
23.8332131921
 20
50.2921547688
 30
0.0
 10
23.8765873843
 20
50.3275280303
 30
0.0
 10
23.9262985137
 20
50.3524446247
 30
0.0
 10
24.0016158335
 20
50.3714797262
 30
0.0
 10
24.1093026304
 20
50.3648936408
 30
0.0
 10
24.2411147538
 20
50.3141424664
 30
0.0
 10
24.373051086
 20
50.225478405
 30
0.0
 10
24.4534070372
 20
50.1473549475
 30
0.0
 10
24.4921720426
 20
50.1035885057
 30
0.0
  0
SPLINE
  5
390
100
AcDbEntity
  8
0
100
AcDbSpline
 62
7
  6
BYLAYER
 70
0
 71
3
 72
21
 73
17
 74
0
 42
0.0000001
 43
0.0000001
 44
0.0000000001
 40
0.0
 40
0.0
 40
0.0
 40
0.0
 40
0.0603574792
 40
0.1144710167
 40
0.1630710142
 40
0.2084569988
 40
0.2538497399
 40
0.3024560276
 40
0.356496399
 40
0.4169021152
 40
0.4835255809
 40
0.5554016235
 40
0.7084343914
 40
0.8614616676
 40
0.9334220699
 40
1.0
 40
1.0
 40
1.0
 40
1.0
 10
24.7939138289
 20
49.3768390481
 30
0.0
 10
24.7939138289
 20
49.3388595148
 30
0.0
 10
24.788109433
 20
49.2665871424
 30
0.0
 10
24.7589143901
 20
49.1672861962
 30
0.0
 10
24.7095641236
 20
49.086645411
 30
0.0
 10
24.6410991899
 20
49.0291318812
 30
0.0
 10
24.5570484638
 20
48.9985965837
 30
0.0
 10
24.4625832623
 20
48.9962095981
 30
0.0
 10
24.3619616279
 20
49.0205081899
 30
0.0
 10
24.2584806145
 20
49.0697129721
 30
0.0
 10
24.1556048864
 20
49.1418587044
 30
0.0
 10
24.0212963375
 20
49.2675198343
 30
0.0
 10
23.8795307798
 20
49.4612223157
 30
0.0
 10
23.7825775283
 20
49.6809097561
 30
0.0
 10
23.7409598445
 20
49.8600427293
 30
0.0
 10
23.7332376039
 20
49.9472997514
 30
0.0
 10
23.7332376039
 20
49.989193461
 30
0.0
  0
SPLINE
  5
391
100
AcDbEntity
  8
0
100
AcDbSpline
 62
7
  6
BYLAYER
 70
0
 71
3
 72
9
 73
5
 74
0
 42
0.0000001
 43
0.0000001
 44
0.0000000001
 40
0.0
 40
0.0
 40
0.0
 40
0.0
 40
0.4598809627
 40
1.0
 40
1.0
 40
1.0
 40
1.0
 10
41.9583704993
 20
25.9574982133
 30
0.0
 10
41.7276572775
 20
25.6220033805
 30
0.0
 10
41.2647161811
 20
24.8656407301
 30
0.0
 10
40.8656082382
 20
24.0743251199
 30
0.0
 10
40.6642953814
 20
23.6405551763
 30
0.0
  0
SPLINE
  5
392
100
AcDbEntity
  8
0
100
AcDbSpline
 62
7
  6
BYLAYER
 70
0
 71
3
 72
10
 73
6
 74
0
 42
0.0000001
 43
0.0000001
 44
0.0000000001
 40
0.0
 40
0.0
 40
0.0
 40
0.0
 40
0.2290071954
 40
0.4731263928
 40
1.0
 40
1.0
 40
1.0
 40
1.0
 10
40.6642953814
 20
23.6405551763
 30
0.0
 10
40.5515518722
 20
23.3976261035
 30
0.0
 10
40.3276180096
 20
22.8915359408
 30
0.0
 10
39.8850557292
 20
21.8089323161
 30
0.0
 10
39.5738898239
 20
20.9623233331
 30
0.0
 10
39.3702202636
 20
20.3807963587
 30
0.0
  0
SPLINE
  5
393
100
AcDbEntity
  8
0
100
AcDbSpline
 62
7
  6
BYLAYER
 70
0
 71
3
 72
9
 73
5
 74
0
 42
0.0000001
 43
0.0000001
 44
0.0000000001
 40
0.0
 40
0.0
 40
0.0
 40
0.0
 40
0.5160737456
 40
1.0
 40
1.0
 40
1.0
 40
1.0
 10
37.0086730784
 20
19.0173645942
 30
0.0
 10
37.4379230746
 20
19.2083533726
 30
0.0
 10
38.2526636862
 20
19.6184805668
 30
0.0
 10
39.0176344771
 20
20.1166521718
 30
0.0
 10
39.3702202636
 20
20.3807963587
 30
0.0
  0
SPLINE
  5
394
100
AcDbEntity
  8
0
100
AcDbSpline
 62
7
  6
BYLAYER
 70
0
 71
3
 72
15
 73
11
 74
0
 42
0.0000001
 43
0.0000001
 44
0.0000000001
 40
0.0
 40
0.0
 40
0.0
 40
0.0
 40
0.0980147274
 40
0.2032703951
 40
0.3167472528
 40
0.4387534617
 40
0.5690009482
 40
0.7067342494
 40
0.8508690982
 40
1.0
 40
1.0
 40
1.0
 40
1.0
 10
40.6642953814
 20
23.6405551763
 30
0.0
 10
40.5246103743
 20
23.3395751066
 30
0.0
 10
40.1696942461
 20
22.744349307
 30
0.0
 10
39.4653320629
 20
21.9300519522
 30
0.0
 10
38.5856595204
 20
21.1779920264
 30
0.0
 10
37.5461927971
 20
20.4999082073
 30
0.0
 10
36.3642015659
 20
19.9062519615
 30
0.0
 10
35.0593964754
 20
19.4064645497
 30
0.0
 10
33.6537165009
 20
19.0088765397
 30
0.0
 10
32.677975308
 20
18.8188096285
 30
0.0
 10
32.1790493349
 20
18.7416253299
 30
0.0
  0
SPLINE
  5
395
100
AcDbEntity
  8
0
100
AcDbSpline
 62
7
  6
BYLAYER
 70
0
 71
3
 72
9
 73
5
 74
0
 42
0.0000001
 43
0.0000001
 44
0.0000000001
 40
0.0
 40
0.0
 40
0.0
 40
0.0
 40
0.2467928057
 40
1.0
 40
1.0
 40
1.0
 40
1.0
 10
37.0086730784
 20
19.0173645942
 30
0.0
 10
36.6106280594
 20
19.0305024617
 30
0.0
 10
34.9969927792
 20
19.0501037266
 30
0.0
 10
33.3802483075
 20
18.9274518957
 30
0.0
 10
32.1790493349
 20
18.7416253299
 30
0.0
  0
SPLINE
  5
396
100
AcDbEntity
  8
0
100
AcDbSpline
 62
7
  6
BYLAYER
 70
0
 71
3
 72
9
 73
5
 74
0
 42
0.0000001
 43
0.0000001
 44
0.0000000001
 40
0.0
 40
0.0
 40
0.0
 40
0.0
 40
0.4975682171
 40
1.0
 40
1.0
 40
1.0
 40
1.0
 10
32.1790493349
 20
18.7416253299
 30
0.0
 10
31.3618404324
 20
18.6152023746
 30
0.0
 10
29.7319207942
 20
18.2754464103
 30
0.0
 10
28.1394115255
 20
17.7935676227
 30
0.0
 10
27.3494255913
 20
17.5230702848
 30
0.0
  0
SPLINE
  5
397
100
AcDbEntity
  8
0
100
AcDbSpline
 62
7
  6
BYLAYER
 70
0
 71
3
 72
15
 73
11
 74
0
 42
0.0000001
 43
0.0000001
 44
0.0000000001
 40
0.0
 40
0.0
 40
0.0
 40
0.0
 40
0.1298425803
 40
0.2611905963
 40
0.3925259819
 40
0.5223749791
 40
0.6492922651
 40
0.7719403272
 40
0.8891638547
 40
1.0
 40
1.0
 40
1.0
 40
1.0
 10
32.1790493349
 20
18.7416253299
 30
0.0
 10
31.6685984847
 20
18.6626581224
 30
0.0
 10
30.6350448096
 20
18.5446604505
 30
0.0
 10
29.073252635
 20
18.4858774207
 30
0.0
 10
27.5113339979
 20
18.5446683358
 30
0.0
 10
25.9758794521
 20
18.7199490589
 30
0.0
 10
24.492789309
 20
19.0088485537
 30
0.0
 10
23.0869674927
 20
19.4064628253
 30
0.0
 10
21.7823244657
 20
19.906152301
 30
0.0
 10
20.9697713333
 20
20.3142695414
 30
0.0
 10
20.5879264887
 20
20.5347227779
 30
0.0
  0
SPLINE
  5
398
100
AcDbEntity
  8
0
100
AcDbSpline
 62
7
  6
BYLAYER
 70
0
 71
3
 72
9
 73
5
 74
0
 42
0.0000001
 43
0.0000001
 44
0.0000000001
 40
0.0
 40
0.0
 40
0.0
 40
0.0
 40
0.4943827942
 40
1.0
 40
1.0
 40
1.0
 40
1.0
 10
24.1234751144
 20
18.022111115
 30
0.0
 10
24.6472288906
 20
17.8976010918
 30
0.0
 10
25.717490288
 20
17.6897912687
 30
0.0
 10
26.8004769039
 20
17.5654684288
 30
0.0
 10
27.3494255913
 20
17.5230702848
 30
0.0
  0
SPLINE
  5
399
100
AcDbEntity
  8
0
100
AcDbSpline
 62
7
  6
BYLAYER
 70
0
 71
3
 72
11
 73
7
 74
0
 42
0.0000001
 43
0.0000001
 44
0.0000000001
 40
0.0
 40
0.0
 40
0.0
 40
0.0
 40
0.2585281581
 40
0.5118653157
 40
0.7592978375
 40
1.0
 40
1.0
 40
1.0
 40
1.0
 10
24.1234751144
 20
18.022111115
 30
0.0
 10
23.8360630506
 20
18.2617404146
 30
0.0
 10
23.2590282786
 20
18.7267303132
 30
0.0
 10
22.3780471069
 20
19.384273748
 30
0.0
 10
21.4916693381
 20
19.9899683164
 30
0.0
 10
20.8896523314
 20
20.3605252223
 30
0.0
 10
20.5879264887
 20
20.5347227779
 30
0.0
  0
SPLINE
  5
39A
100
AcDbEntity
  8
0
100
AcDbSpline
 62
7
  6
BYLAYER
 70
0
 71
3
 72
9
 73
5
 74
0
 42
0.0000001
 43
0.0000001
 44
0.0000000001
 40
0.0
 40
0.0
 40
0.0
 40
0.0
 40
0.5149842263
 40
1.0
 40
1.0
 40
1.0
 40
1.0
 10
20.5879264887
 20
20.5347227779
 30
0.0
 10
20.0120120964
 20
20.8672195852
 30
0.0
 10
18.8586343252
 20
21.454390847
 30
0.0
 10
17.6487265678
 20
21.913134745
 30
0.0
 10
17.052377863
 20
22.1045186602
 30
0.0
  0
SPLINE
  5
39B
100
AcDbEntity
  8
0
100
AcDbSpline
 62
7
  6
BYLAYER
 70
0
 71
3
 72
9
 73
5
 74
0
 42
0.0000001
 43
0.0000001
 44
0.0000000001
 40
0.0
 40
0.0
 40
0.0
 40
0.0
 40
0.5329312675
 40
1.0
 40
1.0
 40
1.0
 40
1.0
 10
27.3733018755
 20
49.0903323693
 30
0.0
 10
27.3808320684
 20
49.0938621518
 30
0.0
 10
27.3963113607
 20
49.0983570812
 30
0.0
 10
27.4124311207
 20
49.0947689562
 30
0.0
 10
27.4187434079
 20
49.0911248602
 30
0.0
  0
SPLINE
  5
39C
100
AcDbEntity
  8
0
100
AcDbSpline
 62
7
  6
BYLAYER
 70
0
 71
3
 72
9
 73
5
 74
0
 42
0.0000001
 43
0.0000001
 44
0.0000000001
 40
0.0
 40
0.0
 40
0.0
 40
0.0
 40
0.4637797174
 40
1.0
 40
1.0
 40
1.0
 40
1.0
 10
33.6007769153
 20
48.8687272234
 30
0.0
 10
33.6077578492
 20
48.8726765935
 30
0.0
 10
33.6188305498
 20
48.8877617193
 30
0.0
 10
33.6214939085
 20
48.9052222552
 30
0.0
 10
33.6214939085
 20
48.914495709
 30
0.0
  0
SPLINE
  5
39D
100
AcDbEntity
  8
0
100
AcDbSpline
 62
7
  6
BYLAYER
 70
0
 71
3
 72
15
 73
11
 74
0
 42
0.0000001
 43
0.0000001
 44
0.0000000001
 40
0.0
 40
0.0
 40
0.0
 40
0.0
 40
0.1485809526
 40
0.2895108876
 40
0.4227267246
 40
0.5486441314
 40
0.6680045963
 40
0.7819424763
 40
0.8919924626
 40
1.0
 40
1.0
 40
1.0
 40
1.0
 10
20.5879264887
 20
20.5347227779
 30
0.0
 10
20.3172890371
 20
20.6909718487
 30
0.0
 10
19.8021924489
 20
21.0174664686
 30
0.0
 10
19.0979758967
 20
21.5625078265
 30
0.0
 10
18.4888634692
 20
22.1455327898
 30
0.0
 10
17.9809659844
 20
22.7611831898
 30
0.0
 10
17.5793868818
 20
23.4039797762
 30
0.0
 10
17.288699509
 20
24.068147339
 30
0.0
 10
17.1126690754
 20
24.7469383518
 30
0.0
 10
17.0731691069
 20
25.2064853679
 30
0.0
 10
17.073171354
 20
25.4336526244
 30
0.0
  0
SPLINE
  5
39E
100
AcDbEntity
  8
0
100
AcDbSpline
 62
7
  6
BYLAYER
 70
0
 71
3
 72
10
 73
6
 74
0
 42
0.0000001
 43
0.0000001
 44
0.0000000001
 40
0.0
 40
0.0
 40
0.0
 40
0.0
 40
0.2403293928
 40
0.486252238
 40
1.0
 40
1.0
 40
1.0
 40
1.0
 10
16.1879745713
 20
23.9669912548
 30
0.0
 10
16.2253112587
 20
23.8058675266
 30
0.0
 10
16.3187202564
 20
23.4837176641
 30
0.0
 10
16.5780609614
 20
22.8453340183
 30
0.0
 10
16.8470804696
 20
22.3923660826
 30
0.0
 10
17.052377863
 20
22.1045186602
 30
0.0
  0
SPLINE
  5
39F
100
AcDbEntity
  8
0
100
AcDbSpline
 62
7
  6
BYLAYER
 70
0
 71
3
 72
11
 73
7
 74
0
 42
0.0000001
 43
0.0000001
 44
0.0000000001
 40
0.0
 40
0.0
 40
0.0
 40
0.0
 40
0.2339421501
 40
0.4842898033
 40
0.7427043117
 40
1.0
 40
1.0
 40
1.0
 40
1.0
 10
35.6934659594
 20
66.2502514595
 30
0.0
 10
35.3699115986
 20
66.3985280638
 30
0.0
 10
34.6706589876
 20
66.6430863924
 30
0.0
 10
33.5568071203
 20
66.8528477224
 30
0.0
 10
32.3894566502
 20
66.9113408487
 30
0.0
 10
31.6047102754
 20
66.8462409236
 30
0.0
 10
31.217870946
 20
66.7863939036
 30
0.0
  0
SPLINE
  5
3A0
100
AcDbEntity
  8
0
100
AcDbSpline
 62
7
  6
BYLAYER
 70
0
 71
3
 72
11
 73
7
 74
0
 42
0.0000001
 43
0.0000001
 44
0.0000000001
 40
0.0
 40
0.0
 40
0.0
 40
0.0
 40
0.2282449409
 40
0.4945463189
 40
0.7640501381
 40
1.0
 40
1.0
 40
1.0
 40
1.0
 10
27.4393780466
 20
46.0964610691
 30
0.0
 10
27.4393780475
 20
46.0858866534
 30
0.0
 10
27.4353207702
 20
46.0630265199
 30
0.0
 10
27.4221206736
 20
46.0299019007
 30
0.0
 10
27.4012943913
 20
46.0005134923
 30
0.0
 10
27.3841243897
 20
45.9841993288
 30
0.0
 10
27.3750965917
 20
45.9780354091
 30
0.0
  0
SPLINE
  5
3A1
100
AcDbEntity
  8
0
100
AcDbSpline
 62
7
  6
BYLAYER
 70
0
 71
3
 72
11
 73
7
 74
0
 42
0.0000001
 43
0.0000001
 44
0.0000000001
 40
0.0
 40
0.0
 40
0.0
 40
0.0
 40
0.2322638241
 40
0.4713926793
 40
0.7236597441
 40
1.0
 40
1.0
 40
1.0
 40
1.0
 10
27.5516441882
 20
46.0706126666
 30
0.0
 10
27.5426431761
 20
46.0708247057
 30
0.0
 10
27.5244018942
 20
46.072158197
 30
0.0
 10
27.496539798
 20
46.0755667364
 30
0.0
 10
27.4675126806
 20
46.0827107269
 30
0.0
 10
27.4487904831
 20
46.091346872
 30
0.0
 10
27.4393780466
 20
46.0964610691
 30
0.0
  0
SPLINE
  5
3A2
100
AcDbEntity
  8
0
100
AcDbSpline
 62
7
  6
BYLAYER
 70
0
 71
3
 72
11
 73
7
 74
0
 42
0.0000001
 43
0.0000001
 44
0.0000000001
 40
0.0
 40
0.0
 40
0.0
 40
0.0
 40
0.2782041842
 40
0.5413444109
 40
0.7864504274
 40
1.0
 40
1.0
 40
1.0
 40
1.0
 10
27.3750965917
 20
45.9780354091
 30
0.0
 10
27.3946489471
 20
45.9754313246
 30
0.0
 10
27.4337918961
 20
45.9757210885
 30
0.0
 10
27.4872358075
 20
45.995536827
 30
0.0
 10
27.5265103476
 20
46.0298789863
 30
0.0
 10
27.5442543866
 20
46.0573975914
 30
0.0
 10
27.5516441882
 20
46.0706126666
 30
0.0
  0
SPLINE
  5
3A3
100
AcDbEntity
  8
0
100
AcDbSpline
 62
7
  6
BYLAYER
 70
0
 71
3
 72
11
 73
7
 74
0
 42
0.0000001
 43
0.0000001
 44
0.0000000001
 40
0.0
 40
0.0
 40
0.0
 40
0.0
 40
0.2342304443
 40
0.4832169833
 40
0.7400414226
 40
1.0
 40
1.0
 40
1.0
 40
1.0
 10
22.926223198
 20
48.7020156138
 30
0.0
 10
22.9160077594
 20
48.7082648738
 30
0.0
 10
22.8958050693
 20
48.7226402673
 30
0.0
 10
22.8679191601
 20
48.7482890692
 30
0.0
 10
22.8406898499
 20
48.7764237628
 30
0.0
 10
22.8227592042
 20
48.7958370233
 30
0.0
 10
22.8139570497
 20
48.8057951873
 30
0.0
  0
SPLINE
  5
3A4
100
AcDbEntity
  8
0
100
AcDbSpline
 62
7
  6
BYLAYER
 70
0
 71
3
 72
11
 73
7
 74
0
 42
0.0000001
 43
0.0000001
 44
0.0000000001
 40
0.0
 40
0.0
 40
0.0
 40
0.0
 40
0.2359498619
 40
0.5054536811
 40
0.7717550591
 40
1.0
 40
1.0
 40
1.0
 40
1.0
 10
22.8619417431
 20
48.5835899538
 30
0.0
 10
22.8709695411
 20
48.5897538735
 30
0.0
 10
22.8881395427
 20
48.606068037
 30
0.0
 10
22.908965825
 20
48.6354564454
 30
0.0
 10
22.9221659216
 20
48.6685810646
 30
0.0
 10
22.9262231989
 20
48.6914411981
 30
0.0
 10
22.926223198
 20
48.7020156138
 30
0.0
  0
SPLINE
  5
3A5
100
AcDbEntity
  8
0
100
AcDbSpline
 62
7
  6
BYLAYER
 70
0
 71
3
 72
17
 73
13
 74
0
 42
0.0000001
 43
0.0000001
 44
0.0000000001
 40
0.0
 40
0.0
 40
0.0
 40
0.0
 40
0.1422971356
 40
0.2858188945
 40
0.4269028454
 40
0.5620792465
 40
0.6883760814
 40
0.7475385643
 40
0.8037819502
 40
0.857041482
 40
0.9073924722
 40
1.0
 40
1.0
 40
1.0
 40
1.0
 10
31.2010907721
 20
73.8756336599
 30
0.0
 10
31.5305335623
 20
73.9266009938
 30
0.0
 10
32.198932345
 20
73.989504829
 30
0.0
 10
33.2008459716
 20
73.9708020365
 30
0.0
 10
34.1779791241
 20
73.841007248
 30
0.0
 10
35.0934657934
 20
73.6049532255
 30
0.0
 10
35.7920417966
 20
73.3207715448
 30
0.0
 10
36.2874335624
 20
73.0452599264
 30
0.0
 10
36.6151244389
 20
72.8235148984
 30
0.0
 10
36.9039647296
 20
72.5839106972
 30
0.0
 10
37.2242374364
 20
72.2536203715
 30
0.0
 10
37.4139715218
 20
71.9711209319
 30
0.0
 10
37.5053088193
 20
71.7743311351
 30
0.0
  0
SPLINE
  5
3A6
100
AcDbEntity
  8
0
100
AcDbSpline
 62
7
  6
BYLAYER
 70
0
 71
3
 72
9
 73
5
 74
0
 42
0.0000001
 43
0.0000001
 44
0.0000000001
 40
0.0
 40
0.0
 40
0.0
 40
0.0
 40
0.5080533564
 40
1.0
 40
1.0
 40
1.0
 40
1.0
 10
37.5053088193
 20
71.7743311351
 30
0.0
 10
37.5630129203
 20
71.6500053821
 30
0.0
 10
37.6524702477
 20
71.3930149441
 30
0.0
 10
37.6818795206
 20
71.1220804033
 30
0.0
 10
37.680659369
 20
70.9893669145
 30
0.0
  0
SPLINE
  5
3A7
100
AcDbEntity
  8
0
100
AcDbSpline
 62
7
  6
BYLAYER
 70
0
 71
3
 72
11
 73
7
 74
0
 42
0.0000001
 43
0.0000001
 44
0.0000000001
 40
0.0
 40
0.0
 40
0.0
 40
0.0
 40
0.2689745374
 40
0.5424032443
 40
0.7942725759
 40
1.0
 40
1.0
 40
1.0
 40
1.0
 10
22.8139570498
 20
48.8057951873
 30
0.0
 10
22.8205299156
 20
48.7864512228
 30
0.0
 10
22.8276906308
 20
48.74558134
 30
0.0
 10
22.8347335362
 20
48.685753053
 30
0.0
 10
22.8445549162
 20
48.6310545235
 30
0.0
 10
22.8551778929
 20
48.5976763957
 30
0.0
 10
22.8619417431
 20
48.5835899538
 30
0.0
  0
SPLINE
  5
3A8
100
AcDbEntity
  8
0
100
AcDbSpline
 62
7
  6
BYLAYER
 70
0
 71
3
 72
9
 73
5
 74
0
 42
0.0000001
 43
0.0000001
 44
0.0000000001
 40
0.0
 40
0.0
 40
0.0
 40
0.0
 40
0.2400998385
 40
1.0
 40
1.0
 40
1.0
 40
1.0
 10
22.7479520592
 20
48.6036066901
 30
0.0
 10
22.7566715734
 20
48.6004098392
 30
0.0
 10
22.7936568594
 20
48.5889568893
 30
0.0
 10
22.8325521335
 20
48.5840353131
 30
0.0
 10
22.8619417431
 20
48.5835899538
 30
0.0
  0
SPLINE
  5
3A9
100
AcDbEntity
  8
0
100
AcDbSpline
 62
7
  6
BYLAYER
 70
0
 71
3
 72
9
 73
5
 74
0
 42
0.0000001
 43
0.0000001
 44
0.0000000001
 40
0.0
 40
0.0
 40
0.0
 40
0.0
 40
0.4762927494
 40
1.0
 40
1.0
 40
1.0
 40
1.0
 10
22.6711595381
 20
48.6479408885
 30
0.0
 10
22.6829084349
 20
48.6382901816
 30
0.0
 10
22.7090072068
 20
48.6195559218
 30
0.0
 10
22.7383367579
 20
48.6065708146
 30
0.0
 10
22.7538046702
 20
48.6002278348
 30
0.0
  0
SPLINE
  5
3AA
100
AcDbEntity
  8
0
100
AcDbSpline
 62
7
  6
BYLAYER
 70
0
 71
3
 72
9
 73
5
 74
0
 42
0.0000001
 43
0.0000001
 44
0.0000000001
 40
0.0
 40
0.0
 40
0.0
 40
0.0
 40
0.2795929679
 40
1.0
 40
1.0
 40
1.0
 40
1.0
 10
26.8449365842
 20
47.4909532911
 30
0.0
 10
26.8465149321
 20
47.4918447559
 30
0.0
 10
26.8521744715
 20
47.4950073257
 30
0.0
 10
26.857888585
 20
47.4980747261
 30
0.0
 10
26.8620570107
 20
47.5001816901
 30
0.0
  0
LINE
  5
3AB
100
AcDbEntity
  8
0
100
AcDbLine
 62
7
  6
BYLAYER
 10
26.8620570107
 20
47.5001816901
 11
26.8702305149
 21
47.5040672826
  0
SPLINE
  5
3AC
100
AcDbEntity
  8
0
100
AcDbSpline
 62
7
  6
BYLAYER
 70
0
 71
3
 72
10
 73
6
 74
0
 42
0.0000001
 43
0.0000001
 44
0.0000000001
 40
0.0
 40
0.0
 40
0.0
 40
0.0
 40
0.7168921715
 40
0.9073035484
 40
1.0
 40
1.0
 40
1.0
 40
1.0
 10
26.8702305149
 20
47.5040672826
 30
0.0
 10
26.8718374998
 20
47.5047622446
 30
0.0
 10
26.8739790514
 20
47.5056029152
 30
0.0
 10
26.8762247557
 20
47.5061740688
 30
0.0
 10
26.877059355
 20
47.5060734625
 30
0.0
 10
26.8771715696
 20
47.505876844
 30
0.0
  0
SPLINE
  5
3AD
100
AcDbEntity
  8
0
100
AcDbSpline
 62
7
  6
BYLAYER
 70
0
 71
3
 72
9
 73
5
 74
0
 42
0.0000001
 43
0.0000001
 44
0.0000000001
 40
0.0
 40
0.0
 40
0.0
 40
0.0
 40
0.2559417644
 40
1.0
 40
1.0
 40
1.0
 40
1.0
 10
22.7715247665
 20
49.0099154974
 30
0.0
 10
22.7651111716
 20
49.0007317578
 30
0.0
 10
22.7401851356
 20
48.9647612883
 30
0.0
 10
22.715999629
 20
48.9282448731
 30
0.0
 10
22.6991474202
 20
48.9003799883
 30
0.0
  0
SPLINE
  5
3AE
100
AcDbEntity
  8
0
100
AcDbSpline
 62
7
  6
BYLAYER
 70
0
 71
3
 72
14
 73
10
 74
0
 42
0.0000001
 43
0.0000001
 44
0.0000000001
 40
0.0
 40
0.0
 40
0.0
 40
0.0
 40
0.2969660805
 40
0.4301755377
 40
0.552388967
 40
0.6652846838
 40
0.7732096455
 40
0.8825900761
 40
1.0
 40
1.0
 40
1.0
 40
1.0
 10
22.6991474202
 20
48.9003799883
 30
0.0
 10
22.6847958882
 20
48.8766499366
 30
0.0
 10
22.6650020315
 20
48.8415292953
 30
0.0
 10
22.6457525634
 20
48.7935733787
 30
0.0
 10
22.6370767163
 20
48.7601567001
 30
0.0
 10
22.6346684013
 20
48.7279790177
 30
0.0
 10
22.6398353566
 20
48.6972103615
 30
0.0
 10
22.6534927914
 20
48.668647504
 30
0.0
 10
22.6676920724
 20
48.6525504087
 30
0.0
 10
22.6758548857
 20
48.6452301496
 30
0.0
  0
ELLIPSE
  5
3AF
100
AcDbEntity
  8
0
100
AcDbEllipse
 62
7
  6
BYLAYER
 10
20.1423911489
 20
63.2663226384
 30
0.0
 11
-0.1011162675
 21
0.1725590293
 31
0.0
 40
0.5730077973
 41
0.7817101538
 42
2.3525064806
  0
ELLIPSE
  5
3B0
100
AcDbEntity
  8
0
100
AcDbEllipse
 62
7
  6
BYLAYER
 10
27.2538961289
 20
51.4095061293
 30
0.0
 11
25.9283976855
 21
17.4853453084
 31
0.0
 40
0.0751380665
 41
-1.6255362208
 42
-1.6168245922
  0
ELLIPSE
  5
3B1
100
AcDbEntity
  8
0
100
AcDbEllipse
 62
7
  6
BYLAYER
 10
26.9827531786
 20
63.9496737262
 30
0.0
 11
0.3032826048
 21
0.0812627075
 31
0.0
 40
0.5176329258
 41
-0.0360034397
 42
0.4776663074
  0
ELLIPSE
  5
3B2
100
AcDbEntity
  8
0
100
AcDbEllipse
 62
7
  6
BYLAYER
 10
29.0731725353
 20
49.6021241714
 30
0.0
 11
8.9999112876
 21
0.0686178435
 31
0.0
 40
0.5823581608
 41
9.3514315476
 42
9.3633192936
  0
ELLIPSE
  5
3B3
100
AcDbEntity
  8
0
100
AcDbEllipse
 62
7
  6
BYLAYER
 10
29.0731725353
 20
49.6021241714
 30
0.0
 11
8.9999172697
 21
-0.0674306769
 31
0.0
 40
0.5722818953
 41
0.0403421932
 42
0.0725008105
  0
ELLIPSE
  5
3B4
100
AcDbEntity
  8
0
100
AcDbEllipse
 62
7
  6
BYLAYER
 10
27.2538961289
 20
51.4095061293
 30
0.0
 11
25.9454682693
 21
12.2349143957
 31
0.0
 40
0.0749362391
 41
-1.6102310643
 42
-1.6015194357
  0
ELLIPSE
  5
3B5
100
AcDbEntity
  8
0
100
AcDbEllipse
 62
7
  6
BYLAYER
 10
27.2538961289
 20
51.4095061293
 30
0.0
 11
24.2628407141
 21
14.0083688056
 31
0.0
 40
0.1142187298
 41
4.6210078401
 42
4.6297194687
  0
ENDSEC
  0
SECTION
  2
OBJECTS
  0
DICTIONARY
  5
C
100
AcDbDictionary
280
0
281
1
  3
ACAD_GROUP
350
D
  3
ACAD_MLINESTYLE
350
17
  3
ACAD_LAYOUT
350
1A
  3
ACAD_PLOTSETTINGS
350
19
  3
ACAD_PLOTSTYLENAME
350
E
  0
DICTIONARY
  5
D
102
{ACAD_REACTORS
330
C
102
}
100
AcDbDictionary
280
0
281
1
  0
ACDBDICTIONARYWDFLT
  5
E
102
{ACAD_REACTORS
330
C
102
}
100
AcDbDictionary
281
1
  3
Normal
350
F
100
AcDbDictionaryWithDefault
340
F
  0
DICTIONARY
  5
17
102
{ACAD_REACTORS
330
C
102
}
100
AcDbDictionary
280
0
281
1
  3
Standard
350
18
  0
DICTIONARY
  5
19
102
{ACAD_REACTORS
330
C
102
}
100
AcDbDictionary
281
1
  0
DICTIONARY
  5
1A
102
{ACAD_REACTORS
330
C
102
}
100
AcDbDictionary
281
1
  3
Model
350
3B6
  3
Layout1
350
3B7
  0
ACDBPLACEHOLDER
  5
F
102
{ACAD_REACTORS
330
E
102
}
  0
MLINESTYLE
  5
18
102
{ACAD_REACTORS
330
17
102
}
100
AcDbMlineStyle
  2
STANDARD
 70
0
  3

 62
256
 51
90.0
 52
90.0
 71
2
 49
0.5
 62
256
  6
BYLAYER
 49
-0.5
 62
256
  6
BYLAYER
  0
LAYOUT
  5
3B6
102
{ACAD_REACTORS
330
1A
102
}
100
AcDbPlotSettings
  1

  2
none_device
  4

  6

 40
0.0
 41
0.0
 42
0.0
 43
0.0
 44
210.0
 45
297.0
 46
0.0
 47
0.0
 48
0.0
 49
0.0
140
0.0
141
0.0
142
1.0
143
1.0
 70
1024
 72
1
 73
0
 74
0
  7

 75
0
147
1.0
148
0.0
149
0.0
100
AcDbLayout
  1
Model
 70
0
 71
0
 10
0.0
 20
0.0
 11
210.0
 21
297.0
 12
0.0
 22
0.0
 32
0.0
 14
0.0
 24
0.0
 34
0.0
 15
0.0
 25
0.0
 35
0.0
146
0.0
 13
0.0
 23
0.0
 33
0.0
 16
1.0
 26
0.0
 36
0.0
 17
0.0
 27
1.0
 37
0.0
 76
0
330
211
345
0
346
0
  0
LAYOUT
  5
3B7
102
{ACAD_REACTORS
330
1A
102
}
100
AcDbPlotSettings
  1

  2
none_device
  4

  6

 40
0.0
 41
0.0
 42
0.0
 43
0.0
 44
210.0
 45
297.0
 46
0.0
 47
0.0
 48
0.0
 49
0.0
140
0.0
141
0.0
142
1.0
143
1.0
 70
0
 72
1
 73
0
 74
0
  7

 75
0
147
1.0
148
0.0
149
0.0
100
AcDbLayout
  1
Layout1
 70
0
 71
1
 10
0.0
 20
0.0
 11
210.0
 21
297.0
 12
0.0
 22
0.0
 32
0.0
 14
0.0
 24
0.0
 34
0.0
 15
0.0
 25
0.0
 35
0.0
146
0.0
 13
0.0
 23
0.0
 33
0.0
 16
1.0
 26
0.0
 36
0.0
 17
0.0
 27
1.0
 37
0.0
 76
0
330
212
345
0
346
0
  0
ENDSEC
  0
EOF
