999
DXF file: C:\Users\sesa63760\Dev\_Creo\CAD\MCADID0004188_3D-CAD\drw0001_1.dxf
999
Pro/ENGINEER 2019471 by Parametric Technology Corporation
  0
SECTION
  2
HEADER
  9
$ACADVER
  1
AC1024
  9
$DWGCODEPAGE
  3
ANSI_1252
  9
$EXTMAX
 10
667.3651807226
 20
943.8450413077
 30
0.0
  9
$EXTMIN
 10
0.0
 20
0.0
 30
0.0
  9
$LIMMIN
 10
0.0
 20
0.0
  9
$LIMMAX
 10
667.3651807226
 20
943.8450413077
  9
$VIEWCTR
 10
333.6825903613
 20
471.9225206538
  9
$VIEWSIZE
 40
943.8450413077
  9
$CLAYER
  8
0
  9
$LTSCALE
 40
61.5247138038
  9
$CELTYPE
  6
BYLAYER
  9
$DIMSCALE
 40
1.0
  9
$DIMASZ
 40
7.94482358
  9
$DIMEXO
 40
1.0
  9
$DIMDLI
 40
42.5079840826
  9
$DIMEXE
 40
1.0
  9
$DIMCEN
 40
10.0676804406
  9
$DIMLFAC
 40
1.0
  9
$DIMBLK
  1
_FILLED
  9
$DIMALT
 70
0
  9
$DIMALTF
 40
0.0393700787
  9
$DIMTXT
 40
11.122753012
  9
$DIMTOL
 70
1
  9
$DIMLIM
 70
0
  9
$DIMTFAC
 40
1.0
  9
$DIMTP
 40
0.01
  9
$DIMTM
 40
0.01
  9
$DIMGAP
 40
0.625
  9
$DIMDSEP
 70
46
  9
$AUNITS
 70
0
  9
$PDMODE
 70
3
  9
$PDSIZE
 40
0.3125
  9
$HANDSEED
  5
53C
  9
$TILEMODE
 70
1
  9
$MEASUREMENT
 70
1
  9
$INSUNITS
 70
4
  0
ENDSEC
  0
SECTION
  2
CLASSES
  0
CLASS
  1
ACDBDICTIONARYWDFLT
  2
AcDbDictionaryWithDefault
  3
AutoCAD 2000
 90
0
 91
1
280
0
281
0
  0
CLASS
  1
ACDBPLACEHOLDER
  2
AcDbPlaceHolder
  3
AutoCAD 2000
 90
0
 91
1
280
0
281
0
  0
CLASS
  1
LAYOUT
  2
AcDbLayout
  3
AutoCAD 2000
 90
0
 91
0
280
0
281
0
  0
ENDSEC
  0
SECTION
  2
TABLES
  0
TABLE
  2
VPORT
  5
8
100
AcDbSymbolTable
 70
2
  0
VPORT
  5
1F4
100
AcDbSymbolTableRecord
100
AcDbViewportTableRecord
  2
*ACTIVE
 70
0
 10
0.0
 20
0.0
 11
1.0
 21
1.0
 12
333.6825903613
 22
471.9225206538
 13
0.0
 23
0.0
 14
1.0
 24
1.0
 15
0.0
 25
0.0
 16
0.0
 26
0.0
 36
1.0
 17
0.0
 27
0.0
 37
0.0
 40
943.8450413077
 41
0.7070707071
 42
50.0
 43
0.0
 44
0.0
 50
0.0
 51
0.0
 71
0
 72
100
 73
1
 74
1
 75
0
 76
0
 77
0
 78
0
  0
ENDTAB
  0
TABLE
  2
LTYPE
  5
5
100
AcDbSymbolTable
 70
6
  0
LTYPE
  5
14
100
AcDbSymbolTableRecord
100
AcDbLinetypeTableRecord
  2
BYBLOCK
 70
0
  3

 72
65
 73
0
 40
0.0
  0
LTYPE
  5
15
100
AcDbSymbolTableRecord
100
AcDbLinetypeTableRecord
  2
BYLAYER
 70
0
  3

 72
65
 73
0
 40
0.0
  0
LTYPE
  5
16
100
AcDbSymbolTableRecord
100
AcDbLinetypeTableRecord
  2
CONTINUOUS
 70
64
  3
Solid line
 72
65
 73
0
 40
0.0
  0
LTYPE
  5
1F5
100
AcDbSymbolTableRecord
100
AcDbLinetypeTableRecord
  2
CENTER
 70
64
  3
____ _ ____ _ ____ _ ____ _ ____ _ ____ _ ____
 72
65
 73
4
 40
0.6
 49
0.375
 74
0
 49
-0.075
 74
0
 49
0.075
 74
0
 49
-0.075
 74
0
  0
LTYPE
  5
1F6
100
AcDbSymbolTableRecord
100
AcDbLinetypeTableRecord
  2
HIDDEN
 70
64
  3
- - - - - - - - - - - - - - - - - - - -
 72
65
 73
2
 40
0.2
 49
0.1
 74
0
 49
-0.1
 74
0
  0
LTYPE
  5
1F7
100
AcDbSymbolTableRecord
100
AcDbLinetypeTableRecord
  2
PHANTOM
 70
64
  3
_____ _ _ _____ _ _ _____ _ _ _____
 72
65
 73
6
 40
0.8
 49
0.45
 74
0
 49
-0.05
 74
0
 49
0.1
 74
0
 49
-0.05
 74
0
 49
0.1
 74
0
 49
-0.05
 74
0
  0
LTYPE
  5
1F8
100
AcDbSymbolTableRecord
100
AcDbLinetypeTableRecord
  2
DOT
 70
64
  3
. . . . . . . . . . . . . . . . . . . .
 72
65
 73
2
 40
0.2
 49
0.1
 74
0
 49
-0.1
 74
0
  0
LTYPE
  5
1F9
100
AcDbSymbolTableRecord
100
AcDbLinetypeTableRecord
  2
DASHED
 70
64
  3
- - - - - - - - - - - - - - - - - - - -
 72
65
 73
2
 40
0.2
 49
0.1
 74
0
 49
-0.1
 74
0
  0
ENDTAB
  0
TABLE
  2
LAYER
  5
2
100
AcDbSymbolTable
 70
36
  0
LAYER
  5
10
100
AcDbSymbolTableRecord
100
AcDbLayerTableRecord
  2
0
 70
0
 62
7
  6
CONTINUOUS
370
-3
390
F
  0
LAYER
  5
1FA
100
AcDbSymbolTableRecord
100
AcDbLayerTableRecord
  2
DEFAULT_1
 70
0
 62
7
  6
CENTER
370
-3
390
F
  0
LAYER
  5
1FB
100
AcDbSymbolTableRecord
100
AcDbLayerTableRecord
  2
DEFAULT_2
 70
0
 62
7
  6
HIDDEN
370
-3
390
F
  0
LAYER
  5
1FC
100
AcDbSymbolTableRecord
100
AcDbLayerTableRecord
  2
DEFAULT_3
 70
0
 62
7
  6
PHANTOM
370
-3
390
F
  0
LAYER
  5
1FD
100
AcDbSymbolTableRecord
100
AcDbLayerTableRecord
  2
00_COMPONENTS
 70
0
 62
7
  6
CONTINUOUS
370
-3
390
F
  0
LAYER
  5
1FE
100
AcDbSymbolTableRecord
100
AcDbLayerTableRecord
  2
01_1_DEFAULT_DATUMS
 70
0
 62
7
  6
CONTINUOUS
370
-3
390
F
  0
LAYER
  5
1FF
100
AcDbSymbolTableRecord
100
AcDbLayerTableRecord
  2
01_PLANES
 70
0
 62
7
  6
CONTINUOUS
370
-3
390
F
  0
LAYER
  5
200
100
AcDbSymbolTableRecord
100
AcDbLayerTableRecord
  2
02_COORD_SYS
 70
0
 62
7
  6
CONTINUOUS
370
-3
390
F
  0
LAYER
  5
201
100
AcDbSymbolTableRecord
100
AcDbLayerTableRecord
  2
03_AXES
 70
0
 62
7
  6
CONTINUOUS
370
-3
390
F
  0
LAYER
  5
202
100
AcDbSymbolTableRecord
100
AcDbLayerTableRecord
  2
04_POINTS
 70
0
 62
7
  6
CONTINUOUS
370
-3
390
F
  0
LAYER
  5
203
100
AcDbSymbolTableRecord
100
AcDbLayerTableRecord
  2
05_CURVES
 70
0
 62
7
  6
CONTINUOUS
370
-3
390
F
  0
LAYER
  5
204
100
AcDbSymbolTableRecord
100
AcDbLayerTableRecord
  2
06_SURFS
 70
0
 62
7
  6
CONTINUOUS
370
-3
390
F
  0
LAYER
  5
205
100
AcDbSymbolTableRecord
100
AcDbLayerTableRecord
  2
07_COSMETICS
 70
0
 62
7
  6
CONTINUOUS
370
-3
390
F
  0
LAYER
  5
206
100
AcDbSymbolTableRecord
100
AcDbLayerTableRecord
  2
10_NOTES
 70
0
 62
7
  6
CONTINUOUS
370
-3
390
F
  0
LAYER
  5
207
100
AcDbSymbolTableRecord
100
AcDbLayerTableRecord
  2
11_NOTES_PUB
 70
0
 62
7
  6
CONTINUOUS
370
-3
390
F
  0
LAYER
  5
208
100
AcDbSymbolTableRecord
100
AcDbLayerTableRecord
  2
13_REF_GTOL
 70
0
 62
7
  6
CONTINUOUS
370
-3
390
F
  0
LAYER
  5
209
100
AcDbSymbolTableRecord
100
AcDbLayerTableRecord
  2
16_MISC
 70
0
 62
7
  6
CONTINUOUS
370
-3
390
F
  0
LAYER
  5
20A
100
AcDbSymbolTableRecord
100
AcDbLayerTableRecord
  2
17_NO_PRINT
 70
0
 62
7
  6
CONTINUOUS
370
-3
390
F
  0
LAYER
  5
20B
100
AcDbSymbolTableRecord
100
AcDbLayerTableRecord
  2
18_DATUM_CAMS_JOINTS
 70
0
 62
7
  6
CONTINUOUS
370
-3
390
F
  0
LAYER
  5
20C
100
AcDbSymbolTableRecord
100
AcDbLayerTableRecord
  2
19_DATUM_FUNCTIONAL
 70
0
 62
7
  6
CONTINUOUS
370
-3
390
F
  0
LAYER
  5
20D
100
AcDbSymbolTableRecord
100
AcDbLayerTableRecord
  2
20_DATUM_KINEMATIC_SCHEME
 70
0
 62
7
  6
CONTINUOUS
370
-3
390
F
  0
ENDTAB
  0
TABLE
  2
STYLE
  5
3
100
AcDbSymbolTable
 70
1
  0
STYLE
  5
11
100
AcDbSymbolTableRecord
100
AcDbTextStyleTableRecord
  2
STANDARD
 70
0
 40
0.0
 41
1.0
 50
0.0
 71
0
 42
0.2
  3
ARIAL.TTF
  4

  0
STYLE
  5
20E
100
AcDbSymbolTableRecord
100
AcDbTextStyleTableRecord
  2
TEXTSTYLE_1
 70
0
 40
0.0
 41
0.8
 50
0.0
 71
0
 42
0.2
  3
gdt
  4

  0
ENDTAB
  0
TABLE
  2
VIEW
  5
6
100
AcDbSymbolTable
 70
0
  0
ENDTAB
  0
TABLE
  2
UCS
  5
7
100
AcDbSymbolTable
 70
0
  0
ENDTAB
  0
TABLE
  2
APPID
  5
9
100
AcDbSymbolTable
 70
1
  0
APPID
  5
20F
100
AcDbSymbolTableRecord
100
AcDbRegAppTableRecord
  2
ACAD
 70
0
  0
ENDTAB
  0
TABLE
  2
BLOCK_RECORD
  5
1
100
AcDbSymbolTable
 70
0
  0
BLOCK_RECORD
  5
210
100
AcDbSymbolTableRecord
100
AcDbBlockTableRecord
  2
*Model_Space
  0
BLOCK_RECORD
  5
211
100
AcDbSymbolTableRecord
100
AcDbBlockTableRecord
  2
*Paper_Space
  0
BLOCK_RECORD
  5
212
100
AcDbSymbolTableRecord
100
AcDbBlockTableRecord
  2
_FILLED
  0
ENDTAB
  0
TABLE
  2
DIMSTYLE
  5
A
100
AcDbSymbolTable
 70
1
100
AcDbDimStyleTable
 71
0
  0
DIMSTYLE
105
213
100
AcDbSymbolTableRecord
100
AcDbDimStyleTableRecord
  2
STANDARD
 70
0
  3

  4

 40
1.0
 41
7.94482358
 42
1.0
 43
0.38
 44
1.0
 45
0.0
 46
0.0
 47
0.01
 48
0.01
140
11.122753012
141
0.09
142
0.0
143
25.4
144
1.0
145
0.0
146
1.0
147
0.625
 71
1
 72
0
 73
0
 74
0
 75
0
 76
0
 77
1
 78
8
 79
2
170
0
171
1
172
0
173
0
174
0
175
0
176
0
177
0
178
0
270
2
179
2
271
2
272
2
273
2
274
2
275
0
280
0
281
0
282
0
283
1
284
8
285
0
286
0
287
3
288
0
340
11
278
46
341
212
342
212
343
212
344
212
  0
ENDTAB
  0
ENDSEC
  0
SECTION
  2
BLOCKS
  0
BLOCK
  5
20
100
AcDbEntity
  8
0
100
AcDbBlockBegin
  2
*Model_Space
 70
0
 10
0.0
 20
0.0
 30
0.0
  3
*Model_Space
  1

  0
ENDBLK
  5
21
100
AcDbEntity
  8
0
100
AcDbBlockEnd
  0
BLOCK
  5
1C
100
AcDbEntity
  8
0
100
AcDbBlockBegin
  2
*Paper_Space
 70
0
 10
0.0
 20
0.0
 30
0.0
  3
*Paper_Space
  1

  0
ENDBLK
  5
1D
100
AcDbEntity
  8
0
100
AcDbBlockEnd
  0
BLOCK
  5
214
100
AcDbEntity
  8
0
100
AcDbBlockBegin
  2
_FILLED
 70
64
 10
0.0
 20
0.0
  3
_FILLED
  1

  0
SOLID
  5
215
100
AcDbEntity
  8
0
  6
BYBLOCK
 62
0
100
AcDbTrace
 10
0.0
 20
0.0
 11
-1.0
 21
0.25
 12
-1.0
 22
-0.25
 13
-1.0
 23
-0.25
  0
ENDBLK
  5
216
100
AcDbEntity
  8
0
  6
BYBLOCK
 62
0
100
AcDbBlockEnd
  0
ENDSEC
  0
SECTION
  2
ENTITIES
  0
LINE
  5
217
100
AcDbEntity
  8
0
100
AcDbLine
 62
7
  6
BYLAYER
 10
325.4883725409
 20
868.4759646467
 11
323.331705837
 21
867.2308199771
  0
LINE
  5
218
100
AcDbEntity
  8
0
100
AcDbLine
 62
7
  6
BYLAYER
 10
331.0037824707
 20
871.6602690467
 11
333.1604491742
 21
872.905413716
  0
LINE
  5
219
100
AcDbEntity
  8
0
100
AcDbLine
 62
7
  6
BYLAYER
 10
333.1958155531
 20
871.3745045977
 11
332.0644494136
 21
870.7213139515
  0
LINE
  5
21A
100
AcDbEntity
  8
0
100
AcDbLine
 62
7
  6
BYLAYER
 10
326.8318810182
 20
867.7003072129
 11
325.9833564135
 21
867.2104142282
  0
LINE
  5
21B
100
AcDbEntity
  8
0
100
AcDbLine
 62
7
  6
BYLAYER
 10
323.0973936171
 20
864.64603331
 11
322.4939147929
 21
864.2976167282
  0
LINE
  5
21C
100
AcDbEntity
  8
0
100
AcDbLine
 62
7
  6
BYLAYER
 10
335.8474980771
 20
872.0072656116
 11
335.8868341357
 21
872.0299761601
  0
LINE
  5
21D
100
AcDbEntity
  8
0
100
AcDbLine
 62
7
  6
BYLAYER
 10
321.7382532392
 20
863.7893477528
 11
321.7890526343
 21
863.8186766221
  0
LINE
  5
21E
100
AcDbEntity
  8
0
100
AcDbLine
 62
7
  6
BYLAYER
 10
337.2945376579
 20
872.7707191379
 11
337.345337053
 21
872.8000480073
  0
LINE
  5
21F
100
AcDbEntity
  8
0
100
AcDbLine
 62
7
  6
BYLAYER
 10
327.5389978088
 20
866.3122845683
 11
334.7514569484
 21
870.4763749378
  0
LINE
  5
220
100
AcDbEntity
  8
0
100
AcDbLine
 62
7
  6
BYLAYER
 10
321.7595985649
 20
862.8368554076
 11
322.1024177935
 21
863.0347810001
  0
LINE
  5
221
100
AcDbEntity
  8
0
100
AcDbLine
 62
7
  6
BYLAYER
 10
323.0960223042
 20
863.6084354075
 11
323.4388415328
 21
863.806361
  0
LINE
  5
222
100
AcDbEntity
  8
0
100
AcDbLine
 62
7
  6
BYLAYER
 10
337.3158829836
 20
871.8182267928
 11
337.6587022122
 21
872.0161523853
  0
LINE
  5
223
100
AcDbEntity
  8
0
100
AcDbLine
 62
7
  6
BYLAYER
 10
338.6523067229
 20
872.5898067927
 11
338.9951259515
 21
872.7877323852
  0
LINE
  5
224
100
AcDbEntity
  8
0
100
AcDbLine
 62
7
  6
BYLAYER
 10
339.3994806322
 20
872.5542833827
 11
339.0566614036
 21
872.3563577903
  0
LINE
  5
225
100
AcDbEntity
  8
0
100
AcDbLine
 62
7
  6
BYLAYER
 10
338.0630568929
 20
871.7827033828
 11
337.7202376643
 21
871.5847777904
  0
LINE
  5
226
100
AcDbEntity
  8
0
100
AcDbLine
 62
7
  6
BYLAYER
 10
323.8431962135
 20
863.5729119976
 11
323.5003769849
 21
863.3749864051
  0
LINE
  5
227
100
AcDbEntity
  8
0
100
AcDbLine
 62
7
  6
BYLAYER
 10
322.5067724742
 20
862.8013319976
 11
322.1639532456
 21
862.6034064052
  0
LINE
  5
228
100
AcDbEntity
  8
0
100
AcDbLine
 62
7
  6
BYLAYER
 10
338.9346237894
 20
871.9388204675
 11
338.6582672741
 21
871.7792669115
  0
LINE
  5
229
100
AcDbEntity
  8
0
100
AcDbLine
 62
7
  6
BYLAYER
 10
323.3783393707
 20
862.9574490824
 11
323.1019828554
 21
862.7978955263
  0
LINE
  5
22A
100
AcDbEntity
  8
0
100
AcDbLine
 62
7
  6
BYLAYER
 10
339.3781488662
 20
871.6264301105
 11
339.3273494711
 21
871.5971012412
  0
LINE
  5
22B
100
AcDbEntity
  8
0
100
AcDbLine
 62
7
  6
BYLAYER
 10
323.8218644475
 20
862.6450587254
 11
323.7710650524
 21
862.615729856
  0
LINE
  5
22C
100
AcDbEntity
  8
0
100
AcDbLine
 62
7
  6
BYLAYER
 10
323.0662277501
 20
861.7295486313
 11
325.0995039959
 21
862.9034542119
  0
LINE
  5
22D
100
AcDbEntity
  8
0
100
AcDbLine
 62
7
  6
BYLAYER
 10
340.6557884146
 20
871.884825597
 11
342.6890646604
 21
873.0587311776
  0
LINE
  5
22E
100
AcDbEntity
  8
0
100
AcDbLine
 62
7
  6
BYLAYER
 10
353.5232762272
 20
867.31145068
 11
353.5318776082
 21
867.31641666
  0
LINE
  5
22F
100
AcDbEntity
  8
0
100
AcDbLine
 62
7
  6
BYLAYER
 10
353.5232809376
 20
866.6582627533
 11
351.6159891544
 21
865.557093902
  0
LINE
  5
230
100
AcDbEntity
  8
0
100
AcDbLine
 62
7
  6
BYLAYER
 10
336.0597047357
 20
856.5757225168
 11
334.1447543993
 21
855.4701320241
  0
LINE
  5
231
100
AcDbEntity
  8
0
100
AcDbLine
 62
7
  6
BYLAYER
 10
334.1447543993
 20
853.0206247727
 11
335.9794172327
 21
854.0798615306
  0
LINE
  5
232
100
AcDbEntity
  8
0
100
AcDbLine
 62
7
  6
BYLAYER
 10
337.2946671925
 20
854.8080511533
 11
337.3454665876
 21
854.8373800227
  0
LINE
  5
233
100
AcDbEntity
  8
0
100
AcDbLine
 62
7
  6
BYLAYER
 10
352.8509516112
 20
863.7681120463
 11
352.9017510063
 21
863.7974409156
  0
LINE
  5
234
100
AcDbEntity
  8
0
100
AcDbLine
 62
7
  6
BYLAYER
 10
337.3160125181
 20
853.8555588082
 11
337.6588317467
 21
854.0534844006
  0
LINE
  5
235
100
AcDbEntity
  8
0
100
AcDbLine
 62
7
  6
BYLAYER
 10
338.6524362574
 20
854.6271388081
 11
338.995255486
 21
854.8250644006
  0
LINE
  5
236
100
AcDbEntity
  8
0
100
AcDbLine
 62
7
  6
BYLAYER
 10
352.8722969368
 20
862.8156197011
 11
353.2151161654
 21
863.0135452936
  0
LINE
  5
237
100
AcDbEntity
  8
0
100
AcDbLine
 62
7
  6
BYLAYER
 10
354.2087206761
 20
863.587199701
 11
354.5515399047
 21
863.7851252935
  0
LINE
  5
238
100
AcDbEntity
  8
0
100
AcDbLine
 62
7
  6
BYLAYER
 10
339.3996101667
 20
854.5916153981
 11
339.0567909381
 21
854.3936898056
  0
LINE
  5
239
100
AcDbEntity
  8
0
100
AcDbLine
 62
7
  6
BYLAYER
 10
338.0631864275
 20
853.8200353982
 11
337.7203671988
 21
853.6221098057
  0
LINE
  5
23A
100
AcDbEntity
  8
0
100
AcDbLine
 62
7
  6
BYLAYER
 10
354.9558945854
 20
863.5516762911
 11
354.6130753568
 21
863.3537506986
  0
LINE
  5
23B
100
AcDbEntity
  8
0
100
AcDbLine
 62
7
  6
BYLAYER
 10
353.6194708462
 20
862.7800962911
 11
353.2766516176
 21
862.5821706987
  0
LINE
  5
23C
100
AcDbEntity
  8
0
100
AcDbLine
 62
7
  6
BYLAYER
 10
338.9347533239
 20
853.9761524829
 11
338.6583968087
 21
853.8165989268
  0
LINE
  5
23D
100
AcDbEntity
  8
0
100
AcDbLine
 62
7
  6
BYLAYER
 10
354.4910377426
 20
862.9362133758
 11
354.2146812275
 21
862.7766598198
  0
LINE
  5
23E
100
AcDbEntity
  8
0
100
AcDbLine
 62
7
  6
BYLAYER
 10
339.3782784008
 20
853.6637621259
 11
339.3274790057
 21
853.6344332565
  0
LINE
  5
23F
100
AcDbEntity
  8
0
100
AcDbLine
 62
7
  6
BYLAYER
 10
354.9345628195
 20
862.6238230189
 11
354.8837634244
 21
862.5944941495
  0
LINE
  5
240
100
AcDbEntity
  8
0
100
AcDbLine
 62
7
  6
BYLAYER
 10
354.5858758007
 20
860.5357177255
 11
344.7571324635
 21
854.8611239867
  0
LINE
  5
241
100
AcDbEntity
  8
0
100
AcDbLine
 62
7
  6
BYLAYER
 10
356.0516268298
 20
858.9324571739
 11
354.5858758008
 21
858.0862104741
  0
LINE
  5
242
100
AcDbEntity
  8
0
100
AcDbLine
 62
7
  6
BYLAYER
 10
343.2913814345
 20
851.5653700355
 11
344.7571324635
 21
852.4116167353
  0
LINE
  5
243
100
AcDbEntity
  8
0
100
AcDbLine
 62
7
  6
BYLAYER
 10
356.0516268298
 20
856.4829499225
 11
343.4281817861
 21
849.1948440325
  0
LINE
  5
244
100
AcDbEntity
  8
0
100
AcDbLine
 62
7
  6
BYLAYER
 10
343.5394811626
 20
848.9913177928
 11
356.2673502325
 21
856.3397125625
  0
LINE
  5
245
100
AcDbEntity
  8
0
100
AcDbLine
 62
7
  6
BYLAYER
 10
329.0101969337
 20
95.3975223159
 11
329.1125356554
 21
95.3410558778
  0
LINE
  5
246
100
AcDbEntity
  8
0
100
AcDbLine
 62
7
  6
BYLAYER
 10
329.0123938062
 20
95.3988482507
 11
329.1143484724
 21
95.3421520241
  0
LINE
  5
247
100
AcDbEntity
  8
0
100
AcDbLine
 62
7
  6
BYLAYER
 10
343.6257616135
 20
81.2219254974
 11
342.4908200878
 21
81.8771694692
  0
LINE
  5
248
100
AcDbEntity
  8
0
100
AcDbLine
 62
7
  6
BYLAYER
 10
343.5394811626
 20
91.6853259051
 11
343.4268745385
 21
91.7503378991
  0
LINE
  5
249
100
AcDbEntity
  8
0
100
AcDbLine
 62
7
  6
BYLAYER
 10
322.8319414576
 20
90.0403429828
 11
322.7523668226
 21
90.0929637034
  0
LINE
  5
24A
100
AcDbEntity
  8
0
100
AcDbLine
 62
7
  6
BYLAYER
 10
322.8319155302
 20
90.0403299238
 11
322.7523458813
 21
90.0929531396
  0
LINE
  5
24B
100
AcDbEntity
  8
0
100
AcDbLine
 62
7
  6
BYLAYER
 10
321.9785884194
 20
859.617041326
 11
321.9543634518
 21
859.5328935096
  0
LINE
  5
24C
100
AcDbEntity
  8
0
100
AcDbLine
 62
7
  6
BYLAYER
 10
343.4155392794
 20
851.2031557418
 11
343.4281483028
 21
851.2899512235
  0
LINE
  5
24D
100
AcDbEntity
  8
0
100
AcDbLine
 62
7
  6
BYLAYER
 10
337.6754286682
 20
848.6779617084
 11
337.6662588624
 21
848.6223102216
  0
LINE
  5
24E
100
AcDbEntity
  8
0
100
AcDbLine
 62
7
  6
BYLAYER
 10
319.5580073262
 20
102.1004545198
 11
319.5562959242
 21
102.1593444056
  0
LINE
  5
24F
100
AcDbEntity
  8
0
100
AcDbLine
 62
7
  6
BYLAYER
 10
322.8324103486
 20
861.4188802193
 11
322.8320157497
 21
861.402956132
  0
LINE
  5
250
100
AcDbEntity
  8
0
100
AcDbLine
 62
7
  6
BYLAYER
 10
337.6753720259
 20
851.1076426254
 11
337.6742654626
 21
851.0905200911
  0
LINE
  5
251
100
AcDbEntity
  8
0
100
AcDbLine
 62
7
  6
BYLAYER
 10
319.5562959242
 20
859.4653362933
 11
319.5580073262
 21
859.4064464075
  0
LINE
  5
252
100
AcDbEntity
  8
0
100
AcDbLine
 62
7
  6
BYLAYER
 10
323.0280949624
 20
89.9102862954
 11
323.0290778301
 21
87.4601261275
  0
LINE
  5
253
100
AcDbEntity
  8
0
100
AcDbLine
 62
7
  6
BYLAYER
 10
319.5472455384
 20
102.1004545198
 11
319.5472455384
 21
93.1729535717
  0
LINE
  5
254
100
AcDbEntity
  8
0
100
AcDbLine
 62
7
  6
BYLAYER
 10
319.5543654255
 20
859.4821621644
 11
319.5543654255
 21
861.9316694158
  0
LINE
  5
255
100
AcDbEntity
  8
0
100
AcDbLine
 62
7
  6
BYLAYER
 10
319.5562870074
 20
102.1593444055
 11
319.5562870074
 21
859.4653362932
  0
LINE
  5
256
100
AcDbEntity
  8
0
100
AcDbLine
 62
7
  6
BYLAYER
 10
319.7202319446
 20
101.5922163558
 11
319.7202319445
 21
861.3477154948
  0
LINE
  5
257
100
AcDbEntity
  8
0
100
AcDbLine
 62
7
  6
BYLAYER
 10
319.8118940212
 20
101.4391780933
 11
319.8118940212
 21
92.4576515049
  0
LINE
  5
258
100
AcDbEntity
  8
0
100
AcDbLine
 62
7
  6
BYLAYER
 10
319.8118940211
 20
858.7483255205
 11
319.8118940211
 21
861.1978327719
  0
LINE
  5
259
100
AcDbEntity
  8
0
100
AcDbLine
 62
7
  6
BYLAYER
 10
320.3013973892
 20
861.8440463408
 11
320.3013973892
 21
862.5244650217
  0
LINE
  5
25A
100
AcDbEntity
  8
0
100
AcDbLine
 62
7
  6
BYLAYER
 10
321.0889674375
 20
100.2074225537
 11
321.0889674375
 21
91.2258959653
  0
LINE
  5
25B
100
AcDbEntity
  8
0
100
AcDbLine
 62
7
  6
BYLAYER
 10
321.0889674375
 20
857.516569981
 11
321.0889674375
 21
859.9660772324
  0
LINE
  5
25C
100
AcDbEntity
  8
0
100
AcDbLine
 62
7
  6
BYLAYER
 10
321.1445252774
 20
857.4733592661
 11
321.1445252774
 21
100.1673673784
  0
LINE
  5
25D
100
AcDbEntity
  8
0
100
AcDbLine
 62
7
  6
BYLAYER
 10
321.4092720811
 20
857.4203611674
 11
321.4092720811
 21
100.1143692797
  0
LINE
  5
25E
100
AcDbEntity
  8
0
100
AcDbLine
 62
7
  6
BYLAYER
 10
321.4663508272
 20
859.8743458176
 11
321.4663508272
 21
857.4248385662
  0
LINE
  5
25F
100
AcDbEntity
  8
0
100
AcDbLine
 62
7
  6
BYLAYER
 10
321.4663508272
 20
100.1156911389
 11
321.4663508272
 21
91.1341645505
  0
LINE
  5
260
100
AcDbEntity
  8
0
100
AcDbLine
 62
7
  6
BYLAYER
 10
321.7382532392
 20
863.5852265257
 11
321.7382532392
 21
863.7893477528
  0
LINE
  5
261
100
AcDbEntity
  8
0
100
AcDbLine
 62
7
  6
BYLAYER
 10
321.7595985649
 20
862.6327341805
 11
321.7595985649
 21
862.8368554076
  0
LINE
  5
262
100
AcDbEntity
  8
0
100
AcDbLine
 62
7
  6
BYLAYER
 10
321.7890526343
 20
863.8186766221
 11
321.7890526343
 21
863.5558989945
  0
LINE
  5
263
100
AcDbEntity
  8
0
100
AcDbLine
 62
7
  6
BYLAYER
 10
321.907996817
 20
99.6676399173
 11
321.907996817
 21
856.9736318049
  0
LINE
  5
264
100
AcDbEntity
  8
0
100
AcDbLine
 62
7
  6
BYLAYER
 10
321.9328013762
 20
99.5916591205
 11
321.9328013762
 21
90.7179141643
  0
LINE
  5
265
100
AcDbEntity
  8
0
100
AcDbLine
 62
7
  6
BYLAYER
 10
321.9328013762
 20
857.0085881799
 11
321.9328013762
 21
859.4580954313
  0
LINE
  5
266
100
AcDbEntity
  8
0
100
AcDbLine
 62
7
  6
BYLAYER
 10
321.9686029507
 20
856.8976510082
 11
321.9686029507
 21
99.5916591205
  0
LINE
  5
267
100
AcDbEntity
  8
0
100
AcDbLine
 62
7
  6
BYLAYER
 10
322.0333877491
 20
859.3049620816
 11
322.0333877491
 21
856.8554548302
  0
LINE
  5
268
100
AcDbEntity
  8
0
100
AcDbLine
 62
7
  6
BYLAYER
 10
322.0333877491
 20
90.5647808145
 11
322.0333877491
 21
99.5463074029
  0
LINE
  5
269
100
AcDbEntity
  8
0
100
AcDbLine
 62
7
  6
BYLAYER
 10
322.1024177931
 20
863.0347809999
 11
322.1024177931
 21
862.5781356868
  0
LINE
  5
26A
100
AcDbEntity
  8
0
100
AcDbLine
 62
7
  6
BYLAYER
 10
322.1426060249
 20
863.3447434118
 11
322.1426060249
 21
863.818677472
  0
LINE
  5
26B
100
AcDbEntity
  8
0
100
AcDbLine
 62
7
  6
BYLAYER
 10
322.2244554077
 20
862.6383371362
 11
322.2244554077
 21
863.2048823158
  0
LINE
  5
26C
100
AcDbEntity
  8
0
100
AcDbLine
 62
7
  6
BYLAYER
 10
322.5067666536
 20
863.6084339913
 11
322.5067666536
 21
862.8013319976
  0
LINE
  5
26D
100
AcDbEntity
  8
0
100
AcDbLine
 62
7
  6
BYLAYER
 10
322.8319155302
 20
87.7637602578
 11
322.8319155302
 21
90.0403299238
  0
LINE
  5
26E
100
AcDbEntity
  8
0
100
AcDbLine
 62
7
  6
BYLAYER
 10
322.8319155302
 20
858.9534487763
 11
322.8319155302
 21
861.4029560277
  0
LINE
  5
26F
100
AcDbEntity
  8
0
100
AcDbLine
 62
7
  6
BYLAYER
 10
323.0960223045
 20
862.8013334139
 11
323.0960223045
 21
863.6084354077
  0
LINE
  5
270
100
AcDbEntity
  8
0
100
AcDbLine
 62
7
  6
BYLAYER
 10
323.0973936171
 20
866.9042254505
 11
323.0973936171
 21
864.4547181991
  0
LINE
  5
271
100
AcDbEntity
  8
0
100
AcDbLine
 62
7
  6
BYLAYER
 10
323.0976945963
 20
861.0537089402
 11
323.0976945963
 21
856.1546944374
  0
LINE
  5
272
100
AcDbEntity
  8
0
100
AcDbLine
 62
7
  6
BYLAYER
 10
323.0976945173
 20
98.8455470621
 11
323.0976945173
 21
87.4145132222
  0
LINE
  5
273
100
AcDbEntity
  8
0
100
AcDbLine
 62
7
  6
BYLAYER
 10
323.3317105473
 20
864.253603156
 11
323.3317105473
 21
866.5776320504
  0
LINE
  5
274
100
AcDbEntity
  8
0
100
AcDbLine
 62
7
  6
BYLAYER
 10
323.3783393707
 20
862.6383446273
 11
323.3783393707
 21
863.2048850894
  0
LINE
  5
275
100
AcDbEntity
  8
0
100
AcDbLine
 62
7
  6
BYLAYER
 10
323.4388415328
 20
863.806361
 11
323.4388415328
 21
863.328686085
  0
LINE
  5
276
100
AcDbEntity
  8
0
100
AcDbLine
 62
7
  6
BYLAYER
 10
323.5003794385
 20
862.5853572571
 11
323.5003794385
 21
863.0347843602
  0
LINE
  5
277
100
AcDbEntity
  8
0
100
AcDbLine
 62
7
  6
BYLAYER
 10
323.7923949234
 20
863.5435820341
 11
323.7923949234
 21
863.8063618498
  0
LINE
  5
278
100
AcDbEntity
  8
0
100
AcDbLine
 62
7
  6
BYLAYER
 10
323.8218629756
 20
862.8491799524
 11
323.8218629756
 21
862.6450587254
  0
LINE
  5
279
100
AcDbEntity
  8
0
100
AcDbLine
 62
7
  6
BYLAYER
 10
323.8431947415
 20
863.7770332247
 11
323.8431947415
 21
863.5729119976
  0
LINE
  5
27A
100
AcDbEntity
  8
0
100
AcDbLine
 62
7
  6
BYLAYER
 10
325.0994848601
 20
865.5570301641
 11
325.0994848601
 21
863.2368812813
  0
LINE
  5
27B
100
AcDbEntity
  8
0
100
AcDbLine
 62
7
  6
BYLAYER
 10
325.9833564135
 20
866.8838202649
 11
325.9833564135
 21
867.2104142282
  0
LINE
  5
27C
100
AcDbEntity
  8
0
100
AcDbLine
 62
7
  6
BYLAYER
 10
326.8318810182
 20
867.7003072129
 11
326.8318810182
 21
866.3939367984
  0
LINE
  5
27D
100
AcDbEntity
  8
0
100
AcDbLine
 62
7
  6
BYLAYER
 10
326.9490371281
 20
866.3262982169
 11
326.9490371281
 21
867.8636044762
  0
LINE
  5
27E
100
AcDbEntity
  8
0
100
AcDbLine
 62
7
  6
BYLAYER
 10
330.8866263607
 20
868.2450272769
 11
330.8866263607
 21
871.4969717834
  0
LINE
  5
27F
100
AcDbEntity
  8
0
100
AcDbLine
 62
7
  6
BYLAYER
 10
331.0037848258
 20
868.3126683445
 11
331.0037848258
 21
871.3336750833
  0
LINE
  5
280
100
AcDbEntity
  8
0
100
AcDbLine
 62
7
  6
BYLAYER
 10
332.0644494136
 20
870.7213139515
 11
332.0644494136
 21
868.9250396744
  0
LINE
  5
281
100
AcDbEntity
  8
0
100
AcDbLine
 62
7
  6
BYLAYER
 10
332.7462582398
 20
81.9702379154
 11
332.7462582398
 21
93.4012717553
  0
LINE
  5
282
100
AcDbEntity
  8
0
100
AcDbLine
 62
7
  6
BYLAYER
 10
332.7537088314
 20
850.7065651496
 11
332.7537088314
 21
855.6055796523
  0
LINE
  5
283
100
AcDbEntity
  8
0
100
AcDbLine
 62
7
  6
BYLAYER
 10
333.0124407216
 20
81.8303891961
 11
333.0124407216
 21
84.2798964475
  0
LINE
  5
284
100
AcDbEntity
  8
0
100
AcDbLine
 62
7
  6
BYLAYER
 10
333.0210421026
 20
84.2798964475
 11
333.0210421026
 21
81.8353551761
  0
LINE
  5
285
100
AcDbEntity
  8
0
100
AcDbLine
 62
7
  6
BYLAYER
 10
333.0441449412
 20
853.0037795212
 11
333.0441449412
 21
855.4532867726
  0
LINE
  5
286
100
AcDbEntity
  8
0
100
AcDbLine
 62
7
  6
BYLAYER
 10
333.1958155531
 20
871.3745045977
 11
333.1958155531
 21
869.5782303206
  0
LINE
  5
287
100
AcDbEntity
  8
0
100
AcDbLine
 62
7
  6
BYLAYER
 10
333.761500978
 20
869.9048270035
 11
333.761500978
 21
871.3745059574
  0
LINE
  5
288
100
AcDbEntity
  8
0
100
AcDbLine
 62
7
  6
BYLAYER
 10
334.1447543993
 20
853.0206247727
 11
334.1447543993
 21
855.4701320241
  0
LINE
  5
289
100
AcDbEntity
  8
0
100
AcDbLine
 62
7
  6
BYLAYER
 10
334.1524129525
 20
81.8353578956
 11
334.1524129525
 21
83.7096804473
  0
LINE
  5
28A
100
AcDbEntity
  8
0
100
AcDbLine
 62
7
  6
BYLAYER
 10
334.7514545932
 20
870.8029689011
 11
334.7514545932
 21
870.4763749378
  0
LINE
  5
28B
100
AcDbEntity
  8
0
100
AcDbLine
 62
7
  6
BYLAYER
 10
335.1861854757
 20
76.3023278035
 11
335.1861854757
 21
80.2695529456
  0
LINE
  5
28C
100
AcDbEntity
  8
0
100
AcDbLine
 62
7
  6
BYLAYER
 10
335.8578113424
 20
852.8627497413
 11
335.8578113424
 21
853.5431684223
  0
LINE
  5
28D
100
AcDbEntity
  8
0
100
AcDbLine
 62
7
  6
BYLAYER
 10
335.9606610683
 20
851.628495374
 11
335.9606610683
 21
849.1789881226
  0
LINE
  5
28E
100
AcDbEntity
  8
0
100
AcDbLine
 62
7
  6
BYLAYER
 10
335.9606610683
 20
91.8698406953
 11
335.9606610683
 21
82.8883141069
  0
LINE
  5
28F
100
AcDbEntity
  8
0
100
AcDbLine
 62
7
  6
BYLAYER
 10
336.0597047357
 20
856.5757225168
 11
336.0597047357
 21
854.2552459616
  0
LINE
  5
290
100
AcDbEntity
  8
0
100
AcDbLine
 62
7
  6
BYLAYER
 10
336.4545660283
 20
82.6829910542
 11
336.4545660283
 21
91.6645176426
  0
LINE
  5
291
100
AcDbEntity
  8
0
100
AcDbLine
 62
7
  6
BYLAYER
 10
336.4545660282
 20
848.9736650698
 11
336.4545660282
 21
851.4231723212
  0
LINE
  5
292
100
AcDbEntity
  8
0
100
AcDbLine
 62
7
  6
BYLAYER
 10
336.594809343
 20
82.6267741953
 11
336.594809343
 21
91.6083007837
  0
LINE
  5
293
100
AcDbEntity
  8
0
100
AcDbLine
 62
7
  6
BYLAYER
 10
336.594809343
 20
848.9174482109
 11
336.594809343
 21
851.3669554623
  0
LINE
  5
294
100
AcDbEntity
  8
0
100
AcDbLine
 62
7
  6
BYLAYER
 10
336.6674082791
 20
848.8887711502
 11
336.6674082791
 21
91.5827792625
  0
LINE
  5
295
100
AcDbEntity
  8
0
100
AcDbLine
 62
7
  6
BYLAYER
 10
336.9549392409
 20
848.8865171295
 11
336.9549392409
 21
91.5805252419
  0
LINE
  5
296
100
AcDbEntity
  8
0
100
AcDbLine
 62
7
  6
BYLAYER
 10
337.0121555673
 20
91.5954343538
 11
337.0121555673
 21
82.6139077654
  0
LINE
  5
297
100
AcDbEntity
  8
0
100
AcDbLine
 62
7
  6
BYLAYER
 10
337.0121555673
 20
848.9045817811
 11
337.0121555673
 21
851.3540890324
  0
LINE
  5
298
100
AcDbEntity
  8
0
100
AcDbLine
 62
7
  6
BYLAYER
 10
337.2945376579
 20
872.5665979108
 11
337.2945376579
 21
872.7707191379
  0
LINE
  5
299
100
AcDbEntity
  8
0
100
AcDbLine
 62
7
  6
BYLAYER
 10
337.2946671925
 20
854.6039299262
 11
337.2946671925
 21
854.8080511533
  0
LINE
  5
29A
100
AcDbEntity
  8
0
100
AcDbLine
 62
7
  6
BYLAYER
 10
337.3158829836
 20
871.6141055657
 11
337.3158829836
 21
871.8182267928
  0
LINE
  5
29B
100
AcDbEntity
  8
0
100
AcDbLine
 62
7
  6
BYLAYER
 10
337.3160125181
 20
853.6514375811
 11
337.3160125181
 21
853.8555588082
  0
LINE
  5
29C
100
AcDbEntity
  8
0
100
AcDbLine
 62
7
  6
BYLAYER
 10
337.345337053
 20
872.8000480073
 11
337.345337053
 21
872.5372703797
  0
LINE
  5
29D
100
AcDbEntity
  8
0
100
AcDbLine
 62
7
  6
BYLAYER
 10
337.3454665876
 20
854.8373800227
 11
337.3454665876
 21
854.5746023951
  0
LINE
  5
29E
100
AcDbEntity
  8
0
100
AcDbLine
 62
7
  6
BYLAYER
 10
337.6587022118
 20
872.0161523851
 11
337.6587022118
 21
871.559507072
  0
LINE
  5
29F
100
AcDbEntity
  8
0
100
AcDbLine
 62
7
  6
BYLAYER
 10
337.6588317464
 20
854.0534844004
 11
337.6588317464
 21
853.5968390874
  0
LINE
  5
2A0
100
AcDbEntity
  8
0
100
AcDbLine
 62
7
  6
BYLAYER
 10
337.6623840799
 20
848.6189197322
 11
337.6623840799
 21
91.3129278445
  0
LINE
  5
2A1
100
AcDbEntity
  8
0
100
AcDbLine
 62
7
  6
BYLAYER
 10
337.674133342
 20
91.2394678296
 11
337.674133342
 21
82.3494774618
  0
LINE
  5
2A2
100
AcDbEntity
  8
0
100
AcDbLine
 62
7
  6
BYLAYER
 10
337.6742588191
 20
848.6410128406
 11
337.6742588191
 21
851.090520092
  0
LINE
  5
2A3
100
AcDbEntity
  8
0
100
AcDbLine
 62
7
  6
BYLAYER
 10
337.6988904436
 20
872.326114797
 11
337.6988904436
 21
872.8000488571
  0
LINE
  5
2A4
100
AcDbEntity
  8
0
100
AcDbLine
 62
7
  6
BYLAYER
 10
337.6990199782
 20
854.3634468124
 11
337.6990199782
 21
854.8373808725
  0
LINE
  5
2A5
100
AcDbEntity
  8
0
100
AcDbLine
 62
7
  6
BYLAYER
 10
337.7807398264
 20
871.6197085214
 11
337.7807398264
 21
872.186253701
  0
LINE
  5
2A6
100
AcDbEntity
  8
0
100
AcDbLine
 62
7
  6
BYLAYER
 10
337.7808693609
 20
853.6570405368
 11
337.7808693609
 21
854.2235857163
  0
LINE
  5
2A7
100
AcDbEntity
  8
0
100
AcDbLine
 62
7
  6
BYLAYER
 10
337.7968313393
 20
848.471341805
 11
337.7968313393
 21
91.1653499173
  0
LINE
  5
2A8
100
AcDbEntity
  8
0
100
AcDbLine
 62
7
  6
BYLAYER
 10
337.8205059307
 20
91.1545475461
 11
337.8205059307
 21
82.1730209577
  0
LINE
  5
2A9
100
AcDbEntity
  8
0
100
AcDbLine
 62
7
  6
BYLAYER
 10
337.8205059307
 20
848.4636949733
 11
337.8205059307
 21
850.9132022247
  0
LINE
  5
2AA
100
AcDbEntity
  8
0
100
AcDbLine
 62
7
  6
BYLAYER
 10
338.0630510723
 20
872.5898053765
 11
338.0630510723
 21
871.7827033828
  0
LINE
  5
2AB
100
AcDbEntity
  8
0
100
AcDbLine
 62
7
  6
BYLAYER
 10
338.0631806068
 20
854.6271373919
 11
338.0631806068
 21
853.8200353982
  0
LINE
  5
2AC
100
AcDbEntity
  8
0
100
AcDbLine
 62
7
  6
BYLAYER
 10
338.6523067232
 20
871.782704799
 11
338.6523067232
 21
872.5898067929
  0
LINE
  5
2AD
100
AcDbEntity
  8
0
100
AcDbLine
 62
7
  6
BYLAYER
 10
338.6524362578
 20
853.8200368144
 11
338.6524362578
 21
854.6271388083
  0
LINE
  5
2AE
100
AcDbEntity
  8
0
100
AcDbLine
 62
7
  6
BYLAYER
 10
338.9346237894
 20
871.6197160125
 11
338.9346237894
 21
872.1862564746
  0
LINE
  5
2AF
100
AcDbEntity
  8
0
100
AcDbLine
 62
7
  6
BYLAYER
 10
338.9347533239
 20
853.6570480279
 11
338.9347533239
 21
854.22358849
  0
LINE
  5
2B0
100
AcDbEntity
  8
0
100
AcDbLine
 62
7
  6
BYLAYER
 10
338.9951259515
 20
872.7877323852
 11
338.9951259515
 21
872.3100574701
  0
LINE
  5
2B1
100
AcDbEntity
  8
0
100
AcDbLine
 62
7
  6
BYLAYER
 10
338.995255486
 20
854.8250644006
 11
338.995255486
 21
854.3473894855
  0
LINE
  5
2B2
100
AcDbEntity
  8
0
100
AcDbLine
 62
7
  6
BYLAYER
 10
339.0566638572
 20
871.5667286423
 11
339.0566638572
 21
872.0161557453
  0
LINE
  5
2B3
100
AcDbEntity
  8
0
100
AcDbLine
 62
7
  6
BYLAYER
 10
339.0567933917
 20
853.6040606577
 11
339.0567933917
 21
854.0534877607
  0
LINE
  5
2B4
100
AcDbEntity
  8
0
100
AcDbLine
 62
7
  6
BYLAYER
 10
339.2385401385
 20
90.7611941159
 11
339.2385401385
 21
81.7796675275
  0
LINE
  5
2B5
100
AcDbEntity
  8
0
100
AcDbLine
 62
7
  6
BYLAYER
 10
339.2385401385
 20
848.0703415431
 11
339.2385401385
 21
850.5198487945
  0
LINE
  5
2B6
100
AcDbEntity
  8
0
100
AcDbLine
 62
7
  6
BYLAYER
 10
339.3486793421
 20
872.5249534193
 11
339.3486793421
 21
872.787733235
  0
LINE
  5
2B7
100
AcDbEntity
  8
0
100
AcDbLine
 62
7
  6
BYLAYER
 10
339.3488088766
 20
854.5622854346
 11
339.3488088766
 21
854.8250652504
  0
LINE
  5
2B8
100
AcDbEntity
  8
0
100
AcDbLine
 62
7
  6
BYLAYER
 10
339.3781473943
 20
871.8305513376
 11
339.3781473943
 21
871.6264301105
  0
LINE
  5
2B9
100
AcDbEntity
  8
0
100
AcDbLine
 62
7
  6
BYLAYER
 10
339.3782769288
 20
853.867883353
 11
339.3782769288
 21
853.6637621259
  0
LINE
  5
2BA
100
AcDbEntity
  8
0
100
AcDbLine
 62
7
  6
BYLAYER
 10
339.3994791602
 20
872.7584046098
 11
339.3994791602
 21
872.5542833827
  0
LINE
  5
2BB
100
AcDbEntity
  8
0
100
AcDbLine
 62
7
  6
BYLAYER
 10
339.3996086947
 20
854.7957366252
 11
339.3996086947
 21
854.5916153981
  0
LINE
  5
2BC
100
AcDbEntity
  8
0
100
AcDbLine
 62
7
  6
BYLAYER
 10
340.4831998506
 20
850.3476446822
 11
340.4831998506
 21
847.8981374308
  0
LINE
  5
2BD
100
AcDbEntity
  8
0
100
AcDbLine
 62
7
  6
BYLAYER
 10
340.4831998506
 20
90.5889900036
 11
340.4831998506
 21
81.6074634151
  0
LINE
  5
2BE
100
AcDbEntity
  8
0
100
AcDbLine
 62
7
  6
BYLAYER
 10
340.6558988133
 20
854.2555846818
 11
340.6558988133
 21
856.5757335647
  0
LINE
  5
2BF
100
AcDbEntity
  8
0
100
AcDbLine
 62
7
  6
BYLAYER
 10
340.8578113424
 20
852.8627497413
 11
340.8578113424
 21
853.5431684223
  0
LINE
  5
2C0
100
AcDbEntity
  8
0
100
AcDbLine
 62
7
  6
BYLAYER
 10
341.1342719038
 20
847.8931830452
 11
341.1342719038
 21
90.5871911576
  0
LINE
  5
2C1
100
AcDbEntity
  8
0
100
AcDbLine
 62
7
  6
BYLAYER
 10
341.7713195833
 20
850.420446741
 11
341.7713195833
 21
847.9709394897
  0
LINE
  5
2C2
100
AcDbEntity
  8
0
100
AcDbLine
 62
7
  6
BYLAYER
 10
341.7713195833
 20
90.6617920624
 11
341.7713195833
 21
81.680265474
  0
LINE
  5
2C3
100
AcDbEntity
  8
0
100
AcDbLine
 62
7
  6
BYLAYER
 10
323.0289762698
 20
861.0993893641
 11
323.0280949624
 21
858.6504675625
  0
LINE
  5
2C4
100
AcDbEntity
  8
0
100
AcDbLine
 62
7
  6
BYLAYER
 10
337.676283176
 20
851.1251335377
 11
337.6753720259
 21
851.1076426254
  0
LINE
  5
2C5
100
AcDbEntity
  8
0
100
AcDbLine
 62
7
  6
BYLAYER
 10
319.5543656951
 20
861.9316694158
 11
319.5658250827
 21
861.7762682705
  0
LINE
  5
2C6
100
AcDbEntity
  8
0
100
AcDbLine
 62
7
  6
BYLAYER
 10
343.0916940043
 20
850.8847537162
 11
343.0916940043
 21
848.4352464648
  0
LINE
  5
2C7
100
AcDbEntity
  8
0
100
AcDbLine
 62
7
  6
BYLAYER
 10
343.0916940043
 20
91.1260990375
 11
343.0916940043
 21
82.1445724491
  0
LINE
  5
2C8
100
AcDbEntity
  8
0
100
AcDbLine
 62
7
  6
BYLAYER
 10
343.2401819404
 20
848.5225805498
 11
343.2401819404
 21
91.2165886621
  0
LINE
  5
2C9
100
AcDbEntity
  8
0
100
AcDbLine
 62
7
  6
BYLAYER
 10
343.4268745385
 20
91.5624503814
 11
343.4268745385
 21
848.8684422691
  0
LINE
  5
2CA
100
AcDbEntity
  8
0
100
AcDbLine
 62
7
  6
BYLAYER
 10
343.4281817861
 20
91.5312965282
 11
343.4281817861
 21
82.5497699397
  0
LINE
  5
2CB
100
AcDbEntity
  8
0
100
AcDbLine
 62
7
  6
BYLAYER
 10
343.4281817861
 20
848.8404439554
 11
343.4281817861
 21
851.2899512068
  0
LINE
  5
2CC
100
AcDbEntity
  8
0
100
AcDbLine
 62
7
  6
BYLAYER
 10
343.5394811626
 20
848.9913177928
 11
343.5394811626
 21
91.6853259051
  0
LINE
  5
2CD
100
AcDbEntity
  8
0
100
AcDbLine
 62
7
  6
BYLAYER
 10
343.6257616136
 20
854.8611212672
 11
343.6257616136
 21
852.4116140158
  0
LINE
  5
2CE
100
AcDbEntity
  8
0
100
AcDbLine
 62
7
  6
BYLAYER
 10
343.6257616135
 20
83.0182421025
 11
343.6257616135
 21
81.2219254974
  0
LINE
  5
2CF
100
AcDbEntity
  8
0
100
AcDbLine
 62
7
  6
BYLAYER
 10
344.7571324635
 20
81.2219282169
 11
344.7571324635
 21
83.6714354682
  0
LINE
  5
2D0
100
AcDbEntity
  8
0
100
AcDbLine
 62
7
  6
BYLAYER
 10
344.7571324635
 20
852.4116167353
 11
344.7571324635
 21
854.8611239867
  0
LINE
  5
2D1
100
AcDbEntity
  8
0
100
AcDbLine
 62
7
  6
BYLAYER
 10
347.1861854757
 20
76.3023278035
 11
347.1861854757
 21
80.2694609795
  0
LINE
  5
2D2
100
AcDbEntity
  8
0
100
AcDbLine
 62
7
  6
BYLAYER
 10
351.6159891544
 20
863.2153068545
 11
351.6159891544
 21
865.557093902
  0
LINE
  5
2D3
100
AcDbEntity
  8
0
100
AcDbLine
 62
7
  6
BYLAYER
 10
352.8509516112
 20
863.5639908192
 11
352.8509516112
 21
863.7681120463
  0
LINE
  5
2D4
100
AcDbEntity
  8
0
100
AcDbLine
 62
7
  6
BYLAYER
 10
352.8722969368
 20
862.611498474
 11
352.8722969368
 21
862.8156197011
  0
LINE
  5
2D5
100
AcDbEntity
  8
0
100
AcDbLine
 62
7
  6
BYLAYER
 10
352.9017510063
 20
863.7974409156
 11
352.9017510063
 21
863.5346632881
  0
LINE
  5
2D6
100
AcDbEntity
  8
0
100
AcDbLine
 62
7
  6
BYLAYER
 10
353.2151161651
 20
863.0135452934
 11
353.2151161651
 21
862.5568999803
  0
LINE
  5
2D7
100
AcDbEntity
  8
0
100
AcDbLine
 62
7
  6
BYLAYER
 10
353.2553043969
 20
863.3235077053
 11
353.2553043969
 21
863.7974417655
  0
LINE
  5
2D8
100
AcDbEntity
  8
0
100
AcDbLine
 62
7
  6
BYLAYER
 10
353.3371537796
 20
862.6171014297
 11
353.3371537796
 21
863.1836466093
  0
LINE
  5
2D9
100
AcDbEntity
  8
0
100
AcDbLine
 62
7
  6
BYLAYER
 10
353.5232809376
 20
866.6582627533
 11
353.5232809376
 21
864.2594615062
  0
LINE
  5
2DA
100
AcDbEntity
  8
0
100
AcDbLine
 62
7
  6
BYLAYER
 10
353.5318776082
 20
867.31641666
 11
353.5318776082
 21
867.31145068
  0
LINE
  5
2DB
100
AcDbEntity
  8
0
100
AcDbLine
 62
7
  6
BYLAYER
 10
353.6194650255
 20
863.5871982848
 11
353.6194650255
 21
862.7800962911
  0
LINE
  5
2DC
100
AcDbEntity
  8
0
100
AcDbLine
 62
7
  6
BYLAYER
 10
353.7575931574
 20
864.5353500285
 11
353.7575931574
 21
866.9848572799
  0
LINE
  5
2DD
100
AcDbEntity
  8
0
100
AcDbLine
 62
7
  6
BYLAYER
 10
354.2087206765
 20
862.7800977074
 11
354.2087206765
 21
863.5871997013
  0
LINE
  5
2DE
100
AcDbEntity
  8
0
100
AcDbLine
 62
7
  6
BYLAYER
 10
354.4444550333
 20
89.2643803763
 11
354.4444550334
 21
86.8148731249
  0
LINE
  5
2DF
100
AcDbEntity
  8
0
100
AcDbLine
 62
7
  6
BYLAYER
 10
354.4910377426
 20
862.6171089209
 11
354.4910377426
 21
863.1836493829
  0
LINE
  5
2E0
100
AcDbEntity
  8
0
100
AcDbLine
 62
7
  6
BYLAYER
 10
354.5515399047
 20
863.7851252935
 11
354.5515399047
 21
863.3074503785
  0
LINE
  5
2E1
100
AcDbEntity
  8
0
100
AcDbLine
 62
7
  6
BYLAYER
 10
354.5858758007
 20
860.5357177255
 11
354.5858758008
 21
858.0862104741
  0
LINE
  5
2E2
100
AcDbEntity
  8
0
100
AcDbLine
 62
7
  6
BYLAYER
 10
354.6130778104
 20
862.5641215506
 11
354.6130778104
 21
863.0135486537
  0
LINE
  5
2E3
100
AcDbEntity
  8
0
100
AcDbLine
 62
7
  6
BYLAYER
 10
354.7373453082
 20
89.4334796459
 11
354.7373453082
 21
87.2231162831
  0
LINE
  5
2E4
100
AcDbEntity
  8
0
100
AcDbLine
 62
7
  6
BYLAYER
 10
354.8201880206
 20
860.8623122521
 11
354.8201880206
 21
858.4128050007
  0
LINE
  5
2E5
100
AcDbEntity
  8
0
100
AcDbLine
 62
7
  6
BYLAYER
 10
354.9050932953
 20
863.5223463276
 11
354.9050932953
 21
863.7851261433
  0
LINE
  5
2E6
100
AcDbEntity
  8
0
100
AcDbLine
 62
7
  6
BYLAYER
 10
354.9345613475
 20
862.827944246
 11
354.9345613475
 21
862.6238230189
  0
LINE
  5
2E7
100
AcDbEntity
  8
0
100
AcDbLine
 62
7
  6
BYLAYER
 10
354.9558931135
 20
863.7557975182
 11
354.9558931135
 21
863.5516762911
  0
LINE
  5
2E8
100
AcDbEntity
  8
0
100
AcDbLine
 62
7
  6
BYLAYER
 10
356.0516268298
 20
858.9324571739
 11
356.0516268298
 21
856.4829499225
  0
LINE
  5
2E9
100
AcDbEntity
  8
0
100
AcDbLine
 62
7
  6
BYLAYER
 10
356.0516268298
 20
98.9091734536
 11
356.0516268298
 21
90.1922759068
  0
LINE
  5
2EA
100
AcDbEntity
  8
0
100
AcDbLine
 62
7
  6
BYLAYER
 10
356.2673502325
 20
99.0337206748
 11
356.2673502325
 21
856.3397125625
  0
LINE
  5
2EB
100
AcDbEntity
  8
0
100
AcDbLine
 62
7
  6
BYLAYER
 10
356.4140957611
 20
861.8228106342
 11
356.4140957611
 21
862.5032293151
  0
LINE
  5
2EC
100
AcDbEntity
  8
0
100
AcDbLine
 62
7
  6
BYLAYER
 10
356.4175292076
 20
862.5577198507
 11
356.4175292076
 21
862.3284246135
  0
LINE
  5
2ED
100
AcDbEntity
  8
0
100
AcDbLine
 62
7
  6
BYLAYER
 10
356.4657961889
 20
862.2777150424
 11
356.4657961889
 21
862.667693857
  0
LINE
  5
2EE
100
AcDbEntity
  8
0
100
AcDbLine
 62
7
  6
BYLAYER
 10
357.0792360671
 20
856.5125144817
 11
357.0792360671
 21
99.206522594
  0
LINE
  5
2EF
100
AcDbEntity
  8
0
100
AcDbLine
 62
7
  6
BYLAYER
 10
357.2305040657
 20
90.3075695175
 11
357.2305040657
 21
99.289096106
  0
LINE
  5
2F0
100
AcDbEntity
  8
0
100
AcDbLine
 62
7
  6
BYLAYER
 10
357.2305040657
 20
856.5982435332
 11
357.2305040657
 21
859.0477507846
  0
LINE
  5
2F1
100
AcDbEntity
  8
0
100
AcDbLine
 62
7
  6
BYLAYER
 10
358.0347078394
 20
91.0698810131
 11
358.0347078394
 21
100.0460554169
  0
LINE
  5
2F2
100
AcDbEntity
  8
0
100
AcDbLine
 62
7
  6
BYLAYER
 10
358.0347078394
 20
857.3605550288
 11
358.0347078394
 21
859.8100622802
  0
LINE
  5
2F3
100
AcDbEntity
  8
0
100
AcDbLine
 62
7
  6
BYLAYER
 10
358.1693825725
 20
857.7283500674
 11
358.1693825725
 21
100.4223581798
  0
LINE
  5
2F4
100
AcDbEntity
  8
0
100
AcDbLine
 62
7
  6
BYLAYER
 10
358.1833923085
 20
100.4223581798
 11
358.1833923085
 21
91.6033341695
  0
LINE
  5
2F5
100
AcDbEntity
  8
0
100
AcDbLine
 62
7
  6
BYLAYER
 10
358.1833923085
 20
857.8940081852
 11
358.1833923085
 21
860.3435154366
  0
LINE
  5
2F6
100
AcDbEntity
  8
0
100
AcDbLine
 62
7
  6
BYLAYER
 10
356.4657822974
 20
862.667693857
 11
356.4652269497
 21
862.680009894
  0
LINE
  5
2F7
100
AcDbEntity
  8
0
100
AcDbLine
 62
7
  6
BYLAYER
 10
343.4155392795
 20
91.4445010632
 11
343.4281483029
 21
91.5312965449
  0
LINE
  5
2F8
100
AcDbEntity
  8
0
100
AcDbLine
 62
7
  6
BYLAYER
 10
343.4281483029
 20
82.5497699564
 11
343.4155392795
 21
82.4629744748
  0
LINE
  5
2F9
100
AcDbEntity
  8
0
100
AcDbLine
 62
7
  6
BYLAYER
 10
325.1633427188
 20
854.9114986966
 11
325.2824747683
 21
854.8405370502
  0
LINE
  5
2FA
100
AcDbEntity
  8
0
100
AcDbLine
 62
7
  6
BYLAYER
 10
325.1547363062
 20
854.9067135794
 11
325.2735769509
 21
854.8355749583
  0
LINE
  5
2FB
100
AcDbEntity
  8
0
100
AcDbLine
 62
7
  6
BYLAYER
 10
356.2673502325
 20
99.0337206748
 11
343.5394811626
 21
91.6853259051
  0
LINE
  5
2FC
100
AcDbEntity
  8
0
100
AcDbLine
 62
7
  6
BYLAYER
 10
333.0210421026
 20
81.8353551761
 11
333.0124407216
 21
81.8303891961
  0
LINE
  5
2FD
100
AcDbEntity
  8
0
100
AcDbLine
 62
7
  6
BYLAYER
 10
334.1524129525
 20
81.8353578956
 11
335.9645451453
 21
82.8815866598
  0
LINE
  5
2FE
100
AcDbEntity
  8
0
100
AcDbLine
 62
7
  6
BYLAYER
 10
356.0516268298
 20
90.1922759068
 11
354.4444550333
 21
89.2643803763
  0
LINE
  5
2FF
100
AcDbEntity
  8
0
100
AcDbLine
 62
7
  6
BYLAYER
 10
343.4281817861
 20
82.9041700169
 11
344.7571324635
 21
83.6714354682
  0
LINE
  5
300
100
AcDbEntity
  8
0
100
AcDbLine
 62
7
  6
BYLAYER
 10
354.4444550333
 20
86.8148731248
 11
344.7571324641
 21
81.2219282172
  0
LINE
  5
301
100
AcDbEntity
  8
0
100
AcDbLine
 62
7
  6
BYLAYER
 10
336.2128508149
 20
849.096905032
 11
336.6596557096
 21
848.8926079714
  0
LINE
  5
302
100
AcDbEntity
  8
0
100
AcDbLine
 62
7
  6
BYLAYER
 10
335.9705408791
 20
849.2085901715
 11
336.2128508149
 21
849.096905032
  0
LINE
  5
303
100
AcDbEntity
  8
0
100
AcDbLine
 62
7
  6
BYLAYER
 10
335.9765894316
 20
849.2129520149
 11
336.6596557096
 21
848.8926079714
  0
LINE
  5
304
100
AcDbEntity
  8
0
100
AcDbLine
 62
7
  6
BYLAYER
 10
343.4281817861
 20
849.0555750641
 11
343.5394811626
 21
848.9913177928
  0
LINE
  5
305
100
AcDbEntity
  8
0
100
AcDbLine
 62
7
  6
BYLAYER
 10
337.3668138083
 20
853.6221089559
 11
337.3160139901
 21
853.6514375811
  0
LINE
  5
306
100
AcDbEntity
  8
0
100
AcDbLine
 62
7
  6
BYLAYER
 10
321.810399855
 20
862.6034055553
 11
321.7596000369
 21
862.6327341805
  0
LINE
  5
307
100
AcDbEntity
  8
0
100
AcDbLine
 62
7
  6
BYLAYER
 10
338.0572258762
 20
853.8165940929
 11
337.7808693609
 21
853.9761449918
  0
LINE
  5
308
100
AcDbEntity
  8
0
100
AcDbLine
 62
7
  6
BYLAYER
 10
322.5008119229
 20
862.7978906923
 11
322.2244554077
 21
862.9574415912
  0
LINE
  5
309
100
AcDbEntity
  8
0
100
AcDbLine
 62
7
  6
BYLAYER
 10
338.9739256151
 20
853.6344324067
 11
338.652442078
 21
853.8200368144
  0
LINE
  5
30A
100
AcDbEntity
  8
0
100
AcDbLine
 62
7
  6
BYLAYER
 10
337.6588292931
 20
854.3936864455
 11
337.2946686644
 21
854.6039299262
  0
LINE
  5
30B
100
AcDbEntity
  8
0
100
AcDbLine
 62
7
  6
BYLAYER
 10
323.4175116618
 20
862.6157290061
 11
323.0960281248
 21
862.8013334139
  0
LINE
  5
30C
100
AcDbEntity
  8
0
100
AcDbLine
 62
7
  6
BYLAYER
 10
322.1024153399
 20
863.374983045
 11
321.7382547112
 21
863.5852265257
  0
LINE
  5
30D
100
AcDbEntity
  8
0
100
AcDbLine
 62
7
  6
BYLAYER
 10
322.1426060249
 20
863.818677472
 11
322.5067666536
 21
863.6084339913
  0
LINE
  5
30E
100
AcDbEntity
  8
0
100
AcDbLine
 62
7
  6
BYLAYER
 10
323.5003794385
 20
863.0347843602
 11
323.8218629756
 21
862.8491799524
  0
LINE
  5
30F
100
AcDbEntity
  8
0
100
AcDbLine
 62
7
  6
BYLAYER
 10
337.6990199782
 20
854.8373808725
 11
338.0631806068
 21
854.6271373919
  0
LINE
  5
310
100
AcDbEntity
  8
0
100
AcDbLine
 62
7
  6
BYLAYER
 10
339.0567933918
 20
854.0534877607
 11
339.3782769288
 21
853.867883353
  0
LINE
  5
311
100
AcDbEntity
  8
0
100
AcDbLine
 62
7
  6
BYLAYER
 10
323.7923949234
 20
863.8063618498
 11
323.8431947415
 21
863.7770332247
  0
LINE
  5
312
100
AcDbEntity
  8
0
100
AcDbLine
 62
7
  6
BYLAYER
 10
339.3488088766
 20
854.8250652504
 11
339.3996086947
 21
854.7957366252
  0
LINE
  5
313
100
AcDbEntity
  8
0
100
AcDbLine
 62
7
  6
BYLAYER
 10
340.7355587045
 20
854.0802356941
 11
343.6257616136
 21
852.4116140158
  0
LINE
  5
314
100
AcDbEntity
  8
0
100
AcDbLine
 62
7
  6
BYLAYER
 10
343.6257616136
 20
854.8611212672
 11
340.6558988133
 21
856.5757335647
  0
LINE
  5
315
100
AcDbEntity
  8
0
100
AcDbLine
 62
7
  6
BYLAYER
 10
325.0994848601
 20
865.5570301641
 11
323.3317105473
 21
866.5776320504
  0
LINE
  5
316
100
AcDbEntity
  8
0
100
AcDbLine
 62
7
  6
BYLAYER
 10
325.9833587687
 20
866.8838202649
 11
326.9733123839
 21
866.3122832085
  0
LINE
  5
317
100
AcDbEntity
  8
0
100
AcDbLine
 62
7
  6
BYLAYER
 10
326.0540579653
 20
868.4759660062
 11
326.831878663
 21
868.0269011762
  0
LINE
  5
318
100
AcDbEntity
  8
0
100
AcDbLine
 62
7
  6
BYLAYER
 10
356.2673502325
 20
856.3397125625
 11
356.0435329557
 21
856.4689306042
  0
LINE
  5
319
100
AcDbEntity
  8
0
100
AcDbLine
 62
7
  6
BYLAYER
 10
332.0644494136
 20
870.7213139515
 11
331.0037848258
 21
871.3336750833
  0
LINE
  5
31A
100
AcDbEntity
  8
0
100
AcDbLine
 62
7
  6
BYLAYER
 10
334.7514545932
 20
870.8029689011
 11
333.761500978
 21
871.3745059574
  0
LINE
  5
31B
100
AcDbEntity
  8
0
100
AcDbLine
 62
7
  6
BYLAYER
 10
334.291820024
 20
872.9054164354
 11
336.0595943369
 21
871.8848145491
  0
LINE
  5
31C
100
AcDbEntity
  8
0
100
AcDbLine
 62
7
  6
BYLAYER
 10
351.6160082901
 20
862.9035179497
 11
354.5858710904
 21
861.1889056522
  0
LINE
  5
31D
100
AcDbEntity
  8
0
100
AcDbLine
 62
7
  6
BYLAYER
 10
352.923098227
 20
862.5821698488
 11
352.8722984088
 21
862.611498474
  0
LINE
  5
31E
100
AcDbEntity
  8
0
100
AcDbLine
 62
7
  6
BYLAYER
 10
337.3666842737
 20
871.5847769405
 11
337.3158844556
 21
871.6141055657
  0
LINE
  5
31F
100
AcDbEntity
  8
0
100
AcDbLine
 62
7
  6
BYLAYER
 10
353.6135102948
 20
862.7766549858
 11
353.3371537796
 21
862.9362058847
  0
LINE
  5
320
100
AcDbEntity
  8
0
100
AcDbLine
 62
7
  6
BYLAYER
 10
338.0570963416
 20
871.7792620775
 11
337.7807398264
 21
871.9388129764
  0
LINE
  5
321
100
AcDbEntity
  8
0
100
AcDbLine
 62
7
  6
BYLAYER
 10
354.5302100338
 20
862.5944932996
 11
354.2087264967
 21
862.7800977074
  0
LINE
  5
322
100
AcDbEntity
  8
0
100
AcDbLine
 62
7
  6
BYLAYER
 10
353.2151137118
 20
863.3537473385
 11
352.8509530831
 21
863.5639908192
  0
LINE
  5
323
100
AcDbEntity
  8
0
100
AcDbLine
 62
7
  6
BYLAYER
 10
338.9737960805
 20
871.5971003913
 11
338.6523125435
 21
871.782704799
  0
LINE
  5
324
100
AcDbEntity
  8
0
100
AcDbLine
 62
7
  6
BYLAYER
 10
337.6586997586
 20
872.3563544302
 11
337.2945391299
 21
872.5665979108
  0
LINE
  5
325
100
AcDbEntity
  8
0
100
AcDbLine
 62
7
  6
BYLAYER
 10
353.2553043969
 20
863.7974417655
 11
353.6194650255
 21
863.5871982848
  0
LINE
  5
326
100
AcDbEntity
  8
0
100
AcDbLine
 62
7
  6
BYLAYER
 10
354.6130778105
 20
863.0135486537
 11
354.9345613475
 21
862.827944246
  0
LINE
  5
327
100
AcDbEntity
  8
0
100
AcDbLine
 62
7
  6
BYLAYER
 10
337.6988904436
 20
872.8000488571
 11
338.0630510723
 21
872.5898053765
  0
LINE
  5
328
100
AcDbEntity
  8
0
100
AcDbLine
 62
7
  6
BYLAYER
 10
339.0566638572
 20
872.0161557453
 11
339.3781473943
 21
871.8305513376
  0
LINE
  5
329
100
AcDbEntity
  8
0
100
AcDbLine
 62
7
  6
BYLAYER
 10
354.9050932953
 20
863.7851261433
 11
354.9558931135
 21
863.7557975182
  0
LINE
  5
32A
100
AcDbEntity
  8
0
100
AcDbLine
 62
7
  6
BYLAYER
 10
339.3486793421
 20
872.787733235
 11
339.3994791602
 21
872.7584046098
  0
ARC
  5
32B
100
AcDbEntity
  8
0
100
AcDbCircle
 62
7
  6
BYLAYER
 10
247.6024202115
 20
-14.6595903195
 40
136.3193163245
100
AcDbArc
 50
56.6385039696
 51
56.9066618881
  0
ARC
  5
32C
100
AcDbEntity
  8
0
100
AcDbCircle
 62
7
  6
BYLAYER
 10
247.6024202131
 20
-23.6411169056
 40
136.3193163216
100
AcDbArc
 50
56.6385039696
 51
56.9066618881
  0
ARC
  5
32D
100
AcDbEntity
  8
0
100
AcDbCircle
 62
7
  6
BYLAYER
 10
248.2020785189
 20
-13.7488194932
 40
135.2288606474
100
AcDbArc
 50
56.3689065087
 51
56.6385016254
  0
ARC
  5
32E
100
AcDbEntity
  8
0
100
AcDbCircle
 62
7
  6
BYLAYER
 10
326.0536468852
 20
106.6680374888
 40
8.1448120595
100
AcDbArc
 50
225.5687608358
 51
226.0353150421
  0
ARC
  5
32F
100
AcDbEntity
  8
0
100
AcDbCircle
 62
7
  6
BYLAYER
 10
322.7396823107
 20
94.716426775
 40
3.8583596814
100
AcDbArc
 50
258.1330873673
 51
258.6283348266
  0
ARC
  5
330
100
AcDbEntity
  8
0
100
AcDbCircle
 62
7
  6
BYLAYER
 10
322.7332086446
 20
94.6855476199
 40
3.8268092398
100
AcDbArc
 50
257.8060011598
 51
258.1328680149
  0
ARC
  5
331
100
AcDbEntity
  8
0
100
AcDbCircle
 62
7
  6
BYLAYER
 10
322.7218232938
 20
94.6333686993
 40
3.7734027391
100
AcDbArc
 50
256.8068034186
 51
257.8076276332
  0
ARC
  5
332
100
AcDbEntity
  8
0
100
AcDbCircle
 62
7
  6
BYLAYER
 10
322.7013450503
 20
94.5461766258
 40
3.6838381551
100
AcDbArc
 50
255.7026280402
 51
256.8073856578
  0
ARC
  5
333
100
AcDbEntity
  8
0
100
AcDbCircle
 62
7
  6
BYLAYER
 10
322.506980217
 20
93.9335190261
 40
3.0406348724
100
AcDbArc
 50
248.1119216206
 51
249.3247364246
  0
ARC
  5
334
100
AcDbEntity
  8
0
100
AcDbCircle
 62
7
  6
BYLAYER
 10
320.5802459724
 20
102.1563595519
 40
1.0330703116
100
AcDbArc
 50
183.163351612
 51
192.2224450404
  0
ARC
  5
335
100
AcDbEntity
  8
0
100
AcDbCircle
 62
7
  6
BYLAYER
 10
320.576422731
 20
93.1740985979
 40
1.0291782648
100
AcDbArc
 50
180.0637452183
 51
192.2275495368
  0
ARC
  5
336
100
AcDbEntity
  8
0
100
AcDbCircle
 62
7
  6
BYLAYER
 10
320.5599070917
 20
102.1545627819
 40
1.0126634939
100
AcDbArc
 50
182.5077137648
 51
183.1253487324
  0
ARC
  5
337
100
AcDbEntity
  8
0
100
AcDbCircle
 62
7
  6
BYLAYER
 10
320.5578129805
 20
102.1544854022
 40
1.0105678774
100
AcDbArc
 50
179.6930474767
 51
182.5077663917
  0
ARC
  5
338
100
AcDbEntity
  8
0
100
AcDbCircle
 62
7
  6
BYLAYER
 10
321.4109483031
 20
100.8055672971
 40
0.6920966821
100
AcDbArc
 50
268.6707539555
 51
269.8615885193
  0
ARC
  5
339
100
AcDbEntity
  8
0
100
AcDbCircle
 62
7
  6
BYLAYER
 10
321.4110620559
 20
100.8028066756
 40
0.689336354
100
AcDbArc
 50
269.8515794157
 51
274.6003949691
  0
ARC
  5
33A
100
AcDbEntity
  8
0
100
AcDbCircle
 62
7
  6
BYLAYER
 10
322.1751544189
 20
99.7736436998
 40
0.2676040637
100
AcDbArc
 50
226.6966660118
 51
229.8644333225
  0
ARC
  5
33B
100
AcDbEntity
  8
0
100
AcDbCircle
 62
7
  6
BYLAYER
 10
273.9159447791
 20
743.7206086012
 40
147.023048683
100
AcDbArc
 50
59.4347009724
 51
61.5929260377
  0
ARC
  5
33C
100
AcDbEntity
  8
0
100
AcDbCircle
 62
7
  6
BYLAYER
 10
278.7537146046
 20
751.8508804624
 40
137.5623774631
100
AcDbArc
 50
57.1914456582
 51
59.4476779068
  0
ARC
  5
33D
100
AcDbEntity
  8
0
100
AcDbCircle
 62
7
  6
BYLAYER
 10
247.6024202142
 20
745.0990643632
 40
136.3193163196
100
AcDbArc
 50
56.6385039696
 51
56.9066618881
  0
ARC
  5
33E
100
AcDbEntity
  8
0
100
AcDbCircle
 62
7
  6
BYLAYER
 10
247.6024202379
 20
742.649557148
 40
136.3193162764
100
AcDbArc
 50
56.6385039696
 51
56.9066618882
  0
ARC
  5
33F
100
AcDbEntity
  8
0
100
AcDbCircle
 62
7
  6
BYLAYER
 10
248.1645184932
 20
745.9529647793
 40
135.2970148057
100
AcDbArc
 50
56.4043968661
 51
56.6384606993
  0
ARC
  5
340
100
AcDbEntity
  8
0
100
AcDbCircle
 62
7
  6
BYLAYER
 10
248.2020783373
 20
743.5603276591
 40
135.2288609769
100
AcDbArc
 50
56.3689065085
 51
56.6385016252
  0
ARC
  5
341
100
AcDbEntity
  8
0
100
AcDbCircle
 62
7
  6
BYLAYER
 10
326.0648676229
 20
863.949684486
 40
8.1335768971
100
AcDbArc
 50
231.8100091314
 51
232.7620341093
  0
ARC
  5
342
100
AcDbEntity
  8
0
100
AcDbCircle
 62
7
  6
BYLAYER
 10
325.8594657851
 20
863.7039980914
 40
7.8134878121
100
AcDbArc
 50
226.5619392759
 51
231.8799494821
  0
ARC
  5
343
100
AcDbEntity
  8
0
100
AcDbCircle
 62
7
  6
BYLAYER
 10
325.3581264667
 20
863.1622814583
 40
7.0754367145
100
AcDbArc
 50
224.9929401945
 51
226.4936212836
  0
ARC
  5
344
100
AcDbEntity
  8
0
100
AcDbCircle
 62
7
  6
BYLAYER
 10
325.0798265945
 20
862.8861795336
 40
6.6834154255
100
AcDbArc
 50
222.1543982219
 51
225.0058498459
  0
ARC
  5
345
100
AcDbEntity
  8
0
100
AcDbCircle
 62
7
  6
BYLAYER
 10
324.659198597
 20
862.508212641
 40
6.1179226401
100
AcDbArc
 50
217.7914742024
 51
222.1740165079
  0
ARC
  5
346
100
AcDbEntity
  8
0
100
AcDbCircle
 62
7
  6
BYLAYER
 10
324.3731417749
 20
862.2816570283
 40
5.753037645
100
AcDbArc
 50
216.8818265236
 51
217.7542057427
  0
ARC
  5
347
100
AcDbEntity
  8
0
100
AcDbCircle
 62
7
  6
BYLAYER
 10
324.2841966022
 20
862.2149180183
 40
5.6418380983
100
AcDbArc
 50
216.006534622
 51
216.8818168468
  0
ARC
  5
348
100
AcDbEntity
  8
0
100
AcDbCircle
 62
7
  6
BYLAYER
 10
323.4948799843
 20
863.553737245
 40
4.3720328785
100
AcDbArc
 50
211.4503959944
 51
212.6059252178
  0
ARC
  5
349
100
AcDbEntity
  8
0
100
AcDbCircle
 62
7
  6
BYLAYER
 10
323.4948799815
 20
861.1042299919
 40
4.3720328753
100
AcDbArc
 50
211.450395994
 51
212.6059252182
  0
ARC
  5
34A
100
AcDbEntity
  8
0
100
AcDbCircle
 62
7
  6
BYLAYER
 10
323.4133855498
 20
863.5038906209
 40
4.2765026279
100
AcDbArc
 50
210.2776792143
 51
211.4503529301
  0
ARC
  5
34B
100
AcDbEntity
  8
0
100
AcDbCircle
 62
7
  6
BYLAYER
 10
323.4133855466
 20
861.0543833676
 40
4.2765026242
100
AcDbArc
 50
210.2776792141
 51
211.4503529305
  0
ARC
  5
34C
100
AcDbEntity
  8
0
100
AcDbCircle
 62
7
  6
BYLAYER
 10
322.6840858218
 20
864.7056263298
 40
3.6134855712
100
AcDbArc
 50
255.1338532773
 51
255.700751807
  0
ARC
  5
34D
100
AcDbEntity
  8
0
100
AcDbCircle
 62
7
  6
BYLAYER
 10
322.6557369426
 20
864.6008711699
 40
3.5049635937
100
AcDbArc
 50
252.955610354
 51
255.1424160595
  0
ARC
  5
34E
100
AcDbEntity
  8
0
100
AcDbCircle
 62
7
  6
BYLAYER
 10
323.7004563307
 20
860.6634701991
 40
2.8160457103
100
AcDbArc
 50
56.7600478616
 51
57.6997949777
  0
ARC
  5
34F
100
AcDbEntity
  8
0
100
AcDbCircle
 62
7
  6
BYLAYER
 10
320.8043420399
 20
859.544802601
 40
1.2622911558
100
AcDbArc
 50
203.2978559075
 51
210.8130625854
  0
ARC
  5
350
100
AcDbEntity
  8
0
100
AcDbCircle
 62
7
  6
BYLAYER
 10
320.7052531363
 20
859.5008199115
 40
1.1538868308
100
AcDbArc
 50
198.9091358664
 51
203.2379909026
  0
ARC
  5
351
100
AcDbEntity
  8
0
100
AcDbCircle
 62
7
  6
BYLAYER
 10
320.6533552434
 20
859.4829583845
 40
1.099001324
100
AcDbArc
 50
194.727906391
 51
198.9050096288
  0
ARC
  5
352
100
AcDbEntity
  8
0
100
AcDbCircle
 62
7
  6
BYLAYER
 10
320.6202080073
 20
859.4827042967
 40
1.0658525496
100
AcDbArc
 50
181.4306066608
 51
188.4130583176
  0
ARC
  5
353
100
AcDbEntity
  8
0
100
AcDbCircle
 62
7
  6
BYLAYER
 10
320.6145699029
 20
859.4726869526
 40
1.0588790193
100
AcDbArc
 50
190.6954457848
 51
194.7239241964
  0
ARC
  5
354
100
AcDbEntity
  8
0
100
AcDbCircle
 62
7
  6
BYLAYER
 10
320.6102468022
 20
859.482183941
 40
1.055881493
100
AcDbArc
 50
180.9172805734
 51
181.4158741303
  0
ARC
  5
355
100
AcDbEntity
  8
0
100
AcDbCircle
 62
7
  6
BYLAYER
 10
320.5824361311
 20
859.4667539782
 40
1.0262024066
100
AcDbArc
 50
183.3690832179
 51
190.7029136894
  0
ARC
  5
356
100
AcDbEntity
  8
0
100
AcDbCircle
 62
7
  6
BYLAYER
 10
320.1337004247
 20
862.0665127989
 40
0.5610815504
100
AcDbArc
 50
156.2533606348
 51
164.7887933691
  0
ARC
  5
357
100
AcDbEntity
  8
0
100
AcDbCircle
 62
7
  6
BYLAYER
 10
322.0659372879
 20
857.0085982225
 40
0.1331362129
100
AcDbArc
 50
180.0043220657
 51
182.1675270709
  0
ARC
  5
358
100
AcDbEntity
  8
0
100
AcDbCircle
 62
7
  6
BYLAYER
 10
346.4426080037
 20
107.3971965128
 40
26.6561992837
100
AcDbArc
 50
248.1565663156
 51
248.319071586
  0
ARC
  5
359
100
AcDbEntity
  8
0
100
AcDbCircle
 62
7
  6
BYLAYER
 10
346.3969910923
 20
107.2833969629
 40
26.5335973254
100
AcDbArc
 50
247.9935613295
 51
248.156566798
  0
ARC
  5
35A
100
AcDbEntity
  8
0
100
AcDbCircle
 62
7
  6
BYLAYER
 10
341.3179307447
 20
104.0658773066
 40
13.3208872783
100
AcDbArc
 50
247.4298569172
 51
248.5866844906
  0
ARC
  5
35B
100
AcDbEntity
  8
0
100
AcDbCircle
 62
7
  6
BYLAYER
 10
341.3179307441
 20
95.0843507166
 40
13.3208872767
100
AcDbArc
 50
247.4298569172
 51
248.5866844906
  0
ARC
  5
35C
100
AcDbEntity
  8
0
100
AcDbCircle
 62
7
  6
BYLAYER
 10
341.149292306
 20
94.6787298301
 40
12.8816069279
100
AcDbArc
 50
246.2470518674
 51
247.4300322935
  0
ARC
  5
35D
100
AcDbEntity
  8
0
100
AcDbCircle
 62
7
  6
BYLAYER
 10
341.1492922966
 20
103.6602563965
 40
12.8816069039
100
AcDbArc
 50
246.2470518681
 51
247.4300322943
  0
ARC
  5
35E
100
AcDbEntity
  8
0
100
AcDbCircle
 62
7
  6
BYLAYER
 10
341.8393086072
 20
102.9952044736
 40
12.5073980531
100
AcDbArc
 50
256.617626184
 51
257.9984348754
  0
ARC
  5
35F
100
AcDbEntity
  8
0
100
AcDbCircle
 62
7
  6
BYLAYER
 10
341.7965471751
 20
93.8200074002
 40
12.309069187
100
AcDbArc
 50
254.5301289395
 51
258.0056740375
  0
ARC
  5
360
100
AcDbEntity
  8
0
100
AcDbCircle
 62
7
  6
BYLAYER
 10
341.5380331658
 20
92.8710749442
 40
11.3255625839
100
AcDbArc
 50
250.8378829736
 51
254.510085161
  0
ARC
  5
361
100
AcDbEntity
  8
0
100
AcDbCircle
 62
7
  6
BYLAYER
 10
341.4238953938
 20
101.5024516134
 40
10.9573506929
100
AcDbArc
 50
250.800651791
 51
252.5565948055
  0
ARC
  5
362
100
AcDbEntity
  8
0
100
AcDbCircle
 62
7
  6
BYLAYER
 10
341.177596745
 20
91.2748051141
 40
9.6922485818
100
AcDbArc
 50
262.1424598425
 51
265.8915491712
  0
ARC
  5
363
100
AcDbEntity
  8
0
100
AcDbCircle
 62
7
  6
BYLAYER
 10
341.1708879565
 20
100.1923190996
 40
9.6279200587
100
AcDbArc
 50
262.1299306394
 51
265.9040783744
  0
ARC
  5
364
100
AcDbEntity
  8
0
100
AcDbCircle
 62
7
  6
BYLAYER
 10
341.135005449
 20
99.9266802861
 40
9.3598700124
100
AcDbArc
 50
260.8441880019
 51
262.1248583204
  0
ARC
  5
365
100
AcDbEntity
  8
0
100
AcDbCircle
 62
7
  6
BYLAYER
 10
341.1142261719
 20
90.8039466639
 40
9.2171477165
100
AcDbArc
 50
258.2583178365
 51
262.1325406654
  0
ARC
  5
366
100
AcDbEntity
  8
0
100
AcDbCircle
 62
7
  6
BYLAYER
 10
341.0813401974
 20
99.606271582
 40
9.0350045622
100
AcDbArc
 50
258.2312418041
 51
260.8568592561
  0
ARC
  5
367
100
AcDbEntity
  8
0
100
AcDbCircle
 62
7
  6
BYLAYER
 10
337.5522903965
 20
86.0415128457
 40
5.8921111418
100
AcDbArc
 50
227.1901408702
 51
227.7872233297
  0
ARC
  5
368
100
AcDbEntity
  8
0
100
AcDbCircle
 62
7
  6
BYLAYER
 10
340.6811715434
 20
96.1491913764
 40
5.5946379668
100
AcDbArc
 50
281.236303956
 51
281.3690769547
  0
ARC
  5
369
100
AcDbEntity
  8
0
100
AcDbCircle
 62
7
  6
BYLAYER
 10
340.8473503829
 20
86.6794449893
 40
5.0850371384
100
AcDbArc
 50
265.8934099525
 51
273.2346131221
  0
ARC
  5
36A
100
AcDbEntity
  8
0
100
AcDbCircle
 62
7
  6
BYLAYER
 10
340.8473503829
 20
95.6609715776
 40
5.0850371382
100
AcDbArc
 50
265.8934099525
 51
273.2346131222
  0
ARC
  5
36B
100
AcDbEntity
  8
0
100
AcDbCircle
 62
7
  6
BYLAYER
 10
340.8571521557
 20
95.5215987183
 40
4.9453336312
100
AcDbArc
 50
273.212344118
 51
277.6463624426
  0
ARC
  5
36C
100
AcDbEntity
  8
0
100
AcDbCircle
 62
7
  6
BYLAYER
 10
340.8721589216
 20
95.4041416494
 40
4.8269242501
100
AcDbArc
 50
277.6553281543
 51
278.0629868616
  0
ARC
  5
36D
100
AcDbEntity
  8
0
100
AcDbCircle
 62
7
  6
BYLAYER
 10
340.8885533854
 20
95.2941035283
 40
4.7156744668
100
AcDbArc
 50
278.0532878502
 51
280.7893245782
  0
ARC
  5
36E
100
AcDbEntity
  8
0
100
AcDbCircle
 62
7
  6
BYLAYER
 10
338.3596308592
 20
86.1565188688
 40
4.2843155427
100
AcDbArc
 50
272.1528970085
 51
274.503578467
  0
ARC
  5
36F
100
AcDbEntity
  8
0
100
AcDbCircle
 62
7
  6
BYLAYER
 10
341.1462368146
 20
94.6394690595
 40
4.0249868899
100
AcDbArc
 50
286.581095984
 51
291.81216757
  0
ARC
  5
370
100
AcDbEntity
  8
0
100
AcDbCircle
 62
7
  6
BYLAYER
 10
338.4964913629
 20
83.8845295802
 40
2.1955354809
100
AcDbArc
 50
287.1281095591
 51
289.7626877811
  0
ARC
  5
371
100
AcDbEntity
  8
0
100
AcDbCircle
 62
7
  6
BYLAYER
 10
336.9172382395
 20
83.3968500478
 40
1.0752584593
100
AcDbArc
 50
207.6219571101
 51
210.0957477924
  0
ARC
  5
372
100
AcDbEntity
  8
0
100
AcDbCircle
 62
7
  6
BYLAYER
 10
336.8310420622
 20
92.1877608267
 40
0.6195139818
100
AcDbArc
 50
280.5885571769
 51
282.0627860304
  0
ARC
  5
373
100
AcDbEntity
  8
0
100
AcDbCircle
 62
7
  6
BYLAYER
 10
336.8402520719
 20
92.147187876
 40
0.5779124164
100
AcDbArc
 50
282.010481309
 51
287.3048665017
  0
ARC
  5
374
100
AcDbEntity
  8
0
100
AcDbCircle
 62
7
  6
BYLAYER
 10
337.9923148372
 20
91.5249227876
 40
0.4082843615
100
AcDbArc
 50
241.4914264646
 51
245.1144544196
  0
ARC
  5
375
100
AcDbEntity
  8
0
100
AcDbCircle
 62
7
  6
BYLAYER
 10
337.9708214549
 20
91.4855468248
 40
0.3634243334
100
AcDbArc
 50
237.2835144554
 51
241.506159961
  0
ARC
  5
376
100
AcDbEntity
  8
0
100
AcDbCircle
 62
7
  6
BYLAYER
 10
343.10479963
 20
91.5356746266
 40
0.323839078
100
AcDbArc
 50
342.7493570974
 51
343.6478784636
  0
ARC
  5
377
100
AcDbEntity
  8
0
100
AcDbCircle
 62
7
  6
BYLAYER
 10
346.4426079928
 20
116.3787230739
 40
26.6561992542
100
AcDbArc
 50
248.1565663155
 51
248.3190715861
  0
ARC
  5
378
100
AcDbEntity
  8
0
100
AcDbCircle
 62
7
  6
BYLAYER
 10
346.3969910692
 20
116.2649234937
 40
26.5335972634
100
AcDbArc
 50
247.9935613293
 51
248.1565667982
  0
ARC
  5
379
100
AcDbEntity
  8
0
100
AcDbCircle
 62
7
  6
BYLAYER
 10
356.5286899176
 20
100.6461383589
 40
1.5513144993
100
AcDbArc
 50
268.2059676782
 51
275.5606159057
  0
ARC
  5
37A
100
AcDbEntity
  8
0
100
AcDbCircle
 62
7
  6
BYLAYER
 10
356.5258527286
 20
100.6063329355
 40
1.5082904023
100
AcDbArc
 50
260.1274161975
 51
268.2647156569
  0
ARC
  5
37B
100
AcDbEntity
  8
0
100
AcDbCircle
 62
7
  6
BYLAYER
 10
356.5245368117
 20
100.590513247
 40
1.4955885746
100
AcDbArc
 50
260.0740424864
 51
268.2982804432
  0
ARC
  5
37C
100
AcDbEntity
  8
0
100
AcDbCircle
 62
7
  6
BYLAYER
 10
357.1905879554
 20
91.6038752215
 40
0.9928046467
100
AcDbArc
 50
350.3631012306
 51
359.9687753312
  0
ARC
  5
37D
100
AcDbEntity
  8
0
100
AcDbCircle
 62
7
  6
BYLAYER
 10
353.3484829869
 20
123.6093700462
 40
44.277993946
100
AcDbArc
 50
244.5458870226
 51
246.8775999189
  0
ARC
  5
37E
100
AcDbEntity
  8
0
100
AcDbCircle
 62
7
  6
BYLAYER
 10
353.1408435707
 20
132.130774877
 40
43.7732965632
100
AcDbArc
 50
244.5324430423
 51
246.8910438996
  0
ARC
  5
37F
100
AcDbEntity
  8
0
100
AcDbCircle
 62
7
  6
BYLAYER
 10
352.1513335429
 20
121.0685556074
 40
41.4692978143
100
AcDbArc
 50
242.5147933693
 51
244.5305923486
  0
ARC
  5
380
100
AcDbEntity
  8
0
100
AcDbCircle
 62
7
  6
BYLAYER
 10
351.8297395756
 20
129.403776696
 40
40.7475106221
100
AcDbArc
 50
242.0737344948
 51
244.548041821
  0
ARC
  5
381
100
AcDbEntity
  8
0
100
AcDbCircle
 62
7
  6
BYLAYER
 10
351.370320986
 20
117.0952921726
 40
39.7570767253
100
AcDbArc
 50
242.0664984747
 51
242.4998290462
  0
ARC
  5
382
100
AcDbEntity
  8
0
100
AcDbCircle
 62
7
  6
BYLAYER
 10
403.4241554676
 20
230.174743163
 40
153.9556677666
100
AcDbArc
 50
241.2778911672
 51
242.6722721269
  0
ARC
  5
383
100
AcDbEntity
  8
0
100
AcDbCircle
 62
7
  6
BYLAYER
 10
403.3023173365
 20
218.4973980365
 40
153.6809126924
100
AcDbArc
 50
240.5825141155
 51
242.6704691288
  0
ARC
  5
384
100
AcDbEntity
  8
0
100
AcDbCircle
 62
7
  6
BYLAYER
 10
401.9854758762
 20
227.5361723441
 40
150.9503701021
100
AcDbArc
 50
241.1341218606
 51
241.275488097
  0
ARC
  5
385
100
AcDbEntity
  8
0
100
AcDbCircle
 62
7
  6
BYLAYER
 10
401.4724991717
 20
226.6071406242
 40
149.8891229618
100
AcDbArc
 50
240.851312492
 51
241.0897257228
  0
ARC
  5
386
100
AcDbEntity
  8
0
100
AcDbCircle
 62
7
  6
BYLAYER
 10
398.6071224271
 20
210.1156483026
 40
144.073738103
100
AcDbArc
 50
238.3921306864
 51
240.571758467
  0
ARC
  5
387
100
AcDbEntity
  8
0
100
AcDbCircle
 62
7
  6
BYLAYER
 10
396.9921523182
 20
218.8473939355
 40
140.9284717394
100
AcDbArc
 50
238.3761693294
 51
239.7097421113
  0
ARC
  5
388
100
AcDbEntity
  8
0
100
AcDbCircle
 62
7
  6
BYLAYER
 10
334.9159439826
 20
838.2411429531
 40
34.5242599615
100
AcDbArc
 50
57.3699120311
 51
57.8459914418
  0
ARC
  5
389
100
AcDbEntity
  8
0
100
AcDbCircle
 62
7
  6
BYLAYER
 10
335.7971631658
 20
837.1423198922
 40
32.9115163057
100
AcDbArc
 50
55.3623640114
 51
56.924630882
  0
ARC
  5
38A
100
AcDbEntity
  8
0
100
AcDbCircle
 62
7
  6
BYLAYER
 10
335.1375704649
 20
856.7163869885
 40
16.3259818973
100
AcDbArc
 50
69.4666022441
 51
69.9534449277
  0
ARC
  5
38B
100
AcDbEntity
  8
0
100
AcDbCircle
 62
7
  6
BYLAYER
 10
341.3179307431
 20
861.37502473
 40
13.3208872742
100
AcDbArc
 50
247.4298569172
 51
248.5866844903
  0
ARC
  5
38C
100
AcDbEntity
  8
0
100
AcDbCircle
 62
7
  6
BYLAYER
 10
341.3179307431
 20
863.8245319812
 40
13.3208872739
100
AcDbArc
 50
247.4298569171
 51
248.5866844904
  0
ARC
  5
38D
100
AcDbEntity
  8
0
100
AcDbCircle
 62
7
  6
BYLAYER
 10
341.1492925735
 20
863.4189117286
 40
12.8816076136
100
AcDbArc
 50
246.2470518462
 51
247.4300322725
  0
ARC
  5
38E
100
AcDbEntity
  8
0
100
AcDbCircle
 62
7
  6
BYLAYER
 10
341.1492925635
 20
860.9694044535
 40
12.881607588
100
AcDbArc
 50
246.247051847
 51
247.4300322733
  0
ARC
  5
38F
100
AcDbEntity
  8
0
100
AcDbCircle
 62
7
  6
BYLAYER
 10
341.796547175
 20
860.1106814155
 40
12.3090691866
100
AcDbArc
 50
254.5301289394
 51
258.0056740375
  0
ARC
  5
390
100
AcDbEntity
  8
0
100
AcDbCircle
 62
7
  6
BYLAYER
 10
341.7598084611
 20
862.4098464943
 40
12.1543753133
100
AcDbArc
 50
254.508004659
 51
258.027798318
  0
ARC
  5
391
100
AcDbEntity
  8
0
100
AcDbCircle
 62
7
  6
BYLAYER
 10
341.4858272276
 20
861.4439099084
 40
11.1503535607
100
AcDbArc
 50
250.8090216233
 51
254.5389465112
  0
ARC
  5
392
100
AcDbEntity
  8
0
100
AcDbCircle
 62
7
  6
BYLAYER
 10
341.1500234268
 20
858.444702641
 40
10.5515313528
100
AcDbArc
 50
266.3833854614
 51
269.9144677598
  0
ARC
  5
393
100
AcDbEntity
  8
0
100
AcDbCircle
 62
7
  6
BYLAYER
 10
341.1391649292
 20
858.2464907962
 40
10.3530294321
100
AcDbArc
 50
262.8656801564
 51
266.374163732
  0
ARC
  5
394
100
AcDbEntity
  8
0
100
AcDbCircle
 62
7
  6
BYLAYER
 10
341.082926636
 20
857.8129639454
 40
9.915874697
100
AcDbArc
 50
260.1361802003
 51
262.8770091167
  0
ARC
  5
395
100
AcDbEntity
  8
0
100
AcDbCircle
 62
7
  6
BYLAYER
 10
341.177596745
 20
857.5654791303
 40
9.6922485823
100
AcDbArc
 50
262.1424598426
 51
265.8915491711
  0
ARC
  5
396
100
AcDbEntity
  8
0
100
AcDbCircle
 62
7
  6
BYLAYER
 10
341.0393969788
 20
857.5493730836
 40
9.6487236468
100
AcDbArc
 50
259.2365227683
 51
260.1227078387
  0
ARC
  5
397
100
AcDbEntity
  8
0
100
AcDbCircle
 62
7
  6
BYLAYER
 10
341.1708879565
 20
859.9509737784
 40
9.6279200589
100
AcDbArc
 50
262.1299306395
 51
265.9040783744
  0
ARC
  5
398
100
AcDbEntity
  8
0
100
AcDbCircle
 62
7
  6
BYLAYER
 10
340.996762301
 20
857.3260910705
 40
9.421407704
100
AcDbArc
 50
258.1202826922
 51
259.2376510231
  0
ARC
  5
399
100
AcDbEntity
  8
0
100
AcDbCircle
 62
7
  6
BYLAYER
 10
341.1142261719
 20
857.0946206793
 40
9.2171477162
100
AcDbArc
 50
258.2583178365
 51
262.1325406654
  0
ARC
  5
39A
100
AcDbEntity
  8
0
100
AcDbCircle
 62
7
  6
BYLAYER
 10
341.0973894123
 20
859.4466998292
 40
9.1183326337
100
AcDbArc
 50
258.2373172884
 51
262.1535412133
  0
ARC
  5
39B
100
AcDbEntity
  8
0
100
AcDbCircle
 62
7
  6
BYLAYER
 10
340.9303095416
 20
857.0120906254
 40
9.1004527363
100
AcDbArc
 50
256.6502456924
 51
258.122738319
  0
ARC
  5
39C
100
AcDbEntity
  8
0
100
AcDbCircle
 62
7
  6
BYLAYER
 10
340.8515896142
 20
856.6810713877
 40
8.7602020414
100
AcDbArc
 50
254.491008408
 51
256.6513066596
  0
ARC
  5
39D
100
AcDbEntity
  8
0
100
AcDbCircle
 62
7
  6
BYLAYER
 10
340.7775889549
 20
856.4128455748
 40
8.4819557355
100
AcDbArc
 50
252.9755658159
 51
254.4882077241
  0
ARC
  5
39E
100
AcDbEntity
  8
0
100
AcDbCircle
 62
7
  6
BYLAYER
 10
340.6977662319
 20
856.1542716172
 40
8.211342059
100
AcDbArc
 50
250.3839127996
 51
252.9798901088
  0
ARC
  5
39F
100
AcDbEntity
  8
0
100
AcDbCircle
 62
7
  6
BYLAYER
 10
340.6182586372
 20
855.9284758317
 40
7.971958807
100
AcDbArc
 50
249.2781186238
 51
250.3773721831
  0
ARC
  5
3A0
100
AcDbEntity
  8
0
100
AcDbCircle
 62
7
  6
BYLAYER
 10
340.8654781363
 20
853.1920512142
 40
5.305681291
100
AcDbArc
 50
272.9039331831
 51
276.0064859504
  0
ARC
  5
3A1
100
AcDbEntity
  8
0
100
AcDbCircle
 62
7
  6
BYLAYER
 10
340.8883102933
 20
852.9857076976
 40
5.0980815298
100
AcDbArc
 50
275.9939569552
 51
279.9997160315
  0
ARC
  5
3A2
100
AcDbEntity
  8
0
100
AcDbCircle
 62
7
  6
BYLAYER
 10
340.8473503829
 20
852.970119005
 40
5.0850371384
100
AcDbArc
 50
265.8934099525
 51
273.2346131221
  0
ARC
  5
3A3
100
AcDbEntity
  8
0
100
AcDbCircle
 62
7
  6
BYLAYER
 10
340.8473503829
 20
855.4196262563
 40
5.0850371383
100
AcDbArc
 50
265.8934099525
 51
273.2346131222
  0
ARC
  5
3A4
100
AcDbEntity
  8
0
100
AcDbCircle
 62
7
  6
BYLAYER
 10
340.9274054253
 20
852.7569864777
 40
4.8660464464
100
AcDbArc
 50
280.0140184556
 51
281.8150334666
  0
ARC
  5
3A5
100
AcDbEntity
  8
0
100
AcDbCircle
 62
7
  6
BYLAYER
 10
340.9942481953
 20
852.4519829041
 40
4.553819493
100
AcDbArc
 50
281.7775864354
 51
286.5952025227
  0
ARC
  5
3A6
100
AcDbEntity
  8
0
100
AcDbCircle
 62
7
  6
BYLAYER
 10
341.1053154897
 20
852.0716364385
 40
4.1575946466
100
AcDbArc
 50
286.6253703385
 51
289.3361534814
  0
ARC
  5
3A7
100
AcDbEntity
  8
0
100
AcDbCircle
 62
7
  6
BYLAYER
 10
338.2404997749
 20
855.7243297296
 40
3.6134855705
100
AcDbArc
 50
255.1338532772
 51
255.700751807
  0
ARC
  5
3A8
100
AcDbEntity
  8
0
100
AcDbCircle
 62
7
  6
BYLAYER
 10
338.212150896
 20
855.6195745711
 40
3.5049635944
100
AcDbArc
 50
252.9556103543
 51
255.1424160593
  0
ARC
  5
3A9
100
AcDbEntity
  8
0
100
AcDbCircle
 62
7
  6
BYLAYER
 10
341.5577632772
 20
851.0268759375
 40
3.0174254146
100
AcDbArc
 50
297.6633813603
 51
300.6718001891
  0
ARC
  5
3AA
100
AcDbEntity
  8
0
100
AcDbCircle
 62
7
  6
BYLAYER
 10
341.7041280531
 20
850.7810672388
 40
2.731341002
100
AcDbArc
 50
300.6613745452
 51
304.220610149
  0
ARC
  5
3AB
100
AcDbEntity
  8
0
100
AcDbCircle
 62
7
  6
BYLAYER
 10
343.1265416758
 20
848.8405372961
 40
0.301621044
100
AcDbArc
 50
358.3142911499
 51
359.9822719363
  0
ARC
  5
3AC
100
AcDbEntity
  8
0
100
AcDbCircle
 62
7
  6
BYLAYER
 10
337.8072848649
 20
848.641053334
 40
0.1330242683
100
AcDbArc
 50
180.0174415915
 51
187.8021169765
  0
ARC
  5
3AD
100
AcDbEntity
  8
0
100
AcDbCircle
 62
7
  6
BYLAYER
 10
337.6823173519
 20
869.0864665501
 40
3.447899187
100
AcDbArc
 50
119.4411822505
 51
121.382373257
  0
ARC
  5
3AE
100
AcDbEntity
  8
0
100
AcDbCircle
 62
7
  6
BYLAYER
 10
338.0020901737
 20
872.9324084196
 40
1.6468931868
100
AcDbArc
 50
240.0214320945
 51
243.8759279703
  0
ARC
  5
3AF
100
AcDbEntity
  8
0
100
AcDbCircle
 62
7
  6
BYLAYER
 10
355.6932624256
 20
859.3470548041
 40
3.1552403671
100
AcDbArc
 50
296.0567315069
 51
299.2640026234
  0
ARC
  5
3B0
100
AcDbEntity
  8
0
100
AcDbCircle
 62
7
  6
BYLAYER
 10
353.0210334658
 20
860.663138119
 40
2.8193911199
100
AcDbArc
 50
122.2484353761
 51
123.3310036165
  0
ARC
  5
3B1
100
AcDbEntity
  8
0
100
AcDbCircle
 62
7
  6
BYLAYER
 10
356.2788552048
 20
858.4784432249
 40
2.105370883
100
AcDbArc
 50
309.6755921375
 51
313.1556506618
  0
ARC
  5
3B2
100
AcDbEntity
  8
0
100
AcDbCircle
 62
7
  6
BYLAYER
 10
356.1101907532
 20
857.7179335402
 40
2.0592181654
100
AcDbArc
 50
0.2898311613
 51
4.8401134169
  0
ARC
  5
3B3
100
AcDbEntity
  8
0
100
AcDbCircle
 62
7
  6
BYLAYER
 10
356.4327601544
 20
858.3155376216
 40
1.8812634024
100
AcDbArc
 50
313.1297999181
 51
318.06421859
  0
ARC
  5
3B4
100
AcDbEntity
  8
0
100
AcDbCircle
 62
7
  6
BYLAYER
 10
356.528674415
 20
857.9539671345
 40
1.5499998467
100
AcDbArc
 50
268.2070728194
 51
275.8208092401
  0
ARC
  5
3B5
100
AcDbEntity
  8
0
100
AcDbCircle
 62
7
  6
BYLAYER
 10
356.5261276012
 20
857.9156664853
 40
1.5116388656
100
AcDbArc
 50
260.466807804
 51
268.2581373874
  0
ARC
  5
3B6
100
AcDbEntity
  8
0
100
AcDbCircle
 62
7
  6
BYLAYER
 10
356.8362208735
 20
858.000612961
 40
1.368269807
100
AcDbArc
 50
327.8524528193
 51
331.9777602922
  0
ARC
  5
3B7
100
AcDbEntity
  8
0
100
AcDbCircle
 62
7
  6
BYLAYER
 10
356.9405052843
 20
857.9459382175
 40
1.2505243871
100
AcDbArc
 50
331.9443440172
 51
338.9698834491
  0
ARC
  5
3B8
100
AcDbEntity
  8
0
100
AcDbCircle
 62
7
  6
BYLAYER
 10
357.0204289788
 20
857.9140235876
 40
1.1644719425
100
AcDbArc
 50
339.0243785463
 51
342.4556269084
  0
ARC
  5
3B9
100
AcDbEntity
  8
0
100
AcDbCircle
 62
7
  6
BYLAYER
 10
357.0821083455
 20
857.8952950763
 40
1.1000163093
100
AcDbArc
 50
342.4173141458
 51
351.270720759
  0
ARC
  5
3BA
100
AcDbEntity
  8
0
100
AcDbCircle
 62
7
  6
BYLAYER
 10
357.1838684824
 20
860.3424136322
 40
0.9995245796
100
AcDbArc
 50
0.0631587783
 51
12.2064846167
  0
ARC
  5
3BB
100
AcDbEntity
  8
0
100
AcDbCircle
 62
7
  6
BYLAYER
 10
357.1905879554
 20
857.8945492372
 40
0.9928046467
100
AcDbArc
 50
350.3631012306
 51
359.9687753312
  0
ARC
  5
3BC
100
AcDbEntity
  8
0
100
AcDbCircle
 62
7
  6
BYLAYER
 10
357.1905879554
 20
860.3440564885
 40
0.9928046467
100
AcDbArc
 50
350.3631012306
 51
359.9687753312
  0
ARC
  5
3BD
100
AcDbEntity
  8
0
100
AcDbCircle
 62
7
  6
BYLAYER
 10
356.6505933948
 20
862.5342339057
 40
0.3229316841
100
AcDbArc
 50
228.1843911062
 51
233.5385266575
  0
ARC
  5
3BE
100
AcDbEntity
  8
0
100
AcDbCircle
 62
7
  6
BYLAYER
 10
353.4799020823
 20
890.1731363733
 40
44.5807581419
100
AcDbArc
 50
244.5499429967
 51
246.8600959478
  0
ARC
  5
3BF
100
AcDbEntity
  8
0
100
AcDbCircle
 62
7
  6
BYLAYER
 10
353.2727065756
 20
892.1636492356
 40
44.0772687247
100
AcDbArc
 50
244.5367468766
 51
246.8732920674
  0
ARC
  5
3C0
100
AcDbEntity
  8
0
100
AcDbCircle
 62
7
  6
BYLAYER
 10
352.1903701053
 20
887.4420612565
 40
41.5605639483
100
AcDbArc
 50
242.1167923645
 51
244.5372419397
  0
ARC
  5
3C1
100
AcDbEntity
  8
0
100
AcDbCircle
 62
7
  6
BYLAYER
 10
352.1130063337
 20
889.7410825741
 40
41.3914352301
100
AcDbArc
 50
242.5679830769
 51
244.5443728248
  0
ARC
  5
3C2
100
AcDbEntity
  8
0
100
AcDbCircle
 62
7
  6
BYLAYER
 10
351.5181958663
 20
891.0380404067
 40
40.0944540901
100
AcDbArc
 50
242.0949928534
 51
242.5636304751
  0
ARC
  5
3C3
100
AcDbEntity
  8
0
100
AcDbCircle
 62
7
  6
BYLAYER
 10
346.4426080267
 20
876.1373778377
 40
26.6561993459
100
AcDbArc
 50
248.1565663159
 51
248.3190715859
  0
ARC
  5
3C4
100
AcDbEntity
  8
0
100
AcDbCircle
 62
7
  6
BYLAYER
 10
346.4426080122
 20
873.6878705497
 40
26.6561993066
100
AcDbArc
 50
248.1565663156
 51
248.3190715858
  0
ARC
  5
3C5
100
AcDbEntity
  8
0
100
AcDbCircle
 62
7
  6
BYLAYER
 10
346.3969910982
 20
873.5740709933
 40
26.5335973413
100
AcDbArc
 50
247.9935613294
 51
248.156566798
  0
ARC
  5
3C6
100
AcDbEntity
  8
0
100
AcDbCircle
 62
7
  6
BYLAYER
 10
346.3969910631
 20
876.0235781573
 40
26.5335972471
100
AcDbArc
 50
247.9935613291
 51
248.1565667983
  0
ARC
  5
3C7
100
AcDbEntity
  8
0
100
AcDbCircle
 62
7
  6
BYLAYER
 10
353.1550413669
 20
866.6735920352
 40
0.7365192212
100
AcDbArc
 50
59.1144307711
 51
60.0022232263
  0
ARC
  5
3C8
100
AcDbEntity
  8
0
100
AcDbCircle
 62
7
  6
BYLAYER
 10
405.4740083364
 20
991.2996769423
 40
158.2866546606
100
AcDbArc
 50
242.3220538949
 51
242.6502128096
  0
ARC
  5
3C9
100
AcDbEntity
  8
0
100
AcDbCircle
 62
7
  6
BYLAYER
 10
404.5469878808
 20
989.5335528438
 40
156.2920216319
100
AcDbArc
 50
241.7039484079
 51
242.3222654286
  0
ARC
  5
3CA
100
AcDbEntity
  8
0
100
AcDbCircle
 62
7
  6
BYLAYER
 10
403.1875612914
 20
991.8713808109
 40
153.3926208713
100
AcDbArc
 50
240.572925741
 51
242.6662013176
  0
ARC
  5
3CB
100
AcDbEntity
  8
0
100
AcDbCircle
 62
7
  6
BYLAYER
 10
402.7094226939
 20
986.1211428679
 40
152.4163039589
100
AcDbArc
 50
240.5722606787
 51
241.704105648
  0
ARC
  5
3CC
100
AcDbEntity
  8
0
100
AcDbCircle
 62
7
  6
BYLAYER
 10
398.4526680998
 20
983.5399612394
 40
143.8097839466
100
AcDbArc
 50
238.399685319
 51
240.585137509
  0
ARC
  5
3CD
100
AcDbEntity
  8
0
100
AcDbCircle
 62
7
  6
BYLAYER
 10
387.6528025314
 20
961.0286353644
 40
123.1859516197
100
AcDbArc
 50
244.3588787746
 51
245.1940268142
  0
ARC
  5
3CE
100
AcDbEntity
  8
0
100
AcDbCircle
 62
7
  6
BYLAYER
 10
387.0579163457
 20
959.7830876706
 40
121.8056359553
100
AcDbArc
 50
244.201390423
 51
244.3576151504
  0
ARC
  5
3CF
100
AcDbEntity
  8
0
100
AcDbCircle
 62
7
  6
BYLAYER
 10
386.4078521735
 20
958.4437930764
 40
120.3169158291
100
AcDbArc
 50
243.5239498823
 51
244.2025325801
  0
ARC
  5
3D0
100
AcDbEntity
  8
0
100
AcDbCircle
 62
7
  6
BYLAYER
 10
384.2736133837
 20
954.196479609
 40
115.5635642377
100
AcDbArc
 50
241.5739669318
 51
243.5323033113
  0
ARC
  5
3D1
100
AcDbEntity
  8
0
100
AcDbCircle
 62
7
  6
BYLAYER
 10
382.5686043924
 20
951.0069966368
 40
111.9470063059
100
AcDbArc
 50
241.4179033198
 51
241.56432961
  0
ARC
  5
3D2
100
AcDbEntity
  8
0
100
AcDbCircle
 62
7
  6
BYLAYER
 10
381.8777295362
 20
949.7437112463
 40
110.5071477444
100
AcDbArc
 50
240.7100162145
 51
241.4190967819
  0
ARC
  5
3D3
100
AcDbEntity
  8
0
100
AcDbCircle
 62
7
  6
BYLAYER
 10
380.041759661
 20
946.4896665845
 40
106.7709059117
100
AcDbArc
 50
239.1394426027
 51
240.7149927072
  0
ARC
  5
3D4
100
AcDbEntity
  8
0
100
AcDbCircle
 62
7
  6
BYLAYER
 10
378.1537418941
 20
943.3137829876
 40
103.076207316
100
AcDbArc
 50
238.4655760894
 51
239.0578049942
  0
ARC
  5
3D5
100
AcDbEntity
  8
0
100
AcDbCircle
 62
7
  6
BYLAYER
 10
377.0661634759
 20
941.5433021997
 40
100.9983651579
100
AcDbArc
 50
237.7027846814
 51
238.4661382673
  0
ARC
  5
3D6
100
AcDbEntity
  8
0
100
AcDbCircle
 62
7
  6
BYLAYER
 10
376.157011694
 20
940.1013788007
 40
99.2937548743
100
AcDbArc
 50
237.3352080684
 51
237.7016646564
  0
ARC
  5
3D7
100
AcDbEntity
  8
0
100
AcDbCircle
 62
7
  6
BYLAYER
 10
375.5245779297
 20
939.1152401651
 40
98.1222422426
100
AcDbArc
 50
236.9200542572
 51
237.3353060912
  0
SPLINE
  5
3D8
100
AcDbEntity
  8
0
100
AcDbSpline
 62
7
  6
BYLAYER
 70
0
 71
3
 72
9
 73
5
 74
0
 42
0.0000001
 43
0.0000001
 44
0.0000000001
 40
0.0
 40
0.0
 40
0.0
 40
0.0
 40
0.2411856886
 40
1.0
 40
1.0
 40
1.0
 40
1.0
 10
321.6228927237
 20
90.9359879313
 30
0.0
 10
321.6437418497
 20
90.9239998944
 30
0.0
 10
321.7312888892
 20
90.8762252975
 30
0.0
 10
321.8228795352
 20
90.8359707033
 30
0.0
 10
321.893717535
 20
90.8093766767
 30
0.0
  0
SPLINE
  5
3D9
100
AcDbEntity
  8
0
100
AcDbSpline
 62
7
  6
BYLAYER
 70
0
 71
3
 72
9
 73
5
 74
0
 42
0.0000001
 43
0.0000001
 44
0.0000000001
 40
0.0
 40
0.0
 40
0.0
 40
0.0
 40
0.2408001262
 40
1.0
 40
1.0
 40
1.0
 40
1.0
 10
321.4226683408
 20
91.0757878472
 30
0.0
 10
321.4376246819
 20
91.0630952851
 30
0.0
 10
321.501079408
 20
91.0119746286
 30
0.0
 10
321.5693827007
 20
90.9669981265
 30
0.0
 10
321.6228927237
 20
90.9359879313
 30
0.0
  0
SPLINE
  5
3DA
100
AcDbEntity
  8
0
100
AcDbSpline
 62
7
  6
BYLAYER
 70
0
 71
3
 72
9
 73
5
 74
0
 42
0.0000001
 43
0.0000001
 44
0.0000000001
 40
0.0
 40
0.0
 40
0.0
 40
0.0
 40
0.2324918756
 40
1.0
 40
1.0
 40
1.0
 40
1.0
 10
320.5417643596
 20
91.6792824711
 30
0.0
 10
320.5731102338
 20
91.6410508984
 30
0.0
 10
320.7171167903
 20
91.4841311846
 30
0.0
 10
320.8922935393
 20
91.3578054505
 30
0.0
 10
321.0336377961
 20
91.2762021519
 30
0.0
  0
SPLINE
  5
3DB
100
AcDbEntity
  8
0
100
AcDbSpline
 62
7
  6
BYLAYER
 70
0
 71
3
 72
9
 73
5
 74
0
 42
0.0000001
 43
0.0000001
 44
0.0000000001
 40
0.0
 40
0.0
 40
0.0
 40
0.0
 40
0.2449366897
 40
1.0
 40
1.0
 40
1.0
 40
1.0
 10
321.433420375
 20
91.0887115295
 30
0.0
 10
321.4621014803
 20
91.0778859718
 30
0.0
 10
321.5798504896
 20
91.0354305121
 30
0.0
 10
321.700029152
 20
90.9997796801
 30
0.0
 10
321.7916043986
 20
90.9764377699
 30
0.0
  0
SPLINE
  5
3DC
100
AcDbEntity
  8
0
100
AcDbSpline
 62
7
  6
BYLAYER
 70
0
 71
3
 72
11
 73
7
 74
0
 42
0.0000001
 43
0.0000001
 44
0.0000000001
 40
0.0
 40
0.0
 40
0.0
 40
0.0
 40
0.2304168006
 40
0.4846814931
 40
0.7470378423
 40
1.0
 40
1.0
 40
1.0
 40
1.0
 10
337.1793066769
 20
81.9546913318
 30
0.0
 10
337.3136598633
 20
81.8774396067
 30
0.0
 10
337.6196091607
 20
81.7546550108
 30
0.0
 10
338.1172064137
 20
81.667135268
 30
0.0
 10
338.6374567276
 20
81.6705208894
 30
0.0
 10
338.9805118174
 20
81.7362199209
 30
0.0
 10
339.1430967742
 20
81.7863690787
 30
0.0
  0
SPLINE
  5
3DD
100
AcDbEntity
  8
0
100
AcDbSpline
 62
7
  6
BYLAYER
 70
0
 71
3
 72
9
 73
5
 74
0
 42
0.0000001
 43
0.0000001
 44
0.0000000001
 40
0.0
 40
0.0
 40
0.0
 40
0.0
 40
0.236593015
 40
1.0
 40
1.0
 40
1.0
 40
1.0
 10
336.9111989052
 20
82.1572003675
 30
0.0
 10
336.9298854061
 20
82.1383497797
 30
0.0
 10
337.0120291432
 20
82.0618130225
 30
0.0
 10
337.1052053588
 20
81.9976346201
 30
0.0
 10
337.1793066769
 20
81.9546913318
 30
0.0
  0
SPLINE
  5
3DE
100
AcDbEntity
  8
0
100
AcDbSpline
 62
7
  6
BYLAYER
 70
0
 71
3
 72
9
 73
5
 74
0
 42
0.0000001
 43
0.0000001
 44
0.0000000001
 40
0.0
 40
0.0
 40
0.0
 40
0.0
 40
0.2436059661
 40
1.0
 40
1.0
 40
1.0
 40
1.0
 10
335.9869368379
 20
82.8576654261
 30
0.0
 10
335.995623304
 20
82.8426725617
 30
0.0
 10
336.0327325506
 20
82.7819731877
 30
0.0
 10
336.0754377374
 20
82.7247465048
 30
0.0
 10
336.1101253801
 20
82.6836201598
 30
0.0
  0
SPLINE
  5
3DF
100
AcDbEntity
  8
0
100
AcDbSpline
 62
7
  6
BYLAYER
 70
0
 71
3
 72
9
 73
5
 74
0
 42
0.0000001
 43
0.0000001
 44
0.0000000001
 40
0.0
 40
0.0
 40
0.0
 40
0.0
 40
0.2330500096
 40
1.0
 40
1.0
 40
1.0
 40
1.0
 10
336.1101253801
 20
82.6836201598
 30
0.0
 10
336.1411481028
 20
82.6468390152
 30
0.0
 10
336.2826741039
 20
82.496106428
 30
0.0
 10
336.4529158769
 20
82.3740791942
 30
0.0
 10
336.5900517494
 20
82.2949055524
 30
0.0
  0
SPLINE
  5
3E0
100
AcDbEntity
  8
0
100
AcDbSpline
 62
7
  6
BYLAYER
 70
0
 71
3
 72
9
 73
5
 74
0
 42
0.0000001
 43
0.0000001
 44
0.0000000001
 40
0.0
 40
0.0
 40
0.0
 40
0.0
 40
0.2427979588
 40
1.0
 40
1.0
 40
1.0
 40
1.0
 10
336.5900517494
 20
82.2949055524
 30
0.0
 10
336.614366434
 20
82.2808677803
 30
0.0
 10
336.7155457853
 20
82.224853779
 30
0.0
 10
336.8205557467
 20
82.1758431915
 30
0.0
 10
336.9014594097
 20
82.1423584345
 30
0.0
  0
SPLINE
  5
3E1
100
AcDbEntity
  8
0
100
AcDbSpline
 62
7
  6
BYLAYER
 70
0
 71
3
 72
9
 73
5
 74
0
 42
0.0000001
 43
0.0000001
 44
0.0000000001
 40
0.0
 40
0.0
 40
0.0
 40
0.0
 40
0.4840966249
 40
1.0
 40
1.0
 40
1.0
 40
1.0
 10
336.9014594097
 20
82.1423584345
 30
0.0
 10
337.1474908904
 20
82.0405298639
 30
0.0
 10
337.6841890297
 20
81.8972420454
 30
0.0
 10
338.2370111883
 20
81.8645504902
 30
0.0
 10
338.5205767416
 20
81.875227464
 30
0.0
  0
SPLINE
  5
3E2
100
AcDbEntity
  8
0
100
AcDbSpline
 62
7
  6
BYLAYER
 70
0
 71
3
 72
19
 73
15
 74
0
 42
0.0000001
 43
0.0000001
 44
0.0000000001
 40
0.0
 40
0.0
 40
0.0
 40
0.0
 40
0.1286229244
 40
0.2701535141
 40
0.4172450222
 40
0.561528177
 40
0.6301796436
 40
0.6953187621
 40
0.7563146172
 40
0.8127965488
 40
0.8647380273
 40
0.9125503331
 40
0.9571595448
 40
1.0
 40
1.0
 40
1.0
 40
1.0
 10
345.4288438266
 20
73.8528832764
 30
0.0
 10
344.9847295101
 20
73.5964752867
 30
0.0
 10
343.9791458909
 20
73.1815791077
 30
0.0
 10
342.3401527158
 20
72.8535940592
 30
0.0
 10
340.6068919434
 20
72.8056887166
 30
0.0
 10
339.1772950222
 20
73.0062387579
 30
0.0
 10
338.1104395266
 20
73.3135725721
 30
0.0
 10
337.3886557291
 20
73.6043736414
 30
0.0
 10
336.7474380302
 20
73.953121304
 30
0.0
 10
336.2001736243
 20
74.3530142512
 30
0.0
 10
335.7585243924
 20
74.7965177155
 30
0.0
 10
335.4326738874
 20
75.2757994049
 30
0.0
 10
335.2318605751
 20
75.7813775602
 30
0.0
 10
335.1861942793
 20
76.1315233503
 30
0.0
 10
335.1861938463
 20
76.3023278042
 30
0.0
  0
SPLINE
  5
3E3
100
AcDbEntity
  8
0
100
AcDbSpline
 62
7
  6
BYLAYER
 70
0
 71
3
 72
12
 73
8
 74
0
 42
0.0000001
 43
0.0000001
 44
0.0000000001
 40
0.0
 40
0.0
 40
0.0
 40
0.0
 40
0.1081618106
 40
0.218363006
 40
0.4513653367
 40
0.7104105363
 40
1.0
 40
1.0
 40
1.0
 40
1.0
 10
347.1861771051
 20
76.3023278028
 30
0.0
 10
347.1861773931
 20
76.1887410974
 30
0.0
 10
347.1664265278
 20
75.9589507401
 30
0.0
 10
347.0470721375
 20
75.498265455
 30
0.0
 10
346.7406285836
 20
74.9334126419
 30
0.0
 10
346.1699292171
 20
74.3339469439
 30
0.0
 10
345.6922146072
 20
74.0049395598
 30
0.0
 10
345.4288438266
 20
73.8528832764
 30
0.0
  0
SPLINE
  5
3E4
100
AcDbEntity
  8
0
100
AcDbSpline
 62
7
  6
BYLAYER
 70
0
 71
3
 72
9
 73
5
 74
0
 42
0.0000001
 43
0.0000001
 44
0.0000000001
 40
0.0
 40
0.0
 40
0.0
 40
0.0
 40
0.2671440672
 40
1.0
 40
1.0
 40
1.0
 40
1.0
 10
337.5434612739
 20
871.5425024751
 30
0.0
 10
337.5271823169
 20
871.542502436
 30
0.0
 10
337.4664375471
 20
871.5459549194
 30
0.0
 10
337.4053594887
 20
871.5624482999
 30
0.0
 10
337.3666842737
 20
871.5847769405
 30
0.0
  0
SPLINE
  5
3E5
100
AcDbEntity
  8
0
100
AcDbSpline
 62
7
  6
BYLAYER
 70
0
 71
3
 72
9
 73
5
 74
0
 42
0.0000001
 43
0.0000001
 44
0.0000000001
 40
0.0
 40
0.0
 40
0.0
 40
0.0
 40
0.2291142508
 40
1.0
 40
1.0
 40
1.0
 40
1.0
 10
337.7202376643
 20
871.5847777904
 30
0.0
 10
337.7081389589
 20
871.5777926412
 30
0.0
 10
337.6526518124
 20
871.5520170395
 30
0.0
 10
337.5904664342
 20
871.5425025881
 30
0.0
 10
337.5434612739
 20
871.5425024751
 30
0.0
  0
SPLINE
  5
3E6
100
AcDbEntity
  8
0
100
AcDbSpline
 62
7
  6
BYLAYER
 70
0
 71
3
 72
9
 73
5
 74
0
 42
0.0000001
 43
0.0000001
 44
0.0000000001
 40
0.0
 40
0.0
 40
0.0
 40
0.0
 40
0.5255663101
 40
1.0
 40
1.0
 40
1.0
 40
1.0
 10
338.3576842099
 20
871.8531622414
 30
0.0
 10
338.3041840949
 20
871.8531621128
 30
0.0
 10
338.2021150654
 20
871.8420972664
 30
0.0
 10
338.104881705
 20
871.8068508052
 30
0.0
 10
338.0630568929
 20
871.7827033828
 30
0.0
  0
SPLINE
  5
3E7
100
AcDbEntity
  8
0
100
AcDbSpline
 62
7
  6
BYLAYER
 70
0
 71
3
 72
9
 73
5
 74
0
 42
0.0000001
 43
0.0000001
 44
0.0000000001
 40
0.0
 40
0.0
 40
0.0
 40
0.0
 40
0.4744342232
 40
1.0
 40
1.0
 40
1.0
 40
1.0
 10
338.6523125435
 20
871.782704799
 30
0.0
 10
338.6104874222
 20
871.8068519978
 30
0.0
 10
338.5132536792
 20
871.8420979759
 30
0.0
 10
338.4111843833
 20
871.85316237
 30
0.0
 10
338.3576842099
 20
871.8531622414
 30
0.0
  0
SPLINE
  5
3E8
100
AcDbEntity
  8
0
100
AcDbSpline
 62
7
  6
BYLAYER
 70
0
 71
3
 72
9
 73
5
 74
0
 42
0.0000001
 43
0.0000001
 44
0.0000000001
 40
0.0
 40
0.0
 40
0.0
 40
0.0
 40
0.2671440672
 40
1.0
 40
1.0
 40
1.0
 40
1.0
 10
339.1505730807
 20
871.5548259259
 30
0.0
 10
339.1342941237
 20
871.5548258868
 30
0.0
 10
339.0735493539
 20
871.5582783702
 30
0.0
 10
339.0124712956
 20
871.5747717507
 30
0.0
 10
338.9737960805
 20
871.5971003913
 30
0.0
  0
SPLINE
  5
3E9
100
AcDbEntity
  8
0
100
AcDbSpline
 62
7
  6
BYLAYER
 70
0
 71
3
 72
9
 73
5
 74
0
 42
0.0000001
 43
0.0000001
 44
0.0000000001
 40
0.0
 40
0.0
 40
0.0
 40
0.0
 40
0.2291142508
 40
1.0
 40
1.0
 40
1.0
 40
1.0
 10
339.3273494711
 20
871.5971012412
 30
0.0
 10
339.3152507657
 20
871.590116092
 30
0.0
 10
339.2597636192
 20
871.5643404903
 30
0.0
 10
339.197578241
 20
871.5548260389
 30
0.0
 10
339.1505730807
 20
871.5548259259
 30
0.0
  0
SPLINE
  5
3EA
100
AcDbEntity
  8
0
100
AcDbSpline
 62
7
  6
BYLAYER
 70
0
 71
3
 72
9
 73
5
 74
0
 42
0.0000001
 43
0.0000001
 44
0.0000000001
 40
0.0
 40
0.0
 40
0.0
 40
0.0
 40
0.4492438796
 40
1.0
 40
1.0
 40
1.0
 40
1.0
 10
339.4513714349
 20
871.7284909001
 30
0.0
 10
339.4513715754
 20
871.7090172744
 30
0.0
 10
339.4343500952
 20
871.6655634905
 30
0.0
 10
339.3988243301
 20
871.6383670239
 30
0.0
 10
339.3781488662
 20
871.6264301105
 30
0.0
  0
SPLINE
  5
3EB
100
AcDbEntity
  8
0
100
AcDbSpline
 62
7
  6
BYLAYER
 70
0
 71
3
 72
9
 73
5
 74
0
 42
0.0000001
 43
0.0000001
 44
0.0000000001
 40
0.0
 40
0.0
 40
0.0
 40
0.0
 40
0.5507561203
 40
1.0
 40
1.0
 40
1.0
 40
1.0
 10
339.0566614036
 20
872.3563577903
 30
0.0
 10
339.0222022973
 20
872.3364629347
 30
0.0
 10
338.9629926889
 20
872.2911354904
 30
0.0
 10
338.9346235553
 20
872.2187125174
 30
0.0
 10
338.9346237894
 20
872.1862564746
 30
0.0
  0
SPLINE
  5
3EC
100
AcDbEntity
  8
0
100
AcDbSpline
 62
7
  6
BYLAYER
 70
0
 71
3
 72
9
 73
5
 74
0
 42
0.0000001
 43
0.0000001
 44
0.0000000001
 40
0.0
 40
0.0
 40
0.0
 40
0.0
 40
0.4492438796
 40
1.0
 40
1.0
 40
1.0
 40
1.0
 10
339.4727032009
 20
872.6563441723
 30
0.0
 10
339.4727033413
 20
872.6368705466
 30
0.0
 10
339.4556818611
 20
872.5934167627
 30
0.0
 10
339.420156096
 20
872.5662202961
 30
0.0
 10
339.3994806322
 20
872.5542833827
 30
0.0
  0
SPLINE
  5
3ED
100
AcDbEntity
  8
0
100
AcDbSpline
 62
7
  6
BYLAYER
 70
0
 71
3
 72
9
 73
5
 74
0
 42
0.0000001
 43
0.0000001
 44
0.0000000001
 40
0.0
 40
0.0
 40
0.0
 40
0.0
 40
0.5507565647
 40
1.0
 40
1.0
 40
1.0
 40
1.0
 10
337.2945391299
 20
872.5665979108
 30
0.0
 10
337.2738634817
 20
872.5785347319
 30
0.0
 10
337.2383373871
 20
872.6057309881
 30
0.0
 10
337.2213152296
 20
872.649184665
 30
0.0
 10
337.2213150892
 20
872.6686583484
 30
0.0
  0
SPLINE
  5
3EE
100
AcDbEntity
  8
0
100
AcDbSpline
 62
7
  6
BYLAYER
 70
0
 71
3
 72
9
 73
5
 74
0
 42
0.0000001
 43
0.0000001
 44
0.0000000001
 40
0.0
 40
0.0
 40
0.0
 40
0.0
 40
0.4492434353
 40
1.0
 40
1.0
 40
1.0
 40
1.0
 10
337.7807398264
 20
872.186253701
 30
0.0
 10
337.7807395923
 20
872.2187098399
 30
0.0
 10
337.75236933
 20
872.2911326347
 30
0.0
 10
337.6931591723
 20
872.3364597285
 30
0.0
 10
337.6586997586
 20
872.3563544302
 30
0.0
  0
SPLINE
  5
3EF
100
AcDbEntity
  8
0
100
AcDbSpline
 62
7
  6
BYLAYER
 70
0
 71
3
 72
9
 73
5
 74
0
 42
0.0000001
 43
0.0000001
 44
0.0000000001
 40
0.0
 40
0.0
 40
0.0
 40
0.0
 40
0.5507565647
 40
1.0
 40
1.0
 40
1.0
 40
1.0
 10
337.3158844556
 20
871.6141055657
 30
0.0
 10
337.2952088073
 20
871.6260423867
 30
0.0
 10
337.2596827127
 20
871.653238643
 30
0.0
 10
337.2426605553
 20
871.6966923199
 30
0.0
 10
337.2426604149
 20
871.7161660032
 30
0.0
  0
SPLINE
  5
3F0
100
AcDbEntity
  8
0
100
AcDbSpline
 62
7
  6
BYLAYER
 70
0
 71
3
 72
9
 73
5
 74
0
 42
0.0000001
 43
0.0000001
 44
0.0000000001
 40
0.0
 40
0.0
 40
0.0
 40
0.0
 40
0.4940672997
 40
1.0
 40
1.0
 40
1.0
 40
1.0
 10
335.9542710093
 20
872.0171468204
 30
0.0
 10
336.0268616485
 20
872.2045527215
 30
0.0
 10
336.2551817195
 20
872.5551117397
 30
0.0
 10
336.5842427977
 20
872.8050063312
 30
0.0
 10
336.7624696337
 20
872.9079085849
 30
0.0
  0
SPLINE
  5
3F1
100
AcDbEntity
  8
0
100
AcDbSpline
 62
7
  6
BYLAYER
 70
0
 71
3
 72
10
 73
6
 74
0
 42
0.0000001
 43
0.0000001
 44
0.0000000001
 40
0.0
 40
0.0
 40
0.0
 40
0.0
 40
0.5045873123
 40
0.7525330691
 40
1.0
 40
1.0
 40
1.0
 40
1.0
 10
339.9528939821
 20
872.9079085849
 30
0.0
 10
340.140985401
 20
872.7993108488
 30
0.0
 10
340.4029290806
 20
872.596339224
 30
0.0
 10
340.6603676645
 20
872.2487096992
 30
0.0
 10
340.7506987537
 20
872.0533452797
 30
0.0
 10
340.7844727123
 20
871.9523236614
 30
0.0
  0
SPLINE
  5
3F2
100
AcDbEntity
  8
0
100
AcDbSpline
 62
7
  6
BYLAYER
 70
0
 71
3
 72
11
 73
7
 74
0
 42
0.0000001
 43
0.0000001
 44
0.0000000001
 40
0.0
 40
0.0
 40
0.0
 40
0.0
 40
0.2433553771
 40
0.5000066983
 40
0.7566556155
 40
1.0
 40
1.0
 40
1.0
 40
1.0
 10
336.7624696337
 20
872.9079085849
 30
0.0
 10
336.9952251921
 20
873.0422939114
 30
0.0
 10
337.5204758263
 20
873.2394967263
 30
0.0
 10
338.357674821
 20
873.3331865982
 30
0.0
 10
339.1948613167
 20
873.2394986439
 30
0.0
 10
339.7200997756
 20
873.0423093428
 30
0.0
 10
339.9528478003
 20
872.9079352481
 30
0.0
  0
SPLINE
  5
3F3
100
AcDbEntity
  8
0
100
AcDbSpline
 62
7
  6
BYLAYER
 70
0
 71
3
 72
9
 73
5
 74
0
 42
0.0000001
 43
0.0000001
 44
0.0000000001
 40
0.0
 40
0.0
 40
0.0
 40
0.0
 40
0.2291142508
 40
1.0
 40
1.0
 40
1.0
 40
1.0
 10
337.345337053
 20
872.8000480073
 30
0.0
 10
337.3574357585
 20
872.8070331565
 30
0.0
 10
337.412922905
 20
872.8328087581
 30
0.0
 10
337.4751082831
 20
872.8423232096
 30
0.0
 10
337.5221134435
 20
872.8423233225
 30
0.0
  0
SPLINE
  5
3F4
100
AcDbEntity
  8
0
100
AcDbSpline
 62
7
  6
BYLAYER
 70
0
 71
3
 72
9
 73
5
 74
0
 42
0.0000001
 43
0.0000001
 44
0.0000000001
 40
0.0
 40
0.0
 40
0.0
 40
0.0
 40
0.4492438796
 40
1.0
 40
1.0
 40
1.0
 40
1.0
 10
337.2213150892
 20
872.6686583484
 30
0.0
 10
337.2213149488
 20
872.6881319741
 30
0.0
 10
337.238336429
 20
872.731585758
 30
0.0
 10
337.2738621941
 20
872.7587822246
 30
0.0
 10
337.2945376579
 20
872.7707191379
 30
0.0
  0
SPLINE
  5
3F5
100
AcDbEntity
  8
0
100
AcDbSpline
 62
7
  6
BYLAYER
 70
0
 71
3
 72
9
 73
5
 74
0
 42
0.0000001
 43
0.0000001
 44
0.0000000001
 40
0.0
 40
0.0
 40
0.0
 40
0.0
 40
0.5507565647
 40
1.0
 40
1.0
 40
1.0
 40
1.0
 10
339.3781473943
 20
871.8305513376
 30
0.0
 10
339.3988230425
 20
871.8186145166
 30
0.0
 10
339.4343491371
 20
871.7914182603
 30
0.0
 10
339.4513712945
 20
871.7479645835
 30
0.0
 10
339.4513714349
 20
871.7284909001
 30
0.0
  0
SPLINE
  5
3F6
100
AcDbEntity
  8
0
100
AcDbSpline
 62
7
  6
BYLAYER
 70
0
 71
3
 72
9
 73
5
 74
0
 42
0.0000001
 43
0.0000001
 44
0.0000000001
 40
0.0
 40
0.0
 40
0.0
 40
0.0
 40
0.4492434353
 40
1.0
 40
1.0
 40
1.0
 40
1.0
 10
338.9346237894
 20
872.1862564746
 30
0.0
 10
338.9346240234
 20
872.1538003356
 30
0.0
 10
338.9629942858
 20
872.0813775409
 30
0.0
 10
339.0222044435
 20
872.0360504471
 30
0.0
 10
339.0566638572
 20
872.0161557453
 30
0.0
  0
SPLINE
  5
3F7
100
AcDbEntity
  8
0
100
AcDbSpline
 62
7
  6
BYLAYER
 70
0
 71
3
 72
9
 73
5
 74
0
 42
0.0000001
 43
0.0000001
 44
0.0000000001
 40
0.0
 40
0.0
 40
0.0
 40
0.0
 40
0.5507561203
 40
1.0
 40
1.0
 40
1.0
 40
1.0
 10
337.6587022122
 20
872.0161523853
 30
0.0
 10
337.6931613185
 20
872.0360472408
 30
0.0
 10
337.7523709269
 20
872.0813746851
 30
0.0
 10
337.7807400605
 20
872.1537976582
 30
0.0
 10
337.7807398264
 20
872.186253701
 30
0.0
  0
SPLINE
  5
3F8
100
AcDbEntity
  8
0
100
AcDbSpline
 62
7
  6
BYLAYER
 70
0
 71
3
 72
9
 73
5
 74
0
 42
0.0000001
 43
0.0000001
 44
0.0000000001
 40
0.0
 40
0.0
 40
0.0
 40
0.0
 40
0.4492438796
 40
1.0
 40
1.0
 40
1.0
 40
1.0
 10
337.2426604149
 20
871.7161660032
 30
0.0
 10
337.2426602744
 20
871.735639629
 30
0.0
 10
337.2596817547
 20
871.7790934129
 30
0.0
 10
337.2952075198
 20
871.8062898794
 30
0.0
 10
337.3158829836
 20
871.8182267928
 30
0.0
  0
SPLINE
  5
3F9
100
AcDbEntity
  8
0
100
AcDbSpline
 62
7
  6
BYLAYER
 70
0
 71
3
 72
15
 73
11
 74
0
 42
0.0000001
 43
0.0000001
 44
0.0000000001
 40
0.0
 40
0.0
 40
0.0
 40
0.0
 40
0.1487761035
 40
0.2815960386
 40
0.3999294873
 40
0.5086801157
 40
0.6158070911
 40
0.7298709951
 40
0.8570482552
 40
1.0
 40
1.0
 40
1.0
 40
1.0
 10
339.4440659354
 20
871.4565352246
 30
0.0
 10
339.5263723284
 20
871.4973846576
 30
0.0
 10
339.6766634406
 20
871.587057292
 30
0.0
 10
339.8606913134
 20
871.7548402229
 30
0.0
 10
339.9832846224
 20
871.9439923175
 30
0.0
 10
340.0355277029
 20
872.1481020237
 30
0.0
 10
340.0110787755
 20
872.354957196
 30
0.0
 10
339.9131959709
 20
872.5505794083
 30
0.0
 10
339.7507475094
 20
872.7267396006
 30
0.0
 10
339.6126471679
 20
872.8225174082
 30
0.0
 10
339.5361864733
 20
872.8666610121
 30
0.0
  0
SPLINE
  5
3FA
100
AcDbEntity
  8
0
100
AcDbSpline
 62
7
  6
BYLAYER
 70
0
 71
3
 72
19
 73
15
 74
0
 42
0.0000001
 43
0.0000001
 44
0.0000000001
 40
0.0
 40
0.0
 40
0.0
 40
0.0
 40
0.1382513799
 40
0.2913966195
 40
0.4445435246
 40
0.5827913965
 40
0.6432440081
 40
0.69732397
 40
0.7459658062
 40
0.7913933414
 40
0.8368212219
 40
0.8854622012
 40
0.9395476945
 40
1.0
 40
1.0
 40
1.0
 40
1.0
 10
339.5361864733
 20
872.8666610121
 30
0.0
 10
339.3688836551
 20
872.9632511541
 30
0.0
 10
338.9797926528
 20
873.1042095702
 30
0.0
 10
338.3577021405
 20
873.1717948746
 30
0.0
 10
337.73546846
 20
873.1040673644
 30
0.0
 10
337.2659926688
 20
872.9343609254
 30
0.0
 10
336.9733572673
 20
872.7331111602
 30
0.0
 10
336.8147986959
 20
872.5664040247
 30
0.0
 10
336.7144627674
 20
872.3819521389
 30
0.0
 10
336.6797071215
 20
872.1862605244
 30
0.0
 10
336.7144553058
 20
871.9905745808
 30
0.0
 10
336.8147889244
 20
871.8060934532
 30
0.0
 10
336.9733190273
 20
871.6394483927
 30
0.0
 10
337.1060216985
 20
871.5480845232
 30
0.0
 10
337.1791771424
 20
871.5058491634
 30
0.0
  0
SPLINE
  5
3FB
100
AcDbEntity
  8
0
100
AcDbSpline
 62
7
  6
BYLAYER
 70
0
 71
3
 72
9
 73
5
 74
0
 42
0.0000001
 43
0.0000001
 44
0.0000000001
 40
0.0
 40
0.0
 40
0.0
 40
0.0
 40
0.5507565647
 40
1.0
 40
1.0
 40
1.0
 40
1.0
 10
339.3994791602
 20
872.7584046098
 30
0.0
 10
339.4201548085
 20
872.7464677888
 30
0.0
 10
339.455680903
 20
872.7192715325
 30
0.0
 10
339.4727030605
 20
872.6758178557
 30
0.0
 10
339.4727032009
 20
872.6563441723
 30
0.0
  0
SPLINE
  5
3FC
100
AcDbEntity
  8
0
100
AcDbSpline
 62
7
  6
BYLAYER
 70
0
 71
3
 72
9
 73
5
 74
0
 42
0.0000001
 43
0.0000001
 44
0.0000000001
 40
0.0
 40
0.0
 40
0.0
 40
0.0
 40
0.2671440672
 40
1.0
 40
1.0
 40
1.0
 40
1.0
 10
339.1719023419
 20
872.8300077004
 30
0.0
 10
339.1881812989
 20
872.8300077395
 30
0.0
 10
339.2489260687
 20
872.8265552561
 30
0.0
 10
339.310004127
 20
872.8100618757
 30
0.0
 10
339.3486793421
 20
872.787733235
 30
0.0
  0
SPLINE
  5
3FD
100
AcDbEntity
  8
0
100
AcDbSpline
 62
7
  6
BYLAYER
 70
0
 71
3
 72
9
 73
5
 74
0
 42
0.0000001
 43
0.0000001
 44
0.0000000001
 40
0.0
 40
0.0
 40
0.0
 40
0.0
 40
0.2291142508
 40
1.0
 40
1.0
 40
1.0
 40
1.0
 10
338.9951259515
 20
872.7877323852
 30
0.0
 10
339.0072246569
 20
872.7947175343
 30
0.0
 10
339.0627118034
 20
872.820493136
 30
0.0
 10
339.1248971816
 20
872.8300075874
 30
0.0
 10
339.1719023419
 20
872.8300077004
 30
0.0
  0
SPLINE
  5
3FE
100
AcDbEntity
  8
0
100
AcDbSpline
 62
7
  6
BYLAYER
 70
0
 71
3
 72
9
 73
5
 74
0
 42
0.0000001
 43
0.0000001
 44
0.0000000001
 40
0.0
 40
0.0
 40
0.0
 40
0.0
 40
0.5255663101
 40
1.0
 40
1.0
 40
1.0
 40
1.0
 10
338.3576794059
 20
872.5193479342
 30
0.0
 10
338.4111795209
 20
872.5193480628
 30
0.0
 10
338.5132485504
 20
872.5304129091
 30
0.0
 10
338.6104819108
 20
872.5656593703
 30
0.0
 10
338.6523067229
 20
872.5898067927
 30
0.0
  0
SPLINE
  5
3FF
100
AcDbEntity
  8
0
100
AcDbSpline
 62
7
  6
BYLAYER
 70
0
 71
3
 72
9
 73
5
 74
0
 42
0.0000001
 43
0.0000001
 44
0.0000000001
 40
0.0
 40
0.0
 40
0.0
 40
0.0
 40
0.4744342232
 40
1.0
 40
1.0
 40
1.0
 40
1.0
 10
338.0630510723
 20
872.5898053765
 30
0.0
 10
338.1048761936
 20
872.5656581777
 30
0.0
 10
338.2021099366
 20
872.5304121996
 30
0.0
 10
338.3041792325
 20
872.5193478056
 30
0.0
 10
338.3576794059
 20
872.5193479342
 30
0.0
  0
SPLINE
  5
400
100
AcDbEntity
  8
0
100
AcDbSpline
 62
7
  6
BYLAYER
 70
0
 71
3
 72
9
 73
5
 74
0
 42
0.0000001
 43
0.0000001
 44
0.0000000001
 40
0.0
 40
0.0
 40
0.0
 40
0.0
 40
0.2671440672
 40
1.0
 40
1.0
 40
1.0
 40
1.0
 10
337.5221134435
 20
872.8423233225
 30
0.0
 10
337.5383924004
 20
872.8423233617
 30
0.0
 10
337.5991371702
 20
872.8388708782
 30
0.0
 10
337.6602152286
 20
872.8223774978
 30
0.0
 10
337.6988904436
 20
872.8000488571
 30
0.0
  0
SPLINE
  5
401
100
AcDbEntity
  8
0
100
AcDbSpline
 62
7
  6
BYLAYER
 70
0
 71
3
 72
9
 73
5
 74
0
 42
0.0000001
 43
0.0000001
 44
0.0000000001
 40
0.0
 40
0.0
 40
0.0
 40
0.0
 40
0.2671440672
 40
1.0
 40
1.0
 40
1.0
 40
1.0
 10
353.0998752271
 20
862.5398953835
 30
0.0
 10
353.0835962702
 20
862.5398953443
 30
0.0
 10
353.0228515003
 20
862.5433478278
 30
0.0
 10
352.961773442
 20
862.5598412082
 30
0.0
 10
352.923098227
 20
862.5821698488
 30
0.0
  0
SPLINE
  5
402
100
AcDbEntity
  8
0
100
AcDbSpline
 62
7
  6
BYLAYER
 70
0
 71
3
 72
9
 73
5
 74
0
 42
0.0000001
 43
0.0000001
 44
0.0000000001
 40
0.0
 40
0.0
 40
0.0
 40
0.0
 40
0.2291142508
 40
1.0
 40
1.0
 40
1.0
 40
1.0
 10
353.2766516176
 20
862.5821706987
 30
0.0
 10
353.2645529121
 20
862.5751855495
 30
0.0
 10
353.2090657656
 20
862.5494099479
 30
0.0
 10
353.1468803875
 20
862.5398954964
 30
0.0
 10
353.0998752271
 20
862.5398953835
 30
0.0
  0
SPLINE
  5
403
100
AcDbEntity
  8
0
100
AcDbSpline
 62
7
  6
BYLAYER
 70
0
 71
3
 72
9
 73
5
 74
0
 42
0.0000001
 43
0.0000001
 44
0.0000000001
 40
0.0
 40
0.0
 40
0.0
 40
0.0
 40
0.5255663101
 40
1.0
 40
1.0
 40
1.0
 40
1.0
 10
353.9140981631
 20
862.8505551497
 30
0.0
 10
353.8605980481
 20
862.8505550211
 30
0.0
 10
353.7585290187
 20
862.8394901747
 30
0.0
 10
353.6612956582
 20
862.8042437135
 30
0.0
 10
353.6194708462
 20
862.7800962911
 30
0.0
  0
SPLINE
  5
404
100
AcDbEntity
  8
0
100
AcDbSpline
 62
7
  6
BYLAYER
 70
0
 71
3
 72
9
 73
5
 74
0
 42
0.0000001
 43
0.0000001
 44
0.0000000001
 40
0.0
 40
0.0
 40
0.0
 40
0.0
 40
0.4744342232
 40
1.0
 40
1.0
 40
1.0
 40
1.0
 10
354.2087264967
 20
862.7800977074
 30
0.0
 10
354.1669013754
 20
862.8042449061
 30
0.0
 10
354.0696676324
 20
862.8394908842
 30
0.0
 10
353.9675983366
 20
862.8505552783
 30
0.0
 10
353.9140981631
 20
862.8505551497
 30
0.0
  0
SPLINE
  5
405
100
AcDbEntity
  8
0
100
AcDbSpline
 62
7
  6
BYLAYER
 70
0
 71
3
 72
9
 73
5
 74
0
 42
0.0000001
 43
0.0000001
 44
0.0000000001
 40
0.0
 40
0.0
 40
0.0
 40
0.0
 40
0.2671440672
 40
1.0
 40
1.0
 40
1.0
 40
1.0
 10
354.7069870339
 20
862.5522188342
 30
0.0
 10
354.690708077
 20
862.5522187951
 30
0.0
 10
354.6299633071
 20
862.5556712786
 30
0.0
 10
354.5688852488
 20
862.572164659
 30
0.0
 10
354.5302100338
 20
862.5944932996
 30
0.0
  0
SPLINE
  5
406
100
AcDbEntity
  8
0
100
AcDbSpline
 62
7
  6
BYLAYER
 70
0
 71
3
 72
9
 73
5
 74
0
 42
0.0000001
 43
0.0000001
 44
0.0000000001
 40
0.0
 40
0.0
 40
0.0
 40
0.0
 40
0.2291142508
 40
1.0
 40
1.0
 40
1.0
 40
1.0
 10
354.8837634244
 20
862.5944941495
 30
0.0
 10
354.8716647189
 20
862.5875090003
 30
0.0
 10
354.8161775724
 20
862.5617333987
 30
0.0
 10
354.7539921943
 20
862.5522189472
 30
0.0
 10
354.7069870339
 20
862.5522188342
 30
0.0
  0
SPLINE
  5
407
100
AcDbEntity
  8
0
100
AcDbSpline
 62
7
  6
BYLAYER
 70
0
 71
3
 72
9
 73
5
 74
0
 42
0.0000001
 43
0.0000001
 44
0.0000000001
 40
0.0
 40
0.0
 40
0.0
 40
0.0
 40
0.4492438796
 40
1.0
 40
1.0
 40
1.0
 40
1.0
 10
355.0077853882
 20
862.7258838084
 30
0.0
 10
355.0077855286
 20
862.7064101827
 30
0.0
 10
354.9907640484
 20
862.6629563988
 30
0.0
 10
354.9552382833
 20
862.6357599322
 30
0.0
 10
354.9345628195
 20
862.6238230189
 30
0.0
  0
SPLINE
  5
408
100
AcDbEntity
  8
0
100
AcDbSpline
 62
7
  6
BYLAYER
 70
0
 71
3
 72
9
 73
5
 74
0
 42
0.0000001
 43
0.0000001
 44
0.0000000001
 40
0.0
 40
0.0
 40
0.0
 40
0.0
 40
0.5507561203
 40
1.0
 40
1.0
 40
1.0
 40
1.0
 10
354.6130753568
 20
863.3537506986
 30
0.0
 10
354.5786162505
 20
863.333855843
 30
0.0
 10
354.5194066422
 20
863.2885283987
 30
0.0
 10
354.4910375086
 20
863.2161054257
 30
0.0
 10
354.4910377426
 20
863.1836493829
 30
0.0
  0
SPLINE
  5
409
100
AcDbEntity
  8
0
100
AcDbSpline
 62
7
  6
BYLAYER
 70
0
 71
3
 72
9
 73
5
 74
0
 42
0.0000001
 43
0.0000001
 44
0.0000000001
 40
0.0
 40
0.0
 40
0.0
 40
0.0
 40
0.4492438796
 40
1.0
 40
1.0
 40
1.0
 40
1.0
 10
355.0291171541
 20
863.6537370806
 30
0.0
 10
355.0291172946
 20
863.6342634549
 30
0.0
 10
355.0120958144
 20
863.590809671
 30
0.0
 10
354.9765700493
 20
863.5636132044
 30
0.0
 10
354.9558945854
 20
863.5516762911
 30
0.0
  0
SPLINE
  5
40A
100
AcDbEntity
  8
0
100
AcDbSpline
 62
7
  6
BYLAYER
 70
0
 71
3
 72
9
 73
5
 74
0
 42
0.0000001
 43
0.0000001
 44
0.0000000001
 40
0.0
 40
0.0
 40
0.0
 40
0.0
 40
0.5507565647
 40
1.0
 40
1.0
 40
1.0
 40
1.0
 10
352.8509530831
 20
863.5639908192
 30
0.0
 10
352.8302774349
 20
863.5759276402
 30
0.0
 10
352.7947513403
 20
863.6031238965
 30
0.0
 10
352.7777291829
 20
863.6465775733
 30
0.0
 10
352.7777290425
 20
863.6660512567
 30
0.0
  0
SPLINE
  5
40B
100
AcDbEntity
  8
0
100
AcDbSpline
 62
7
  6
BYLAYER
 70
0
 71
3
 72
9
 73
5
 74
0
 42
0.0000001
 43
0.0000001
 44
0.0000000001
 40
0.0
 40
0.0
 40
0.0
 40
0.0
 40
0.4492434353
 40
1.0
 40
1.0
 40
1.0
 40
1.0
 10
353.3371537796
 20
863.1836466093
 30
0.0
 10
353.3371535456
 20
863.2161027482
 30
0.0
 10
353.3087832832
 20
863.288525543
 30
0.0
 10
353.2495731256
 20
863.3338526368
 30
0.0
 10
353.2151137118
 20
863.3537473385
 30
0.0
  0
SPLINE
  5
40C
100
AcDbEntity
  8
0
100
AcDbSpline
 62
7
  6
BYLAYER
 70
0
 71
3
 72
9
 73
5
 74
0
 42
0.0000001
 43
0.0000001
 44
0.0000000001
 40
0.0
 40
0.0
 40
0.0
 40
0.0
 40
0.5507565647
 40
1.0
 40
1.0
 40
1.0
 40
1.0
 10
352.8722984088
 20
862.611498474
 30
0.0
 10
352.8516227606
 20
862.6234352951
 30
0.0
 10
352.816096666
 20
862.6506315513
 30
0.0
 10
352.7990745085
 20
862.6940852282
 30
0.0
 10
352.7990743681
 20
862.7135589116
 30
0.0
  0
SPLINE
  5
40D
100
AcDbEntity
  8
0
100
AcDbSpline
 62
7
  6
BYLAYER
 70
0
 71
3
 72
12
 73
8
 74
0
 42
0.0000001
 43
0.0000001
 44
0.0000000001
 40
0.0
 40
0.0
 40
0.0
 40
0.0
 40
0.1012414569
 40
0.2057605574
 40
0.4340935482
 40
0.698703089
 40
1.0
 40
1.0
 40
1.0
 40
1.0
 10
356.414088722
 20
861.8228106621
 30
0.0
 10
356.4140829394
 20
861.7602047908
 30
0.0
 10
356.3995025909
 20
861.6325313739
 30
0.0
 10
356.3109533322
 20
861.3771558888
 30
0.0
 10
356.0847749654
 20
861.0742228381
 30
0.0
 10
355.6846002709
 20
860.7815640949
 30
0.0
 10
355.3616192686
 20
860.6400980082
 30
0.0
 10
355.1852714609
 20
860.57997068
 30
0.0
  0
SPLINE
  5
40E
100
AcDbEntity
  8
0
100
AcDbSpline
 62
7
  6
BYLAYER
 70
0
 71
3
 72
9
 73
5
 74
0
 42
0.0000001
 43
0.0000001
 44
0.0000000001
 40
0.0
 40
0.0
 40
0.0
 40
0.0
 40
0.2454307731
 40
1.0
 40
1.0
 40
1.0
 40
1.0
 10
355.1852714609
 20
860.57997068
 30
0.0
 10
355.1564853565
 20
860.5701558058
 30
0.0
 10
355.0386399891
 20
860.531811667
 30
0.0
 10
354.9187149663
 20
860.4999194608
 30
0.0
 10
354.8275229272
 20
860.4792512707
 30
0.0
  0
SPLINE
  5
40F
100
AcDbEntity
  8
0
100
AcDbSpline
 62
7
  6
BYLAYER
 70
0
 71
3
 72
10
 73
6
 74
0
 42
0.0000001
 43
0.0000001
 44
0.0000000001
 40
0.0
 40
0.0
 40
0.0
 40
0.0
 40
0.2473292689
 40
0.4952676752
 40
1.0
 40
1.0
 40
1.0
 40
1.0
 10
351.5018835028
 20
862.9912349689
 30
0.0
 10
351.5374123191
 20
863.0877702525
 30
0.0
 10
351.6294027967
 20
863.2740445834
 30
0.0
 10
351.8834706287
 20
863.6056899075
 30
0.0
 10
352.1370877923
 20
863.8003386413
 30
0.0
 10
352.3188835869
 20
863.9053014932
 30
0.0
  0
SPLINE
  5
410
100
AcDbEntity
  8
0
100
AcDbSpline
 62
7
  6
BYLAYER
 70
0
 71
3
 72
11
 73
7
 74
0
 42
0.0000001
 43
0.0000001
 44
0.0000000001
 40
0.0
 40
0.0
 40
0.0
 40
0.0
 40
0.2550648906
 40
0.5043400343
 40
0.7520505207
 40
1.0
 40
1.0
 40
1.0
 40
1.0
 10
355.5093079353
 20
863.9053014932
 30
0.0
 10
355.6377557104
 20
863.8311400154
 30
0.0
 10
355.8791331237
 20
863.6604214441
 30
0.0
 10
356.1732327622
 20
863.3308338705
 30
0.0
 10
356.3681027636
 20
862.937540066
 30
0.0
 10
356.4140957611
 20
862.6474114914
 30
0.0
 10
356.4140957611
 20
862.5032293151
 30
0.0
  0
SPLINE
  5
411
100
AcDbEntity
  8
0
100
AcDbSpline
 62
7
  6
BYLAYER
 70
0
 71
3
 72
11
 73
7
 74
0
 42
0.0000001
 43
0.0000001
 44
0.0000000001
 40
0.0
 40
0.0
 40
0.0
 40
0.0
 40
0.2433553771
 40
0.5000066983
 40
0.7566556155
 40
1.0
 40
1.0
 40
1.0
 40
1.0
 10
352.3188835869
 20
863.9053014932
 30
0.0
 10
352.5516391454
 20
864.0396868196
 30
0.0
 10
353.0768897796
 20
864.2368896345
 30
0.0
 10
353.9140887742
 20
864.3305795064
 30
0.0
 10
354.7512752699
 20
864.2368915522
 30
0.0
 10
355.2765137288
 20
864.0397022511
 30
0.0
 10
355.5092617535
 20
863.9053281563
 30
0.0
  0
SPLINE
  5
412
100
AcDbEntity
  8
0
100
AcDbSpline
 62
7
  6
BYLAYER
 70
0
 71
3
 72
9
 73
5
 74
0
 42
0.0000001
 43
0.0000001
 44
0.0000000001
 40
0.0
 40
0.0
 40
0.0
 40
0.0
 40
0.2291142508
 40
1.0
 40
1.0
 40
1.0
 40
1.0
 10
352.9017510063
 20
863.7974409156
 30
0.0
 10
352.9138497117
 20
863.8044260648
 30
0.0
 10
352.9693368582
 20
863.8302016665
 30
0.0
 10
353.0315222364
 20
863.8397161179
 30
0.0
 10
353.0785273967
 20
863.8397162309
 30
0.0
  0
SPLINE
  5
413
100
AcDbEntity
  8
0
100
AcDbSpline
 62
7
  6
BYLAYER
 70
0
 71
3
 72
9
 73
5
 74
0
 42
0.0000001
 43
0.0000001
 44
0.0000000001
 40
0.0
 40
0.0
 40
0.0
 40
0.0
 40
0.4492438796
 40
1.0
 40
1.0
 40
1.0
 40
1.0
 10
352.7777290425
 20
863.6660512567
 30
0.0
 10
352.777728902
 20
863.6855248824
 30
0.0
 10
352.7947503822
 20
863.7289786663
 30
0.0
 10
352.8302761473
 20
863.7561751329
 30
0.0
 10
352.8509516112
 20
863.7681120463
 30
0.0
  0
SPLINE
  5
414
100
AcDbEntity
  8
0
100
AcDbSpline
 62
7
  6
BYLAYER
 70
0
 71
3
 72
9
 73
5
 74
0
 42
0.0000001
 43
0.0000001
 44
0.0000000001
 40
0.0
 40
0.0
 40
0.0
 40
0.0
 40
0.5507565647
 40
1.0
 40
1.0
 40
1.0
 40
1.0
 10
354.9345613475
 20
862.827944246
 30
0.0
 10
354.9552369957
 20
862.8160074249
 30
0.0
 10
354.9907630903
 20
862.7888111686
 30
0.0
 10
355.0077852478
 20
862.7453574918
 30
0.0
 10
355.0077853882
 20
862.7258838084
 30
0.0
  0
SPLINE
  5
415
100
AcDbEntity
  8
0
100
AcDbSpline
 62
7
  6
BYLAYER
 70
0
 71
3
 72
9
 73
5
 74
0
 42
0.0000001
 43
0.0000001
 44
0.0000000001
 40
0.0
 40
0.0
 40
0.0
 40
0.0
 40
0.4492434353
 40
1.0
 40
1.0
 40
1.0
 40
1.0
 10
354.4910377426
 20
863.1836493829
 30
0.0
 10
354.4910379767
 20
863.1511932439
 30
0.0
 10
354.5194082391
 20
863.0787704492
 30
0.0
 10
354.5786183967
 20
863.0334433554
 30
0.0
 10
354.6130778105
 20
863.0135486537
 30
0.0
  0
SPLINE
  5
416
100
AcDbEntity
  8
0
100
AcDbSpline
 62
7
  6
BYLAYER
 70
0
 71
3
 72
9
 73
5
 74
0
 42
0.0000001
 43
0.0000001
 44
0.0000000001
 40
0.0
 40
0.0
 40
0.0
 40
0.0
 40
0.5507561203
 40
1.0
 40
1.0
 40
1.0
 40
1.0
 10
353.2151161654
 20
863.0135452936
 30
0.0
 10
353.2495752717
 20
863.0334401491
 30
0.0
 10
353.3087848801
 20
863.0787675935
 30
0.0
 10
353.3371540137
 20
863.1511905665
 30
0.0
 10
353.3371537796
 20
863.1836466093
 30
0.0
  0
SPLINE
  5
417
100
AcDbEntity
  8
0
100
AcDbSpline
 62
7
  6
BYLAYER
 70
0
 71
3
 72
9
 73
5
 74
0
 42
0.0000001
 43
0.0000001
 44
0.0000000001
 40
0.0
 40
0.0
 40
0.0
 40
0.0
 40
0.4492438796
 40
1.0
 40
1.0
 40
1.0
 40
1.0
 10
352.7990743681
 20
862.7135589116
 30
0.0
 10
352.7990742277
 20
862.7330325373
 30
0.0
 10
352.8160957079
 20
862.7764863212
 30
0.0
 10
352.851621473
 20
862.8036827878
 30
0.0
 10
352.8722969368
 20
862.8156197011
 30
0.0
  0
SPLINE
  5
418
100
AcDbEntity
  8
0
100
AcDbSpline
 62
7
  6
BYLAYER
 70
0
 71
3
 72
19
 73
15
 74
0
 42
0.0000001
 43
0.0000001
 44
0.0000000001
 40
0.0
 40
0.0
 40
0.0
 40
0.0
 40
0.1382513799
 40
0.2913966195
 40
0.4445435246
 40
0.5827913965
 40
0.6432440081
 40
0.69732397
 40
0.7459658062
 40
0.7913933414
 40
0.8368212219
 40
0.8854622012
 40
0.9395476945
 40
1.0
 40
1.0
 40
1.0
 40
1.0
 10
352.7355910956
 20
862.5032420718
 30
0.0
 10
352.9028939139
 20
862.4066519298
 30
0.0
 10
353.2919849161
 20
862.2656935137
 30
0.0
 10
353.9140754284
 20
862.1981082093
 30
0.0
 10
354.5363091089
 20
862.2658357195
 30
0.0
 10
355.0057849001
 20
862.4355421585
 30
0.0
 10
355.2984203017
 20
862.6367919237
 30
0.0
 10
355.456978873
 20
862.8034990593
 30
0.0
 10
355.5573148016
 20
862.987950945
 30
0.0
 10
355.5920704475
 20
863.1836425595
 30
0.0
 10
355.5573222632
 20
863.3793285031
 30
0.0
 10
355.4569886445
 20
863.5638096307
 30
0.0
 10
355.2984585416
 20
863.7304546912
 30
0.0
 10
355.1657558705
 20
863.8218185607
 30
0.0
 10
355.0926004265
 20
863.8640539205
 30
0.0
  0
SPLINE
  5
419
100
AcDbEntity
  8
0
100
AcDbSpline
 62
7
  6
BYLAYER
 70
0
 71
3
 72
9
 73
5
 74
0
 42
0.0000001
 43
0.0000001
 44
0.0000000001
 40
0.0
 40
0.0
 40
0.0
 40
0.0
 40
0.2550044393
 40
1.0
 40
1.0
 40
1.0
 40
1.0
 10
354.6652415181
 20
861.1265651376
 30
0.0
 10
354.7052624339
 20
861.1338428206
 30
0.0
 10
354.8617464127
 20
861.1648160482
 30
0.0
 10
355.0163374024
 20
861.2055799112
 30
0.0
 10
355.1294830916
 20
861.2419208452
 30
0.0
  0
SPLINE
  5
41A
100
AcDbEntity
  8
0
100
AcDbSpline
 62
7
  6
BYLAYER
 70
0
 71
3
 72
12
 73
8
 74
0
 42
0.0000001
 43
0.0000001
 44
0.0000000001
 40
0.0
 40
0.0
 40
0.0
 40
0.0
 40
0.302176583
 40
0.5673767124
 40
0.795389341
 40
0.8994013347
 40
1.0
 40
1.0
 40
1.0
 40
1.0
 10
355.1294830916
 20
861.2419208452
 30
0.0
 10
355.3130001837
 20
861.3008641651
 30
0.0
 10
355.6495167953
 20
861.4414355849
 30
0.0
 10
356.0678147123
 20
861.73695201
 30
0.0
 10
356.305551948
 20
862.046209159
 30
0.0
 10
356.3987433011
 20
862.3080784302
 30
0.0
 10
356.4140853901
 20
862.4390599995
 30
0.0
 10
356.4140910907
 20
862.5032293153
 30
0.0
  0
SPLINE
  5
41B
100
AcDbEntity
  8
0
100
AcDbSpline
 62
7
  6
BYLAYER
 70
0
 71
3
 72
19
 73
15
 74
0
 42
0.0000001
 43
0.0000001
 44
0.0000000001
 40
0.0
 40
0.0
 40
0.0
 40
0.0
 40
0.1382513799
 40
0.2913966195
 40
0.4445435246
 40
0.5827913965
 40
0.6432440081
 40
0.69732397
 40
0.7459658062
 40
0.7913933414
 40
0.8368212219
 40
0.8854622012
 40
0.9395476945
 40
1.0
 40
1.0
 40
1.0
 40
1.0
 10
355.0926004265
 20
863.8640539205
 30
0.0
 10
354.9252976083
 20
863.9606440625
 30
0.0
 10
354.5362066061
 20
864.1016024786
 30
0.0
 10
353.9141160938
 20
864.1691877829
 30
0.0
 10
353.2918824133
 20
864.1014602727
 30
0.0
 10
352.8224066221
 20
863.9317538337
 30
0.0
 10
352.5297712205
 20
863.7305040686
 30
0.0
 10
352.3712126491
 20
863.563796933
 30
0.0
 10
352.2708767206
 20
863.3793450473
 30
0.0
 10
352.2361210747
 20
863.1836534328
 30
0.0
 10
352.270869259
 20
862.9879674891
 30
0.0
 10
352.3712028777
 20
862.8034863615
 30
0.0
 10
352.5297329806
 20
862.636841301
 30
0.0
 10
352.6624356517
 20
862.5454774315
 30
0.0
 10
352.7355910956
 20
862.5032420718
 30
0.0
  0
SPLINE
  5
41C
100
AcDbEntity
  8
0
100
AcDbSpline
 62
7
  6
BYLAYER
 70
0
 71
3
 72
9
 73
5
 74
0
 42
0.0000001
 43
0.0000001
 44
0.0000000001
 40
0.0
 40
0.0
 40
0.0
 40
0.0
 40
0.5507565647
 40
1.0
 40
1.0
 40
1.0
 40
1.0
 10
354.9558931135
 20
863.7557975182
 30
0.0
 10
354.9765687617
 20
863.7438606971
 30
0.0
 10
355.0120948563
 20
863.7166644408
 30
0.0
 10
355.0291170137
 20
863.673210764
 30
0.0
 10
355.0291171541
 20
863.6537370806
 30
0.0
  0
SPLINE
  5
41D
100
AcDbEntity
  8
0
100
AcDbSpline
 62
7
  6
BYLAYER
 70
0
 71
3
 72
9
 73
5
 74
0
 42
0.0000001
 43
0.0000001
 44
0.0000000001
 40
0.0
 40
0.0
 40
0.0
 40
0.0
 40
0.2671440672
 40
1.0
 40
1.0
 40
1.0
 40
1.0
 10
354.7283162951
 20
863.8274006087
 30
0.0
 10
354.7445952521
 20
863.8274006479
 30
0.0
 10
354.8053400219
 20
863.8239481644
 30
0.0
 10
354.8664180803
 20
863.807454784
 30
0.0
 10
354.9050932953
 20
863.7851261433
 30
0.0
  0
SPLINE
  5
41E
100
AcDbEntity
  8
0
100
AcDbSpline
 62
7
  6
BYLAYER
 70
0
 71
3
 72
9
 73
5
 74
0
 42
0.0000001
 43
0.0000001
 44
0.0000000001
 40
0.0
 40
0.0
 40
0.0
 40
0.0
 40
0.2291142508
 40
1.0
 40
1.0
 40
1.0
 40
1.0
 10
354.5515399047
 20
863.7851252935
 30
0.0
 10
354.5636386102
 20
863.7921104427
 30
0.0
 10
354.6191257567
 20
863.8178860443
 30
0.0
 10
354.6813111348
 20
863.8274004958
 30
0.0
 10
354.7283162951
 20
863.8274006087
 30
0.0
  0
SPLINE
  5
41F
100
AcDbEntity
  8
0
100
AcDbSpline
 62
7
  6
BYLAYER
 70
0
 71
3
 72
9
 73
5
 74
0
 42
0.0000001
 43
0.0000001
 44
0.0000000001
 40
0.0
 40
0.0
 40
0.0
 40
0.0
 40
0.5255663101
 40
1.0
 40
1.0
 40
1.0
 40
1.0
 10
353.9140933591
 20
863.5167408425
 30
0.0
 10
353.9675934741
 20
863.5167409711
 30
0.0
 10
354.0696625036
 20
863.5278058175
 30
0.0
 10
354.166895864
 20
863.5630522787
 30
0.0
 10
354.2087206761
 20
863.587199701
 30
0.0
  0
SPLINE
  5
420
100
AcDbEntity
  8
0
100
AcDbSpline
 62
7
  6
BYLAYER
 70
0
 71
3
 72
9
 73
5
 74
0
 42
0.0000001
 43
0.0000001
 44
0.0000000001
 40
0.0
 40
0.0
 40
0.0
 40
0.0
 40
0.4744342232
 40
1.0
 40
1.0
 40
1.0
 40
1.0
 10
353.6194650255
 20
863.5871982848
 30
0.0
 10
353.6612901468
 20
863.5630510861
 30
0.0
 10
353.7585238899
 20
863.527805108
 30
0.0
 10
353.8605931857
 20
863.5167407139
 30
0.0
 10
353.9140933591
 20
863.5167408425
 30
0.0
  0
SPLINE
  5
421
100
AcDbEntity
  8
0
100
AcDbSpline
 62
7
  6
BYLAYER
 70
0
 71
3
 72
9
 73
5
 74
0
 42
0.0000001
 43
0.0000001
 44
0.0000000001
 40
0.0
 40
0.0
 40
0.0
 40
0.0
 40
0.2671440672
 40
1.0
 40
1.0
 40
1.0
 40
1.0
 10
353.0785273967
 20
863.8397162309
 30
0.0
 10
353.0948063537
 20
863.83971627
 30
0.0
 10
353.1555511235
 20
863.8362637865
 30
0.0
 10
353.2166291818
 20
863.8197704061
 30
0.0
 10
353.2553043969
 20
863.7974417655
 30
0.0
  0
SPLINE
  5
422
100
AcDbEntity
  8
0
100
AcDbSpline
 62
7
  6
BYLAYER
 70
0
 71
3
 72
9
 73
5
 74
0
 42
0.0000001
 43
0.0000001
 44
0.0000000001
 40
0.0
 40
0.0
 40
0.0
 40
0.0
 40
0.2671440672
 40
1.0
 40
1.0
 40
1.0
 40
1.0
 10
321.9871768552
 20
862.5611310899
 30
0.0
 10
321.9708978982
 20
862.5611310508
 30
0.0
 10
321.9101531284
 20
862.5645835343
 30
0.0
 10
321.84907507
 20
862.5810769147
 30
0.0
 10
321.810399855
 20
862.6034055553
 30
0.0
  0
SPLINE
  5
423
100
AcDbEntity
  8
0
100
AcDbSpline
 62
7
  6
BYLAYER
 70
0
 71
3
 72
9
 73
5
 74
0
 42
0.0000001
 43
0.0000001
 44
0.0000000001
 40
0.0
 40
0.0
 40
0.0
 40
0.0
 40
0.2291142508
 40
1.0
 40
1.0
 40
1.0
 40
1.0
 10
322.1639532456
 20
862.6034064052
 30
0.0
 10
322.1518545402
 20
862.596421256
 30
0.0
 10
322.0963673937
 20
862.5706456544
 30
0.0
 10
322.0341820155
 20
862.5611312029
 30
0.0
 10
321.9871768552
 20
862.5611310899
 30
0.0
  0
SPLINE
  5
424
100
AcDbEntity
  8
0
100
AcDbSpline
 62
7
  6
BYLAYER
 70
0
 71
3
 72
9
 73
5
 74
0
 42
0.0000001
 43
0.0000001
 44
0.0000000001
 40
0.0
 40
0.0
 40
0.0
 40
0.0
 40
0.5255663101
 40
1.0
 40
1.0
 40
1.0
 40
1.0
 10
322.8013997912
 20
862.8717908562
 30
0.0
 10
322.7478996762
 20
862.8717907276
 30
0.0
 10
322.6458306467
 20
862.8607258812
 30
0.0
 10
322.5485972863
 20
862.82547942
 30
0.0
 10
322.5067724742
 20
862.8013319976
 30
0.0
  0
SPLINE
  5
425
100
AcDbEntity
  8
0
100
AcDbSpline
 62
7
  6
BYLAYER
 70
0
 71
3
 72
9
 73
5
 74
0
 42
0.0000001
 43
0.0000001
 44
0.0000000001
 40
0.0
 40
0.0
 40
0.0
 40
0.0
 40
0.4744342232
 40
1.0
 40
1.0
 40
1.0
 40
1.0
 10
323.0960281248
 20
862.8013334139
 30
0.0
 10
323.0542030034
 20
862.8254806126
 30
0.0
 10
322.9569692604
 20
862.8607265907
 30
0.0
 10
322.8548999646
 20
862.8717909848
 30
0.0
 10
322.8013997912
 20
862.8717908562
 30
0.0
  0
SPLINE
  5
426
100
AcDbEntity
  8
0
100
AcDbSpline
 62
7
  6
BYLAYER
 70
0
 71
3
 72
9
 73
5
 74
0
 42
0.0000001
 43
0.0000001
 44
0.0000000001
 40
0.0
 40
0.0
 40
0.0
 40
0.0
 40
0.2671440672
 40
1.0
 40
1.0
 40
1.0
 40
1.0
 10
323.594288662
 20
862.5734545407
 30
0.0
 10
323.578009705
 20
862.5734545016
 30
0.0
 10
323.5172649352
 20
862.5769069851
 30
0.0
 10
323.4561868768
 20
862.5934003655
 30
0.0
 10
323.4175116618
 20
862.6157290061
 30
0.0
  0
SPLINE
  5
427
100
AcDbEntity
  8
0
100
AcDbSpline
 62
7
  6
BYLAYER
 70
0
 71
3
 72
9
 73
5
 74
0
 42
0.0000001
 43
0.0000001
 44
0.0000000001
 40
0.0
 40
0.0
 40
0.0
 40
0.0
 40
0.2291142508
 40
1.0
 40
1.0
 40
1.0
 40
1.0
 10
323.7710650524
 20
862.615729856
 30
0.0
 10
323.758966347
 20
862.6087447068
 30
0.0
 10
323.7034792005
 20
862.5829691052
 30
0.0
 10
323.6412938223
 20
862.5734546537
 30
0.0
 10
323.594288662
 20
862.5734545407
 30
0.0
  0
SPLINE
  5
428
100
AcDbEntity
  8
0
100
AcDbSpline
 62
7
  6
BYLAYER
 70
0
 71
3
 72
9
 73
5
 74
0
 42
0.0000001
 43
0.0000001
 44
0.0000000001
 40
0.0
 40
0.0
 40
0.0
 40
0.0
 40
0.4492438796
 40
1.0
 40
1.0
 40
1.0
 40
1.0
 10
323.8950870162
 20
862.7471195149
 30
0.0
 10
323.8950871567
 20
862.7276458892
 30
0.0
 10
323.8780656765
 20
862.6841921053
 30
0.0
 10
323.8425399114
 20
862.6569956387
 30
0.0
 10
323.8218644475
 20
862.6450587254
 30
0.0
  0
SPLINE
  5
429
100
AcDbEntity
  8
0
100
AcDbSpline
 62
7
  6
BYLAYER
 70
0
 71
3
 72
9
 73
5
 74
0
 42
0.0000001
 43
0.0000001
 44
0.0000000001
 40
0.0
 40
0.0
 40
0.0
 40
0.0
 40
0.5507561203
 40
1.0
 40
1.0
 40
1.0
 40
1.0
 10
323.5003769849
 20
863.3749864051
 30
0.0
 10
323.4659178786
 20
863.3550915495
 30
0.0
 10
323.4067082702
 20
863.3097641052
 30
0.0
 10
323.3783391366
 20
863.2373411322
 30
0.0
 10
323.3783393707
 20
863.2048850894
 30
0.0
  0
SPLINE
  5
42A
100
AcDbEntity
  8
0
100
AcDbSpline
 62
7
  6
BYLAYER
 70
0
 71
3
 72
9
 73
5
 74
0
 42
0.0000001
 43
0.0000001
 44
0.0000000001
 40
0.0
 40
0.0
 40
0.0
 40
0.0
 40
0.4492438796
 40
1.0
 40
1.0
 40
1.0
 40
1.0
 10
323.9164187822
 20
863.6749727871
 30
0.0
 10
323.9164189226
 20
863.6554991614
 30
0.0
 10
323.8993974424
 20
863.6120453775
 30
0.0
 10
323.8638716773
 20
863.5848489109
 30
0.0
 10
323.8431962135
 20
863.5729119976
 30
0.0
  0
SPLINE
  5
42B
100
AcDbEntity
  8
0
100
AcDbSpline
 62
7
  6
BYLAYER
 70
0
 71
3
 72
9
 73
5
 74
0
 42
0.0000001
 43
0.0000001
 44
0.0000000001
 40
0.0
 40
0.0
 40
0.0
 40
0.0
 40
0.5507565647
 40
1.0
 40
1.0
 40
1.0
 40
1.0
 10
321.7382547112
 20
863.5852265257
 30
0.0
 10
321.7175790629
 20
863.5971633467
 30
0.0
 10
321.6820529684
 20
863.624359603
 30
0.0
 10
321.6650308109
 20
863.6678132798
 30
0.0
 10
321.6650306705
 20
863.6872869632
 30
0.0
  0
SPLINE
  5
42C
100
AcDbEntity
  8
0
100
AcDbSpline
 62
7
  6
BYLAYER
 70
0
 71
3
 72
9
 73
5
 74
0
 42
0.0000001
 43
0.0000001
 44
0.0000000001
 40
0.0
 40
0.0
 40
0.0
 40
0.0
 40
0.4492434353
 40
1.0
 40
1.0
 40
1.0
 40
1.0
 10
322.2244554077
 20
863.2048823158
 30
0.0
 10
322.2244551736
 20
863.2373384547
 30
0.0
 10
322.1960849113
 20
863.3097612495
 30
0.0
 10
322.1368747537
 20
863.3550883433
 30
0.0
 10
322.1024153399
 20
863.374983045
 30
0.0
  0
SPLINE
  5
42D
100
AcDbEntity
  8
0
100
AcDbSpline
 62
7
  6
BYLAYER
 70
0
 71
3
 72
9
 73
5
 74
0
 42
0.0000001
 43
0.0000001
 44
0.0000000001
 40
0.0
 40
0.0
 40
0.0
 40
0.0
 40
0.5507565647
 40
1.0
 40
1.0
 40
1.0
 40
1.0
 10
321.7596000369
 20
862.6327341805
 30
0.0
 10
321.7389243886
 20
862.6446710016
 30
0.0
 10
321.703398294
 20
862.6718672578
 30
0.0
 10
321.6863761366
 20
862.7153209347
 30
0.0
 10
321.6863759962
 20
862.7347946181
 30
0.0
  0
SPLINE
  5
42E
100
AcDbEntity
  8
0
100
AcDbSpline
 62
7
  6
BYLAYER
 70
0
 71
3
 72
11
 73
7
 74
0
 42
0.0000001
 43
0.0000001
 44
0.0000000001
 40
0.0
 40
0.0
 40
0.0
 40
0.0
 40
0.2898080169
 40
0.5490504853
 40
0.7822322469
 40
1.0
 40
1.0
 40
1.0
 40
1.0
 10
321.0336377961
 20
860.8234359561
 30
0.0
 10
320.9238985451
 20
860.8867925089
 30
0.0
 10
320.7248413883
 20
861.0238078314
 30
0.0
 10
320.4870655735
 20
861.2738667371
 30
0.0
 10
320.3365473649
 20
861.5503234881
 30
0.0
 10
320.3013956336
 20
861.7488298427
 30
0.0
 10
320.3014044283
 20
861.8440463129
 30
0.0
  0
SPLINE
  5
42F
100
AcDbEntity
  8
0
100
AcDbSpline
 62
7
  6
BYLAYER
 70
0
 71
3
 72
9
 73
5
 74
0
 42
0.0000001
 43
0.0000001
 44
0.0000000001
 40
0.0
 40
0.0
 40
0.0
 40
0.0
 40
0.5117959658
 40
1.0
 40
1.0
 40
1.0
 40
1.0
 10
322.8321936546
 20
860.4008057272
 30
0.0
 10
322.6070928534
 20
860.3991987794
 30
0.0
 10
322.1663717947
 20
860.4300466261
 30
0.0
 10
321.7357191834
 20
860.5313098563
 30
0.0
 10
321.5324255389
 20
860.6004520525
 30
0.0
  0
SPLINE
  5
430
100
AcDbEntity
  8
0
100
AcDbSpline
 62
7
  6
BYLAYER
 70
0
 71
3
 72
9
 73
5
 74
0
 42
0.0000001
 43
0.0000001
 44
0.0000000001
 40
0.0
 40
0.0
 40
0.0
 40
0.0
 40
0.2601601787
 40
1.0
 40
1.0
 40
1.0
 40
1.0
 10
321.5324255389
 20
860.6004520525
 30
0.0
 10
321.4875295382
 20
860.6157216301
 30
0.0
 10
321.3162877278
 20
860.6781654971
 30
0.0
 10
321.1504280053
 20
860.7560086228
 30
0.0
 10
321.0336377961
 20
860.8234359561
 30
0.0
  0
SPLINE
  5
431
100
AcDbEntity
  8
0
100
AcDbSpline
 62
7
  6
BYLAYER
 70
0
 71
3
 72
11
 73
7
 74
0
 42
0.0000001
 43
0.0000001
 44
0.0000000001
 40
0.0
 40
0.0
 40
0.0
 40
0.0
 40
0.247942443
 40
0.4956576428
 40
0.744934943
 40
1.0
 40
1.0
 40
1.0
 40
1.0
 10
320.3013973892
 20
862.5244650217
 30
0.0
 10
320.3013973892
 20
862.6686430711
 30
0.0
 10
320.347391011
 20
862.9587696681
 30
0.0
 10
320.5422569678
 20
863.3520652243
 30
0.0
 10
320.8363586059
 20
863.6816568545
 30
0.0
 10
321.0777373875
 20
863.8523756917
 30
0.0
 10
321.206185215
 20
863.9265371998
 30
0.0
  0
SPLINE
  5
432
100
AcDbEntity
  8
0
100
AcDbSpline
 62
7
  6
BYLAYER
 70
0
 71
3
 72
10
 73
6
 74
0
 42
0.0000001
 43
0.0000001
 44
0.0000000001
 40
0.0
 40
0.0
 40
0.0
 40
0.0
 40
0.5046719114
 40
0.7526128409
 40
1.0
 40
1.0
 40
1.0
 40
1.0
 10
324.3966095633
 20
863.9265371998
 30
0.0
 10
324.5811029717
 20
863.8200168353
 30
0.0
 10
324.8382885559
 20
863.6218167666
 30
0.0
 10
325.0938633752
 20
863.2833593088
 30
0.0
 10
325.1851950716
 20
863.0932016983
 30
0.0
 10
325.2200053691
 20
862.9947452581
 30
0.0
  0
SPLINE
  5
433
100
AcDbEntity
  8
0
100
AcDbSpline
 62
7
  6
BYLAYER
 70
0
 71
3
 72
11
 73
7
 74
0
 42
0.0000001
 43
0.0000001
 44
0.0000000001
 40
0.0
 40
0.0
 40
0.0
 40
0.0
 40
0.2433553771
 40
0.5000066983
 40
0.7566556155
 40
1.0
 40
1.0
 40
1.0
 40
1.0
 10
321.206185215
 20
863.9265371998
 30
0.0
 10
321.4389407734
 20
864.0609225262
 30
0.0
 10
321.9641914076
 20
864.2581253411
 30
0.0
 10
322.8013904023
 20
864.351815213
 30
0.0
 10
323.638576898
 20
864.2581272587
 30
0.0
 10
324.1638153569
 20
864.0609379576
 30
0.0
 10
324.3965633816
 20
863.9265638629
 30
0.0
  0
SPLINE
  5
434
100
AcDbEntity
  8
0
100
AcDbSpline
 62
7
  6
BYLAYER
 70
0
 71
3
 72
9
 73
5
 74
0
 42
0.0000001
 43
0.0000001
 44
0.0000000001
 40
0.0
 40
0.0
 40
0.0
 40
0.0
 40
0.2291142508
 40
1.0
 40
1.0
 40
1.0
 40
1.0
 10
321.7890526343
 20
863.8186766221
 30
0.0
 10
321.8011513398
 20
863.8256617713
 30
0.0
 10
321.8566384863
 20
863.851437373
 30
0.0
 10
321.9188238644
 20
863.8609518244
 30
0.0
 10
321.9658290248
 20
863.8609519374
 30
0.0
  0
SPLINE
  5
435
100
AcDbEntity
  8
0
100
AcDbSpline
 62
7
  6
BYLAYER
 70
0
 71
3
 72
9
 73
5
 74
0
 42
0.0000001
 43
0.0000001
 44
0.0000000001
 40
0.0
 40
0.0
 40
0.0
 40
0.0
 40
0.4492438796
 40
1.0
 40
1.0
 40
1.0
 40
1.0
 10
321.6650306705
 20
863.6872869632
 30
0.0
 10
321.6650305301
 20
863.7067605889
 30
0.0
 10
321.6820520103
 20
863.7502143728
 30
0.0
 10
321.7175777754
 20
863.7774108394
 30
0.0
 10
321.7382532392
 20
863.7893477528
 30
0.0
  0
SPLINE
  5
436
100
AcDbEntity
  8
0
100
AcDbSpline
 62
7
  6
BYLAYER
 70
0
 71
3
 72
9
 73
5
 74
0
 42
0.0000001
 43
0.0000001
 44
0.0000000001
 40
0.0
 40
0.0
 40
0.0
 40
0.0
 40
0.5507565647
 40
1.0
 40
1.0
 40
1.0
 40
1.0
 10
323.8218629756
 20
862.8491799524
 30
0.0
 10
323.8425386238
 20
862.8372431314
 30
0.0
 10
323.8780647184
 20
862.8100468751
 30
0.0
 10
323.8950868758
 20
862.7665931983
 30
0.0
 10
323.8950870162
 20
862.7471195149
 30
0.0
  0
SPLINE
  5
437
100
AcDbEntity
  8
0
100
AcDbSpline
 62
7
  6
BYLAYER
 70
0
 71
3
 72
9
 73
5
 74
0
 42
0.0000001
 43
0.0000001
 44
0.0000000001
 40
0.0
 40
0.0
 40
0.0
 40
0.0
 40
0.4492434353
 40
1.0
 40
1.0
 40
1.0
 40
1.0
 10
323.3783393707
 20
863.2048850894
 30
0.0
 10
323.3783396047
 20
863.1724289504
 30
0.0
 10
323.4067098671
 20
863.1000061557
 30
0.0
 10
323.4659200248
 20
863.0546790619
 30
0.0
 10
323.5003794385
 20
863.0347843602
 30
0.0
  0
SPLINE
  5
438
100
AcDbEntity
  8
0
100
AcDbSpline
 62
7
  6
BYLAYER
 70
0
 71
3
 72
9
 73
5
 74
0
 42
0.0000001
 43
0.0000001
 44
0.0000000001
 40
0.0
 40
0.0
 40
0.0
 40
0.0
 40
0.5507561203
 40
1.0
 40
1.0
 40
1.0
 40
1.0
 10
322.1024177935
 20
863.0347810001
 30
0.0
 10
322.1368768998
 20
863.0546758556
 30
0.0
 10
322.1960865082
 20
863.1000033
 30
0.0
 10
322.2244556417
 20
863.172426273
 30
0.0
 10
322.2244554077
 20
863.2048823158
 30
0.0
  0
SPLINE
  5
439
100
AcDbEntity
  8
0
100
AcDbSpline
 62
7
  6
BYLAYER
 70
0
 71
3
 72
9
 73
5
 74
0
 42
0.0000001
 43
0.0000001
 44
0.0000000001
 40
0.0
 40
0.0
 40
0.0
 40
0.0
 40
0.4492438796
 40
1.0
 40
1.0
 40
1.0
 40
1.0
 10
321.6863759962
 20
862.7347946181
 30
0.0
 10
321.6863758557
 20
862.7542682438
 30
0.0
 10
321.703397336
 20
862.7977220277
 30
0.0
 10
321.7389231011
 20
862.8249184943
 30
0.0
 10
321.7595985649
 20
862.8368554076
 30
0.0
  0
SPLINE
  5
43A
100
AcDbEntity
  8
0
100
AcDbSpline
 62
7
  6
BYLAYER
 70
0
 71
3
 72
19
 73
15
 74
0
 42
0.0000001
 43
0.0000001
 44
0.0000000001
 40
0.0
 40
0.0
 40
0.0
 40
0.0
 40
0.1382513799
 40
0.2913966195
 40
0.4445435246
 40
0.5827913965
 40
0.6432440081
 40
0.69732397
 40
0.7459658062
 40
0.7913933414
 40
0.8368212219
 40
0.8854622012
 40
0.9395476945
 40
1.0
 40
1.0
 40
1.0
 40
1.0
 10
321.6228927237
 20
862.5244777783
 30
0.0
 10
321.7901955419
 20
862.4278876363
 30
0.0
 10
322.1792865442
 20
862.2869292202
 30
0.0
 10
322.8013770565
 20
862.2193439158
 30
0.0
 10
323.423610737
 20
862.287071426
 30
0.0
 10
323.8930865282
 20
862.456777865
 30
0.0
 10
324.1857219298
 20
862.6580276302
 30
0.0
 10
324.3442805011
 20
862.8247347657
 30
0.0
 10
324.4446164296
 20
863.0091866515
 30
0.0
 10
324.4793720755
 20
863.204878266
 30
0.0
 10
324.4446238912
 20
863.4005642096
 30
0.0
 10
324.3442902726
 20
863.5850453372
 30
0.0
 10
324.1857601697
 20
863.7516903977
 30
0.0
 10
324.0530574985
 20
863.8430542672
 30
0.0
 10
323.9799020546
 20
863.885289627
 30
0.0
  0
SPLINE
  5
43B
100
AcDbEntity
  8
0
100
AcDbSpline
 62
7
  6
BYLAYER
 70
0
 71
3
 72
9
 73
5
 74
0
 42
0.0000001
 43
0.0000001
 44
0.0000000001
 40
0.0
 40
0.0
 40
0.0
 40
0.0
 40
0.2381771254
 40
1.0
 40
1.0
 40
1.0
 40
1.0
 10
321.0336377961
 20
861.503854637
 30
0.0
 10
321.0781579778
 20
861.4781514797
 30
0.0
 10
321.2686119217
 20
861.376387202
 30
0.0
 10
321.4711893943
 20
861.2980744568
 30
0.0
 10
321.6283882672
 20
861.2498527437
 30
0.0
  0
SPLINE
  5
43C
100
AcDbEntity
  8
0
100
AcDbSpline
 62
7
  6
BYLAYER
 70
0
 71
3
 72
9
 73
5
 74
0
 42
0.0000001
 43
0.0000001
 44
0.0000000001
 40
0.0
 40
0.0
 40
0.0
 40
0.0
 40
0.2439379628
 40
1.0
 40
1.0
 40
1.0
 40
1.0
 10
321.7916043986
 20
861.204090255
 30
0.0
 10
321.8742933659
 20
861.1830133972
 30
0.0
 10
322.2162367775
 20
861.10854148
 30
0.0
 10
322.5677236233
 20
861.0793351744
 30
0.0
 10
322.8321978425
 20
861.0812230712
 30
0.0
  0
SPLINE
  5
43D
100
AcDbEntity
  8
0
100
AcDbSpline
 62
7
  6
BYLAYER
 70
0
 71
3
 72
19
 73
15
 74
0
 42
0.0000001
 43
0.0000001
 44
0.0000000001
 40
0.0
 40
0.0
 40
0.0
 40
0.0
 40
0.1382513799
 40
0.2913966195
 40
0.4445435246
 40
0.5827913965
 40
0.6432440081
 40
0.69732397
 40
0.7459658062
 40
0.7913933414
 40
0.8368212219
 40
0.8854622012
 40
0.9395476945
 40
1.0
 40
1.0
 40
1.0
 40
1.0
 10
323.9799020546
 20
863.885289627
 30
0.0
 10
323.8125992364
 20
863.981879769
 30
0.0
 10
323.4235082341
 20
864.1228381851
 30
0.0
 10
322.8014177218
 20
864.1904234894
 30
0.0
 10
322.1791840413
 20
864.1226959792
 30
0.0
 10
321.7097082501
 20
863.9529895402
 30
0.0
 10
321.4170728486
 20
863.7517397751
 30
0.0
 10
321.2585142772
 20
863.5850326395
 30
0.0
 10
321.1581783487
 20
863.4005807538
 30
0.0
 10
321.1234227028
 20
863.2048891392
 30
0.0
 10
321.1581708871
 20
863.0092031956
 30
0.0
 10
321.2585045057
 20
862.824722068
 30
0.0
 10
321.4170346086
 20
862.6580770075
 30
0.0
 10
321.5497372798
 20
862.566713138
 30
0.0
 10
321.6228927237
 20
862.5244777783
 30
0.0
  0
SPLINE
  5
43E
100
AcDbEntity
  8
0
100
AcDbSpline
 62
7
  6
BYLAYER
 70
0
 71
3
 72
9
 73
5
 74
0
 42
0.0000001
 43
0.0000001
 44
0.0000000001
 40
0.0
 40
0.0
 40
0.0
 40
0.0
 40
0.5507565647
 40
1.0
 40
1.0
 40
1.0
 40
1.0
 10
323.8431947415
 20
863.7770332247
 30
0.0
 10
323.8638703898
 20
863.7650964036
 30
0.0
 10
323.8993964843
 20
863.7379001473
 30
0.0
 10
323.9164186418
 20
863.6944464705
 30
0.0
 10
323.9164187822
 20
863.6749727871
 30
0.0
  0
SPLINE
  5
43F
100
AcDbEntity
  8
0
100
AcDbSpline
 62
7
  6
BYLAYER
 70
0
 71
3
 72
9
 73
5
 74
0
 42
0.0000001
 43
0.0000001
 44
0.0000000001
 40
0.0
 40
0.0
 40
0.0
 40
0.0
 40
0.2671440672
 40
1.0
 40
1.0
 40
1.0
 40
1.0
 10
323.6156179232
 20
863.8486363152
 30
0.0
 10
323.6318968801
 20
863.8486363544
 30
0.0
 10
323.69264165
 20
863.8451838709
 30
0.0
 10
323.7537197083
 20
863.8286904905
 30
0.0
 10
323.7923949234
 20
863.8063618498
 30
0.0
  0
SPLINE
  5
440
100
AcDbEntity
  8
0
100
AcDbSpline
 62
7
  6
BYLAYER
 70
0
 71
3
 72
9
 73
5
 74
0
 42
0.0000001
 43
0.0000001
 44
0.0000000001
 40
0.0
 40
0.0
 40
0.0
 40
0.0
 40
0.2291142508
 40
1.0
 40
1.0
 40
1.0
 40
1.0
 10
323.4388415328
 20
863.806361
 30
0.0
 10
323.4509402382
 20
863.8133461492
 30
0.0
 10
323.5064273847
 20
863.8391217508
 30
0.0
 10
323.5686127629
 20
863.8486362022
 30
0.0
 10
323.6156179232
 20
863.8486363152
 30
0.0
  0
SPLINE
  5
441
100
AcDbEntity
  8
0
100
AcDbSpline
 62
7
  6
BYLAYER
 70
0
 71
3
 72
11
 73
7
 74
0
 42
0.0000001
 43
0.0000001
 44
0.0000000001
 40
0.0
 40
0.0
 40
0.0
 40
0.0
 40
0.2177699877
 40
0.4509516571
 40
0.7101928879
 40
1.0
 40
1.0
 40
1.0
 40
1.0
 10
320.3014020595
 20
862.5244650216
 30
0.0
 10
320.3013936008
 20
862.4292475036
 30
0.0
 10
320.3365471068
 20
862.2307403151
 30
0.0
 10
320.4870661087
 20
861.9542834329
 30
0.0
 10
320.7248423189
 20
861.7042258729
 30
0.0
 10
320.9238988062
 20
861.5672110391
 30
0.0
 10
321.0336377961
 20
861.503854637
 30
0.0
  0
SPLINE
  5
442
100
AcDbEntity
  8
0
100
AcDbSpline
 62
7
  6
BYLAYER
 70
0
 71
3
 72
9
 73
5
 74
0
 42
0.0000001
 43
0.0000001
 44
0.0000000001
 40
0.0
 40
0.0
 40
0.0
 40
0.0
 40
0.5255663101
 40
1.0
 40
1.0
 40
1.0
 40
1.0
 10
322.8013949872
 20
863.537976549
 30
0.0
 10
322.8548951022
 20
863.5379766776
 30
0.0
 10
322.9569641317
 20
863.549041524
 30
0.0
 10
323.0541974921
 20
863.5842879852
 30
0.0
 10
323.0960223042
 20
863.6084354075
 30
0.0
  0
SPLINE
  5
443
100
AcDbEntity
  8
0
100
AcDbSpline
 62
7
  6
BYLAYER
 70
0
 71
3
 72
9
 73
5
 74
0
 42
0.0000001
 43
0.0000001
 44
0.0000000001
 40
0.0
 40
0.0
 40
0.0
 40
0.0
 40
0.4744342232
 40
1.0
 40
1.0
 40
1.0
 40
1.0
 10
322.5067666536
 20
863.6084339913
 30
0.0
 10
322.5485917749
 20
863.5842867926
 30
0.0
 10
322.6458255179
 20
863.5490408145
 30
0.0
 10
322.7478948138
 20
863.5379764204
 30
0.0
 10
322.8013949872
 20
863.537976549
 30
0.0
  0
SPLINE
  5
444
100
AcDbEntity
  8
0
100
AcDbSpline
 62
7
  6
BYLAYER
 70
0
 71
3
 72
9
 73
5
 74
0
 42
0.0000001
 43
0.0000001
 44
0.0000000001
 40
0.0
 40
0.0
 40
0.0
 40
0.0
 40
0.2671440672
 40
1.0
 40
1.0
 40
1.0
 40
1.0
 10
321.9658290248
 20
863.8609519374
 30
0.0
 10
321.9821079817
 20
863.8609519765
 30
0.0
 10
322.0428527515
 20
863.857499493
 30
0.0
 10
322.1039308099
 20
863.8410061126
 30
0.0
 10
322.1426060249
 20
863.818677472
 30
0.0
  0
SPLINE
  5
445
100
AcDbEntity
  8
0
100
AcDbSpline
 62
7
  6
BYLAYER
 70
0
 71
3
 72
9
 73
5
 74
0
 42
0.0000001
 43
0.0000001
 44
0.0000000001
 40
0.0
 40
0.0
 40
0.0
 40
0.0
 40
0.2671440672
 40
1.0
 40
1.0
 40
1.0
 40
1.0
 10
337.5435908084
 20
853.5798344905
 30
0.0
 10
337.5273118515
 20
853.5798344514
 30
0.0
 10
337.4665670816
 20
853.5832869348
 30
0.0
 10
337.4054890233
 20
853.5997803152
 30
0.0
 10
337.3668138083
 20
853.6221089559
 30
0.0
  0
SPLINE
  5
446
100
AcDbEntity
  8
0
100
AcDbSpline
 62
7
  6
BYLAYER
 70
0
 71
3
 72
9
 73
5
 74
0
 42
0.0000001
 43
0.0000001
 44
0.0000000001
 40
0.0
 40
0.0
 40
0.0
 40
0.0
 40
0.2291142508
 40
1.0
 40
1.0
 40
1.0
 40
1.0
 10
337.7203671988
 20
853.6221098057
 30
0.0
 10
337.7082684934
 20
853.6151246566
 30
0.0
 10
337.6527813469
 20
853.5893490549
 30
0.0
 10
337.5905959688
 20
853.5798346035
 30
0.0
 10
337.5435908084
 20
853.5798344905
 30
0.0
  0
SPLINE
  5
447
100
AcDbEntity
  8
0
100
AcDbSpline
 62
7
  6
BYLAYER
 70
0
 71
3
 72
9
 73
5
 74
0
 42
0.0000001
 43
0.0000001
 44
0.0000000001
 40
0.0
 40
0.0
 40
0.0
 40
0.0
 40
0.5255663101
 40
1.0
 40
1.0
 40
1.0
 40
1.0
 10
338.3578137444
 20
853.8904942567
 30
0.0
 10
338.3043136294
 20
853.8904941281
 30
0.0
 10
338.2022445999
 20
853.8794292818
 30
0.0
 10
338.1050112395
 20
853.8441828206
 30
0.0
 10
338.0631864275
 20
853.8200353982
 30
0.0
  0
SPLINE
  5
448
100
AcDbEntity
  8
0
100
AcDbSpline
 62
7
  6
BYLAYER
 70
0
 71
3
 72
9
 73
5
 74
0
 42
0.0000001
 43
0.0000001
 44
0.0000000001
 40
0.0
 40
0.0
 40
0.0
 40
0.0
 40
0.4744342232
 40
1.0
 40
1.0
 40
1.0
 40
1.0
 10
338.652442078
 20
853.8200368144
 30
0.0
 10
338.6106169567
 20
853.8441840132
 30
0.0
 10
338.5133832137
 20
853.8794299913
 30
0.0
 10
338.4113139179
 20
853.8904943853
 30
0.0
 10
338.3578137444
 20
853.8904942567
 30
0.0
  0
SPLINE
  5
449
100
AcDbEntity
  8
0
100
AcDbSpline
 62
7
  6
BYLAYER
 70
0
 71
3
 72
9
 73
5
 74
0
 42
0.0000001
 43
0.0000001
 44
0.0000000001
 40
0.0
 40
0.0
 40
0.0
 40
0.0
 40
0.2671440672
 40
1.0
 40
1.0
 40
1.0
 40
1.0
 10
339.1507026152
 20
853.5921579413
 30
0.0
 10
339.1344236583
 20
853.5921579022
 30
0.0
 10
339.0736788884
 20
853.5956103856
 30
0.0
 10
339.0126008301
 20
853.612103766
 30
0.0
 10
338.9739256151
 20
853.6344324067
 30
0.0
  0
SPLINE
  5
44A
100
AcDbEntity
  8
0
100
AcDbSpline
 62
7
  6
BYLAYER
 70
0
 71
3
 72
9
 73
5
 74
0
 42
0.0000001
 43
0.0000001
 44
0.0000000001
 40
0.0
 40
0.0
 40
0.0
 40
0.0
 40
0.2291142508
 40
1.0
 40
1.0
 40
1.0
 40
1.0
 10
339.3274790057
 20
853.6344332565
 30
0.0
 10
339.3153803002
 20
853.6274481074
 30
0.0
 10
339.2598931537
 20
853.6016725057
 30
0.0
 10
339.1977077756
 20
853.5921580543
 30
0.0
 10
339.1507026152
 20
853.5921579413
 30
0.0
  0
SPLINE
  5
44B
100
AcDbEntity
  8
0
100
AcDbSpline
 62
7
  6
BYLAYER
 70
0
 71
3
 72
9
 73
5
 74
0
 42
0.0000001
 43
0.0000001
 44
0.0000000001
 40
0.0
 40
0.0
 40
0.0
 40
0.0
 40
0.4492438796
 40
1.0
 40
1.0
 40
1.0
 40
1.0
 10
339.4515009695
 20
853.7658229155
 30
0.0
 10
339.4515011099
 20
853.7463492897
 30
0.0
 10
339.4344796297
 20
853.7028955059
 30
0.0
 10
339.3989538646
 20
853.6756990393
 30
0.0
 10
339.3782784008
 20
853.6637621259
 30
0.0
  0
SPLINE
  5
44C
100
AcDbEntity
  8
0
100
AcDbSpline
 62
7
  6
BYLAYER
 70
0
 71
3
 72
9
 73
5
 74
0
 42
0.0000001
 43
0.0000001
 44
0.0000000001
 40
0.0
 40
0.0
 40
0.0
 40
0.0
 40
0.5507561203
 40
1.0
 40
1.0
 40
1.0
 40
1.0
 10
339.0567909381
 20
854.3936898056
 30
0.0
 10
339.0223318318
 20
854.3737949501
 30
0.0
 10
338.9631222235
 20
854.3284675058
 30
0.0
 10
338.9347530899
 20
854.2560445328
 30
0.0
 10
338.9347533239
 20
854.22358849
 30
0.0
  0
SPLINE
  5
44D
100
AcDbEntity
  8
0
100
AcDbSpline
 62
7
  6
BYLAYER
 70
0
 71
3
 72
9
 73
5
 74
0
 42
0.0000001
 43
0.0000001
 44
0.0000000001
 40
0.0
 40
0.0
 40
0.0
 40
0.0
 40
0.4492438796
 40
1.0
 40
1.0
 40
1.0
 40
1.0
 10
339.4728327354
 20
854.6936761877
 30
0.0
 10
339.4728328759
 20
854.674202562
 30
0.0
 10
339.4558113956
 20
854.6307487781
 30
0.0
 10
339.4202856306
 20
854.6035523115
 30
0.0
 10
339.3996101667
 20
854.5916153981
 30
0.0
  0
SPLINE
  5
44E
100
AcDbEntity
  8
0
100
AcDbSpline
 62
7
  6
BYLAYER
 70
0
 71
3
 72
9
 73
5
 74
0
 42
0.0000001
 43
0.0000001
 44
0.0000000001
 40
0.0
 40
0.0
 40
0.0
 40
0.0
 40
0.5507565647
 40
1.0
 40
1.0
 40
1.0
 40
1.0
 10
337.2946686644
 20
854.6039299262
 30
0.0
 10
337.2739930162
 20
854.6158667473
 30
0.0
 10
337.2384669216
 20
854.6430630035
 30
0.0
 10
337.2214447642
 20
854.6865166804
 30
0.0
 10
337.2214446237
 20
854.7059903638
 30
0.0
  0
SPLINE
  5
44F
100
AcDbEntity
  8
0
100
AcDbSpline
 62
7
  6
BYLAYER
 70
0
 71
3
 72
9
 73
5
 74
0
 42
0.0000001
 43
0.0000001
 44
0.0000000001
 40
0.0
 40
0.0
 40
0.0
 40
0.0
 40
0.4492434353
 40
1.0
 40
1.0
 40
1.0
 40
1.0
 10
337.7808693609
 20
854.2235857163
 30
0.0
 10
337.7808691269
 20
854.2560418553
 30
0.0
 10
337.7524988645
 20
854.32846465
 30
0.0
 10
337.6932887069
 20
854.3737917438
 30
0.0
 10
337.6588292931
 20
854.3936864455
 30
0.0
  0
SPLINE
  5
450
100
AcDbEntity
  8
0
100
AcDbSpline
 62
7
  6
BYLAYER
 70
0
 71
3
 72
9
 73
5
 74
0
 42
0.0000001
 43
0.0000001
 44
0.0000000001
 40
0.0
 40
0.0
 40
0.0
 40
0.0
 40
0.5507565647
 40
1.0
 40
1.0
 40
1.0
 40
1.0
 10
337.3160139901
 20
853.6514375811
 30
0.0
 10
337.2953383418
 20
853.6633744021
 30
0.0
 10
337.2598122473
 20
853.6905706584
 30
0.0
 10
337.2427900898
 20
853.7340243353
 30
0.0
 10
337.2427899494
 20
853.7534980186
 30
0.0
  0
SPLINE
  5
451
100
AcDbEntity
  8
0
100
AcDbSpline
 62
7
  6
BYLAYER
 70
0
 71
3
 72
11
 73
7
 74
0
 42
0.0000001
 43
0.0000001
 44
0.0000000001
 40
0.0
 40
0.0
 40
0.0
 40
0.0
 40
0.2898080169
 40
0.5490504853
 40
0.7822322469
 40
1.0
 40
1.0
 40
1.0
 40
1.0
 10
336.5900517494
 20
851.8421393567
 30
0.0
 10
336.4803124983
 20
851.9054959095
 30
0.0
 10
336.2812553415
 20
852.042511232
 30
0.0
 10
336.0434795268
 20
852.2925701377
 30
0.0
 10
335.8929613181
 20
852.5690268887
 30
0.0
 10
335.8578095868
 20
852.7675332433
 30
0.0
 10
335.8578183815
 20
852.8627497134
 30
0.0
  0
SPLINE
  5
452
100
AcDbEntity
  8
0
100
AcDbSpline
 62
7
  6
BYLAYER
 70
0
 71
3
 72
12
 73
8
 74
0
 42
0.0000001
 43
0.0000001
 44
0.0000000001
 40
0.0
 40
0.0
 40
0.0
 40
0.0
 40
0.1012414569
 40
0.2057605574
 40
0.4340935482
 40
0.698703089
 40
1.0
 40
1.0
 40
1.0
 40
1.0
 10
340.8578043033
 20
852.8627497692
 30
0.0
 10
340.8577985207
 20
852.8001438979
 30
0.0
 10
340.8432181722
 20
852.672470481
 30
0.0
 10
340.7546689135
 20
852.417094996
 30
0.0
 10
340.5284905467
 20
852.1141619453
 30
0.0
 10
340.1283158522
 20
851.821503202
 30
0.0
 10
339.8053348499
 20
851.6800371154
 30
0.0
 10
339.6289870422
 20
851.6199097871
 30
0.0
  0
SPLINE
  5
453
100
AcDbEntity
  8
0
100
AcDbSpline
 62
7
  6
BYLAYER
 70
0
 71
3
 72
11
 73
7
 74
0
 42
0.0000001
 43
0.0000001
 44
0.0000000001
 40
0.0
 40
0.0
 40
0.0
 40
0.0
 40
0.2440588946
 40
0.4999601645
 40
0.7558816594
 40
1.0
 40
1.0
 40
1.0
 40
1.0
 10
339.6289870422
 20
851.6199097871
 30
0.0
 10
339.4303308404
 20
851.5521762166
 30
0.0
 10
339.0096275265
 20
851.4520700495
 30
0.0
 10
338.3590657923
 20
851.4027737134
 30
0.0
 10
337.7084226685
 20
851.4516925984
 30
0.0
 10
337.2875955528
 20
851.5515565344
 30
0.0
 10
337.0888394922
 20
851.619155453
 30
0.0
  0
SPLINE
  5
454
100
AcDbEntity
  8
0
100
AcDbSpline
 62
7
  6
BYLAYER
 70
0
 71
3
 72
9
 73
5
 74
0
 42
0.0000001
 43
0.0000001
 44
0.0000000001
 40
0.0
 40
0.0
 40
0.0
 40
0.0
 40
0.2601601787
 40
1.0
 40
1.0
 40
1.0
 40
1.0
 10
337.0888394922
 20
851.619155453
 30
0.0
 10
337.0439434914
 20
851.6344250307
 30
0.0
 10
336.8727016811
 20
851.6968688976
 30
0.0
 10
336.7068419585
 20
851.7747120234
 30
0.0
 10
336.5900517494
 20
851.8421393567
 30
0.0
  0
SPLINE
  5
455
100
AcDbEntity
  8
0
100
AcDbSpline
 62
7
  6
BYLAYER
 70
0
 71
3
 72
11
 73
7
 74
0
 42
0.0000001
 43
0.0000001
 44
0.0000000001
 40
0.0
 40
0.0
 40
0.0
 40
0.0
 40
0.247942443
 40
0.4956576428
 40
0.744934943
 40
1.0
 40
1.0
 40
1.0
 40
1.0
 10
335.8578113424
 20
853.5431684223
 30
0.0
 10
335.8578113424
 20
853.6873464717
 30
0.0
 10
335.9038049642
 20
853.9774730687
 30
0.0
 10
336.0986709211
 20
854.3707686248
 30
0.0
 10
336.3927725592
 20
854.700360255
 30
0.0
 10
336.6341513408
 20
854.8710790923
 30
0.0
 10
336.7625991682
 20
854.9452406003
 30
0.0
  0
SPLINE
  5
456
100
AcDbEntity
  8
0
100
AcDbSpline
 62
7
  6
BYLAYER
 70
0
 71
3
 72
11
 73
7
 74
0
 42
0.0000001
 43
0.0000001
 44
0.0000000001
 40
0.0
 40
0.0
 40
0.0
 40
0.0
 40
0.2550648906
 40
0.5043400343
 40
0.7520505207
 40
1.0
 40
1.0
 40
1.0
 40
1.0
 10
339.9530235166
 20
854.9452406003
 30
0.0
 10
340.0814712917
 20
854.8710791225
 30
0.0
 10
340.322848705
 20
854.7003605512
 30
0.0
 10
340.6169483435
 20
854.3707729776
 30
0.0
 10
340.8118183449
 20
853.9774791731
 30
0.0
 10
340.8578113424
 20
853.6873505986
 30
0.0
 10
340.8578113424
 20
853.5431684223
 30
0.0
  0
SPLINE
  5
457
100
AcDbEntity
  8
0
100
AcDbSpline
 62
7
  6
BYLAYER
 70
0
 71
3
 72
11
 73
7
 74
0
 42
0.0000001
 43
0.0000001
 44
0.0000000001
 40
0.0
 40
0.0
 40
0.0
 40
0.0
 40
0.2433553771
 40
0.5000066983
 40
0.7566556155
 40
1.0
 40
1.0
 40
1.0
 40
1.0
 10
336.7625991682
 20
854.9452406003
 30
0.0
 10
336.9953547267
 20
855.0796259268
 30
0.0
 10
337.5206053609
 20
855.2768287416
 30
0.0
 10
338.3578043555
 20
855.3705186136
 30
0.0
 10
339.1949908512
 20
855.2768306593
 30
0.0
 10
339.7202293101
 20
855.0796413582
 30
0.0
 10
339.9529773348
 20
854.9452672634
 30
0.0
  0
SPLINE
  5
458
100
AcDbEntity
  8
0
100
AcDbSpline
 62
7
  6
BYLAYER
 70
0
 71
3
 72
9
 73
5
 74
0
 42
0.0000001
 43
0.0000001
 44
0.0000000001
 40
0.0
 40
0.0
 40
0.0
 40
0.0
 40
0.2291142508
 40
1.0
 40
1.0
 40
1.0
 40
1.0
 10
337.3454665876
 20
854.8373800227
 30
0.0
 10
337.357565293
 20
854.8443651718
 30
0.0
 10
337.4130524395
 20
854.8701407735
 30
0.0
 10
337.4752378176
 20
854.8796552249
 30
0.0
 10
337.522242978
 20
854.8796553379
 30
0.0
  0
SPLINE
  5
459
100
AcDbEntity
  8
0
100
AcDbSpline
 62
7
  6
BYLAYER
 70
0
 71
3
 72
9
 73
5
 74
0
 42
0.0000001
 43
0.0000001
 44
0.0000000001
 40
0.0
 40
0.0
 40
0.0
 40
0.0
 40
0.4492438796
 40
1.0
 40
1.0
 40
1.0
 40
1.0
 10
337.2214446237
 20
854.7059903638
 30
0.0
 10
337.2214444833
 20
854.7254639895
 30
0.0
 10
337.2384659635
 20
854.7689177734
 30
0.0
 10
337.2739917286
 20
854.79611424
 30
0.0
 10
337.2946671925
 20
854.8080511533
 30
0.0
  0
SPLINE
  5
45A
100
AcDbEntity
  8
0
100
AcDbSpline
 62
7
  6
BYLAYER
 70
0
 71
3
 72
9
 73
5
 74
0
 42
0.0000001
 43
0.0000001
 44
0.0000000001
 40
0.0
 40
0.0
 40
0.0
 40
0.0
 40
0.5507565647
 40
1.0
 40
1.0
 40
1.0
 40
1.0
 10
339.3782769288
 20
853.867883353
 30
0.0
 10
339.398952577
 20
853.855946532
 30
0.0
 10
339.4344786716
 20
853.8287502757
 30
0.0
 10
339.451500829
 20
853.7852965988
 30
0.0
 10
339.4515009695
 20
853.7658229155
 30
0.0
  0
SPLINE
  5
45B
100
AcDbEntity
  8
0
100
AcDbSpline
 62
7
  6
BYLAYER
 70
0
 71
3
 72
9
 73
5
 74
0
 42
0.0000001
 43
0.0000001
 44
0.0000000001
 40
0.0
 40
0.0
 40
0.0
 40
0.0
 40
0.4492434353
 40
1.0
 40
1.0
 40
1.0
 40
1.0
 10
338.9347533239
 20
854.22358849
 30
0.0
 10
338.934753558
 20
854.191132351
 30
0.0
 10
338.9631238204
 20
854.1187095562
 30
0.0
 10
339.022333978
 20
854.0733824624
 30
0.0
 10
339.0567933918
 20
854.0534877607
 30
0.0
  0
SPLINE
  5
45C
100
AcDbEntity
  8
0
100
AcDbSpline
 62
7
  6
BYLAYER
 70
0
 71
3
 72
9
 73
5
 74
0
 42
0.0000001
 43
0.0000001
 44
0.0000000001
 40
0.0
 40
0.0
 40
0.0
 40
0.0
 40
0.5507561203
 40
1.0
 40
1.0
 40
1.0
 40
1.0
 10
337.6588317467
 20
854.0534844006
 30
0.0
 10
337.693290853
 20
854.0733792562
 30
0.0
 10
337.7525004614
 20
854.1187067005
 30
0.0
 10
337.780869595
 20
854.1911296735
 30
0.0
 10
337.7808693609
 20
854.2235857163
 30
0.0
  0
SPLINE
  5
45D
100
AcDbEntity
  8
0
100
AcDbSpline
 62
7
  6
BYLAYER
 70
0
 71
3
 72
9
 73
5
 74
0
 42
0.0000001
 43
0.0000001
 44
0.0000000001
 40
0.0
 40
0.0
 40
0.0
 40
0.0
 40
0.4492438796
 40
1.0
 40
1.0
 40
1.0
 40
1.0
 10
337.2427899494
 20
853.7534980186
 30
0.0
 10
337.242789809
 20
853.7729716443
 30
0.0
 10
337.2598112892
 20
853.8164254282
 30
0.0
 10
337.2953370543
 20
853.8436218948
 30
0.0
 10
337.3160125181
 20
853.8555588082
 30
0.0
  0
SPLINE
  5
45E
100
AcDbEntity
  8
0
100
AcDbSpline
 62
7
  6
BYLAYER
 70
0
 71
3
 72
19
 73
15
 74
0
 42
0.0000001
 43
0.0000001
 44
0.0000000001
 40
0.0
 40
0.0
 40
0.0
 40
0.0
 40
0.1382513799
 40
0.2913966195
 40
0.4445435246
 40
0.5827913965
 40
0.6432440081
 40
0.69732397
 40
0.7459658062
 40
0.7913933414
 40
0.8368212219
 40
0.8854622012
 40
0.9395476945
 40
1.0
 40
1.0
 40
1.0
 40
1.0
 10
337.1793066769
 20
853.5431811788
 30
0.0
 10
337.3466094952
 20
853.4465910368
 30
0.0
 10
337.7357004974
 20
853.3056326207
 30
0.0
 10
338.3577910097
 20
853.2380473164
 30
0.0
 10
338.9800246902
 20
853.3057748266
 30
0.0
 10
339.4495004814
 20
853.4754812656
 30
0.0
 10
339.742135883
 20
853.6767310307
 30
0.0
 10
339.9006944543
 20
853.8434381663
 30
0.0
 10
340.0010303829
 20
854.027890052
 30
0.0
 10
340.0357860288
 20
854.2235816665
 30
0.0
 10
340.0010378445
 20
854.4192676102
 30
0.0
 10
339.9007042258
 20
854.6037487378
 30
0.0
 10
339.7421741229
 20
854.7703937982
 30
0.0
 10
339.6094714518
 20
854.8617576678
 30
0.0
 10
339.5363160078
 20
854.9039930275
 30
0.0
  0
SPLINE
  5
45F
100
AcDbEntity
  8
0
100
AcDbSpline
 62
7
  6
BYLAYER
 70
0
 71
3
 72
9
 73
5
 74
0
 42
0.0000001
 43
0.0000001
 44
0.0000000001
 40
0.0
 40
0.0
 40
0.0
 40
0.0
 40
0.2381771254
 40
1.0
 40
1.0
 40
1.0
 40
1.0
 10
336.5900517494
 20
852.5225580376
 30
0.0
 10
336.634571931
 20
852.4968548802
 30
0.0
 10
336.8250258749
 20
852.3950906025
 30
0.0
 10
337.0276033475
 20
852.3167778573
 30
0.0
 10
337.1848022205
 20
852.2685561443
 30
0.0
  0
SPLINE
  5
460
100
AcDbEntity
  8
0
100
AcDbSpline
 62
7
  6
BYLAYER
 70
0
 71
3
 72
10
 73
6
 74
0
 42
0.0000001
 43
0.0000001
 44
0.0000000001
 40
0.0
 40
0.0
 40
0.0
 40
0.0
 40
0.5033357406
 40
0.7571591841
 40
1.0
 40
1.0
 40
1.0
 40
1.0
 10
337.3480183518
 20
852.2227936556
 30
0.0
 10
337.7174860703
 20
852.1286188361
 30
0.0
 10
338.2979858259
 20
852.0710108197
 30
0.0
 10
339.0531656114
 20
852.1433807605
 30
0.0
 10
339.4207949363
 20
852.2316311558
 30
0.0
 10
339.5955346959
 20
852.2891210418
 30
0.0
  0
SPLINE
  5
461
100
AcDbEntity
  8
0
100
AcDbSpline
 62
7
  6
BYLAYER
 70
0
 71
3
 72
12
 73
8
 74
0
 42
0.0000001
 43
0.0000001
 44
0.0000000001
 40
0.0
 40
0.0
 40
0.0
 40
0.0
 40
0.3018342499
 40
0.5667988852
 40
0.7949349438
 40
0.8991468878
 40
1.0
 40
1.0
 40
1.0
 40
1.0
 10
339.5955346959
 20
852.2891210418
 30
0.0
 10
339.776189672
 20
852.3485570511
 30
0.0
 10
340.1072967518
 20
852.4895157972
 30
0.0
 10
340.5183425007
 20
852.7839289156
 30
0.0
 10
340.7514401555
 20
853.0906802944
 30
0.0
 10
340.8427650283
 20
853.3499608828
 30
0.0
 10
340.8578010268
 20
853.4796224263
 30
0.0
 10
340.857806672
 20
853.5431684224
 30
0.0
  0
SPLINE
  5
462
100
AcDbEntity
  8
0
100
AcDbSpline
 62
7
  6
BYLAYER
 70
0
 71
3
 72
19
 73
15
 74
0
 42
0.0000001
 43
0.0000001
 44
0.0000000001
 40
0.0
 40
0.0
 40
0.0
 40
0.0
 40
0.1382513799
 40
0.2913966195
 40
0.4445435246
 40
0.5827913965
 40
0.6432440081
 40
0.69732397
 40
0.7459658062
 40
0.7913933414
 40
0.8368212219
 40
0.8854622012
 40
0.9395476945
 40
1.0
 40
1.0
 40
1.0
 40
1.0
 10
339.5363160078
 20
854.9039930275
 30
0.0
 10
339.3690131896
 20
855.0005831695
 30
0.0
 10
338.9799221874
 20
855.1415415856
 30
0.0
 10
338.3578316751
 20
855.20912689
 30
0.0
 10
337.7355979946
 20
855.1413993798
 30
0.0
 10
337.2661222034
 20
854.9716929407
 30
0.0
 10
336.9734868018
 20
854.7704431756
 30
0.0
 10
336.8149282304
 20
854.60373604
 30
0.0
 10
336.7145923019
 20
854.4192841543
 30
0.0
 10
336.679836656
 20
854.2235925398
 30
0.0
 10
336.7145848403
 20
854.0279065962
 30
0.0
 10
336.814918459
 20
853.8434254685
 30
0.0
 10
336.9734485619
 20
853.6767804081
 30
0.0
 10
337.106151233
 20
853.5854165386
 30
0.0
 10
337.1793066769
 20
853.5431811788
 30
0.0
  0
SPLINE
  5
463
100
AcDbEntity
  8
0
100
AcDbSpline
 62
7
  6
BYLAYER
 70
0
 71
3
 72
9
 73
5
 74
0
 42
0.0000001
 43
0.0000001
 44
0.0000000001
 40
0.0
 40
0.0
 40
0.0
 40
0.0
 40
0.5507565647
 40
1.0
 40
1.0
 40
1.0
 40
1.0
 10
339.3996086947
 20
854.7957366252
 30
0.0
 10
339.420284343
 20
854.7837998042
 30
0.0
 10
339.4558104376
 20
854.7566035479
 30
0.0
 10
339.472832595
 20
854.713149871
 30
0.0
 10
339.4728327354
 20
854.6936761877
 30
0.0
  0
SPLINE
  5
464
100
AcDbEntity
  8
0
100
AcDbSpline
 62
7
  6
BYLAYER
 70
0
 71
3
 72
9
 73
5
 74
0
 42
0.0000001
 43
0.0000001
 44
0.0000000001
 40
0.0
 40
0.0
 40
0.0
 40
0.0
 40
0.2671440672
 40
1.0
 40
1.0
 40
1.0
 40
1.0
 10
339.1720318764
 20
854.8673397158
 30
0.0
 10
339.1883108334
 20
854.8673397549
 30
0.0
 10
339.2490556032
 20
854.8638872715
 30
0.0
 10
339.3101336616
 20
854.847393891
 30
0.0
 10
339.3488088766
 20
854.8250652504
 30
0.0
  0
SPLINE
  5
465
100
AcDbEntity
  8
0
100
AcDbSpline
 62
7
  6
BYLAYER
 70
0
 71
3
 72
9
 73
5
 74
0
 42
0.0000001
 43
0.0000001
 44
0.0000000001
 40
0.0
 40
0.0
 40
0.0
 40
0.0
 40
0.2291142508
 40
1.0
 40
1.0
 40
1.0
 40
1.0
 10
338.995255486
 20
854.8250644006
 30
0.0
 10
339.0073541915
 20
854.8320495497
 30
0.0
 10
339.0628413379
 20
854.8578251514
 30
0.0
 10
339.1250267161
 20
854.8673396028
 30
0.0
 10
339.1720318764
 20
854.8673397158
 30
0.0
  0
SPLINE
  5
466
100
AcDbEntity
  8
0
100
AcDbSpline
 62
7
  6
BYLAYER
 70
0
 71
3
 72
11
 73
7
 74
0
 42
0.0000001
 43
0.0000001
 44
0.0000000001
 40
0.0
 40
0.0
 40
0.0
 40
0.0
 40
0.2177699877
 40
0.4509516571
 40
0.7101928879
 40
1.0
 40
1.0
 40
1.0
 40
1.0
 10
335.8578160128
 20
853.5431684221
 30
0.0
 10
335.857807554
 20
853.4479509042
 30
0.0
 10
335.89296106
 20
853.2494437157
 30
0.0
 10
336.0434800619
 20
852.9729868335
 30
0.0
 10
336.2812562722
 20
852.7229292735
 30
0.0
 10
336.4803127594
 20
852.5859144396
 30
0.0
 10
336.5900517494
 20
852.5225580376
 30
0.0
  0
SPLINE
  5
467
100
AcDbEntity
  8
0
100
AcDbSpline
 62
7
  6
BYLAYER
 70
0
 71
3
 72
9
 73
5
 74
0
 42
0.0000001
 43
0.0000001
 44
0.0000000001
 40
0.0
 40
0.0
 40
0.0
 40
0.0
 40
0.5255663101
 40
1.0
 40
1.0
 40
1.0
 40
1.0
 10
338.3578089404
 20
854.5566799496
 30
0.0
 10
338.4113090554
 20
854.5566800781
 30
0.0
 10
338.5133780849
 20
854.5677449245
 30
0.0
 10
338.6106114453
 20
854.6029913857
 30
0.0
 10
338.6524362574
 20
854.6271388081
 30
0.0
  0
SPLINE
  5
468
100
AcDbEntity
  8
0
100
AcDbSpline
 62
7
  6
BYLAYER
 70
0
 71
3
 72
9
 73
5
 74
0
 42
0.0000001
 43
0.0000001
 44
0.0000000001
 40
0.0
 40
0.0
 40
0.0
 40
0.0
 40
0.4744342232
 40
1.0
 40
1.0
 40
1.0
 40
1.0
 10
338.0631806068
 20
854.6271373919
 30
0.0
 10
338.1050057281
 20
854.6029901931
 30
0.0
 10
338.2022394712
 20
854.567744215
 30
0.0
 10
338.304308767
 20
854.556679821
 30
0.0
 10
338.3578089404
 20
854.5566799496
 30
0.0
  0
SPLINE
  5
469
100
AcDbEntity
  8
0
100
AcDbSpline
 62
7
  6
BYLAYER
 70
0
 71
3
 72
9
 73
5
 74
0
 42
0.0000001
 43
0.0000001
 44
0.0000000001
 40
0.0
 40
0.0
 40
0.0
 40
0.0
 40
0.2671440672
 40
1.0
 40
1.0
 40
1.0
 40
1.0
 10
337.522242978
 20
854.8796553379
 30
0.0
 10
337.5385219349
 20
854.879655377
 30
0.0
 10
337.5992667048
 20
854.8762028936
 30
0.0
 10
337.6603447631
 20
854.8597095132
 30
0.0
 10
337.6990199782
 20
854.8373808725
 30
0.0
  0
SPLINE
  5
46A
100
AcDbEntity
  8
0
100
AcDbSpline
 62
7
  6
BYLAYER
 70
0
 71
3
 72
9
 73
5
 74
0
 42
0.0000001
 43
0.0000001
 44
0.0000000001
 40
0.0
 40
0.0
 40
0.0
 40
0.0
 40
0.5255657768
 40
1.0
 40
1.0
 40
1.0
 40
1.0
 10
333.5867285031
 20
81.7000768868
 30
0.0
 10
333.4840081701
 20
81.7000766399
 30
0.0
 10
333.2880351221
 20
81.7213202765
 30
0.0
 10
333.1013463355
 20
81.7889925545
 30
0.0
 10
333.0210421026
 20
81.8353551761
 30
0.0
  0
SPLINE
  5
46B
100
AcDbEntity
  8
0
100
AcDbSpline
 62
7
  6
BYLAYER
 70
0
 71
3
 72
9
 73
5
 74
0
 42
0.0000001
 43
0.0000001
 44
0.0000000001
 40
0.0
 40
0.0
 40
0.0
 40
0.0
 40
0.4744336899
 40
1.0
 40
1.0
 40
1.0
 40
1.0
 10
334.1524129525
 20
81.8353578956
 30
0.0
 10
334.0721093132
 20
81.7889948446
 30
0.0
 10
333.885421261
 20
81.7213216388
 30
0.0
 10
333.6894487241
 20
81.7000771338
 30
0.0
 10
333.5867285031
 20
81.7000768868
 30
0.0
  0
SPLINE
  5
46C
100
AcDbEntity
  8
0
100
AcDbSpline
 62
7
  6
BYLAYER
 70
0
 71
3
 72
11
 73
7
 74
0
 42
0.0000001
 43
0.0000001
 44
0.0000000001
 40
0.0
 40
0.0
 40
0.0
 40
0.0
 40
0.2068559305
 40
0.4365751433
 40
0.7006923235
 40
1.0
 40
1.0
 40
1.0
 40
1.0
 10
337.6762895304
 20
82.3902219847
 30
0.0
 10
337.6755216274
 20
82.4118018164
 30
0.0
 10
337.6635569191
 20
82.4573462992
 30
0.0
 10
337.6191460489
 20
82.5170534738
 30
0.0
 10
337.5526529311
 20
82.5676980124
 30
0.0
 10
337.4989974183
 20
82.5927766262
 30
0.0
 10
337.4697096618
 20
82.6036597433
 30
0.0
  0
SPLINE
  5
46D
100
AcDbEntity
  8
0
100
AcDbSpline
 62
7
  6
BYLAYER
 70
0
 71
3
 72
15
 73
11
 74
0
 42
0.0000001
 43
0.0000001
 44
0.0000000001
 40
0.0
 40
0.0
 40
0.0
 40
0.0
 40
0.1160876616
 40
0.23944565
 40
0.3682703344
 40
0.5000002978
 40
0.6317302146
 40
0.7605546944
 40
0.8839122652
 40
1.0
 40
1.0
 40
1.0
 40
1.0
 10
335.0291992041
 20
80.335463161
 30
0.0
 10
335.4580828542
 20
80.0878399906
 30
0.0
 10
336.3877556113
 20
79.6530109372
 30
0.0
 10
337.8941886031
 20
79.1926670784
 30
0.0
 10
339.5117032865
 20
78.911429049
 30
0.0
 10
341.1861251283
 20
78.8168625656
 30
0.0
 10
342.8605468837
 20
78.9114151548
 30
0.0
 10
344.4780610973
 20
79.1926387186
 30
0.0
 10
345.9844965785
 20
79.6529659206
 30
0.0
 10
346.9141734122
 20
80.0877823341
 30
0.0
 10
347.3430610385
 20
80.3353992425
 30
0.0
  0
SPLINE
  5
46E
100
AcDbEntity
  8
0
100
AcDbSpline
 62
7
  6
BYLAYER
 70
0
 71
3
 72
11
 73
7
 74
0
 42
0.0000001
 43
0.0000001
 44
0.0000000001
 40
0.0
 40
0.0
 40
0.0
 40
0.0
 40
0.2727155889
 40
0.526658149
 40
0.7668919009
 40
1.0
 40
1.0
 40
1.0
 40
1.0
 10
347.3431717473
 20
80.335463161
 30
0.0
 10
347.7458384548
 20
80.5679495398
 30
0.0
 10
348.4896200781
 20
81.081434477
 30
0.0
 10
349.3985254915
 20
82.0369726625
 30
0.0
 10
350.006710325
 20
83.1354027639
 30
0.0
 10
350.1701146786
 20
83.9423679183
 30
0.0
 10
350.183958661
 20
84.3395612575
 30
0.0
  0
SPLINE
  5
46F
100
AcDbEntity
  8
0
100
AcDbSpline
 62
7
  6
BYLAYER
 70
0
 71
3
 72
9
 73
5
 74
0
 42
0.0000001
 43
0.0000001
 44
0.0000000001
 40
0.0
 40
0.0
 40
0.0
 40
0.0
 40
0.2396039715
 40
1.0
 40
1.0
 40
1.0
 40
1.0
 10
333.3060973053
 20
81.7113722679
 30
0.0
 10
333.4228448281
 20
81.5789124811
 30
0.0
 10
333.9368192495
 20
81.0496680016
 30
0.0
 10
334.5439323586
 20
80.6156401152
 30
0.0
 10
335.0291992041
 20
80.335463161
 30
0.0
  0
SPLINE
  5
470
100
AcDbEntity
  8
0
100
AcDbSpline
 62
7
  6
BYLAYER
 70
0
 71
3
 72
9
 73
5
 74
0
 42
0.0000001
 43
0.0000001
 44
0.0000000001
 40
0.0
 40
0.0
 40
0.0
 40
0.0
 40
0.5448650672
 40
1.0
 40
1.0
 40
1.0
 40
1.0
 10
323.0284337112
 20
87.4605544313
 30
0.0
 10
322.9719755979
 20
87.4979176142
 30
0.0
 10
322.8754078497
 20
87.5821280691
 30
0.0
 10
322.8319184319
 20
87.707207967
 30
0.0
 10
322.8319231197
 20
87.7637603686
 30
0.0
  0
LINE
  5
471
100
AcDbEntity
  8
0
100
AcDbLine
 62
7
  6
BYLAYER
 10
323.0976610912
 20
87.4145347798
 11
323.0284337112
 21
87.4605544313
  0
SPLINE
  5
472
100
AcDbEntity
  8
0
100
AcDbSpline
 62
7
  6
BYLAYER
 70
0
 71
3
 72
9
 73
5
 74
0
 42
0.0000001
 43
0.0000001
 44
0.0000000001
 40
0.0
 40
0.0
 40
0.0
 40
0.0
 40
0.5255657768
 40
1.0
 40
1.0
 40
1.0
 40
1.0
 10
344.191448014
 20
81.0866472081
 30
0.0
 10
344.0887276811
 20
81.0866469612
 30
0.0
 10
343.8927546331
 20
81.1078905978
 30
0.0
 10
343.7060658465
 20
81.1755628758
 30
0.0
 10
343.6257616135
 20
81.2219254974
 30
0.0
  0
SPLINE
  5
473
100
AcDbEntity
  8
0
100
AcDbSpline
 62
7
  6
BYLAYER
 70
0
 71
3
 72
9
 73
5
 74
0
 42
0.0000001
 43
0.0000001
 44
0.0000000001
 40
0.0
 40
0.0
 40
0.0
 40
0.0
 40
0.4744336898
 40
1.0
 40
1.0
 40
1.0
 40
1.0
 10
344.7571324641
 20
81.2219282172
 30
0.0
 10
344.6768288247
 20
81.1755651661
 30
0.0
 10
344.4901407723
 20
81.1078919602
 30
0.0
 10
344.2941682352
 20
81.086647455
 30
0.0
 10
344.191448014
 20
81.0866472081
 30
0.0
  0
SPLINE
  5
474
100
AcDbEntity
  8
0
100
AcDbSpline
 62
7
  6
BYLAYER
 70
0
 71
3
 72
11
 73
7
 74
0
 42
0.0000001
 43
0.0000001
 44
0.0000000001
 40
0.0
 40
0.0
 40
0.0
 40
0.0
 40
0.2177164324
 40
0.4509408358
 40
0.7102939719
 40
1.0
 40
1.0
 40
1.0
 40
1.0
 10
354.7373453082
 20
87.2231162831
 30
0.0
 10
354.7373455828
 20
87.185039632
 30
0.0
 10
354.7232455271
 20
87.1056542669
 30
0.0
 10
354.6631074361
 20
86.9950171671
 30
0.0
 10
354.5679260411
 20
86.8950440686
 30
0.0
 10
354.4883339954
 20
86.8402065042
 30
0.0
 10
354.4444550333
 20
86.8148731248
 30
0.0
  0
SPLINE
  5
475
100
AcDbEntity
  8
0
100
AcDbSpline
 62
7
  6
BYLAYER
 70
0
 71
3
 72
9
 73
5
 74
0
 42
0.0000001
 43
0.0000001
 44
0.0000000001
 40
0.0
 40
0.0
 40
0.0
 40
0.0
 40
0.2372066285
 40
1.0
 40
1.0
 40
1.0
 40
1.0
 10
321.9371208238
 20
90.9857923986
 30
0.0
 10
321.9329893826
 20
90.9909477756
 30
0.0
 10
321.9146665039
 20
91.0119527924
 30
0.0
 10
321.8931199642
 20
91.0300335916
 30
0.0
 10
321.8757127936
 20
91.0422130278
 30
0.0
  0
SPLINE
  5
476
100
AcDbEntity
  8
0
100
AcDbSpline
 62
7
  6
BYLAYER
 70
0
 71
3
 72
9
 73
5
 74
0
 42
0.0000001
 43
0.0000001
 44
0.0000000001
 40
0.0
 40
0.0
 40
0.0
 40
0.0
 40
0.2601874101
 40
1.0
 40
1.0
 40
1.0
 40
1.0
 10
336.8003403682
 20
82.5863688365
 30
0.0
 10
336.7821336339
 20
82.5869301347
 30
0.0
 10
336.7123127022
 20
82.5918610375
 30
0.0
 10
336.6429385583
 20
82.6076397487
 30
0.0
 10
336.5948093432
 20
82.6267741952
 30
0.0
  0
SPLINE
  5
477
100
AcDbEntity
  8
0
100
AcDbSpline
 62
7
  6
BYLAYER
 70
0
 71
3
 72
9
 73
5
 74
0
 42
0.0000001
 43
0.0000001
 44
0.0000000001
 40
0.0
 40
0.0
 40
0.0
 40
0.0
 40
0.2412953819
 40
1.0
 40
1.0
 40
1.0
 40
1.0
 10
337.0121555686
 20
82.6139077657
 30
0.0
 10
336.9957156068
 20
82.6087674908
 30
0.0
 10
336.9265891503
 20
82.5907232174
 30
0.0
 10
336.8544746495
 20
82.5846999226
 30
0.0
 10
336.8003403682
 20
82.5863688365
 30
0.0
  0
SPLINE
  5
478
100
AcDbEntity
  8
0
100
AcDbSpline
 62
7
  6
BYLAYER
 70
0
 71
3
 72
9
 73
5
 74
0
 42
0.0000001
 43
0.0000001
 44
0.0000000001
 40
0.0
 40
0.0
 40
0.0
 40
0.0
 40
0.4965566634
 40
1.0
 40
1.0
 40
1.0
 40
1.0
 10
337.4697096618
 20
82.6036597433
 30
0.0
 10
337.3978221814
 20
82.6303726076
 30
0.0
 10
337.2424570152
 20
82.6560513942
 30
0.0
 10
337.0863981201
 20
82.6370096698
 30
0.0
 10
337.0121555686
 20
82.6139077657
 30
0.0
  0
SPLINE
  5
479
100
AcDbEntity
  8
0
100
AcDbSpline
 62
7
  6
BYLAYER
 70
0
 71
3
 72
9
 73
5
 74
0
 42
0.0000001
 43
0.0000001
 44
0.0000000001
 40
0.0
 40
0.0
 40
0.0
 40
0.0
 40
0.2671050725
 40
1.0
 40
1.0
 40
1.0
 40
1.0
 10
337.7061606943
 20
82.2598467612
 30
0.0
 10
337.7010430954
 20
82.2667029674
 30
0.0
 10
337.6835206189
 20
82.2934999689
 30
0.0
 10
337.6741362171
 20
82.326002366
 30
0.0
 10
337.6741352194
 20
82.3494774608
 30
0.0
  0
SPLINE
  5
47A
100
AcDbEntity
  8
0
100
AcDbSpline
 62
7
  6
BYLAYER
 70
0
 71
3
 72
9
 73
5
 74
0
 42
0.0000001
 43
0.0000001
 44
0.0000000001
 40
0.0
 40
0.0
 40
0.0
 40
0.0
 40
0.2759147208
 40
1.0
 40
1.0
 40
1.0
 40
1.0
 10
337.8205059307
 20
82.1730209577
 30
0.0
 10
337.8084674582
 20
82.1786130328
 30
0.0
 10
337.7658937269
 20
82.2008140873
 30
0.0
 10
337.7269975168
 20
82.2319310228
 30
0.0
 10
337.7061606943
 20
82.2598467612
 30
0.0
  0
SPLINE
  5
47B
100
AcDbEntity
  8
0
100
AcDbSpline
 62
7
  6
BYLAYER
 70
0
 71
3
 72
9
 73
5
 74
0
 42
0.0000001
 43
0.0000001
 44
0.0000000001
 40
0.0
 40
0.0
 40
0.0
 40
0.0
 40
0.2469319429
 40
1.0
 40
1.0
 40
1.0
 40
1.0
 10
341.7713195833
 20
81.680265474
 30
0.0
 10
341.7194089477
 20
81.6703633567
 30
0.0
 10
341.5085083976
 20
81.6338827959
 30
0.0
 10
341.2951814102
 20
81.6116033265
 30
0.0
 10
341.1342719039
 20
81.6025090295
 30
0.0
  0
SPLINE
  5
47C
100
AcDbEntity
  8
0
100
AcDbSpline
 62
7
  6
BYLAYER
 70
0
 71
3
 72
9
 73
5
 74
0
 42
0.0000001
 43
0.0000001
 44
0.0000000001
 40
0.0
 40
0.0
 40
0.0
 40
0.0
 40
0.2439727904
 40
1.0
 40
1.0
 40
1.0
 40
1.0
 10
342.4750347346
 20
81.8711592351
 30
0.0
 10
342.4190684881
 20
81.8514788185
 30
0.0
 10
342.1881377389
 20
81.7752154087
 30
0.0
 10
341.9516352644
 20
81.7160877673
 30
0.0
 10
341.7713195833
 20
81.680265474
 30
0.0
  0
SPLINE
  5
47D
100
AcDbEntity
  8
0
100
AcDbSpline
 62
7
  6
BYLAYER
 70
0
 71
3
 72
9
 73
5
 74
0
 42
0.0000001
 43
0.0000001
 44
0.0000000001
 40
0.0
 40
0.0
 40
0.0
 40
0.0
 40
0.2413147141
 40
1.0
 40
1.0
 40
1.0
 40
1.0
 10
343.0916940038
 20
82.1445724488
 30
0.0
 10
343.0441543134
 20
82.1183427837
 30
0.0
 10
342.8446466457
 20
82.0142113933
 30
0.0
 10
342.6360719091
 20
81.9277876294
 30
0.0
 10
342.4750347346
 20
81.8711592351
 30
0.0
  0
SPLINE
  5
47E
100
AcDbEntity
  8
0
100
AcDbSpline
 62
7
  6
BYLAYER
 70
0
 71
3
 72
9
 73
5
 74
0
 42
0.0000001
 43
0.0000001
 44
0.0000000001
 40
0.0
 40
0.0
 40
0.0
 40
0.0
 40
0.4492655925
 40
1.0
 40
1.0
 40
1.0
 40
1.0
 10
343.4155392795
 20
82.4629744748
 30
0.0
 10
343.3959691433
 20
82.3962714576
 30
0.0
 10
343.3031980373
 20
82.2627031959
 30
0.0
 10
343.1690019857
 20
82.1804199652
 30
0.0
 10
343.0916940038
 20
82.1445724488
 30
0.0
  0
SPLINE
  5
47F
100
AcDbEntity
  8
0
100
AcDbSpline
 62
7
  6
BYLAYER
 70
0
 71
3
 72
9
 73
5
 74
0
 42
0.0000001
 43
0.0000001
 44
0.0000000001
 40
0.0
 40
0.0
 40
0.0
 40
0.0
 40
0.2568127945
 40
1.0
 40
1.0
 40
1.0
 40
1.0
 10
356.6790103925
 20
90.1205973824
 30
0.0
 10
356.6249780598
 20
90.115313047
 30
0.0
 10
356.4138030807
 20
90.1061015038
 30
0.0
 10
356.1994120843
 20
90.1389570058
 30
0.0
 10
356.0516268298
 20
90.1922759068
 30
0.0
  0
SPLINE
  5
480
100
AcDbEntity
  8
0
100
AcDbSpline
 62
7
  6
BYLAYER
 70
0
 71
3
 72
9
 73
5
 74
0
 42
0.0000001
 43
0.0000001
 44
0.0000000001
 40
0.0
 40
0.0
 40
0.0
 40
0.0
 40
0.4682831591
 40
1.0
 40
1.0
 40
1.0
 40
1.0
 10
357.2305040666
 20
90.307569518
 30
0.0
 10
357.1560937208
 20
90.2540795521
 30
0.0
 10
356.9759810488
 20
90.1693814165
 30
0.0
 10
356.7825710239
 20
90.130725561
 30
0.0
 10
356.6790103925
 20
90.1205973824
 30
0.0
  0
SPLINE
  5
481
100
AcDbEntity
  8
0
100
AcDbSpline
 62
7
  6
BYLAYER
 70
0
 71
3
 72
9
 73
5
 74
0
 42
0.0000001
 43
0.0000001
 44
0.0000000001
 40
0.0
 40
0.0
 40
0.0
 40
0.0
 40
0.2389907174
 40
1.0
 40
1.0
 40
1.0
 40
1.0
 10
357.7040712792
 20
90.6635950998
 30
0.0
 10
357.6697787073
 20
90.6310888836
 30
0.0
 10
357.5221108998
 20
90.4994984026
 30
0.0
 10
357.35928569
 20
90.3853715729
 30
0.0
 10
357.2305040666
 20
90.307569518
 30
0.0
  0
SPLINE
  5
482
100
AcDbEntity
  8
0
100
AcDbSpline
 62
7
  6
BYLAYER
 70
0
 71
3
 72
9
 73
5
 74
0
 42
0.0000001
 43
0.0000001
 44
0.0000000001
 40
0.0
 40
0.0
 40
0.0
 40
0.0
 40
0.23914411
 40
1.0
 40
1.0
 40
1.0
 40
1.0
 10
358.0347078393
 20
91.0698810131
 30
0.0
 10
358.0132912476
 20
91.033946766
 30
0.0
 10
357.9178746684
 20
90.8871919228
 30
0.0
 10
357.8006642659
 20
90.7551564013
 30
0.0
 10
357.7040712792
 20
90.6635950998
 30
0.0
  0
SPLINE
  5
483
100
AcDbEntity
  8
0
100
AcDbSpline
 62
7
  6
BYLAYER
 70
0
 71
3
 72
9
 73
5
 74
0
 42
0.0000001
 43
0.0000001
 44
0.0000000001
 40
0.0
 40
0.0
 40
0.0
 40
0.0
 40
0.2433973571
 40
1.0
 40
1.0
 40
1.0
 40
1.0
 10
358.1693825725
 20
91.4376760517
 30
0.0
 10
358.164054778
 20
91.4062518925
 30
0.0
 10
358.1360858764
 20
91.2781961501
 30
0.0
 10
358.083917305
 20
91.1558724884
 30
0.0
 10
358.0347078393
 20
91.0698810131
 30
0.0
  0
LINE
  5
484
100
AcDbEntity
  8
0
100
AcDbLine
 62
7
  6
BYLAYER
 10
323.0280949623
 20
89.9102862955
 11
322.8319414576
 21
90.0403429828
  0
LINE
  5
485
100
AcDbEntity
  8
0
100
AcDbLine
 62
7
  6
BYLAYER
 10
322.7523668226
 20
90.0929637034
 11
322.5670814576
 21
90.2151765827
  0
SPLINE
  5
486
100
AcDbEntity
  8
0
100
AcDbSpline
 62
7
  6
BYLAYER
 70
0
 71
3
 72
9
 73
5
 74
0
 42
0.0000001
 43
0.0000001
 44
0.0000000001
 40
0.0
 40
0.0
 40
0.0
 40
0.0
 40
0.2802757735
 40
1.0
 40
1.0
 40
1.0
 40
1.0
 10
322.033387749
 20
90.5647808146
 30
0.0
 10
322.0221491327
 20
90.5721053647
 30
0.0
 10
321.9837146188
 20
90.6003404712
 30
0.0
 10
321.9518658222
 20
90.6400403614
 30
0.0
 10
321.940581607
 20
90.6725876583
 30
0.0
  0
SPLINE
  5
487
100
AcDbEntity
  8
0
100
AcDbSpline
 62
7
  6
BYLAYER
 70
0
 71
3
 72
8
 73
4
 74
0
 42
0.0000001
 43
0.0000001
 44
0.0000000001
 40
0.0
 40
0.0
 40
0.0
 40
0.0
 40
1.0
 40
1.0
 40
1.0
 40
1.0
 10
321.940581607
 20
90.6725876583
 30
0.0
 10
321.9355599727
 20
90.6870716628
 30
0.0
 10
321.9328021864
 20
90.7025843498
 30
0.0
 10
321.9328010754
 20
90.7179141638
 30
0.0
  0
SPLINE
  5
488
100
AcDbEntity
  8
0
100
AcDbSpline
 62
7
  6
BYLAYER
 70
0
 71
3
 72
9
 73
5
 74
0
 42
0.0000001
 43
0.0000001
 44
0.0000000001
 40
0.0
 40
0.0
 40
0.0
 40
0.0
 40
0.468676756
 40
1.0
 40
1.0
 40
1.0
 40
1.0
 10
321.8757127936
 20
91.0422130278
 30
0.0
 10
321.8212785462
 20
91.0802995413
 30
0.0
 10
321.6847058397
 20
91.1315555847
 30
0.0
 10
321.5414226342
 20
91.1402203913
 30
0.0
 10
321.4663508265
 20
91.1341645505
 30
0.0
  0
SPLINE
  5
489
100
AcDbEntity
  8
0
100
AcDbSpline
 62
7
  6
BYLAYER
 70
0
 71
3
 72
9
 73
5
 74
0
 42
0.0000001
 43
0.0000001
 44
0.0000000001
 40
0.0
 40
0.0
 40
0.0
 40
0.0
 40
0.2532145011
 40
1.0
 40
1.0
 40
1.0
 40
1.0
 10
321.4663508265
 20
91.1341645505
 30
0.0
 10
321.4485445385
 20
91.1327281651
 30
0.0
 10
321.3780422678
 20
91.1298363522
 30
0.0
 10
321.3069819194
 20
91.1375936018
 30
0.0
 10
321.2557873471
 20
91.1500375796
 30
0.0
  0
SPLINE
  5
48A
100
AcDbEntity
  8
0
100
AcDbSpline
 62
7
  6
BYLAYER
 70
0
 71
3
 72
9
 73
5
 74
0
 42
0.0000001
 43
0.0000001
 44
0.0000000001
 40
0.0
 40
0.0
 40
0.0
 40
0.0
 40
0.2714876873
 40
1.0
 40
1.0
 40
1.0
 40
1.0
 10
321.2557873471
 20
91.1500375796
 30
0.0
 10
321.2396098547
 20
91.1539698785
 30
0.0
 10
321.1807609484
 20
91.1709454374
 30
0.0
 10
321.1241321081
 20
91.1983407673
 30
0.0
 10
321.0889674374
 20
91.2258959653
 30
0.0
  0
SPLINE
  5
48B
100
AcDbEntity
  8
0
100
AcDbSpline
 62
7
  6
BYLAYER
 70
0
 71
3
 72
9
 73
5
 74
0
 42
0.0000001
 43
0.0000001
 44
0.0000000001
 40
0.0
 40
0.0
 40
0.0
 40
0.0
 40
0.2551707188
 40
1.0
 40
1.0
 40
1.0
 40
1.0
 10
321.0889674374
 20
91.2258959653
 30
0.0
 10
321.0278330822
 20
91.2738011278
 30
0.0
 10
320.7905297636
 20
91.4644188402
 30
0.0
 10
320.5625735029
 20
91.6667514477
 30
0.0
 10
320.3993972926
 20
91.8241372318
 30
0.0
  0
SPLINE
  5
48C
100
AcDbEntity
  8
0
100
AcDbSpline
 62
7
  6
BYLAYER
 70
0
 71
3
 72
9
 73
5
 74
0
 42
0.0000001
 43
0.0000001
 44
0.0000000001
 40
0.0
 40
0.0
 40
0.0
 40
0.0
 40
0.2552371616
 40
1.0
 40
1.0
 40
1.0
 40
1.0
 10
320.3993972926
 20
91.8241372318
 30
0.0
 10
320.3464725907
 20
91.8751838623
 30
0.0
 10
320.1418223867
 20
92.0779555984
 30
0.0
 10
319.9482787051
 20
92.2920190631
 30
0.0
 10
319.8118940211
 20
92.4576515049
 30
0.0
  0
SPLINE
  5
48D
100
AcDbEntity
  8
0
100
AcDbSpline
 62
7
  6
BYLAYER
 70
0
 71
3
 72
9
 73
5
 74
0
 42
0.0000001
 43
0.0000001
 44
0.0000000001
 40
0.0
 40
0.0
 40
0.0
 40
0.0
 40
0.2640754394
 40
1.0
 40
1.0
 40
1.0
 40
1.0
 10
319.8118940211
 20
92.4576515049
 30
0.0
 10
319.7818871609
 20
92.4963530738
 30
0.0
 10
319.6751818399
 20
92.6479622264
 30
0.0
 10
319.5994292426
 20
92.8227314258
 30
0.0
 10
319.5705922294
 20
92.9561240518
 30
0.0
  0
SPLINE
  5
48E
100
AcDbEntity
  8
0
100
AcDbSpline
 62
7
  6
BYLAYER
 70
0
 71
3
 72
9
 73
5
 74
0
 42
0.0000001
 43
0.0000001
 44
0.0000000001
 40
0.0
 40
0.0
 40
0.0
 40
0.0
 40
0.2732185083
 40
1.0
 40
1.0
 40
1.0
 40
1.0
 10
337.4697096618
 20
91.5851863317
 30
0.0
 10
337.4846454463
 20
91.579636303
 30
0.0
 10
337.5383183954
 20
91.5570405043
 30
0.0
 10
337.5886909024
 20
91.5245430124
 30
0.0
 10
337.6183077049
 20
91.4942230214
 30
0.0
  0
SPLINE
  5
48F
100
AcDbEntity
  8
0
100
AcDbSpline
 62
7
  6
BYLAYER
 70
0
 71
3
 72
9
 73
5
 74
0
 42
0.0000001
 43
0.0000001
 44
0.0000000001
 40
0.0
 40
0.0
 40
0.0
 40
0.0
 40
0.5034433366
 40
1.0
 40
1.0
 40
1.0
 40
1.0
 10
337.0121555686
 20
91.5954343541
 30
0.0
 10
337.0863981202
 20
91.6185362582
 30
0.0
 10
337.2424570152
 20
91.6375779826
 30
0.0
 10
337.3978221814
 20
91.611899196
 30
0.0
 10
337.4697096618
 20
91.5851863317
 30
0.0
  0
SPLINE
  5
490
100
AcDbEntity
  8
0
100
AcDbSpline
 62
7
  6
BYLAYER
 70
0
 71
3
 72
8
 73
4
 74
0
 42
0.0000001
 43
0.0000001
 44
0.0000000001
 40
0.0
 40
0.0
 40
0.0
 40
0.0
 40
1.0
 40
1.0
 40
1.0
 40
1.0
 10
336.5948093432
 20
91.6083007836
 30
0.0
 10
336.6147266129
 20
91.6003823929
 30
0.0
 10
336.6351993737
 20
91.5937749121
 30
0.0
 10
336.6559284173
 20
91.5883246552
 30
0.0
  0
SPLINE
  5
491
100
AcDbEntity
  8
0
100
AcDbSpline
 62
7
  6
BYLAYER
 70
0
 71
3
 72
8
 73
4
 74
0
 42
0.0000001
 43
0.0000001
 44
0.0000000001
 40
0.0
 40
0.0
 40
0.0
 40
0.0
 40
1.0
 40
1.0
 40
1.0
 40
1.0
 10
322.0026572851
 20
99.5690546637
 30
0.0
 10
322.0123972785
 20
99.5608354989
 30
0.0
 10
322.02271066
 20
99.5532659886
 30
0.0
 10
322.033387749
 20
99.546307403
 30
0.0
  0
SPLINE
  5
492
100
AcDbEntity
  8
0
100
AcDbSpline
 62
7
  6
BYLAYER
 70
0
 71
3
 72
9
 73
5
 74
0
 42
0.0000001
 43
0.0000001
 44
0.0000000001
 40
0.0
 40
0.0
 40
0.0
 40
0.0
 40
0.5303036897
 40
1.0
 40
1.0
 40
1.0
 40
1.0
 10
321.4663508266
 20
100.1156911389
 30
0.0
 10
321.5404367789
 20
100.1216674534
 30
0.0
 10
321.6821028933
 20
100.1133407457
 30
0.0
 10
321.81725538
 20
100.0635202634
 30
0.0
 10
321.8716978506
 20
100.0265085772
 30
0.0
  0
SPLINE
  5
493
100
AcDbEntity
  8
0
100
AcDbSpline
 62
7
  6
BYLAYER
 70
0
 71
3
 72
8
 73
4
 74
0
 42
0.0000001
 43
0.0000001
 44
0.0000000001
 40
0.0
 40
0.0
 40
0.0
 40
0.0
 40
1.0
 40
1.0
 40
1.0
 40
1.0
 10
321.0889674374
 20
100.2074225537
 30
0.0
 10
321.0977913859
 20
100.200508067
 30
0.0
 10
321.1070178346
 20
100.1940874176
 30
0.0
 10
321.1165108101
 20
100.1881245652
 30
0.0
  0
SPLINE
  5
494
100
AcDbEntity
  8
0
100
AcDbSpline
 62
7
  6
BYLAYER
 70
0
 71
3
 72
9
 73
5
 74
0
 42
0.0000001
 43
0.0000001
 44
0.0000000001
 40
0.0
 40
0.0
 40
0.0
 40
0.0
 40
0.2393997778
 40
1.0
 40
1.0
 40
1.0
 40
1.0
 10
321.1165108101
 20
100.1881245652
 30
0.0
 10
321.1222391824
 20
100.1845263848
 30
0.0
 10
321.1465959875
 20
100.1701819256
 30
0.0
 10
321.1724799661
 20
100.1585000301
 30
0.0
 10
321.1925958078
 20
100.1509324536
 30
0.0
  0
SPLINE
  5
495
100
AcDbEntity
  8
0
100
AcDbSpline
 62
7
  6
BYLAYER
 70
0
 71
3
 72
9
 73
5
 74
0
 42
0.0000001
 43
0.0000001
 44
0.0000000001
 40
0.0
 40
0.0
 40
0.0
 40
0.0
 40
0.2449312445
 40
1.0
 40
1.0
 40
1.0
 40
1.0
 10
320.3993972926
 20
100.8056638202
 30
0.0
 10
320.4530568664
 20
100.7539083954
 30
0.0
 10
320.6750141167
 20
100.5455971529
 30
0.0
 10
320.9080652046
 20
100.3491783771
 30
0.0
 10
321.0889674374
 20
100.2074225537
 30
0.0
  0
SPLINE
  5
496
100
AcDbEntity
  8
0
100
AcDbSpline
 62
7
  6
BYLAYER
 70
0
 71
3
 72
9
 73
5
 74
0
 42
0.0000001
 43
0.0000001
 44
0.0000000001
 40
0.0
 40
0.0
 40
0.0
 40
0.0
 40
0.2453022353
 40
1.0
 40
1.0
 40
1.0
 40
1.0
 10
319.8118940211
 20
101.4391780933
 30
0.0
 10
319.8533703323
 20
101.3888071682
 30
0.0
 10
320.0253386372
 20
101.18585129
 30
0.0
 10
320.2084978481
 20
100.9924345646
 30
0.0
 10
320.3518485133
 20
100.8518996972
 30
0.0
  0
SPLINE
  5
497
100
AcDbEntity
  8
0
100
AcDbSpline
 62
7
  6
BYLAYER
 70
0
 71
3
 72
9
 73
5
 74
0
 42
0.0000001
 43
0.0000001
 44
0.0000000001
 40
0.0
 40
0.0
 40
0.0
 40
0.0
 40
0.2432001563
 40
1.0
 40
1.0
 40
1.0
 40
1.0
 10
319.5705922294
 20
101.9376506402
 30
0.0
 10
319.5771044746
 20
101.9075266647
 30
0.0
 10
319.6092756236
 20
101.7848463294
 30
0.0
 10
319.662706604
 20
101.6680986429
 30
0.0
 10
319.7117497793
 20
101.5856801366
 30
0.0
  0
SPLINE
  5
498
100
AcDbEntity
  8
0
100
AcDbSpline
 62
7
  6
BYLAYER
 70
0
 71
3
 72
9
 73
5
 74
0
 42
0.0000001
 43
0.0000001
 44
0.0000000001
 40
0.0
 40
0.0
 40
0.0
 40
0.0
 40
0.2456181287
 40
1.0
 40
1.0
 40
1.0
 40
1.0
 10
319.7117497793
 20
101.5856801366
 30
0.0
 10
319.7191820811
 20
101.5731899336
 30
0.0
 10
319.750263166
 20
101.5228294225
 30
0.0
 10
319.7845413924
 20
101.4744563476
 30
0.0
 10
319.8118940211
 20
101.4391780933
 30
0.0
  0
SPLINE
  5
499
100
AcDbEntity
  8
0
100
AcDbSpline
 62
7
  6
BYLAYER
 70
0
 71
3
 72
9
 73
5
 74
0
 42
0.0000001
 43
0.0000001
 44
0.0000000001
 40
0.0
 40
0.0
 40
0.0
 40
0.0
 40
0.2474990407
 40
1.0
 40
1.0
 40
1.0
 40
1.0
 10
350.1837554806
 20
84.3467068803
 30
0.0
 10
350.1808428227
 20
84.2743934093
 30
0.0
 10
350.1585683705
 20
83.9826991946
 30
0.0
 10
350.0937055389
 20
83.6945428268
 30
0.0
 10
350.0241386551
 20
83.4857876026
 30
0.0
  0
SPLINE
  5
49A
100
AcDbEntity
  8
0
100
AcDbSpline
 62
7
  6
BYLAYER
 70
0
 71
3
 72
11
 73
7
 74
0
 42
0.0000001
 43
0.0000001
 44
0.0000000001
 40
0.0
 40
0.0
 40
0.0
 40
0.0
 40
0.2207680759
 40
0.4589080927
 40
0.7182254242
 40
1.0
 40
1.0
 40
1.0
 40
1.0
 10
350.0241386551
 20
83.4857876026
 30
0.0
 10
349.937326925
 20
83.2252843116
 30
0.0
 10
349.6885986559
 20
82.7050228024
 30
0.0
 10
349.1390500396
 20
81.9940882776
 30
0.0
 10
348.4168397024
 20
81.3413938295
 30
0.0
 10
347.853686087
 20
80.9684174994
 30
0.0
 10
347.550173002
 20
80.7931851841
 30
0.0
  0
SPLINE
  5
49B
100
AcDbEntity
  8
0
100
AcDbSpline
 62
7
  6
BYLAYER
 70
0
 71
3
 72
9
 73
5
 74
0
 42
0.0000001
 43
0.0000001
 44
0.0000000001
 40
0.0
 40
0.0
 40
0.0
 40
0.0
 40
0.261772037
 40
1.0
 40
1.0
 40
1.0
 40
1.0
 10
356.6790103926
 20
99.1021239709
 30
0.0
 10
356.7151024092
 20
99.1056537523
 30
0.0
 10
356.852364478
 20
99.1241182681
 30
0.0
 10
356.987602392
 20
99.1622471219
 30
0.0
 10
357.0809076626
 20
99.204117702
 30
0.0
  0
SPLINE
  5
49C
100
AcDbEntity
  8
0
100
AcDbSpline
 62
7
  6
BYLAYER
 70
0
 71
3
 72
9
 73
5
 74
0
 42
0.0000001
 43
0.0000001
 44
0.0000000001
 40
0.0
 40
0.0
 40
0.0
 40
0.0
 40
0.2610522135
 40
1.0
 40
1.0
 40
1.0
 40
1.0
 10
357.0809076626
 20
99.204117702
 30
0.0
 10
357.0945790544
 20
99.2102527156
 30
0.0
 10
357.146407798
 20
99.2349174931
 30
0.0
 10
357.1960625851
 20
99.2643378064
 30
0.0
 10
357.2305040666
 20
99.2890961065
 30
0.0
  0
SPLINE
  5
49D
100
AcDbEntity
  8
0
100
AcDbSpline
 62
7
  6
BYLAYER
 70
0
 71
3
 72
15
 73
11
 74
0
 42
0.0000001
 43
0.0000001
 44
0.0000000001
 40
0.0
 40
0.0
 40
0.0
 40
0.0
 40
0.114157724
 40
0.2373244526
 40
0.3669752053
 40
0.4999994786
 40
0.6330238245
 40
0.762674789
 40
0.8858418513
 40
1.0
 40
1.0
 40
1.0
 40
1.0
 10
347.550173002
 20
80.7931851841
 30
0.0
 10
347.1144980303
 20
80.5416496234
 30
0.0
 10
346.1618520129
 20
80.0980283348
 30
0.0
 10
344.61050082
 20
79.6265403691
 30
0.0
 10
342.9309460166
 20
79.33628173
 30
0.0
 10
341.186222704
 20
79.2383545477
 30
0.0
 10
339.4414979969
 20
79.3362734493
 30
0.0
 10
337.7619390725
 20
79.6265241134
 30
0.0
 10
336.2105812014
 20
80.0980047047
 30
0.0
 10
335.2579293473
 20
80.5416212351
 30
0.0
 10
334.8222509408
 20
80.7931545899
 30
0.0
  0
SPLINE
  5
49E
100
AcDbEntity
  8
0
100
AcDbSpline
 62
7
  6
BYLAYER
 70
0
 71
3
 72
9
 73
5
 74
0
 42
0.0000001
 43
0.0000001
 44
0.0000000001
 40
0.0
 40
0.0
 40
0.0
 40
0.0
 40
0.261203105
 40
1.0
 40
1.0
 40
1.0
 40
1.0
 10
334.8222509408
 20
80.7931545899
 30
0.0
 10
334.7079788558
 20
80.8591281165
 30
0.0
 10
334.2765548684
 20
81.1218561671
 30
0.0
 10
333.8698813727
 20
81.4267338689
 30
0.0
 10
333.593464775
 20
81.6774925197
 30
0.0
  0
SPLINE
  5
49F
100
AcDbEntity
  8
0
100
AcDbSpline
 62
7
  6
BYLAYER
 70
0
 71
3
 72
9
 73
5
 74
0
 42
0.0000001
 43
0.0000001
 44
0.0000000001
 40
0.0
 40
0.0
 40
0.0
 40
0.0
 40
0.2755756012
 40
1.0
 40
1.0
 40
1.0
 40
1.0
 10
343.0916940038
 20
91.1260990372
 30
0.0
 10
343.1192017015
 20
91.1388542873
 30
0.0
 10
343.2166026569
 20
91.1895729049
 30
0.0
 10
343.3057013054
 20
91.2604876021
 30
0.0
 10
343.353612799
 20
91.3241878607
 30
0.0
  0
SPLINE
  5
4A0
100
AcDbEntity
  8
0
100
AcDbSpline
 62
7
  6
BYLAYER
 70
0
 71
3
 72
9
 73
5
 74
0
 42
0.0000001
 43
0.0000001
 44
0.0000000001
 40
0.0
 40
0.0
 40
0.0
 40
0.0
 40
0.2613546753
 40
1.0
 40
1.0
 40
1.0
 40
1.0
 10
343.353612799
 20
91.3241878607
 30
0.0
 10
343.3604557983
 20
91.3332859036
 30
0.0
 10
343.3853131579
 20
91.3690510463
 30
0.0
 10
343.4045304092
 20
91.4089122168
 30
0.0
 10
343.4140713307
 20
91.4396394061
 30
0.0
  0
SPLINE
  5
4A1
100
AcDbEntity
  8
0
100
AcDbSpline
 62
7
  6
BYLAYER
 70
0
 71
3
 72
9
 73
5
 74
0
 42
0.0000001
 43
0.0000001
 44
0.0000000001
 40
0.0
 40
0.0
 40
0.0
 40
0.0
 40
0.2617578761
 40
1.0
 40
1.0
 40
1.0
 40
1.0
 10
321.9543634518
 20
859.5328935096
 30
0.0
 10
321.9508760139
 20
859.5270121595
 30
0.0
 10
321.9388358728
 20
859.5038265
 30
0.0
 10
321.9327996779
 20
859.4773796247
 30
0.0
 10
321.9328010754
 20
859.4580954309
 30
0.0
  0
SPLINE
  5
4A2
100
AcDbEntity
  8
0
100
AcDbSpline
 62
7
  6
BYLAYER
 70
0
 71
3
 72
9
 73
5
 74
0
 42
0.0000001
 43
0.0000001
 44
0.0000000001
 40
0.0
 40
0.0
 40
0.0
 40
0.0
 40
0.2528153945
 40
1.0
 40
1.0
 40
1.0
 40
1.0
 10
319.5922762577
 20
862.2137282111
 30
0.0
 10
319.5860048033
 20
862.1905387029
 30
0.0
 10
319.5641109081
 20
862.0980540654
 30
0.0
 10
319.5543646809
 20
862.002667083
 30
0.0
 10
319.5543653942
 20
861.9316694158
 30
0.0
  0
SPLINE
  5
4A3
100
AcDbEntity
  8
0
100
AcDbSpline
 62
7
  6
BYLAYER
 70
0
 71
3
 72
8
 73
4
 74
0
 42
0.0000001
 43
0.0000001
 44
0.0000000001
 40
0.0
 40
0.0
 40
0.0
 40
0.0
 40
1.0
 40
1.0
 40
1.0
 40
1.0
 10
319.6605260936
 20
862.3693490137
 30
0.0
 10
319.6453614387
 20
862.3446841526
 30
0.0
 10
319.6317517108
 20
862.3189722625
 30
0.0
 10
319.6201227875
 20
862.292456413
 30
0.0
  0
SPLINE
  5
4A4
100
AcDbEntity
  8
0
100
AcDbSpline
 62
7
  6
BYLAYER
 70
0
 71
3
 72
9
 73
5
 74
0
 42
0.0000001
 43
0.0000001
 44
0.0000000001
 40
0.0
 40
0.0
 40
0.0
 40
0.0
 40
0.263116697
 40
1.0
 40
1.0
 40
1.0
 40
1.0
 10
320.046902431
 20
862.8206270476
 30
0.0
 10
320.0078432865
 20
862.785987331
 30
0.0
 10
319.8636150452
 20
862.6497739659
 30
0.0
 10
319.7371038425
 20
862.4939004496
 30
0.0
 10
319.6605260936
 20
862.3693490137
 30
0.0
  0
SPLINE
  5
4A5
100
AcDbEntity
  8
0
100
AcDbSpline
 62
7
  6
BYLAYER
 70
0
 71
3
 72
9
 73
5
 74
0
 42
0.0000001
 43
0.0000001
 44
0.0000000001
 40
0.0
 40
0.0
 40
0.0
 40
0.0
 40
0.2588666781
 40
1.0
 40
1.0
 40
1.0
 40
1.0
 10
320.4319416674
 20
863.1060096855
 30
0.0
 10
320.3968359784
 20
863.0840992913
 30
0.0
 10
320.2628447371
 20
862.996916929
 30
0.0
 10
320.1355424386
 20
862.8992376976
 30
0.0
 10
320.046902431
 20
862.8206270476
 30
0.0
  0
SPLINE
  5
4A6
100
AcDbEntity
  8
0
100
AcDbSpline
 62
7
  6
BYLAYER
 70
0
 71
3
 72
10
 73
6
 74
0
 42
0.0000001
 43
0.0000001
 44
0.0000000001
 40
0.0
 40
0.0
 40
0.0
 40
0.0
 40
0.2193228189
 40
0.4536505551
 40
1.0
 40
1.0
 40
1.0
 40
1.0
 10
353.7575931574
 20
866.9848572799
 30
0.0
 10
353.7575929428
 20
867.0146251344
 30
0.0
 10
353.7468460403
 20
867.0766097158
 30
0.0
 10
353.6824758126
 20
867.1979883366
 30
0.0
 10
353.5967525526
 20
867.2676016347
 30
0.0
 10
353.5331151843
 20
867.3056685747
 30
0.0
  0
SPLINE
  5
4A7
100
AcDbEntity
  8
0
100
AcDbSpline
 62
7
  6
BYLAYER
 70
0
 71
3
 72
11
 73
7
 74
0
 42
0.0000001
 43
0.0000001
 44
0.0000000001
 40
0.0
 40
0.0
 40
0.0
 40
0.0
 40
0.2898001512
 40
0.5490497799
 40
0.7822288614
 40
1.0
 40
1.0
 40
1.0
 40
1.0
 10
351.6160082901
 20
862.9035179497
 30
0.0
 10
351.4733516556
 20
862.9858789328
 30
0.0
 10
351.2145820805
 20
863.1640022673
 30
0.0
 10
350.9054690463
 20
863.4890684903
 30
0.0
 10
350.7097901368
 20
863.8484654295
 30
0.0
 10
350.6640966538
 20
864.1065207527
 30
0.0
 10
350.6640957611
 20
864.2303036377
 30
0.0
  0
SPLINE
  5
4A8
100
AcDbEntity
  8
0
100
AcDbSpline
 62
7
  6
BYLAYER
 70
0
 71
3
 72
11
 73
7
 74
0
 42
0.0000001
 43
0.0000001
 44
0.0000000001
 40
0.0
 40
0.0
 40
0.0
 40
0.0
 40
0.2177159471
 40
0.4509403815
 40
0.7102937689
 40
1.0
 40
1.0
 40
1.0
 40
1.0
 10
354.8201880206
 20
860.8623122521
 30
0.0
 10
354.8201878009
 20
860.8927736216
 30
0.0
 10
354.8089067972
 20
860.9562819183
 30
0.0
 10
354.760795063
 20
861.044791289
 30
0.0
 10
354.6846488343
 20
861.124769359
 30
0.0
 10
354.6209745651
 20
861.1686391102
 30
0.0
 10
354.5858710904
 20
861.1889056522
 30
0.0
  0
SPLINE
  5
4A9
100
AcDbEntity
  8
0
100
AcDbSpline
 62
7
  6
BYLAYER
 70
0
 71
3
 72
9
 73
5
 74
0
 42
0.0000001
 43
0.0000001
 44
0.0000000001
 40
0.0
 40
0.0
 40
0.0
 40
0.0
 40
0.5494342295
 40
1.0
 40
1.0
 40
1.0
 40
1.0
 10
323.0657505718
 20
861.7292731339
 30
0.0
 10
323.0022570344
 20
861.6926153418
 30
0.0
 10
322.8933246959
 20
861.6092927983
 30
0.0
 10
322.8360452903
 20
861.478893249
 30
0.0
 10
322.8324103486
 20
861.4188802193
 30
0.0
  0
SPLINE
  5
4AA
100
AcDbEntity
  8
0
100
AcDbSpline
 62
7
  6
BYLAYER
 70
0
 71
3
 72
11
 73
7
 74
0
 42
0.0000001
 43
0.0000001
 44
0.0000000001
 40
0.0
 40
0.0
 40
0.0
 40
0.0
 40
0.2176656375
 40
0.4508002441
 40
0.7100903698
 40
1.0
 40
1.0
 40
1.0
 40
1.0
 10
326.0539795787
 20
864.2302444823
 30
0.0
 10
326.0539804718
 20
864.1063921262
 30
0.0
 10
326.0081362046
 20
863.8481460559
 30
0.0
 10
325.8118639167
 20
863.4886349939
 30
0.0
 10
325.501901259
 20
863.1636362913
 30
0.0
 10
325.2424998603
 20
862.9856964347
 30
0.0
 10
325.0995039963
 20
862.9034542121
 30
0.0
  0
SPLINE
  5
4AB
100
AcDbEntity
  8
0
100
AcDbSpline
 62
7
  6
BYLAYER
 70
0
 71
3
 72
11
 73
7
 74
0
 42
0.0000001
 43
0.0000001
 44
0.0000000001
 40
0.0
 40
0.0
 40
0.0
 40
0.0
 40
0.2897060281
 40
0.5490591642
 40
0.7822835676
 40
1.0
 40
1.0
 40
1.0
 40
1.0
 10
323.331705837
 20
867.2308199771
 30
0.0
 10
323.2966026673
 20
867.2105532736
 30
0.0
 10
323.2329290308
 20
867.1666832221
 30
0.0
 10
323.1567839148
 20
867.0867047434
 30
0.0
 10
323.1086734419
 20
866.9981950635
 30
0.0
 10
323.0973933974
 20
866.9346867714
 30
0.0
 10
323.0973936171
 20
866.9042254505
 30
0.0
  0
SPLINE
  5
4AC
100
AcDbEntity
  8
0
100
AcDbSpline
 62
7
  6
BYLAYER
 70
0
 71
3
 72
9
 73
5
 74
0
 42
0.0000001
 43
0.0000001
 44
0.0000000001
 40
0.0
 40
0.0
 40
0.0
 40
0.0
 40
0.2671444907
 40
1.0
 40
1.0
 40
1.0
 40
1.0
 10
325.7712147651
 20
868.5436051508
 30
0.0
 10
325.7451684482
 20
868.5436050882
 30
0.0
 10
325.6479770568
 20
868.538080662
 30
0.0
 10
325.5502524596
 20
868.5116908211
 30
0.0
 10
325.4883725409
 20
868.4759646467
 30
0.0
  0
SPLINE
  5
4AD
100
AcDbEntity
  8
0
100
AcDbSpline
 62
7
  6
BYLAYER
 70
0
 71
3
 72
9
 73
5
 74
0
 42
0.0000001
 43
0.0000001
 44
0.0000000001
 40
0.0
 40
0.0
 40
0.0
 40
0.0
 40
0.2291146192
 40
1.0
 40
1.0
 40
1.0
 40
1.0
 10
326.0540579653
 20
868.4759660062
 30
0.0
 10
326.034699884
 20
868.4871421468
 30
0.0
 10
325.9459200038
 20
868.5283826224
 30
0.0
 10
325.8464231446
 20
868.5436053316
 30
0.0
 10
325.7712147651
 20
868.5436051508
 30
0.0
  0
SPLINE
  5
4AE
100
AcDbEntity
  8
0
100
AcDbSpline
 62
7
  6
BYLAYER
 70
0
 71
3
 72
9
 73
5
 74
0
 42
0.0000001
 43
0.0000001
 44
0.0000000001
 40
0.0
 40
0.0
 40
0.0
 40
0.0
 40
0.4492434353
 40
1.0
 40
1.0
 40
1.0
 40
1.0
 10
326.9490371281
 20
867.8636044762
 30
0.0
 10
326.9490369034
 20
867.8947623695
 30
0.0
 10
326.9218014515
 20
867.9642882525
 30
0.0
 10
326.8649597002
 20
868.0078022626
 30
0.0
 10
326.831878663
 20
868.0269011762
 30
0.0
  0
SPLINE
  5
4AF
100
AcDbEntity
  8
0
100
AcDbSpline
 62
7
  6
BYLAYER
 70
0
 71
3
 72
9
 73
5
 74
0
 42
0.0000001
 43
0.0000001
 44
0.0000000001
 40
0.0
 40
0.0
 40
0.0
 40
0.0
 40
0.5507565647
 40
1.0
 40
1.0
 40
1.0
 40
1.0
 10
325.9833587687
 20
866.8838202649
 30
0.0
 10
325.9502777315
 20
866.9029191785
 30
0.0
 10
325.8934359802
 20
866.9464331886
 30
0.0
 10
325.8662005283
 20
867.0159590715
 30
0.0
 10
325.8662003036
 20
867.0471169649
 30
0.0
  0
SPLINE
  5
4B0
100
AcDbEntity
  8
0
100
AcDbSpline
 62
7
  6
BYLAYER
 70
0
 71
3
 72
9
 73
5
 74
0
 42
0.0000001
 43
0.0000001
 44
0.0000000001
 40
0.0
 40
0.0
 40
0.0
 40
0.0
 40
0.2671440672
 40
1.0
 40
1.0
 40
1.0
 40
1.0
 10
327.2561555841
 20
866.2446440639
 30
0.0
 10
327.230109253
 20
866.2446440013
 30
0.0
 10
327.1329176213
 20
866.2501679748
 30
0.0
 10
327.0351927279
 20
866.2765573835
 30
0.0
 10
326.9733123839
 20
866.3122832085
 30
0.0
  0
SPLINE
  5
4B1
100
AcDbEntity
  8
0
100
AcDbSpline
 62
7
  6
BYLAYER
 70
0
 71
3
 72
9
 73
5
 74
0
 42
0.0000001
 43
0.0000001
 44
0.0000000001
 40
0.0
 40
0.0
 40
0.0
 40
0.0
 40
0.2291142508
 40
1.0
 40
1.0
 40
1.0
 40
1.0
 10
327.5389978088
 20
866.3122845683
 30
0.0
 10
327.5196398801
 20
866.3011083296
 30
0.0
 10
327.4308604457
 20
866.259867367
 30
0.0
 10
327.3313638407
 20
866.2446442447
 30
0.0
 10
327.2561555841
 20
866.2446440639
 30
0.0
  0
SPLINE
  5
4B2
100
AcDbEntity
  8
0
100
AcDbSpline
 62
7
  6
BYLAYER
 70
0
 71
3
 72
9
 73
5
 74
0
 42
0.0000001
 43
0.0000001
 44
0.0000000001
 40
0.0
 40
0.0
 40
0.0
 40
0.0
 40
0.4492438796
 40
1.0
 40
1.0
 40
1.0
 40
1.0
 10
334.8686130584
 20
870.6396722011
 30
0.0
 10
334.868613283
 20
870.6085143999
 30
0.0
 10
334.8413789147
 20
870.5389883457
 30
0.0
 10
334.7845376905
 20
870.4954739991
 30
0.0
 10
334.7514569484
 20
870.4763749378
 30
0.0
  0
SPLINE
  5
4B3
100
AcDbEntity
  8
0
100
AcDbSpline
 62
7
  6
BYLAYER
 70
0
 71
3
 72
9
 73
5
 74
0
 42
0.0000001
 43
0.0000001
 44
0.0000000001
 40
0.0
 40
0.0
 40
0.0
 40
0.0
 40
0.5507561204
 40
1.0
 40
1.0
 40
1.0
 40
1.0
 10
331.0037824707
 20
871.6602690467
 30
0.0
 10
330.9707017285
 20
871.6411699853
 30
0.0
 10
330.9138605044
 20
871.5976556387
 30
0.0
 10
330.886626136
 20
871.5281295845
 30
0.0
 10
330.8866263607
 20
871.4969717833
 30
0.0
  0
SPLINE
  5
4B4
100
AcDbEntity
  8
0
100
AcDbSpline
 62
7
  6
BYLAYER
 70
0
 71
3
 72
9
 73
5
 74
0
 42
0.0000001
 43
0.0000001
 44
0.0000000001
 40
0.0
 40
0.0
 40
0.0
 40
0.0
 40
0.5255663101
 40
1.0
 40
1.0
 40
1.0
 40
1.0
 10
333.7261336236
 20
873.0406947247
 30
0.0
 10
333.6234134025
 20
873.0406944778
 30
0.0
 10
333.4274408657
 20
873.0194499727
 30
0.0
 10
333.2407528135
 20
872.951776767
 30
0.0
 10
333.1604491742
 20
872.905413716
 30
0.0
  0
SPLINE
  5
4B5
100
AcDbEntity
  8
0
100
AcDbSpline
 62
7
  6
BYLAYER
 70
0
 71
3
 72
9
 73
5
 74
0
 42
0.0000001
 43
0.0000001
 44
0.0000000001
 40
0.0
 40
0.0
 40
0.0
 40
0.0
 40
0.4744342232
 40
1.0
 40
1.0
 40
1.0
 40
1.0
 10
334.291820024
 20
872.9054164354
 30
0.0
 10
334.2115157911
 20
872.9517790571
 30
0.0
 10
334.0248270045
 20
873.019451335
 30
0.0
 10
333.8288539565
 20
873.0406949716
 30
0.0
 10
333.7261336236
 20
873.0406947247
 30
0.0
  0
SPLINE
  5
4B6
100
AcDbEntity
  8
0
100
AcDbSpline
 62
7
  6
BYLAYER
 70
0
 71
3
 72
9
 73
5
 74
0
 42
0.0000001
 43
0.0000001
 44
0.0000000001
 40
0.0
 40
0.0
 40
0.0
 40
0.0
 40
0.5256864262
 40
1.0
 40
1.0
 40
1.0
 40
1.0
 10
338.3576953497
 20
871.3337556925
 30
0.0
 10
337.9402174653
 20
871.333754689
 30
0.0
 10
337.1439236953
 20
871.4202976509
 30
0.0
 10
336.3854969276
 20
871.6959359391
 30
0.0
 10
336.0595943369
 20
871.8848145491
 30
0.0
  0
SPLINE
  5
4B7
100
AcDbEntity
  8
0
100
AcDbSpline
 62
7
  6
BYLAYER
 70
0
 71
3
 72
9
 73
5
 74
0
 42
0.0000001
 43
0.0000001
 44
0.0000000001
 40
0.0
 40
0.0
 40
0.0
 40
0.0
 40
0.4743130393
 40
1.0
 40
1.0
 40
1.0
 40
1.0
 10
340.6557884142
 20
871.8848255968
 30
0.0
 10
340.3298882429
 20
871.6959452434
 30
0.0
 10
339.571464466
 20
871.4203031853
 30
0.0
 10
338.7751727779
 20
871.333756696
 30
0.0
 10
338.3576953497
 20
871.3337556925
 30
0.0
  0
SPLINE
  5
4B8
100
AcDbEntity
  8
0
100
AcDbSpline
 62
7
  6
BYLAYER
 70
0
 71
3
 72
9
 73
5
 74
0
 42
0.0000001
 43
0.0000001
 44
0.0000000001
 40
0.0
 40
0.0
 40
0.0
 40
0.0
 40
0.5254238561
 40
1.0
 40
1.0
 40
1.0
 40
1.0
 10
343.2271647299
 20
873.1937264982
 30
0.0
 10
343.1293879766
 20
873.1917519972
 30
0.0
 10
342.9432298101
 20
873.1686408866
 30
0.0
 10
342.766040025
 20
873.1031726598
 30
0.0
 10
342.6895417676
 20
873.059006634
 30
0.0
  0
SPLINE
  5
4B9
100
AcDbEntity
  8
0
100
AcDbSpline
 62
7
  6
BYLAYER
 70
0
 71
3
 72
9
 73
5
 74
0
 42
0.0000001
 43
0.0000001
 44
0.0000000001
 40
0.0
 40
0.0
 40
0.0
 40
0.0
 40
0.4786545066
 40
1.0
 40
1.0
 40
1.0
 40
1.0
 10
343.779592897
 20
873.080722053
 30
0.0
 10
343.6986712691
 20
873.1214635152
 30
0.0
 10
343.515932925
 20
873.1797619135
 30
0.0
 10
343.3258240876
 20
873.1957188225
 30
0.0
 10
343.2271647299
 20
873.1937264982
 30
0.0
  0
LINE
  5
4BA
100
AcDbEntity
  8
0
100
AcDbLine
 62
7
  6
BYLAYER
 10
343.8596329105
 20
873.0405890165
 11
343.779592897
 21
873.080722053
  0
SPLINE
  5
4BB
100
AcDbEntity
  8
0
100
AcDbSpline
 62
7
  6
BYLAYER
 70
0
 71
3
 72
9
 73
5
 74
0
 42
0.0000001
 43
0.0000001
 44
0.0000000001
 40
0.0
 40
0.0
 40
0.0
 40
0.0
 40
0.4682831591
 40
1.0
 40
1.0
 40
1.0
 40
1.0
 10
357.2305040663
 20
856.5982435335
 30
0.0
 10
357.1560937206
 20
856.5447535676
 30
0.0
 10
356.9759810486
 20
856.4600554321
 30
0.0
 10
356.7825710238
 20
856.4213995766
 30
0.0
 10
356.6790103925
 20
856.4112713981
 30
0.0
  0
SPLINE
  5
4BC
100
AcDbEntity
  8
0
100
AcDbSpline
 62
7
  6
BYLAYER
 70
0
 71
3
 72
9
 73
5
 74
0
 42
0.0000001
 43
0.0000001
 44
0.0000000001
 40
0.0
 40
0.0
 40
0.0
 40
0.0
 40
0.469077621
 40
1.0
 40
1.0
 40
1.0
 40
1.0
 10
343.4281627053
 20
851.289951222
 30
0.0
 10
343.4281776811
 20
851.3391007837
 30
0.0
 10
343.4005438331
 20
851.4447827116
 30
0.0
 10
343.3322422217
 20
851.527620212
 30
0.0
 10
343.2913814345
 20
851.5653700355
 30
0.0
  0
SPLINE
  5
4BD
100
AcDbEntity
  8
0
100
AcDbSpline
 62
7
  6
BYLAYER
 70
0
 71
3
 72
8
 73
4
 74
0
 42
0.0000001
 43
0.0000001
 44
0.0000000001
 40
0.0
 40
0.0
 40
0.0
 40
0.0
 40
1.0
 40
1.0
 40
1.0
 40
1.0
 10
343.4280321868
 20
848.8316645324
 30
0.0
 10
343.4272575268
 20
848.8053392707
 30
0.0
 10
343.422953719
 20
848.7789199287
 30
0.0
 10
343.4155392794
 20
848.7536484904
 30
0.0
  0
SPLINE
  5
4BE
100
AcDbEntity
  8
0
100
AcDbSpline
 62
7
  6
BYLAYER
 70
0
 71
3
 72
11
 73
7
 74
0
 42
0.0000001
 43
0.0000001
 44
0.0000000001
 40
0.0
 40
0.0
 40
0.0
 40
0.0
 40
0.2068464867
 40
0.4365278822
 40
0.7006409972
 40
1.0
 40
1.0
 40
1.0
 40
1.0
 10
337.6763002034
 20
848.6805871636
 30
0.0
 10
337.6755758482
 20
848.7021884861
 30
0.0
 10
337.6636802961
 20
848.7477986407
 30
0.0
 10
337.6192819163
 20
848.8076055768
 30
0.0
 10
337.5527417445
 20
848.8583279431
 30
0.0
 10
337.4990308751
 20
848.8834382096
 30
0.0
 10
337.4697096618
 20
848.894333759
 30
0.0
  0
SPLINE
  5
4BF
100
AcDbEntity
  8
0
100
AcDbSpline
 62
7
  6
BYLAYER
 70
0
 71
3
 72
9
 73
5
 74
0
 42
0.0000001
 43
0.0000001
 44
0.0000000001
 40
0.0
 40
0.0
 40
0.0
 40
0.0
 40
0.2594618402
 40
1.0
 40
1.0
 40
1.0
 40
1.0
 10
319.7202319447
 20
858.898208243
 30
0.0
 10
319.7003026718
 20
858.9323465715
 30
0.0
 10
319.6290701674
 20
859.0670342313
 30
0.0
 10
319.5823159642
 20
859.2151496217
 30
0.0
 10
319.5658250827
 20
859.3267610191
 30
0.0
  0
SPLINE
  5
4C0
100
AcDbEntity
  8
0
100
AcDbSpline
 62
7
  6
BYLAYER
 70
0
 71
3
 72
9
 73
5
 74
0
 42
0.0000001
 43
0.0000001
 44
0.0000000001
 40
0.0
 40
0.0
 40
0.0
 40
0.0
 40
0.2552371616
 40
1.0
 40
1.0
 40
1.0
 40
1.0
 10
320.3993972926
 20
858.1148112475
 30
0.0
 10
320.3464725907
 20
858.165857878
 30
0.0
 10
320.1418223866
 20
858.3686296141
 30
0.0
 10
319.9482787051
 20
858.5826930788
 30
0.0
 10
319.8118940211
 20
858.7483255206
 30
0.0
  0
SPLINE
  5
4C1
100
AcDbEntity
  8
0
100
AcDbSpline
 62
7
  6
BYLAYER
 70
0
 71
3
 72
9
 73
5
 74
0
 42
0.0000001
 43
0.0000001
 44
0.0000000001
 40
0.0
 40
0.0
 40
0.0
 40
0.0
 40
0.2551707188
 40
1.0
 40
1.0
 40
1.0
 40
1.0
 10
321.0889674374
 20
857.516569981
 30
0.0
 10
321.0278330822
 20
857.5644751435
 30
0.0
 10
320.7905297636
 20
857.7550928559
 30
0.0
 10
320.5625735029
 20
857.9574254634
 30
0.0
 10
320.3993972926
 20
858.1148112475
 30
0.0
  0
SPLINE
  5
4C2
100
AcDbEntity
  8
0
100
AcDbSpline
 62
7
  6
BYLAYER
 70
0
 71
3
 72
9
 73
5
 74
0
 42
0.0000001
 43
0.0000001
 44
0.0000000001
 40
0.0
 40
0.0
 40
0.0
 40
0.0
 40
0.2532145012
 40
1.0
 40
1.0
 40
1.0
 40
1.0
 10
321.4663508257
 20
857.4248385662
 30
0.0
 10
321.4485445378
 20
857.4234021808
 30
0.0
 10
321.3780422673
 20
857.4205103679
 30
0.0
 10
321.3069819193
 20
857.4282676175
 30
0.0
 10
321.2557873471
 20
857.4407115953
 30
0.0
  0
SPLINE
  5
4C3
100
AcDbEntity
  8
0
100
AcDbSpline
 62
7
  6
BYLAYER
 70
0
 71
3
 72
9
 73
5
 74
0
 42
0.0000001
 43
0.0000001
 44
0.0000000001
 40
0.0
 40
0.0
 40
0.0
 40
0.0
 40
0.4686821413
 40
1.0
 40
1.0
 40
1.0
 40
1.0
 10
321.8757127936
 20
857.3328870434
 30
0.0
 10
321.8212781845
 20
857.3709738101
 30
0.0
 10
321.684701993
 20
857.4222175886
 30
0.0
 10
321.5414215088
 20
857.4308943162
 30
0.0
 10
321.4663508257
 20
857.4248385662
 30
0.0
  0
SPLINE
  5
4C4
100
AcDbEntity
  8
0
100
AcDbSpline
 62
7
  6
BYLAYER
 70
0
 71
3
 72
9
 73
5
 74
0
 42
0.0000001
 43
0.0000001
 44
0.0000000001
 40
0.0
 40
0.0
 40
0.0
 40
0.0
 40
0.2802757735
 40
1.0
 40
1.0
 40
1.0
 40
1.0
 10
322.033387749
 20
856.8554548303
 30
0.0
 10
322.0221491327
 20
856.8627793804
 30
0.0
 10
321.9837146188
 20
856.8910144868
 30
0.0
 10
321.9518658222
 20
856.9307143771
 30
0.0
 10
321.940581607
 20
856.963261674
 30
0.0
  0
SPLINE
  5
4C5
100
AcDbEntity
  8
0
100
AcDbSpline
 62
7
  6
BYLAYER
 70
0
 71
3
 72
9
 73
5
 74
0
 42
0.0000001
 43
0.0000001
 44
0.0000000001
 40
0.0
 40
0.0
 40
0.0
 40
0.0
 40
0.2412953819
 40
1.0
 40
1.0
 40
1.0
 40
1.0
 10
337.0121555686
 20
848.9045817814
 30
0.0
 10
336.9957156068
 20
848.8994415065
 30
0.0
 10
336.9265891503
 20
848.8813972331
 30
0.0
 10
336.8544746495
 20
848.8753739383
 30
0.0
 10
336.8003403682
 20
848.8770428522
 30
0.0
  0
SPLINE
  5
4C6
100
AcDbEntity
  8
0
100
AcDbSpline
 62
7
  6
BYLAYER
 70
0
 71
3
 72
9
 73
5
 74
0
 42
0.0000001
 43
0.0000001
 44
0.0000000001
 40
0.0
 40
0.0
 40
0.0
 40
0.0
 40
0.4965566634
 40
1.0
 40
1.0
 40
1.0
 40
1.0
 10
337.4697096618
 20
848.894333759
 30
0.0
 10
337.3978221814
 20
848.9210466232
 30
0.0
 10
337.2424570152
 20
848.9467254099
 30
0.0
 10
337.0863981201
 20
848.9276836855
 30
0.0
 10
337.0121555686
 20
848.9045817814
 30
0.0
  0
SPLINE
  5
4C7
100
AcDbEntity
  8
0
100
AcDbSpline
 62
7
  6
BYLAYER
 70
0
 71
3
 72
9
 73
5
 74
0
 42
0.0000001
 43
0.0000001
 44
0.0000000001
 40
0.0
 40
0.0
 40
0.0
 40
0.0
 40
0.2469319429
 40
1.0
 40
1.0
 40
1.0
 40
1.0
 10
341.7713195833
 20
847.9709394897
 30
0.0
 10
341.7194089477
 20
847.9610373724
 30
0.0
 10
341.5085083976
 20
847.9245568116
 30
0.0
 10
341.2951814102
 20
847.9022773422
 30
0.0
 10
341.1342719039
 20
847.8931830452
 30
0.0
  0
SPLINE
  5
4C8
100
AcDbEntity
  8
0
100
AcDbSpline
 62
7
  6
BYLAYER
 70
0
 71
3
 72
9
 73
5
 74
0
 42
0.0000001
 43
0.0000001
 44
0.0000000001
 40
0.0
 40
0.0
 40
0.0
 40
0.0
 40
0.4492655925
 40
1.0
 40
1.0
 40
1.0
 40
1.0
 10
343.4155392794
 20
848.7536484904
 30
0.0
 10
343.3959691432
 20
848.6869454732
 30
0.0
 10
343.3031980371
 20
848.5533772115
 30
0.0
 10
343.1690019854
 20
848.4710939807
 30
0.0
 10
343.0916940035
 20
848.4352464643
 30
0.0
  0
SPLINE
  5
4C9
100
AcDbEntity
  8
0
100
AcDbSpline
 62
7
  6
BYLAYER
 70
0
 71
3
 72
9
 73
5
 74
0
 42
0.0000001
 43
0.0000001
 44
0.0000000001
 40
0.0
 40
0.0
 40
0.0
 40
0.0
 40
0.2568127945
 40
1.0
 40
1.0
 40
1.0
 40
1.0
 10
356.6790103925
 20
856.4112713981
 30
0.0
 10
356.6249780598
 20
856.4059870627
 30
0.0
 10
356.4138030806
 20
856.3967755195
 30
0.0
 10
356.1994120842
 20
856.4296310214
 30
0.0
 10
356.0516268298
 20
856.4829499225
 30
0.0
  0
SPLINE
  5
4CA
100
AcDbEntity
  8
0
100
AcDbSpline
 62
7
  6
BYLAYER
 70
0
 71
3
 72
9
 73
5
 74
0
 42
0.0000001
 43
0.0000001
 44
0.0000000001
 40
0.0
 40
0.0
 40
0.0
 40
0.0
 40
0.4663870088
 40
1.0
 40
1.0
 40
1.0
 40
1.0
 10
356.4652269497
 20
862.680009894
 30
0.0
 10
356.463215599
 20
862.7017531539
 30
0.0
 10
356.4468456364
 20
862.7475434332
 30
0.0
 10
356.4143852347
 20
862.7826199689
 30
0.0
 10
356.3952401037
 20
862.7986712538
 30
0.0
  0
SPLINE
  5
4CB
100
AcDbEntity
  8
0
100
AcDbSpline
 62
7
  6
BYLAYER
 70
0
 71
3
 72
9
 73
5
 74
0
 42
0.0000001
 43
0.0000001
 44
0.0000000001
 40
0.0
 40
0.0
 40
0.0
 40
0.0
 40
0.5339031209
 40
1.0
 40
1.0
 40
1.0
 40
1.0
 10
356.8443985302
 20
862.174819176
 30
0.0
 10
356.7726251298
 20
862.1720258492
 30
0.0
 10
356.6371141226
 20
862.1847406433
 30
0.0
 10
356.5090643799
 20
862.2371845207
 30
0.0
 10
356.4586808672
 20
862.274513952
 30
0.0
  0
SPLINE
  5
4CC
100
AcDbEntity
  8
0
100
AcDbSpline
 62
7
  6
BYLAYER
 70
0
 71
3
 72
9
 73
5
 74
0
 42
0.0000001
 43
0.0000001
 44
0.0000000001
 40
0.0
 40
0.0
 40
0.0
 40
0.0
 40
0.2441253337
 40
1.0
 40
1.0
 40
1.0
 40
1.0
 10
357.0307954018
 20
862.1570444802
 30
0.0
 10
357.0159802845
 20
862.1607303827
 30
0.0
 10
356.9547098371
 20
862.1734093246
 30
0.0
 10
356.8916183767
 20
862.1769910297
 30
0.0
 10
356.8443985302
 20
862.174819176
 30
0.0
  0
SPLINE
  5
4CD
100
AcDbEntity
  8
0
100
AcDbSpline
 62
7
  6
BYLAYER
 70
0
 71
3
 72
9
 73
5
 74
0
 42
0.0000001
 43
0.0000001
 44
0.0000000001
 40
0.0
 40
0.0
 40
0.0
 40
0.0
 40
0.2305290833
 40
1.0
 40
1.0
 40
1.0
 40
1.0
 10
357.1811852069
 20
862.0910288939
 30
0.0
 10
357.1708957959
 20
862.0984121483
 30
0.0
 10
357.1243108206
 20
862.1277140334
 30
0.0
 10
357.0718163933
 20
862.1468387307
 30
0.0
 10
357.0307954018
 20
862.1570444802
 30
0.0
  0
SPLINE
  5
4CE
100
AcDbEntity
  8
0
100
AcDbSpline
 62
7
  6
BYLAYER
 70
0
 71
3
 72
9
 73
5
 74
0
 42
0.0000001
 43
0.0000001
 44
0.0000000001
 40
0.0
 40
0.0
 40
0.0
 40
0.0
 40
0.2449524714
 40
1.0
 40
1.0
 40
1.0
 40
1.0
 10
357.5555541584
 20
861.6910346686
 30
0.0
 10
357.5269306195
 20
861.7254287851
 30
0.0
 10
357.4079669294
 20
861.8640762887
 30
0.0
 10
357.2808425535
 20
861.9956738175
 30
0.0
 10
357.1811852069
 20
862.0910288939
 30
0.0
  0
SPLINE
  5
4CF
100
AcDbEntity
  8
0
100
AcDbSpline
 62
7
  6
BYLAYER
 70
0
 71
3
 72
9
 73
5
 74
0
 42
0.0000001
 43
0.0000001
 44
0.0000000001
 40
0.0
 40
0.0
 40
0.0
 40
0.0
 40
0.2452164937
 40
1.0
 40
1.0
 40
1.0
 40
1.0
 10
357.8625148809
 20
861.2723414421
 30
0.0
 10
357.8396827746
 20
861.3081303217
 30
0.0
 10
357.744139372
 20
861.4525176591
 30
0.0
 10
357.6391396534
 20
861.5905981274
 30
0.0
 10
357.5555541584
 20
861.6910346686
 30
0.0
  0
SPLINE
  5
4D0
100
AcDbEntity
  8
0
100
AcDbSpline
 62
7
  6
BYLAYER
 70
0
 71
3
 72
9
 73
5
 74
0
 42
0.0000001
 43
0.0000001
 44
0.0000000001
 40
0.0
 40
0.0
 40
0.0
 40
0.0
 40
0.2453105191
 40
1.0
 40
1.0
 40
1.0
 40
1.0
 10
358.0463121321
 20
860.9178400816
 30
0.0
 10
358.0337860191
 20
860.9480169253
 30
0.0
 10
357.9800415871
 20
861.0699087564
 30
0.0
 10
357.9158108591
 20
861.1871154182
 30
0.0
 10
357.8625148809
 20
861.2723414421
 30
0.0
  0
SPLINE
  5
4D1
100
AcDbEntity
  8
0
100
AcDbSpline
 62
7
  6
BYLAYER
 70
0
 71
3
 72
9
 73
5
 74
0
 42
0.0000001
 43
0.0000001
 44
0.0000000001
 40
0.0
 40
0.0
 40
0.0
 40
0.0
 40
0.2468477134
 40
1.0
 40
1.0
 40
1.0
 40
1.0
 10
358.160795781
 20
860.5537485285
 30
0.0
 10
358.1541661251
 20
860.5844701948
 30
0.0
 10
358.1243973042
 20
860.7082860022
 30
0.0
 10
358.0830746664
 20
860.8292749183
 30
0.0
 10
358.0463121321
 20
860.9178400816
 30
0.0
  0
SPLINE
  5
4D2
100
AcDbEntity
  8
0
100
AcDbSpline
 62
7
  6
BYLAYER
 70
0
 71
3
 72
11
 73
7
 74
0
 42
0.0000001
 43
0.0000001
 44
0.0000000001
 40
0.0
 40
0.0
 40
0.0
 40
0.0
 40
0.2177159471
 40
0.4509403815
 40
0.7102937689
 40
1.0
 40
1.0
 40
1.0
 40
1.0
 10
323.0973936171
 20
866.9042254505
 30
0.0
 10
323.0973938368
 20
866.8737640811
 30
0.0
 10
323.1086748404
 20
866.8102557843
 30
0.0
 10
323.1567865747
 20
866.7217464136
 30
0.0
 10
323.2329328034
 20
866.6417683437
 30
0.0
 10
323.2966070726
 20
866.5978985925
 30
0.0
 10
323.3317105473
 20
866.5776320504
 30
0.0
  0
SPLINE
  5
4D3
100
AcDbEntity
  8
0
100
AcDbSpline
 62
7
  6
BYLAYER
 70
0
 71
3
 72
9
 73
5
 74
0
 42
0.0000001
 43
0.0000001
 44
0.0000000001
 40
0.0
 40
0.0
 40
0.0
 40
0.0
 40
0.2254562211
 40
1.0
 40
1.0
 40
1.0
 40
1.0
 10
321.940581607
 20
859.4127689254
 30
0.0
 10
321.9441216975
 20
859.4025581688
 30
0.0
 10
321.9648197296
 20
859.3589469642
 30
0.0
 10
322.0022834691
 20
859.3252336924
 30
0.0
 10
322.033387749
 20
859.3049620817
 30
0.0
  0
SPLINE
  5
4D4
100
AcDbEntity
  8
0
100
AcDbSpline
 62
7
  6
BYLAYER
 70
0
 71
3
 72
9
 73
5
 74
0
 42
0.0000001
 43
0.0000001
 44
0.0000000001
 40
0.0
 40
0.0
 40
0.0
 40
0.0
 40
0.5425997093
 40
1.0
 40
1.0
 40
1.0
 40
1.0
 10
321.8757127936
 20
859.7823942948
 30
0.0
 10
321.9054389976
 20
859.7615954866
 30
0.0
 10
321.9560772865
 20
859.7149362971
 30
0.0
 10
321.9786136701
 20
859.6476246052
 30
0.0
 10
321.9786189785
 20
859.6170413278
 30
0.0
  0
SPLINE
  5
4D5
100
AcDbEntity
  8
0
100
AcDbSpline
 62
7
  6
BYLAYER
 70
0
 71
3
 72
8
 73
4
 74
0
 42
0.0000001
 43
0.0000001
 44
0.0000000001
 40
0.0
 40
0.0
 40
0.0
 40
0.0
 40
1.0
 40
1.0
 40
1.0
 40
1.0
 10
321.9328010754
 20
859.4580954309
 30
0.0
 10
321.9328021863
 20
859.4427656169
 30
0.0
 10
321.9355599727
 20
859.4272529298
 30
0.0
 10
321.940581607
 20
859.4127689254
 30
0.0
  0
SPLINE
  5
4D6
100
AcDbEntity
  8
0
100
AcDbSpline
 62
7
  6
BYLAYER
 70
0
 71
3
 72
9
 73
5
 74
0
 42
0.0000001
 43
0.0000001
 44
0.0000000001
 40
0.0
 40
0.0
 40
0.0
 40
0.0
 40
0.2644748409
 40
1.0
 40
1.0
 40
1.0
 40
1.0
 10
323.1511902821
 20
864.2881991742
 30
0.0
 10
323.1425382014
 20
864.3011228606
 30
0.0
 10
323.1127938212
 20
864.3518455581
 30
0.0
 10
323.097393929
 20
864.4114654912
 30
0.0
 10
323.0973936171
 20
864.4547181991
 30
0.0
  0
SPLINE
  5
4D7
100
AcDbEntity
  8
0
100
AcDbSpline
 62
7
  6
BYLAYER
 70
0
 71
3
 72
9
 73
5
 74
0
 42
0.0000001
 43
0.0000001
 44
0.0000000001
 40
0.0
 40
0.0
 40
0.0
 40
0.0
 40
0.5507561204
 40
1.0
 40
1.0
 40
1.0
 40
1.0
 10
326.8318810182
 20
867.7003072129
 30
0.0
 10
326.8649617603
 20
867.7194062742
 30
0.0
 10
326.9218029844
 20
867.7629206208
 30
0.0
 10
326.9490373528
 20
867.832446675
 30
0.0
 10
326.9490371281
 20
867.8636044762
 30
0.0
  0
SPLINE
  5
4D8
100
AcDbEntity
  8
0
100
AcDbSpline
 62
7
  6
BYLAYER
 70
0
 71
3
 72
9
 73
5
 74
0
 42
0.0000001
 43
0.0000001
 44
0.0000000001
 40
0.0
 40
0.0
 40
0.0
 40
0.0
 40
0.4492438796
 40
1.0
 40
1.0
 40
1.0
 40
1.0
 10
325.8662003036
 20
867.0471169649
 30
0.0
 10
325.8662000789
 20
867.0782747661
 30
0.0
 10
325.8934344472
 20
867.1478008203
 30
0.0
 10
325.9502756714
 20
867.1913151669
 30
0.0
 10
325.9833564135
 20
867.2104142282
 30
0.0
  0
SPLINE
  5
4D9
100
AcDbEntity
  8
0
100
AcDbSpline
 62
7
  6
BYLAYER
 70
0
 71
3
 72
9
 73
5
 74
0
 42
0.0000001
 43
0.0000001
 44
0.0000000001
 40
0.0
 40
0.0
 40
0.0
 40
0.0
 40
0.2401434072
 40
1.0
 40
1.0
 40
1.0
 40
1.0
 10
337.6742606028
 20
851.090520091
 30
0.0
 10
337.6742610379
 20
851.0827570742
 30
0.0
 10
337.6770788328
 20
851.050406888
 30
0.0
 10
337.6918656026
 20
851.0198116684
 30
0.0
 10
337.7065585852
 20
851.0001270231
 30
0.0
  0
SPLINE
  5
4DA
100
AcDbEntity
  8
0
100
AcDbSpline
 62
7
  6
BYLAYER
 70
0
 71
3
 72
9
 73
5
 74
0
 42
0.0000001
 43
0.0000001
 44
0.0000000001
 40
0.0
 40
0.0
 40
0.0
 40
0.0
 40
0.5313178587
 40
1.0
 40
1.0
 40
1.0
 40
1.0
 10
321.466350826
 20
859.8743458175
 30
0.0
 10
321.541421509
 20
859.8804015676
 30
0.0
 10
321.6847019931
 20
859.87172484
 30
0.0
 10
321.8212781845
 20
859.8204810614
 30
0.0
 10
321.8757127936
 20
859.7823942948
 30
0.0
  0
SPLINE
  5
4DB
100
AcDbEntity
  8
0
100
AcDbSpline
 62
7
  6
BYLAYER
 70
0
 71
3
 72
9
 73
5
 74
0
 42
0.0000001
 43
0.0000001
 44
0.0000000001
 40
0.0
 40
0.0
 40
0.0
 40
0.0
 40
0.2445254536
 40
1.0
 40
1.0
 40
1.0
 40
1.0
 10
321.2557873471
 20
859.8902188467
 30
0.0
 10
321.2725512793
 20
859.8861440007
 30
0.0
 10
321.3418129754
 20
859.8724894022
 30
0.0
 10
321.4132222182
 20
859.8700600757
 30
0.0
 10
321.466350826
 20
859.8743458175
 30
0.0
  0
SPLINE
  5
4DC
100
AcDbEntity
  8
0
100
AcDbSpline
 62
7
  6
BYLAYER
 70
0
 71
3
 72
9
 73
5
 74
0
 42
0.0000001
 43
0.0000001
 44
0.0000000001
 40
0.0
 40
0.0
 40
0.0
 40
0.0
 40
0.5507565647
 40
1.0
 40
1.0
 40
1.0
 40
1.0
 10
334.7514545933
 20
870.8029689011
 30
0.0
 10
334.7845356305
 20
870.7838699875
 30
0.0
 10
334.8413773818
 20
870.7403559774
 30
0.0
 10
334.8686128337
 20
870.6708300945
 30
0.0
 10
334.8686130584
 20
870.6396722011
 30
0.0
  0
SPLINE
  5
4DD
100
AcDbEntity
  8
0
100
AcDbSpline
 62
7
  6
BYLAYER
 70
0
 71
3
 72
9
 73
5
 74
0
 42
0.0000001
 43
0.0000001
 44
0.0000000001
 40
0.0
 40
0.0
 40
0.0
 40
0.0
 40
0.4554727951
 40
1.0
 40
1.0
 40
1.0
 40
1.0
 10
322.8319279118
 20
861.4029561358
 30
0.0
 10
322.8319205659
 20
861.3467242262
 30
0.0
 10
322.8749590166
 20
861.2225279008
 30
0.0
 10
322.9703598786
 20
861.1382021701
 30
0.0
 10
323.0264149413
 20
861.1010912374
 30
0.0
  0
SPLINE
  5
4DE
100
AcDbEntity
  8
0
100
AcDbSpline
 62
7
  6
BYLAYER
 70
0
 71
3
 72
9
 73
5
 74
0
 42
0.0000001
 43
0.0000001
 44
0.0000000001
 40
0.0
 40
0.0
 40
0.0
 40
0.0
 40
0.2671440672
 40
1.0
 40
1.0
 40
1.0
 40
1.0
 10
333.4786577778
 20
871.4421451021
 30
0.0
 10
333.5047041089
 20
871.4421451647
 30
0.0
 10
333.6018957406
 20
871.4366211912
 30
0.0
 10
333.699620634
 20
871.4102317825
 30
0.0
 10
333.761500978
 20
871.3745059575
 30
0.0
  0
SPLINE
  5
4DF
100
AcDbEntity
  8
0
100
AcDbSpline
 62
7
  6
BYLAYER
 70
0
 71
3
 72
9
 73
5
 74
0
 42
0.0000001
 43
0.0000001
 44
0.0000000001
 40
0.0
 40
0.0
 40
0.0
 40
0.0
 40
0.2291142508
 40
1.0
 40
1.0
 40
1.0
 40
1.0
 10
333.1958155531
 20
871.3745045977
 30
0.0
 10
333.2151734818
 20
871.3856808364
 30
0.0
 10
333.3039529162
 20
871.426921799
 30
0.0
 10
333.4034495213
 20
871.4421449213
 30
0.0
 10
333.4786577778
 20
871.4421451021
 30
0.0
  0
SPLINE
  5
4E0
100
AcDbEntity
  8
0
100
AcDbSpline
 62
7
  6
BYLAYER
 70
0
 71
3
 72
9
 73
5
 74
0
 42
0.0000001
 43
0.0000001
 44
0.0000000001
 40
0.0
 40
0.0
 40
0.0
 40
0.0
 40
0.4744336899
 40
1.0
 40
1.0
 40
1.0
 40
1.0
 10
344.7571324635
 20
852.4116167353
 30
0.0
 10
344.6768288242
 20
852.3652536843
 30
0.0
 10
344.490140772
 20
852.2975804785
 30
0.0
 10
344.2941682351
 20
852.2763359735
 30
0.0
 10
344.1914480141
 20
852.2763357265
 30
0.0
  0
SPLINE
  5
4E1
100
AcDbEntity
  8
0
100
AcDbSpline
 62
7
  6
BYLAYER
 70
0
 71
3
 72
9
 73
5
 74
0
 42
0.0000001
 43
0.0000001
 44
0.0000000001
 40
0.0
 40
0.0
 40
0.0
 40
0.0
 40
0.5507344075
 40
1.0
 40
1.0
 40
1.0
 40
1.0
 10
343.0916940035
 20
850.8847537157
 30
0.0
 10
343.1690019854
 20
850.9206012321
 30
0.0
 10
343.3031980371
 20
851.0028844629
 30
0.0
 10
343.3959691432
 20
851.1364527246
 30
0.0
 10
343.4155392794
 20
851.2031557418
 30
0.0
  0
SPLINE
  5
4E2
100
AcDbEntity
  8
0
100
AcDbSpline
 62
7
  6
BYLAYER
 70
0
 71
3
 72
9
 73
5
 74
0
 42
0.0000001
 43
0.0000001
 44
0.0000000001
 40
0.0
 40
0.0
 40
0.0
 40
0.0
 40
0.2585908371
 40
1.0
 40
1.0
 40
1.0
 40
1.0
 10
342.4750347346
 20
850.6113405022
 30
0.0
 10
342.5299211317
 20
850.6306411919
 30
0.0
 10
342.7407302083
 20
850.7092578856
 30
0.0
 10
342.9456386079
 20
850.8041687545
 30
0.0
 10
343.0916940035
 20
850.8847537157
 30
0.0
  0
SPLINE
  5
4E3
100
AcDbEntity
  8
0
100
AcDbSpline
 62
7
  6
BYLAYER
 70
0
 71
3
 72
9
 73
5
 74
0
 42
0.0000001
 43
0.0000001
 44
0.0000000001
 40
0.0
 40
0.0
 40
0.0
 40
0.0
 40
0.2557603202
 40
1.0
 40
1.0
 40
1.0
 40
1.0
 10
341.7713195833
 20
850.420446741
 30
0.0
 10
341.8323185949
 20
850.4325650686
 30
0.0
 10
342.0700025269
 20
850.483912152
 30
0.0
 10
342.3043120747
 20
850.5513062266
 30
0.0
 10
342.4750347346
 20
850.6113405022
 30
0.0
  0
SPLINE
  5
4E4
100
AcDbEntity
  8
0
100
AcDbSpline
 62
7
  6
BYLAYER
 70
0
 71
3
 72
9
 73
5
 74
0
 42
0.0000001
 43
0.0000001
 44
0.0000000001
 40
0.0
 40
0.0
 40
0.0
 40
0.0
 40
0.2526965357
 40
1.0
 40
1.0
 40
1.0
 40
1.0
 10
341.1342719039
 20
850.3426902966
 30
0.0
 10
341.1882657222
 20
850.3457419237
 30
0.0
 10
341.4017241919
 20
850.3612487274
 30
0.0
 10
341.6142206104
 20
850.3904796172
 30
0.0
 10
341.7713195833
 20
850.420446741
 30
0.0
  0
SPLINE
  5
4E5
100
AcDbEntity
  8
0
100
AcDbSpline
 62
7
  6
BYLAYER
 70
0
 71
3
 72
9
 73
5
 74
0
 42
0.0000001
 43
0.0000001
 44
0.0000000001
 40
0.0
 40
0.0
 40
0.0
 40
0.0
 40
0.226150704
 40
1.0
 40
1.0
 40
1.0
 40
1.0
 10
337.7065585852
 20
851.0001270231
 30
0.0
 10
337.7130591851
 20
850.9914179674
 30
0.0
 10
337.7449908376
 20
850.9552747108
 30
0.0
 10
337.7868346931
 20
850.928986242
 30
0.0
 10
337.8205059307
 20
850.9132022247
 30
0.0
  0
SPLINE
  5
4E6
100
AcDbEntity
  8
0
100
AcDbSpline
 62
7
  6
BYLAYER
 70
0
 71
3
 72
9
 73
5
 74
0
 42
0.0000001
 43
0.0000001
 44
0.0000000001
 40
0.0
 40
0.0
 40
0.0
 40
0.0
 40
0.4492434353
 40
1.0
 40
1.0
 40
1.0
 40
1.0
 10
330.8866263607
 20
871.4969717833
 30
0.0
 10
330.8866265854
 20
871.46581389
 30
0.0
 10
330.9138620373
 20
871.396288007
 30
0.0
 10
330.9707037886
 20
871.352773997
 30
0.0
 10
331.0037848258
 20
871.3336750833
 30
0.0
  0
SPLINE
  5
4E7
100
AcDbEntity
  8
0
100
AcDbSpline
 62
7
  6
BYLAYER
 70
0
 71
3
 72
11
 73
7
 74
0
 42
0.0000001
 43
0.0000001
 44
0.0000000001
 40
0.0
 40
0.0
 40
0.0
 40
0.0
 40
0.3001665598
 40
0.5641973456
 40
0.7932685561
 40
1.0
 40
1.0
 40
1.0
 40
1.0
 10
337.4697096618
 20
851.3438410104
 30
0.0
 10
337.499567566
 20
851.3327460306
 30
0.0
 10
337.5541645522
 20
851.3071271402
 30
0.0
 10
337.6214507079
 20
851.2551497706
 30
0.0
 10
337.6656222029
 20
851.1937276731
 30
0.0
 10
337.67637253
 20
851.1470712063
 30
0.0
 10
337.6763847875
 20
851.1251335567
 30
0.0
  0
SPLINE
  5
4E8
100
AcDbEntity
  8
0
100
AcDbSpline
 62
7
  6
BYLAYER
 70
0
 71
3
 72
9
 73
5
 74
0
 42
0.0000001
 43
0.0000001
 44
0.0000000001
 40
0.0
 40
0.0
 40
0.0
 40
0.0
 40
0.5034433366
 40
1.0
 40
1.0
 40
1.0
 40
1.0
 10
337.0121555686
 20
851.3540890328
 30
0.0
 10
337.0863981202
 20
851.3771909368
 30
0.0
 10
337.2424570152
 20
851.3962326612
 30
0.0
 10
337.3978221814
 20
851.3705538746
 30
0.0
 10
337.4697096618
 20
851.3438410104
 30
0.0
  0
SPLINE
  5
4E9
100
AcDbEntity
  8
0
100
AcDbSpline
 62
7
  6
BYLAYER
 70
0
 71
3
 72
9
 73
5
 74
0
 42
0.0000001
 43
0.0000001
 44
0.0000000001
 40
0.0
 40
0.0
 40
0.0
 40
0.0
 40
0.2564492785
 40
1.0
 40
1.0
 40
1.0
 40
1.0
 10
336.8003403682
 20
851.3265501036
 30
0.0
 10
336.8186363514
 20
851.325986054
 30
0.0
 10
336.890011841
 20
851.3266301854
 30
0.0
 10
336.9615011873
 20
851.3382509518
 30
0.0
 10
337.0121555686
 20
851.3540890328
 30
0.0
  0
SPLINE
  5
4EA
100
AcDbEntity
  8
0
100
AcDbSpline
 62
7
  6
BYLAYER
 70
0
 71
3
 72
9
 73
5
 74
0
 42
0.0000001
 43
0.0000001
 44
0.0000000001
 40
0.0
 40
0.0
 40
0.0
 40
0.0
 40
0.237769042
 40
1.0
 40
1.0
 40
1.0
 40
1.0
 10
336.5948093432
 20
851.3669554623
 30
0.0
 10
336.6102802227
 20
851.3608047965
 30
0.0
 10
336.6766703016
 20
851.3383149558
 30
0.0
 10
336.7469939828
 20
851.3281947274
 30
0.0
 10
336.8003403682
 20
851.3265501036
 30
0.0
  0
SPLINE
  5
4EB
100
AcDbEntity
  8
0
100
AcDbSpline
 62
7
  6
BYLAYER
 70
0
 71
3
 72
9
 73
5
 74
0
 42
0.0000001
 43
0.0000001
 44
0.0000000001
 40
0.0
 40
0.0
 40
0.0
 40
0.0
 40
0.5222384812
 40
1.0
 40
1.0
 40
1.0
 40
1.0
 10
333.6002672376
 20
852.8855059773
 30
0.0
 10
333.5005871156
 20
852.8839803346
 30
0.0
 10
333.3089244365
 20
852.9012523938
 30
0.0
 10
333.125087926
 20
852.9617564704
 30
0.0
 10
333.0441449412
 20
853.0037795212
 30
0.0
  0
SPLINE
  5
4EC
100
AcDbEntity
  8
0
100
AcDbSpline
 62
7
  6
BYLAYER
 70
0
 71
3
 72
9
 73
5
 74
0
 42
0.0000001
 43
0.0000001
 44
0.0000000001
 40
0.0
 40
0.0
 40
0.0
 40
0.0
 40
0.4744713384
 40
1.0
 40
1.0
 40
1.0
 40
1.0
 10
334.1447543993
 20
853.0206247727
 30
0.0
 10
334.0673272803
 20
852.9759224716
 30
0.0
 10
333.8878848889
 20
852.9096903755
 30
0.0
 10
333.6992814146
 20
852.8870214274
 30
0.0
 10
333.6002672376
 20
852.8855059773
 30
0.0
  0
SPLINE
  5
4ED
100
AcDbEntity
  8
0
100
AcDbSpline
 62
7
  6
BYLAYER
 70
0
 71
3
 72
9
 73
5
 74
0
 42
0.0000001
 43
0.0000001
 44
0.0000000001
 40
0.0
 40
0.0
 40
0.0
 40
0.0
 40
0.5255657768
 40
1.0
 40
1.0
 40
1.0
 40
1.0
 10
344.1914480141
 20
852.2763357265
 30
0.0
 10
344.0887276811
 20
852.2763354796
 30
0.0
 10
343.8927546332
 20
852.2975791162
 30
0.0
 10
343.7060658465
 20
852.3652513942
 30
0.0
 10
343.6257616136
 20
852.4116140158
 30
0.0
  0
SPLINE
  5
4EE
100
AcDbEntity
  8
0
100
AcDbSpline
 62
7
  6
BYLAYER
 70
0
 71
3
 72
9
 73
5
 74
0
 42
0.0000001
 43
0.0000001
 44
0.0000000001
 40
0.0
 40
0.0
 40
0.0
 40
0.0
 40
0.2280681833
 40
1.0
 40
1.0
 40
1.0
 40
1.0
 10
321.0889674374
 20
859.9660772324
 30
0.0
 10
321.099981424
 20
859.9574466217
 30
0.0
 10
321.1509582618
 20
859.9230355249
 30
0.0
 10
321.209766968
 20
859.901405122
 30
0.0
 10
321.2557873471
 20
859.8902188467
 30
0.0
  0
SPLINE
  5
4EF
100
AcDbEntity
  8
0
100
AcDbSpline
 62
7
  6
BYLAYER
 70
0
 71
3
 72
9
 73
5
 74
0
 42
0.0000001
 43
0.0000001
 44
0.0000000001
 40
0.0
 40
0.0
 40
0.0
 40
0.0
 40
0.2449312445
 40
1.0
 40
1.0
 40
1.0
 40
1.0
 10
320.3993972926
 20
860.5643184988
 30
0.0
 10
320.4530568664
 20
860.512563074
 30
0.0
 10
320.6750141167
 20
860.3042518315
 30
0.0
 10
320.9080652046
 20
860.1078330557
 30
0.0
 10
321.0889674374
 20
859.9660772324
 30
0.0
  0
SPLINE
  5
4F0
100
AcDbEntity
  8
0
100
AcDbSpline
 62
7
  6
BYLAYER
 70
0
 71
3
 72
9
 73
5
 74
0
 42
0.0000001
 43
0.0000001
 44
0.0000000001
 40
0.0
 40
0.0
 40
0.0
 40
0.0
 40
0.2449255914
 40
1.0
 40
1.0
 40
1.0
 40
1.0
 10
319.8118940211
 20
861.197832772
 30
0.0
 10
319.856746396
 20
861.1433617848
 30
0.0
 10
320.0432526033
 20
860.9237588549
 30
0.0
 10
320.2428275128
 20
860.7153322865
 30
0.0
 10
320.3993972926
 20
860.5643184988
 30
0.0
  0
SPLINE
  5
4F1
100
AcDbEntity
  8
0
100
AcDbSpline
 62
7
  6
BYLAYER
 70
0
 71
3
 72
9
 73
5
 74
0
 42
0.0000001
 43
0.0000001
 44
0.0000000001
 40
0.0
 40
0.0
 40
0.0
 40
0.0
 40
0.5255186429
 40
1.0
 40
1.0
 40
1.0
 40
1.0
 10
356.4175292071
 20
862.5577198501
 30
0.0
 10
356.4321880314
 20
862.5733473159
 30
0.0
 10
356.4563966606
 20
862.6072452342
 30
0.0
 10
356.4657903705
 20
862.6483481716
 30
0.0
 10
356.4657942622
 20
862.6676938562
 30
0.0
  0
SPLINE
  5
4F2
100
AcDbEntity
  8
0
100
AcDbSpline
 62
7
  6
BYLAYER
 70
0
 71
3
 72
11
 73
7
 74
0
 42
0.0000001
 43
0.0000001
 44
0.0000000001
 40
0.0
 40
0.0
 40
0.0
 40
0.0
 40
0.2897060281
 40
0.5490591642
 40
0.7822835676
 40
1.0
 40
1.0
 40
1.0
 40
1.0
 10
353.5232809376
 20
866.6582627533
 30
0.0
 10
353.5583841073
 20
866.6785294568
 30
0.0
 10
353.6220577438
 20
866.7223995083
 30
0.0
 10
353.6982028598
 20
866.8023779871
 30
0.0
 10
353.7463133326
 20
866.8908876669
 30
0.0
 10
353.7575933771
 20
866.9543959591
 30
0.0
 10
353.7575931574
 20
866.9848572799
 30
0.0
  0
SPLINE
  5
4F3
100
AcDbEntity
  8
0
100
AcDbSpline
 62
7
  6
BYLAYER
 70
0
 71
3
 72
11
 73
7
 74
0
 42
0.0000001
 43
0.0000001
 44
0.0000000001
 40
0.0
 40
0.0
 40
0.0
 40
0.0
 40
0.2177716243
 40
0.4509506744
 40
0.7102000518
 40
1.0
 40
1.0
 40
1.0
 40
1.0
 10
350.6640957611
 20
864.2303036377
 30
0.0
 10
350.6640948685
 20
864.3540863254
 30
0.0
 10
350.7097844538
 20
864.6121416283
 30
0.0
 10
350.9054582419
 20
864.9715398257
 30
0.0
 10
351.2145667531
 20
865.2966077079
 30
0.0
 10
351.4733337592
 20
865.4747322628
 30
0.0
 10
351.6159891544
 20
865.557093902
 30
0.0
  0
SPLINE
  5
4F4
100
AcDbEntity
  8
0
100
AcDbSpline
 62
7
  6
BYLAYER
 70
0
 71
3
 72
9
 73
5
 74
0
 42
0.0000001
 43
0.0000001
 44
0.0000000001
 40
0.0
 40
0.0
 40
0.0
 40
0.0
 40
0.2587446645
 40
1.0
 40
1.0
 40
1.0
 40
1.0
 10
358.0347078393
 20
859.8100622801
 30
0.0
 10
358.0515345894
 20
859.8394663194
 30
0.0
 10
358.1120820938
 20
859.9555713874
 30
0.0
 10
358.1531589629
 20
860.082167951
 30
0.0
 10
358.1693825725
 20
860.1778573188
 30
0.0
  0
SPLINE
  5
4F5
100
AcDbEntity
  8
0
100
AcDbSpline
 62
7
  6
BYLAYER
 70
0
 71
3
 72
9
 73
5
 74
0
 42
0.0000001
 43
0.0000001
 44
0.0000000001
 40
0.0
 40
0.0
 40
0.0
 40
0.0
 40
0.2618850736
 40
1.0
 40
1.0
 40
1.0
 40
1.0
 10
357.7040712792
 20
859.4037763669
 30
0.0
 10
357.7373148274
 20
859.4352882048
 30
0.0
 10
357.8606138819
 20
859.5593174718
 30
0.0
 10
357.9686129174
 20
859.6991636233
 30
0.0
 10
358.0347078393
 20
859.8100622801
 30
0.0
  0
SPLINE
  5
4F6
100
AcDbEntity
  8
0
100
AcDbSpline
 62
7
  6
BYLAYER
 70
0
 71
3
 72
9
 73
5
 74
0
 42
0.0000001
 43
0.0000001
 44
0.0000000001
 40
0.0
 40
0.0
 40
0.0
 40
0.0
 40
0.2613528658
 40
1.0
 40
1.0
 40
1.0
 40
1.0
 10
357.2305040663
 20
859.0477507849
 30
0.0
 10
357.2747285918
 20
859.074468564
 30
0.0
 10
357.4414785976
 20
859.1806447605
 30
0.0
 10
357.5980902785
 20
859.3033160883
 30
0.0
 10
357.7040712792
 20
859.4037763669
 30
0.0
  0
SPLINE
  5
4F7
100
AcDbEntity
  8
0
100
AcDbSpline
 62
7
  6
BYLAYER
 70
0
 71
3
 72
9
 73
5
 74
0
 42
0.0000001
 43
0.0000001
 44
0.0000000001
 40
0.0
 40
0.0
 40
0.0
 40
0.0
 40
0.5317168409
 40
1.0
 40
1.0
 40
1.0
 40
1.0
 10
356.6790103925
 20
858.8607786495
 30
0.0
 10
356.7825710238
 20
858.870906828
 30
0.0
 10
356.9759810486
 20
858.9095626835
 30
0.0
 10
357.1560937206
 20
858.994260819
 30
0.0
 10
357.2305040663
 20
859.0477507849
 30
0.0
  0
SPLINE
  5
4F8
100
AcDbEntity
  8
0
100
AcDbSpline
 62
7
  6
BYLAYER
 70
0
 71
3
 72
9
 73
5
 74
0
 42
0.0000001
 43
0.0000001
 44
0.0000000001
 40
0.0
 40
0.0
 40
0.0
 40
0.0
 40
0.2392036127
 40
1.0
 40
1.0
 40
1.0
 40
1.0
 10
356.0516268297
 20
858.9324571739
 30
0.0
 10
356.0992033965
 20
858.9152921985
 30
0.0
 10
356.3027303043
 20
858.8567893135
 30
0.0
 10
356.5189079387
 20
858.8451207087
 30
0.0
 10
356.6790103925
 20
858.8607786495
 30
0.0
  0
SPLINE
  5
4F9
100
AcDbEntity
  8
0
100
AcDbSpline
 62
7
  6
BYLAYER
 70
0
 71
3
 72
11
 73
7
 74
0
 42
0.0000001
 43
0.0000001
 44
0.0000000001
 40
0.0
 40
0.0
 40
0.0
 40
0.0
 40
0.2177164324
 40
0.4509408358
 40
0.7102939719
 40
1.0
 40
1.0
 40
1.0
 40
1.0
 10
354.8201880206
 20
858.4128050007
 30
0.0
 10
354.8201882402
 20
858.3823436799
 30
0.0
 10
354.8089081958
 20
858.3188353878
 30
0.0
 10
354.7607977229
 20
858.2303257079
 30
0.0
 10
354.684652607
 20
858.1503472292
 30
0.0
 10
354.6209789704
 20
858.1064771777
 30
0.0
 10
354.5858758007
 20
858.0862104742
 30
0.0
  0
SPLINE
  5
4FA
100
AcDbEntity
  8
0
100
AcDbSpline
 62
7
  6
BYLAYER
 70
0
 71
3
 72
9
 73
5
 74
0
 42
0.0000001
 43
0.0000001
 44
0.0000000001
 40
0.0
 40
0.0
 40
0.0
 40
0.0
 40
0.4657956456
 40
1.0
 40
1.0
 40
1.0
 40
1.0
 10
353.7575931574
 20
864.5353500285
 30
0.0
 10
353.7575934937
 20
864.4887223287
 30
0.0
 10
353.7291943959
 20
864.3877713616
 30
0.0
 10
353.6607621503
 20
864.3111366698
 30
0.0
 10
353.6200654577
 20
864.276446278
 30
0.0
  0
SPLINE
  5
4FB
100
AcDbEntity
  8
0
100
AcDbSpline
 62
7
  6
BYLAYER
 70
0
 71
3
 72
9
 73
5
 74
0
 42
0.0000001
 43
0.0000001
 44
0.0000000001
 40
0.0
 40
0.0
 40
0.0
 40
0.0
 40
0.2430667062
 40
1.0
 40
1.0
 40
1.0
 40
1.0
 10
319.5658250827
 20
861.7762682705
 30
0.0
 10
319.5712386973
 20
861.7396285621
 30
0.0
 10
319.6012296463
 20
861.5900512335
 30
0.0
 10
319.6620831125
 20
861.4473229383
 30
0.0
 10
319.7202319447
 20
861.3477154945
 30
0.0
  0
SPLINE
  5
4FC
100
AcDbEntity
  8
0
100
AcDbSpline
 62
7
  6
BYLAYER
 70
0
 71
3
 72
11
 73
7
 74
0
 42
0.0000001
 43
0.0000001
 44
0.0000000001
 40
0.0
 40
0.0
 40
0.0
 40
0.0
 40
0.2897060281
 40
0.5490591642
 40
0.7822835677
 40
1.0
 40
1.0
 40
1.0
 40
1.0
 10
354.5858758003
 20
860.5357177252
 30
0.0
 10
354.62097897
 20
860.5559844287
 30
0.0
 10
354.6846526066
 20
860.5998544803
 30
0.0
 10
354.7607977228
 20
860.6798329591
 30
0.0
 10
354.8089081957
 20
860.768342639
 30
0.0
 10
354.8201882402
 20
860.8318509312
 30
0.0
 10
354.8201880206
 20
860.8623122521
 30
0.0
  0
SPLINE
  5
4FD
100
AcDbEntity
  8
0
100
AcDbSpline
 62
7
  6
BYLAYER
 70
0
 71
3
 72
9
 73
5
 74
0
 42
0.0000001
 43
0.0000001
 44
0.0000000001
 40
0.0
 40
0.0
 40
0.0
 40
0.0
 40
0.5255663101
 40
1.0
 40
1.0
 40
1.0
 40
1.0
 10
344.1914480141
 20
854.7258429779
 30
0.0
 10
344.2941682351
 20
854.7258432248
 30
0.0
 10
344.490140772
 20
854.7470877299
 30
0.0
 10
344.6768288242
 20
854.8147609356
 30
0.0
 10
344.7571324635
 20
854.8611239867
 30
0.0
  0
SPLINE
  5
4FE
100
AcDbEntity
  8
0
100
AcDbSpline
 62
7
  6
BYLAYER
 70
0
 71
3
 72
9
 73
5
 74
0
 42
0.0000001
 43
0.0000001
 44
0.0000000001
 40
0.0
 40
0.0
 40
0.0
 40
0.0
 40
0.4744342232
 40
1.0
 40
1.0
 40
1.0
 40
1.0
 10
343.6257616136
 20
854.8611212672
 30
0.0
 10
343.7060658465
 20
854.8147586456
 30
0.0
 10
343.8927546332
 20
854.7470863676
 30
0.0
 10
344.0887276811
 20
854.725842731
 30
0.0
 10
344.1914480141
 20
854.7258429779
 30
0.0
  0
SPLINE
  5
4FF
100
AcDbEntity
  8
0
100
AcDbSpline
 62
7
  6
BYLAYER
 70
0
 71
3
 72
9
 73
5
 74
0
 42
0.0000001
 43
0.0000001
 44
0.0000000001
 40
0.0
 40
0.0
 40
0.0
 40
0.0
 40
0.5255628984
 40
1.0
 40
1.0
 40
1.0
 40
1.0
 10
338.3577978113
 20
857.1253016149
 30
0.0
 10
338.7750961008
 20
857.1253026179
 30
0.0
 10
339.571228692
 20
857.038966985
 30
0.0
 10
340.3296614959
 20
856.7640825067
 30
0.0
 10
340.6558988133
 20
856.5757335647
 30
0.0
  0
SPLINE
  5
500
100
AcDbEntity
  8
0
100
AcDbSpline
 62
7
  6
BYLAYER
 70
0
 71
3
 72
9
 73
5
 74
0
 42
0.0000001
 43
0.0000001
 44
0.0000000001
 40
0.0
 40
0.0
 40
0.0
 40
0.0
 40
0.4744365683
 40
1.0
 40
1.0
 40
1.0
 40
1.0
 10
336.0597047357
 20
856.5757225168
 30
0.0
 10
336.3859396416
 20
856.7640732032
 30
0.0
 10
337.1443694622
 20
857.0389614506
 30
0.0
 10
337.9404999767
 20
857.1253006118
 30
0.0
 10
338.3577978113
 20
857.1253016149
 30
0.0
  0
SPLINE
  5
501
100
AcDbEntity
  8
0
100
AcDbSpline
 62
7
  6
BYLAYER
 70
0
 71
3
 72
9
 73
5
 74
0
 42
0.0000001
 43
0.0000001
 44
0.0000000001
 40
0.0
 40
0.0
 40
0.0
 40
0.0
 40
0.5255286616
 40
1.0
 40
1.0
 40
1.0
 40
1.0
 10
333.6002672376
 20
855.3350132287
 30
0.0
 10
333.6992814146
 20
855.3365286788
 30
0.0
 10
333.8878848889
 20
855.3591976269
 30
0.0
 10
334.0673272803
 20
855.425429723
 30
0.0
 10
334.1447543993
 20
855.4701320241
 30
0.0
  0
SPLINE
  5
502
100
AcDbEntity
  8
0
100
AcDbSpline
 62
7
  6
BYLAYER
 70
0
 71
3
 72
9
 73
5
 74
0
 42
0.0000001
 43
0.0000001
 44
0.0000000001
 40
0.0
 40
0.0
 40
0.0
 40
0.0
 40
0.4777615188
 40
1.0
 40
1.0
 40
1.0
 40
1.0
 10
333.0441449412
 20
855.4532867726
 30
0.0
 10
333.125087926
 20
855.4112637218
 30
0.0
 10
333.3089244365
 20
855.3507596452
 30
0.0
 10
333.5005871156
 20
855.333487586
 30
0.0
 10
333.6002672376
 20
855.3350132287
 30
0.0
  0
LINE
  5
503
100
AcDbEntity
  8
0
100
AcDbLine
 62
7
  6
BYLAYER
 10
323.0264149413
 20
861.1010912374
 11
323.0976954488
 21
861.0537087229
  0
SPLINE
  5
504
100
AcDbEntity
  8
0
100
AcDbSpline
 62
7
  6
BYLAYER
 70
0
 71
3
 72
9
 73
5
 74
0
 42
0.0000001
 43
0.0000001
 44
0.0000000001
 40
0.0
 40
0.0
 40
0.0
 40
0.0
 40
0.5447336844
 40
1.0
 40
1.0
 40
1.0
 40
1.0
 10
323.0280949622
 20
858.6504675626
 30
0.0
 10
322.971787865
 20
858.6878718744
 30
0.0
 10
322.8755691823
 20
858.7721288532
 30
0.0
 10
322.831945722
 20
858.8969526652
 30
0.0
 10
322.8319198526
 20
858.9534488332
 30
0.0
  0
SPLINE
  5
505
100
AcDbEntity
  8
0
100
AcDbSpline
 62
7
  6
BYLAYER
 70
0
 71
3
 72
11
 73
7
 74
0
 42
0.0000001
 43
0.0000001
 44
0.0000000001
 40
0.0
 40
0.0
 40
0.0
 40
0.0
 40
0.2899098314
 40
0.5492002083
 40
0.7823348475
 40
1.0
 40
1.0
 40
1.0
 40
1.0
 10
325.0994848601
 20
865.5570301641
 30
0.0
 10
325.2424819624
 20
865.474788599
 30
0.0
 10
325.5018859283
 20
865.2968499651
 30
0.0
 10
325.8118531071
 20
864.9718529257
 30
0.0
 10
326.008130517
 20
864.6123431263
 30
0.0
 10
326.0539786855
 20
864.3540970363
 30
0.0
 10
326.0539795787
 20
864.2302444823
 30
0.0
  0
SPLINE
  5
506
100
AcDbEntity
  8
0
100
AcDbSpline
 62
7
  6
BYLAYER
 70
0
 71
3
 72
9
 73
5
 74
0
 42
0.0000001
 43
0.0000001
 44
0.0000000001
 40
0.0
 40
0.0
 40
0.0
 40
0.0
 40
0.6930570884
 40
1.0
 40
1.0
 40
1.0
 40
1.0
 10
337.6755677446
 20
91.3720086325
 30
0.0
 10
337.6713427582
 20
91.4439300571
 30
0.0
 10
337.5892130733
 20
91.538361942
 30
0.0
 10
337.4956872418
 20
91.5797767787
 30
0.0
 10
337.4657552928
 20
91.5908301561
 30
0.0
  0
SPLINE
  5
507
100
AcDbEntity
  8
0
100
AcDbSpline
 62
7
  6
BYLAYER
 70
0
 71
3
 72
8
 73
4
 74
0
 42
0.0000001
 43
0.0000001
 44
0.0000000001
 40
0.0
 40
0.0
 40
0.0
 40
0.0
 40
1.0
 40
1.0
 40
1.0
 40
1.0
 10
319.7207412964
 20
101.5911984636
 30
0.0
 10
319.6296486867
 20
101.744366238
 30
0.0
 10
319.5684043616
 20
101.9225496792
 30
0.0
 10
319.5580073262
 20
102.1004545198
 30
0.0
  0
SPLINE
  5
508
100
AcDbEntity
  8
0
100
AcDbSpline
 62
7
  6
BYLAYER
 70
0
 71
3
 72
8
 73
4
 74
0
 42
0.0000001
 43
0.0000001
 44
0.0000000001
 40
0.0
 40
0.0
 40
0.0
 40
0.0
 40
1.0
 40
1.0
 40
1.0
 40
1.0
 10
320.3544207591
 20
100.8538167928
 30
0.0
 10
320.1253025595
 20
101.0830243759
 30
0.0
 10
319.9112572356
 20
101.3290249667
 30
0.0
 10
319.7207412964
 20
101.5911984636
 30
0.0
  0
SPLINE
  5
509
100
AcDbEntity
  8
0
100
AcDbSpline
 62
7
  6
BYLAYER
 70
0
 71
3
 72
8
 73
4
 74
0
 42
0.0000001
 43
0.0000001
 44
0.0000000001
 40
0.0
 40
0.0
 40
0.0
 40
0.0
 40
1.0
 40
1.0
 40
1.0
 40
1.0
 10
321.1445252775
 20
100.1673673784
 30
0.0
 10
320.8667671848
 20
100.3784839671
 30
0.0
 10
320.6010706082
 20
100.6070707209
 30
0.0
 10
320.3544207591
 20
100.8538167928
 30
0.0
  0
SPLINE
  5
50A
100
AcDbEntity
  8
0
100
AcDbSpline
 62
7
  6
BYLAYER
 70
0
 71
3
 72
8
 73
4
 74
0
 42
0.0000001
 43
0.0000001
 44
0.0000000001
 40
0.0
 40
0.0
 40
0.0
 40
0.0
 40
1.0
 40
1.0
 40
1.0
 40
1.0
 10
321.2628289883
 20
100.1174410786
 30
0.0
 10
321.2208592756
 20
100.1258427475
 30
0.0
 10
321.1784065258
 20
100.1412119615
 30
0.0
 10
321.1445252775
 20
100.1673673784
 30
0.0
  0
SPLINE
  5
50B
100
AcDbEntity
  8
0
100
AcDbSpline
 62
7
  6
BYLAYER
 70
0
 71
3
 72
8
 73
4
 74
0
 42
0.0000001
 43
0.0000001
 44
0.0000000001
 40
0.0
 40
0.0
 40
0.0
 40
0.0
 40
1.0
 40
1.0
 40
1.0
 40
1.0
 10
321.4092720808
 20
100.1143692797
 30
0.0
 10
321.3610179128
 20
100.1069244253
 30
0.0
 10
321.3107042442
 20
100.1078572139
 30
0.0
 10
321.2628289883
 20
100.1174410786
 30
0.0
  0
SPLINE
  5
50C
100
AcDbEntity
  8
0
100
AcDbSpline
 62
7
  6
BYLAYER
 70
0
 71
3
 72
8
 73
4
 74
0
 42
0.0000001
 43
0.0000001
 44
0.0000000001
 40
0.0
 40
0.0
 40
0.0
 40
0.0
 40
1.0
 40
1.0
 40
1.0
 40
1.0
 10
321.8722944581
 20
100.0288987794
 30
0.0
 10
321.7899034354
 20
100.08644487
 30
0.0
 10
321.6853768105
 20
100.1131918102
 30
0.0
 10
321.58517309
 20
100.1208760504
 30
0.0
  0
SPLINE
  5
50D
100
AcDbEntity
  8
0
100
AcDbSpline
 62
7
  6
BYLAYER
 70
0
 71
3
 72
8
 73
4
 74
0
 42
0.0000001
 43
0.0000001
 44
0.0000000001
 40
0.0
 40
0.0
 40
0.0
 40
0.0
 40
1.0
 40
1.0
 40
1.0
 40
1.0
 10
321.58517309
 20
100.1208760504
 30
0.0
 10
321.5266710848
 20
100.1253623455
 30
0.0
 10
321.4672597533
 20
100.1233158598
 30
0.0
 10
321.4092720808
 20
100.1143692797
 30
0.0
  0
SPLINE
  5
50E
100
AcDbEntity
  8
0
100
AcDbSpline
 62
7
  6
BYLAYER
 70
0
 71
3
 72
9
 73
5
 74
0
 42
0.0000001
 43
0.0000001
 44
0.0000000001
 40
0.0
 40
0.0
 40
0.0
 40
0.0
 40
0.5394096046
 40
1.0
 40
1.0
 40
1.0
 40
1.0
 10
321.9686029508
 20
99.5916591205
 30
0.0
 10
321.9537045292
 20
99.6013568973
 30
0.0
 10
321.9282075053
 20
99.623024843
 30
0.0
 10
321.9115363827
 20
99.6528792579
 30
0.0
 10
321.907996817
 20
99.6676399173
 30
0.0
  0
SPLINE
  5
50F
100
AcDbEntity
  8
0
100
AcDbSpline
 62
7
  6
BYLAYER
 70
0
 71
3
 72
9
 73
5
 74
0
 42
0.0000001
 43
0.0000001
 44
0.0000000001
 40
0.0
 40
0.0
 40
0.0
 40
0.0
 40
0.2542522323
 40
1.0
 40
1.0
 40
1.0
 40
1.0
 10
329.0111986687
 20
95.3966990805
 30
0.0
 10
328.4010487898
 20
95.7291170552
 30
0.0
 10
326.013543971
 20
97.0589033719
 30
0.0
 10
323.6762534651
 20
98.4792886439
 30
0.0
 10
321.9686029508
 20
99.5916591205
 30
0.0
  0
SPLINE
  5
510
100
AcDbEntity
  8
0
100
AcDbSpline
 62
7
  6
BYLAYER
 70
0
 71
3
 72
9
 73
5
 74
0
 42
0.0000001
 43
0.0000001
 44
0.0000000001
 40
0.0
 40
0.0
 40
0.0
 40
0.0
 40
0.2538486575
 40
1.0
 40
1.0
 40
1.0
 40
1.0
 10
336.6729362769
 20
91.5805377988
 30
0.0
 10
336.0135824485
 20
91.8804564238
 30
0.0
 10
333.4263062721
 20
93.0840839682
 30
0.0
 10
330.8808768513
 20
94.3780729094
 30
0.0
 10
329.0111986687
 20
95.3966990805
 30
0.0
  0
SPLINE
  5
511
100
AcDbEntity
  8
0
100
AcDbSpline
 62
7
  6
BYLAYER
 70
0
 71
3
 72
8
 73
4
 74
0
 42
0.0000001
 43
0.0000001
 44
0.0000000001
 40
0.0
 40
0.0
 40
0.0
 40
0.0
 40
1.0
 40
1.0
 40
1.0
 40
1.0
 10
336.8170929628
 20
91.5554402101
 30
0.0
 10
336.7683192994
 20
91.5550740211
 30
0.0
 10
336.7179503041
 20
91.56175638
 30
0.0
 10
336.6729362769
 20
91.5805377988
 30
0.0
  0
SPLINE
  5
512
100
AcDbEntity
  8
0
100
AcDbSpline
 62
7
  6
BYLAYER
 70
0
 71
3
 72
8
 73
4
 74
0
 42
0.0000001
 43
0.0000001
 44
0.0000000001
 40
0.0
 40
0.0
 40
0.0
 40
0.0
 40
1.0
 40
1.0
 40
1.0
 40
1.0
 10
336.9600704737
 20
91.5826935803
 30
0.0
 10
336.9149323654
 20
91.5649038347
 30
0.0
 10
336.8656088487
 20
91.5558044636
 30
0.0
 10
336.8170929628
 20
91.5554402101
 30
0.0
  0
SPLINE
  5
513
100
AcDbEntity
  8
0
100
AcDbSpline
 62
7
  6
BYLAYER
 70
0
 71
3
 72
8
 73
4
 74
0
 42
0.0000001
 43
0.0000001
 44
0.0000000001
 40
0.0
 40
0.0
 40
0.0
 40
0.0
 40
1.0
 40
1.0
 40
1.0
 40
1.0
 10
337.4657552928
 20
91.5908301561
 30
0.0
 10
337.3598508456
 20
91.6299389297
 30
0.0
 10
337.2409567345
 20
91.6397256817
 30
0.0
 10
337.1289006488
 20
91.6259895336
 30
0.0
  0
SPLINE
  5
514
100
AcDbEntity
  8
0
100
AcDbSpline
 62
7
  6
BYLAYER
 70
0
 71
3
 72
8
 73
4
 74
0
 42
0.0000001
 43
0.0000001
 44
0.0000000001
 40
0.0
 40
0.0
 40
0.0
 40
0.0
 40
1.0
 40
1.0
 40
1.0
 40
1.0
 10
337.1289006488
 20
91.6259895336
 30
0.0
 10
337.0712345153
 20
91.6189206577
 30
0.0
 10
337.0134649137
 20
91.6055930505
 30
0.0
 10
336.9600704737
 20
91.5826935803
 30
0.0
  0
SPLINE
  5
515
100
AcDbEntity
  8
0
100
AcDbSpline
 62
7
  6
BYLAYER
 70
0
 71
3
 72
9
 73
5
 74
0
 42
0.0000001
 43
0.0000001
 44
0.0000000001
 40
0.0
 40
0.0
 40
0.0
 40
0.0
 40
0.5128166845
 40
1.0
 40
1.0
 40
1.0
 40
1.0
 10
337.6798110855
 20
91.2394678296
 30
0.0
 10
337.6721974636
 20
91.2493189949
 30
0.0
 10
337.6617721351
 20
91.2724845169
 30
0.0
 10
337.6629243092
 20
91.2974773923
 30
0.0
 10
337.6654550988
 20
91.309031541
 30
0.0
  0
SPLINE
  5
516
100
AcDbEntity
  8
0
100
AcDbSpline
 62
7
  6
BYLAYER
 70
0
 71
3
 72
8
 73
4
 74
0
 42
0.0000001
 43
0.0000001
 44
0.0000000001
 40
0.0
 40
0.0
 40
0.0
 40
0.0
 40
1.0
 40
1.0
 40
1.0
 40
1.0
 10
337.798011114
 20
91.1661100396
 30
0.0
 10
337.7623898335
 20
91.1765065659
 30
0.0
 10
337.6976409686
 20
91.2008415338
 30
0.0
 10
337.7109463856
 20
91.2354815289
 30
0.0
  0
SPLINE
  5
517
100
AcDbEntity
  8
0
100
AcDbSpline
 62
7
  6
BYLAYER
 70
0
 71
3
 72
9
 73
5
 74
0
 42
0.0000001
 43
0.0000001
 44
0.0000000001
 40
0.0
 40
0.0
 40
0.0
 40
0.0
 40
0.257605956
 40
1.0
 40
1.0
 40
1.0
 40
1.0
 10
339.3885322304
 20
90.7367114745
 30
0.0
 10
339.2490492653
 20
90.7610018469
 30
0.0
 10
338.709777979
 20
90.867177134
 30
0.0
 10
338.1796364215
 20
91.0217255435
 30
0.0
 10
337.798011114
 20
91.1661100396
 30
0.0
  0
SPLINE
  5
518
100
AcDbEntity
  8
0
100
AcDbSpline
 62
7
  6
BYLAYER
 70
0
 71
3
 72
8
 73
4
 74
0
 42
0.0000001
 43
0.0000001
 44
0.0000000001
 40
0.0
 40
0.0
 40
0.0
 40
0.0
 40
1.0
 40
1.0
 40
1.0
 40
1.0
 10
341.1354291985
 20
90.5872940338
 30
0.0
 10
340.5510048945
 20
90.5882763329
 30
0.0
 10
339.9642921011
 20
90.6364453119
 30
0.0
 10
339.3885322304
 20
90.7367114745
 30
0.0
  0
SPLINE
  5
519
100
AcDbEntity
  8
0
100
AcDbSpline
 62
7
  6
BYLAYER
 70
0
 71
3
 72
8
 73
4
 74
0
 42
0.0000001
 43
0.0000001
 44
0.0000000001
 40
0.0
 40
0.0
 40
0.0
 40
0.0
 40
1.0
 40
1.0
 40
1.0
 40
1.0
 10
342.2948560394
 20
90.7818540787
 30
0.0
 10
341.9193874124
 20
90.6696370263
 30
0.0
 10
341.5268035016
 20
90.6071815061
 30
0.0
 10
341.1354291985
 20
90.5872940338
 30
0.0
  0
SPLINE
  5
51A
100
AcDbEntity
  8
0
100
AcDbSpline
 62
7
  6
BYLAYER
 70
0
 71
3
 72
8
 73
4
 74
0
 42
0.0000001
 43
0.0000001
 44
0.0000000001
 40
0.0
 40
0.0
 40
0.0
 40
0.0
 40
1.0
 40
1.0
 40
1.0
 40
1.0
 10
343.2401819404
 20
91.2165886621
 30
0.0
 10
343.0540004146
 20
91.0898022135
 30
0.0
 10
342.8508163459
 20
90.9865636381
 30
0.0
 10
342.6417810856
 20
90.9026432946
 30
0.0
  0
SPLINE
  5
51B
100
AcDbEntity
  8
0
100
AcDbSpline
 62
7
  6
BYLAYER
 70
0
 71
3
 72
8
 73
4
 74
0
 42
0.0000001
 43
0.0000001
 44
0.0000000001
 40
0.0
 40
0.0
 40
0.0
 40
0.0
 40
1.0
 40
1.0
 40
1.0
 40
1.0
 10
343.4268745385
 20
91.5624503814
 30
0.0
 10
343.4347019699
 20
91.4786882692
 30
0.0
 10
343.4012201298
 20
91.3886474749
 30
0.0
 10
343.3496633393
 20
91.3221699789
 30
0.0
  0
SPLINE
  5
51C
100
AcDbEntity
  8
0
100
AcDbSpline
 62
7
  6
BYLAYER
 70
0
 71
3
 72
8
 73
4
 74
0
 42
0.0000001
 43
0.0000001
 44
0.0000000001
 40
0.0
 40
0.0
 40
0.0
 40
0.0
 40
1.0
 40
1.0
 40
1.0
 40
1.0
 10
343.3496633393
 20
91.3221699789
 30
0.0
 10
343.3185926777
 20
91.2821073653
 30
0.0
 10
343.2808033342
 20
91.2469251315
 30
0.0
 10
343.2401819404
 20
91.2165886621
 30
0.0
  0
SPLINE
  5
51D
100
AcDbEntity
  8
0
100
AcDbSpline
 62
7
  6
BYLAYER
 70
0
 71
3
 72
8
 73
4
 74
0
 42
0.0000001
 43
0.0000001
 44
0.0000000001
 40
0.0
 40
0.0
 40
0.0
 40
0.0
 40
1.0
 40
1.0
 40
1.0
 40
1.0
 10
357.0792360672
 20
99.2065225941
 30
0.0
 10
356.8939611198
 20
99.1238273972
 30
0.0
 10
356.6829730032
 20
99.0924184694
 30
0.0
 10
356.4801789874
 20
99.0987342332
 30
0.0
  0
SPLINE
  5
51E
100
AcDbEntity
  8
0
100
AcDbSpline
 62
7
  6
BYLAYER
 70
0
 71
3
 72
8
 73
4
 74
0
 42
0.0000001
 43
0.0000001
 44
0.0000000001
 40
0.0
 40
0.0
 40
0.0
 40
0.0
 40
1.0
 40
1.0
 40
1.0
 40
1.0
 10
357.8322213466
 20
99.7523025749
 30
0.0
 10
357.7677703744
 20
99.6804206902
 30
0.0
 10
357.6972873905
 20
99.6136799525
 30
0.0
 10
357.6230081855
 20
99.5520071638
 30
0.0
  0
SPLINE
  5
51F
100
AcDbEntity
  8
0
100
AcDbSpline
 62
7
  6
BYLAYER
 70
0
 71
3
 72
8
 73
4
 74
0
 42
0.0000001
 43
0.0000001
 44
0.0000000001
 40
0.0
 40
0.0
 40
0.0
 40
0.0
 40
1.0
 40
1.0
 40
1.0
 40
1.0
 10
357.6230081855
 20
99.5520071638
 30
0.0
 10
357.4577871638
 20
99.4148268969
 30
0.0
 10
357.2721164811
 20
99.300934233
 30
0.0
 10
357.0792360672
 20
99.2065225941
 30
0.0
  0
SPLINE
  5
520
100
AcDbEntity
  8
0
100
AcDbSpline
 62
7
  6
BYLAYER
 70
0
 71
3
 72
9
 73
5
 74
0
 42
0.0000001
 43
0.0000001
 44
0.0000000001
 40
0.0
 40
0.0
 40
0.0
 40
0.0
 40
0.7306755451
 40
1.0
 40
1.0
 40
1.0
 40
1.0
 10
358.1693825725
 20
100.4223581798
 30
0.0
 10
358.1416410671
 20
100.2403669418
 30
0.0
 10
358.0349030308
 20
99.9992611594
 30
0.0
 10
357.8775204235
 20
99.8028244354
 30
0.0
 10
357.8322213466
 20
99.7523025749
 30
0.0
  0
SPLINE
  5
521
100
AcDbEntity
  8
0
100
AcDbSpline
 62
7
  6
BYLAYER
 70
0
 71
3
 72
9
 73
5
 74
0
 42
0.0000001
 43
0.0000001
 44
0.0000000001
 40
0.0
 40
0.0
 40
0.0
 40
0.0
 40
0.5201110027
 40
1.0
 40
1.0
 40
1.0
 40
1.0
 10
321.9305687014
 20
857.056261032
 30
0.0
 10
321.9207634471
 20
857.0445544431
 30
0.0
 10
321.9057259051
 20
857.0181424193
 30
0.0
 10
321.9047113235
 20
856.987332935
 30
0.0
 10
321.907996817
 20
856.9736318049
 30
0.0
  0
SPLINE
  5
522
100
AcDbEntity
  8
0
100
AcDbSpline
 62
7
  6
BYLAYER
 70
0
 71
3
 72
8
 73
4
 74
0
 42
0.0000001
 43
0.0000001
 44
0.0000000001
 40
0.0
 40
0.0
 40
0.0
 40
0.0
 40
1.0
 40
1.0
 40
1.0
 40
1.0
 10
357.8322213466
 20
857.0582944626
 30
0.0
 10
357.8920592288
 20
857.1250313886
 30
0.0
 10
357.947047325
 20
857.1966415426
 30
0.0
 10
357.9947084377
 20
857.2725547021
 30
0.0
  0
SPLINE
  5
523
100
AcDbEntity
  8
0
100
AcDbSpline
 62
7
  6
BYLAYER
 70
0
 71
3
 72
8
 73
4
 74
0
 42
0.0000001
 43
0.0000001
 44
0.0000000001
 40
0.0
 40
0.0
 40
0.0
 40
0.0
 40
1.0
 40
1.0
 40
1.0
 40
1.0
 10
357.2356526398
 20
856.5944970479
 30
0.0
 10
357.3718511214
 20
856.670893228
 30
0.0
 10
357.5028616033
 20
856.7582433422
 30
0.0
 10
357.6230081855
 20
856.8579990514
 30
0.0
  0
SPLINE
  5
524
100
AcDbEntity
  8
0
100
AcDbSpline
 62
7
  6
BYLAYER
 70
0
 71
3
 72
8
 73
4
 74
0
 42
0.0000001
 43
0.0000001
 44
0.0000000001
 40
0.0
 40
0.0
 40
0.0
 40
0.0
 40
1.0
 40
1.0
 40
1.0
 40
1.0
 10
356.685871712
 20
856.4119591791
 30
0.0
 10
356.7567613641
 20
856.4192078039
 30
0.0
 10
356.8273709529
 20
856.4314700678
 30
0.0
 10
356.8963621595
 20
856.4493053911
 30
0.0
  0
SPLINE
  5
525
100
AcDbEntity
  8
0
100
AcDbSpline
 62
7
  6
BYLAYER
 70
0
 71
3
 72
8
 73
4
 74
0
 42
0.0000001
 43
0.0000001
 44
0.0000000001
 40
0.0
 40
0.0
 40
0.0
 40
0.0
 40
1.0
 40
1.0
 40
1.0
 40
1.0
 10
356.8963621595
 20
856.4493053911
 30
0.0
 10
356.95880589
 20
856.4654480878
 30
0.0
 10
357.0203398241
 20
856.4862268671
 30
0.0
 10
357.0792360672
 20
856.5125144818
 30
0.0
  0
SPLINE
  5
526
100
AcDbEntity
  8
0
100
AcDbSpline
 62
7
  6
BYLAYER
 70
0
 71
3
 72
8
 73
4
 74
0
 42
0.0000001
 43
0.0000001
 44
0.0000000001
 40
0.0
 40
0.0
 40
0.0
 40
0.0
 40
1.0
 40
1.0
 40
1.0
 40
1.0
 10
355.9046818912
 20
856.54909449
 30
0.0
 10
355.9587466674
 20
856.5190748235
 30
0.0
 10
356.0161212057
 20
856.4946605633
 30
0.0
 10
356.0747171332
 20
856.4748944891
 30
0.0
  0
SPLINE
  5
527
100
AcDbEntity
  8
0
100
AcDbSpline
 62
7
  6
BYLAYER
 70
0
 71
3
 72
8
 73
4
 74
0
 42
0.0000001
 43
0.0000001
 44
0.0000000001
 40
0.0
 40
0.0
 40
0.0
 40
0.0
 40
1.0
 40
1.0
 40
1.0
 40
1.0
 10
356.0747171332
 20
856.4748944891
 30
0.0
 10
356.140153145
 20
856.4528210596
 30
0.0
 10
356.2076767567
 20
856.4364016652
 30
0.0
 10
356.2757715651
 20
856.4249036219
 30
0.0
  0
SPLINE
  5
528
100
AcDbEntity
  8
0
100
AcDbSpline
 62
7
  6
BYLAYER
 70
0
 71
3
 72
8
 73
4
 74
0
 42
0.0000001
 43
0.0000001
 44
0.0000000001
 40
0.0
 40
0.0
 40
0.0
 40
0.0
 40
1.0
 40
1.0
 40
1.0
 40
1.0
 10
343.2401819404
 20
848.5225805498
 30
0.0
 10
343.2966726321
 20
848.564768372
 30
0.0
 10
343.348430178
 20
848.6170526654
 30
0.0
 10
343.383281022
 20
848.6783423812
 30
0.0
  0
SPLINE
  5
529
100
AcDbEntity
  8
0
100
AcDbSpline
 62
7
  6
BYLAYER
 70
0
 71
3
 72
9
 73
5
 74
0
 42
0.0000001
 43
0.0000001
 44
0.0000000001
 40
0.0
 40
0.0
 40
0.0
 40
0.0
 40
0.5076947947
 40
1.0
 40
1.0
 40
1.0
 40
1.0
 10
343.383281022
 20
848.6783423812
 30
0.0
 10
343.3901475069
 20
848.6904179829
 30
0.0
 10
343.4024178898
 20
848.7149449289
 30
0.0
 10
343.4117567334
 20
848.7407435417
 30
0.0
 10
343.4155423217
 20
848.7536709004
 30
0.0
  0
SPLINE
  5
52A
100
AcDbEntity
  8
0
100
AcDbSpline
 62
7
  6
BYLAYER
 70
0
 71
3
 72
8
 73
4
 74
0
 42
0.0000001
 43
0.0000001
 44
0.0000000001
 40
0.0
 40
0.0
 40
0.0
 40
0.0
 40
1.0
 40
1.0
 40
1.0
 40
1.0
 10
343.4155423217
 20
848.7536709004
 30
0.0
 10
343.4263461377
 20
848.7905647184
 30
0.0
 10
343.4304514044
 20
848.8301658759
 30
0.0
 10
343.4268745385
 20
848.8684422691
 30
0.0
  0
SPLINE
  5
52B
100
AcDbEntity
  8
0
100
AcDbSpline
 62
7
  6
BYLAYER
 70
0
 71
3
 72
8
 73
4
 74
0
 42
0.0000001
 43
0.0000001
 44
0.0000000001
 40
0.0
 40
0.0
 40
0.0
 40
0.0
 40
1.0
 40
1.0
 40
1.0
 40
1.0
 10
342.4819360823
 20
848.1485625175
 30
0.0
 10
342.6452481527
 20
848.205917138
 30
0.0
 10
342.8054075085
 20
848.2739506726
 30
0.0
 10
342.9586817256
 20
848.3543708144
 30
0.0
  0
SPLINE
  5
52C
100
AcDbEntity
  8
0
100
AcDbSpline
 62
7
  6
BYLAYER
 70
0
 71
3
 72
9
 73
5
 74
0
 42
0.0000001
 43
0.0000001
 44
0.0000000001
 40
0.0
 40
0.0
 40
0.0
 40
0.0
 40
0.6718723207
 40
1.0
 40
1.0
 40
1.0
 40
1.0
 10
337.6864910921
 20
848.5395245881
 30
0.0
 10
337.7036156643
 20
848.5173673291
 30
0.0
 10
337.7378660927
 20
848.485880965
 30
0.0
 10
337.7808971015
 20
848.4852587969
 30
0.0
 10
337.7945389656
 20
848.4862285112
 30
0.0
  0
SPLINE
  5
52D
100
AcDbEntity
  8
0
100
AcDbSpline
 62
7
  6
BYLAYER
 70
0
 71
3
 72
9
 73
5
 74
0
 42
0.0000001
 43
0.0000001
 44
0.0000000001
 40
0.0
 40
0.0
 40
0.0
 40
0.0
 40
0.4833627307
 40
1.0
 40
1.0
 40
1.0
 40
1.0
 10
337.6662588624
 20
848.6223102216
 30
0.0
 10
337.6632476776
 20
848.6085628613
 30
0.0
 10
337.6636457749
 20
848.5782882957
 30
0.0
 10
337.6772926241
 20
848.551426365
 30
0.0
 10
337.6864910921
 20
848.5395245881
 30
0.0
  0
SPLINE
  5
52E
100
AcDbEntity
  8
0
100
AcDbSpline
 62
7
  6
BYLAYER
 70
0
 71
3
 72
8
 73
4
 74
0
 42
0.0000001
 43
0.0000001
 44
0.0000000001
 40
0.0
 40
0.0
 40
0.0
 40
0.0
 40
1.0
 40
1.0
 40
1.0
 40
1.0
 10
337.4655703441
 20
848.8970539918
 30
0.0
 10
337.5357420733
 20
848.8711407242
 30
0.0
 10
337.6063503458
 20
848.8281349165
 30
0.0
 10
337.6474953216
 20
848.7656636433
 30
0.0
  0
SPLINE
  5
52F
100
AcDbEntity
  8
0
100
AcDbSpline
 62
7
  6
BYLAYER
 70
0
 71
3
 72
9
 73
5
 74
0
 42
0.0000001
 43
0.0000001
 44
0.0000000001
 40
0.0
 40
0.0
 40
0.0
 40
0.0
 40
0.5138429584
 40
1.0
 40
1.0
 40
1.0
 40
1.0
 10
337.6474953216
 20
848.7656636433
 30
0.0
 10
337.6562871491
 20
848.7523148287
 30
0.0
 10
337.6705973502
 20
848.7242538708
 30
0.0
 10
337.6762393066
 20
848.693088694
 30
0.0
 10
337.6765279431
 20
848.6779687032
 30
0.0
  0
SPLINE
  5
530
100
AcDbEntity
  8
0
100
AcDbSpline
 62
7
  6
BYLAYER
 70
0
 71
3
 72
8
 73
4
 74
0
 42
0.0000001
 43
0.0000001
 44
0.0000000001
 40
0.0
 40
0.0
 40
0.0
 40
0.0
 40
1.0
 40
1.0
 40
1.0
 40
1.0
 10
336.9473198402
 20
848.886276174
 30
0.0
 10
337.0420415111
 20
848.926899806
 30
0.0
 10
337.1493968999
 20
848.9416635834
 30
0.0
 10
337.2523502776
 20
848.9368597883
 30
0.0
  0
SPLINE
  5
531
100
AcDbEntity
  8
0
100
AcDbSpline
 62
7
  6
BYLAYER
 70
0
 71
3
 72
8
 73
4
 74
0
 42
0.0000001
 43
0.0000001
 44
0.0000000001
 40
0.0
 40
0.0
 40
0.0
 40
0.0
 40
1.0
 40
1.0
 40
1.0
 40
1.0
 10
337.2523502776
 20
848.9368597883
 30
0.0
 10
337.3245729978
 20
848.9334898828
 30
0.0
 10
337.3977459161
 20
848.9221004395
 30
0.0
 10
337.4655703441
 20
848.8970539918
 30
0.0
  0
SPLINE
  5
532
100
AcDbEntity
  8
0
100
AcDbSpline
 62
7
  6
BYLAYER
 70
0
 71
3
 72
8
 73
4
 74
0
 42
0.0000001
 43
0.0000001
 44
0.0000000001
 40
0.0
 40
0.0
 40
0.0
 40
0.0
 40
1.0
 40
1.0
 40
1.0
 40
1.0
 10
336.8269078818
 20
848.8622507664
 30
0.0
 10
336.8678352024
 20
848.8625580456
 30
0.0
 10
336.9092419654
 20
848.8712689942
 30
0.0
 10
336.9473198402
 20
848.886276174
 30
0.0
  0
SPLINE
  5
533
100
AcDbEntity
  8
0
100
AcDbSpline
 62
7
  6
BYLAYER
 70
0
 71
3
 72
8
 73
4
 74
0
 42
0.0000001
 43
0.0000001
 44
0.0000000001
 40
0.0
 40
0.0
 40
0.0
 40
0.0
 40
1.0
 40
1.0
 40
1.0
 40
1.0
 10
336.6596557096
 20
848.8926079714
 30
0.0
 10
336.7051992706
 20
848.8736056128
 30
0.0
 10
336.761920955
 20
848.8566446109
 30
0.0
 10
336.8068769177
 20
848.8769981612
 30
0.0
  0
SPLINE
  5
534
100
AcDbEntity
  8
0
100
AcDbSpline
 62
7
  6
BYLAYER
 70
0
 71
3
 72
9
 73
5
 74
0
 42
0.0000001
 43
0.0000001
 44
0.0000000001
 40
0.0
 40
0.0
 40
0.0
 40
0.0
 40
0.4605903954
 40
1.0
 40
1.0
 40
1.0
 40
1.0
 10
321.907996817
 20
856.9736318049
 30
0.0
 10
321.9115363827
 20
856.9588711456
 30
0.0
 10
321.9282075053
 20
856.9290167307
 30
0.0
 10
321.9537045292
 20
856.9073487849
 30
0.0
 10
321.9686029508
 20
856.8976510082
 30
0.0
  0
SPLINE
  5
535
100
AcDbEntity
  8
0
100
AcDbSpline
 62
7
  6
BYLAYER
 70
0
 71
3
 72
9
 73
5
 74
0
 42
0.0000001
 43
0.0000001
 44
0.0000000001
 40
0.0
 40
0.0
 40
0.0
 40
0.0
 40
0.5190697478
 40
1.0
 40
1.0
 40
1.0
 40
1.0
 10
321.8722944581
 20
857.3348906671
 30
0.0
 10
321.8851877095
 20
857.325885363
 30
0.0
 10
321.9089250919
 20
857.3068761252
 30
0.0
 10
321.929473193
 20
857.2843824834
 30
0.0
 10
321.9382400974
 20
857.272743671
 30
0.0
  0
SPLINE
  5
536
100
AcDbEntity
  8
0
100
AcDbSpline
 62
7
  6
BYLAYER
 70
0
 71
3
 72
8
 73
4
 74
0
 42
0.0000001
 43
0.0000001
 44
0.0000000001
 40
0.0
 40
0.0
 40
0.0
 40
0.0
 40
1.0
 40
1.0
 40
1.0
 40
1.0
 10
321.4092720807
 20
857.4203611674
 30
0.0
 10
321.506856025
 20
857.4354168255
 30
0.0
 10
321.6094612675
 20
857.4316625014
 30
0.0
 10
321.7052105666
 20
857.4075508707
 30
0.0
  0
SPLINE
  5
537
100
AcDbEntity
  8
0
100
AcDbSpline
 62
7
  6
BYLAYER
 70
0
 71
3
 72
8
 73
4
 74
0
 42
0.0000001
 43
0.0000001
 44
0.0000000001
 40
0.0
 40
0.0
 40
0.0
 40
0.0
 40
1.0
 40
1.0
 40
1.0
 40
1.0
 10
321.7052105666
 20
857.4075508707
 30
0.0
 10
321.7641049679
 20
857.3927200566
 30
0.0
 10
321.8225037965
 20
857.3696670035
 30
0.0
 10
321.8722944581
 20
857.3348906671
 30
0.0
  0
SPLINE
  5
538
100
AcDbEntity
  8
0
100
AcDbSpline
 62
7
  6
BYLAYER
 70
0
 71
3
 72
8
 73
4
 74
0
 42
0.0000001
 43
0.0000001
 44
0.0000000001
 40
0.0
 40
0.0
 40
0.0
 40
0.0
 40
1.0
 40
1.0
 40
1.0
 40
1.0
 10
321.2628289883
 20
857.4234329663
 30
0.0
 10
321.3107042442
 20
857.4138491016
 30
0.0
 10
321.3610179128
 20
857.412916313
 30
0.0
 10
321.4092720807
 20
857.4203611674
 30
0.0
  0
SPLINE
  5
539
100
AcDbEntity
  8
0
100
AcDbSpline
 62
7
  6
BYLAYER
 70
0
 71
3
 72
8
 73
4
 74
0
 42
0.0000001
 43
0.0000001
 44
0.0000000001
 40
0.0
 40
0.0
 40
0.0
 40
0.0
 40
1.0
 40
1.0
 40
1.0
 40
1.0
 10
321.1430223721
 20
857.4743070864
 30
0.0
 10
321.1773662945
 20
857.4477944975
 30
0.0
 10
321.2202861475
 20
857.4319493663
 30
0.0
 10
321.2628289883
 20
857.4234329663
 30
0.0
  0
ENDSEC
  0
SECTION
  2
OBJECTS
  0
DICTIONARY
  5
C
100
AcDbDictionary
280
0
281
1
  3
ACAD_GROUP
350
D
  3
ACAD_MLINESTYLE
350
17
  3
ACAD_LAYOUT
350
1A
  3
ACAD_PLOTSETTINGS
350
19
  3
ACAD_PLOTSTYLENAME
350
E
  0
DICTIONARY
  5
D
102
{ACAD_REACTORS
330
C
102
}
100
AcDbDictionary
280
0
281
1
  0
ACDBDICTIONARYWDFLT
  5
E
102
{ACAD_REACTORS
330
C
102
}
100
AcDbDictionary
281
1
  3
Normal
350
F
100
AcDbDictionaryWithDefault
340
F
  0
DICTIONARY
  5
17
102
{ACAD_REACTORS
330
C
102
}
100
AcDbDictionary
280
0
281
1
  3
Standard
350
18
  0
DICTIONARY
  5
19
102
{ACAD_REACTORS
330
C
102
}
100
AcDbDictionary
281
1
  0
DICTIONARY
  5
1A
102
{ACAD_REACTORS
330
C
102
}
100
AcDbDictionary
281
1
  3
Model
350
53A
  3
Layout1
350
53B
  0
ACDBPLACEHOLDER
  5
F
102
{ACAD_REACTORS
330
E
102
}
  0
MLINESTYLE
  5
18
102
{ACAD_REACTORS
330
17
102
}
100
AcDbMlineStyle
  2
STANDARD
 70
0
  3

 62
256
 51
90.0
 52
90.0
 71
2
 49
0.5
 62
256
  6
BYLAYER
 49
-0.5
 62
256
  6
BYLAYER
  0
LAYOUT
  5
53A
102
{ACAD_REACTORS
330
1A
102
}
100
AcDbPlotSettings
  1

  2
none_device
  4

  6

 40
0.0
 41
0.0
 42
0.0
 43
0.0
 44
210.0
 45
297.0
 46
0.0
 47
0.0
 48
0.0
 49
0.0
140
0.0
141
0.0
142
1.0
143
1.0
 70
1024
 72
1
 73
0
 74
0
  7

 75
0
147
1.0
148
0.0
149
0.0
100
AcDbLayout
  1
Model
 70
0
 71
0
 10
0.0
 20
0.0
 11
210.0
 21
297.0
 12
0.0
 22
0.0
 32
0.0
 14
0.0
 24
0.0
 34
0.0
 15
0.0
 25
0.0
 35
0.0
146
0.0
 13
0.0
 23
0.0
 33
0.0
 16
1.0
 26
0.0
 36
0.0
 17
0.0
 27
1.0
 37
0.0
 76
0
330
210
345
0
346
0
  0
LAYOUT
  5
53B
102
{ACAD_REACTORS
330
1A
102
}
100
AcDbPlotSettings
  1

  2
none_device
  4

  6

 40
0.0
 41
0.0
 42
0.0
 43
0.0
 44
210.0
 45
297.0
 46
0.0
 47
0.0
 48
0.0
 49
0.0
140
0.0
141
0.0
142
1.0
143
1.0
 70
0
 72
1
 73
0
 74
0
  7

 75
0
147
1.0
148
0.0
149
0.0
100
AcDbLayout
  1
Layout1
 70
0
 71
1
 10
0.0
 20
0.0
 11
210.0
 21
297.0
 12
0.0
 22
0.0
 32
0.0
 14
0.0
 24
0.0
 34
0.0
 15
0.0
 25
0.0
 35
0.0
146
0.0
 13
0.0
 23
0.0
 33
0.0
 16
1.0
 26
0.0
 36
0.0
 17
0.0
 27
1.0
 37
0.0
 76
0
330
211
345
0
346
0
  0
ENDSEC
  0
EOF
