999
DXF file: C:\Users\sesa63760\Dev\_Creo\CAD\MCADID0002721_3D-CAD\drw0001_1.dxf
999
Pro/ENGINEER 2019471 by Parametric Technology Corporation
  0
SECTION
  2
HEADER
  9
$ACADVER
  1
AC1024
  9
$DWGCODEPAGE
  3
ANSI_1252
  9
$EXTMAX
 10
62.2594806113
 20
88.0526940074
 30
0.0
  9
$EXTMIN
 10
0.0
 20
0.0
 30
0.0
  9
$LIMMIN
 10
0.0
 20
0.0
  9
$LIMMAX
 10
62.2594806113
 20
88.0526940074
  9
$VIEWCTR
 10
31.1297403056
 20
44.0263470037
  9
$VIEWSIZE
 40
88.0526940074
  9
$CLAYER
  8
0
  9
$LTSCALE
 40
5.7397311649
  9
$CELTYPE
  6
BYLAYER
  9
$DIMSCALE
 40
1.0
  9
$DIMASZ
 40
0.741184293
  9
$DIMEXO
 40
1.0
  9
$DIMDLI
 40
3.9656324412
  9
$DIMEXE
 40
1.0
  9
$DIMCEN
 40
0.9392287361
  9
$DIMLFAC
 40
1.0
  9
$DIMBLK
  1
_FILLED
  9
$DIMALT
 70
0
  9
$DIMALTF
 40
0.0393700787
  9
$DIMTXT
 40
1.0376580102
  9
$DIMTOL
 70
1
  9
$DIMLIM
 70
0
  9
$DIMTFAC
 40
1.0
  9
$DIMTP
 40
0.01
  9
$DIMTM
 40
0.01
  9
$DIMGAP
 40
0.625
  9
$DIMDSEP
 70
46
  9
$AUNITS
 70
0
  9
$PDMODE
 70
3
  9
$PDSIZE
 40
0.3125
  9
$HANDSEED
  5
314
  9
$TILEMODE
 70
1
  9
$MEASUREMENT
 70
1
  9
$INSUNITS
 70
4
  0
ENDSEC
  0
SECTION
  2
CLASSES
  0
CLASS
  1
ACDBDICTIONARYWDFLT
  2
AcDbDictionaryWithDefault
  3
AutoCAD 2000
 90
0
 91
1
280
0
281
0
  0
CLASS
  1
ACDBPLACEHOLDER
  2
AcDbPlaceHolder
  3
AutoCAD 2000
 90
0
 91
1
280
0
281
0
  0
CLASS
  1
LAYOUT
  2
AcDbLayout
  3
AutoCAD 2000
 90
0
 91
0
280
0
281
0
  0
ENDSEC
  0
SECTION
  2
TABLES
  0
TABLE
  2
VPORT
  5
8
100
AcDbSymbolTable
 70
2
  0
VPORT
  5
1F4
100
AcDbSymbolTableRecord
100
AcDbViewportTableRecord
  2
*ACTIVE
 70
0
 10
0.0
 20
0.0
 11
1.0
 21
1.0
 12
31.1297403056
 22
44.0263470037
 13
0.0
 23
0.0
 14
1.0
 24
1.0
 15
0.0
 25
0.0
 16
0.0
 26
0.0
 36
1.0
 17
0.0
 27
0.0
 37
0.0
 40
88.0526940074
 41
0.7070707071
 42
50.0
 43
0.0
 44
0.0
 50
0.0
 51
0.0
 71
0
 72
100
 73
1
 74
1
 75
0
 76
0
 77
0
 78
0
  0
ENDTAB
  0
TABLE
  2
LTYPE
  5
5
100
AcDbSymbolTable
 70
6
  0
LTYPE
  5
14
100
AcDbSymbolTableRecord
100
AcDbLinetypeTableRecord
  2
BYBLOCK
 70
0
  3

 72
65
 73
0
 40
0.0
  0
LTYPE
  5
15
100
AcDbSymbolTableRecord
100
AcDbLinetypeTableRecord
  2
BYLAYER
 70
0
  3

 72
65
 73
0
 40
0.0
  0
LTYPE
  5
16
100
AcDbSymbolTableRecord
100
AcDbLinetypeTableRecord
  2
CONTINUOUS
 70
64
  3
Solid line
 72
65
 73
0
 40
0.0
  0
LTYPE
  5
1F5
100
AcDbSymbolTableRecord
100
AcDbLinetypeTableRecord
  2
CENTER
 70
64
  3
____ _ ____ _ ____ _ ____ _ ____ _ ____ _ ____
 72
65
 73
4
 40
0.6
 49
0.375
 74
0
 49
-0.075
 74
0
 49
0.075
 74
0
 49
-0.075
 74
0
  0
LTYPE
  5
1F6
100
AcDbSymbolTableRecord
100
AcDbLinetypeTableRecord
  2
HIDDEN
 70
64
  3
- - - - - - - - - - - - - - - - - - - -
 72
65
 73
2
 40
0.2
 49
0.1
 74
0
 49
-0.1
 74
0
  0
LTYPE
  5
1F7
100
AcDbSymbolTableRecord
100
AcDbLinetypeTableRecord
  2
PHANTOM
 70
64
  3
_____ _ _ _____ _ _ _____ _ _ _____
 72
65
 73
6
 40
0.8
 49
0.45
 74
0
 49
-0.05
 74
0
 49
0.1
 74
0
 49
-0.05
 74
0
 49
0.1
 74
0
 49
-0.05
 74
0
  0
LTYPE
  5
1F8
100
AcDbSymbolTableRecord
100
AcDbLinetypeTableRecord
  2
DOT
 70
64
  3
. . . . . . . . . . . . . . . . . . . .
 72
65
 73
2
 40
0.2
 49
0.1
 74
0
 49
-0.1
 74
0
  0
LTYPE
  5
1F9
100
AcDbSymbolTableRecord
100
AcDbLinetypeTableRecord
  2
DASHED
 70
64
  3
- - - - - - - - - - - - - - - - - - - -
 72
65
 73
2
 40
0.2
 49
0.1
 74
0
 49
-0.1
 74
0
  0
ENDTAB
  0
TABLE
  2
LAYER
  5
2
100
AcDbSymbolTable
 70
36
  0
LAYER
  5
10
100
AcDbSymbolTableRecord
100
AcDbLayerTableRecord
  2
0
 70
0
 62
7
  6
CONTINUOUS
370
-3
390
F
  0
LAYER
  5
1FA
100
AcDbSymbolTableRecord
100
AcDbLayerTableRecord
  2
DEFAULT_1
 70
0
 62
7
  6
CENTER
370
-3
390
F
  0
LAYER
  5
1FB
100
AcDbSymbolTableRecord
100
AcDbLayerTableRecord
  2
DEFAULT_2
 70
0
 62
7
  6
HIDDEN
370
-3
390
F
  0
LAYER
  5
1FC
100
AcDbSymbolTableRecord
100
AcDbLayerTableRecord
  2
DEFAULT_3
 70
0
 62
7
  6
PHANTOM
370
-3
390
F
  0
LAYER
  5
1FD
100
AcDbSymbolTableRecord
100
AcDbLayerTableRecord
  2
00_COMPONENTS
 70
0
 62
7
  6
CONTINUOUS
370
-3
390
F
  0
LAYER
  5
1FE
100
AcDbSymbolTableRecord
100
AcDbLayerTableRecord
  2
01_1_DEFAULT_DATUMS
 70
0
 62
7
  6
CONTINUOUS
370
-3
390
F
  0
LAYER
  5
1FF
100
AcDbSymbolTableRecord
100
AcDbLayerTableRecord
  2
01_PLANES
 70
0
 62
7
  6
CONTINUOUS
370
-3
390
F
  0
LAYER
  5
200
100
AcDbSymbolTableRecord
100
AcDbLayerTableRecord
  2
02_COORD_SYS
 70
0
 62
7
  6
CONTINUOUS
370
-3
390
F
  0
LAYER
  5
201
100
AcDbSymbolTableRecord
100
AcDbLayerTableRecord
  2
03_AXES
 70
0
 62
7
  6
CONTINUOUS
370
-3
390
F
  0
LAYER
  5
202
100
AcDbSymbolTableRecord
100
AcDbLayerTableRecord
  2
04_POINTS
 70
0
 62
7
  6
CONTINUOUS
370
-3
390
F
  0
LAYER
  5
203
100
AcDbSymbolTableRecord
100
AcDbLayerTableRecord
  2
05_CURVES
 70
0
 62
7
  6
CONTINUOUS
370
-3
390
F
  0
LAYER
  5
204
100
AcDbSymbolTableRecord
100
AcDbLayerTableRecord
  2
06_SURFS
 70
0
 62
7
  6
CONTINUOUS
370
-3
390
F
  0
LAYER
  5
205
100
AcDbSymbolTableRecord
100
AcDbLayerTableRecord
  2
07_COSMETICS
 70
0
 62
7
  6
CONTINUOUS
370
-3
390
F
  0
LAYER
  5
206
100
AcDbSymbolTableRecord
100
AcDbLayerTableRecord
  2
10_NOTES
 70
0
 62
7
  6
CONTINUOUS
370
-3
390
F
  0
LAYER
  5
207
100
AcDbSymbolTableRecord
100
AcDbLayerTableRecord
  2
11_NOTES_PUB
 70
0
 62
7
  6
CONTINUOUS
370
-3
390
F
  0
LAYER
  5
208
100
AcDbSymbolTableRecord
100
AcDbLayerTableRecord
  2
13_REF_GTOL
 70
0
 62
7
  6
CONTINUOUS
370
-3
390
F
  0
LAYER
  5
209
100
AcDbSymbolTableRecord
100
AcDbLayerTableRecord
  2
16_MISC
 70
0
 62
7
  6
CONTINUOUS
370
-3
390
F
  0
LAYER
  5
20A
100
AcDbSymbolTableRecord
100
AcDbLayerTableRecord
  2
17_NO_PRINT
 70
0
 62
7
  6
CONTINUOUS
370
-3
390
F
  0
LAYER
  5
20B
100
AcDbSymbolTableRecord
100
AcDbLayerTableRecord
  2
18_DATUM_CAMS_JOINTS
 70
0
 62
7
  6
CONTINUOUS
370
-3
390
F
  0
LAYER
  5
20C
100
AcDbSymbolTableRecord
100
AcDbLayerTableRecord
  2
19_DATUM_FUNCTIONAL
 70
0
 62
7
  6
CONTINUOUS
370
-3
390
F
  0
LAYER
  5
20D
100
AcDbSymbolTableRecord
100
AcDbLayerTableRecord
  2
20_DATUM_KINEMATIC_SCHEME
 70
0
 62
7
  6
CONTINUOUS
370
-3
390
F
  0
ENDTAB
  0
TABLE
  2
STYLE
  5
3
100
AcDbSymbolTable
 70
1
  0
STYLE
  5
11
100
AcDbSymbolTableRecord
100
AcDbTextStyleTableRecord
  2
STANDARD
 70
0
 40
0.0
 41
1.0
 50
0.0
 71
0
 42
0.2
  3
ARIAL.TTF
  4

  0
STYLE
  5
20E
100
AcDbSymbolTableRecord
100
AcDbTextStyleTableRecord
  2
TEXTSTYLE_1
 70
0
 40
0.0
 41
0.8
 50
0.0
 71
0
 42
0.2
  3
gdt
  4

  0
ENDTAB
  0
TABLE
  2
VIEW
  5
6
100
AcDbSymbolTable
 70
0
  0
ENDTAB
  0
TABLE
  2
UCS
  5
7
100
AcDbSymbolTable
 70
0
  0
ENDTAB
  0
TABLE
  2
APPID
  5
9
100
AcDbSymbolTable
 70
1
  0
APPID
  5
20F
100
AcDbSymbolTableRecord
100
AcDbRegAppTableRecord
  2
ACAD
 70
0
  0
ENDTAB
  0
TABLE
  2
BLOCK_RECORD
  5
1
100
AcDbSymbolTable
 70
0
  0
BLOCK_RECORD
  5
210
100
AcDbSymbolTableRecord
100
AcDbBlockTableRecord
  2
*Model_Space
  0
BLOCK_RECORD
  5
211
100
AcDbSymbolTableRecord
100
AcDbBlockTableRecord
  2
*Paper_Space
  0
BLOCK_RECORD
  5
212
100
AcDbSymbolTableRecord
100
AcDbBlockTableRecord
  2
_FILLED
  0
ENDTAB
  0
TABLE
  2
DIMSTYLE
  5
A
100
AcDbSymbolTable
 70
1
100
AcDbDimStyleTable
 71
0
  0
DIMSTYLE
105
213
100
AcDbSymbolTableRecord
100
AcDbDimStyleTableRecord
  2
STANDARD
 70
0
  3

  4

 40
1.0
 41
0.741184293
 42
1.0
 43
0.38
 44
1.0
 45
0.0
 46
0.0
 47
0.01
 48
0.01
140
1.0376580102
141
0.09
142
0.0
143
25.4
144
1.0
145
0.0
146
1.0
147
0.625
 71
1
 72
0
 73
0
 74
0
 75
0
 76
0
 77
1
 78
8
 79
2
170
0
171
1
172
0
173
0
174
0
175
0
176
0
177
0
178
0
270
2
179
2
271
2
272
2
273
2
274
2
275
0
280
0
281
0
282
0
283
1
284
8
285
0
286
0
287
3
288
0
340
11
278
46
341
212
342
212
343
212
344
212
  0
ENDTAB
  0
ENDSEC
  0
SECTION
  2
BLOCKS
  0
BLOCK
  5
20
100
AcDbEntity
  8
0
100
AcDbBlockBegin
  2
*Model_Space
 70
0
 10
0.0
 20
0.0
 30
0.0
  3
*Model_Space
  1

  0
ENDBLK
  5
21
100
AcDbEntity
  8
0
100
AcDbBlockEnd
  0
BLOCK
  5
1C
100
AcDbEntity
  8
0
100
AcDbBlockBegin
  2
*Paper_Space
 70
0
 10
0.0
 20
0.0
 30
0.0
  3
*Paper_Space
  1

  0
ENDBLK
  5
1D
100
AcDbEntity
  8
0
100
AcDbBlockEnd
  0
BLOCK
  5
214
100
AcDbEntity
  8
0
100
AcDbBlockBegin
  2
_FILLED
 70
64
 10
0.0
 20
0.0
  3
_FILLED
  1

  0
SOLID
  5
215
100
AcDbEntity
  8
0
  6
BYBLOCK
 62
0
100
AcDbTrace
 10
0.0
 20
0.0
 11
-1.0
 21
0.25
 12
-1.0
 22
-0.25
 13
-1.0
 23
-0.25
  0
ENDBLK
  5
216
100
AcDbEntity
  8
0
  6
BYBLOCK
 62
0
100
AcDbBlockEnd
  0
ENDSEC
  0
SECTION
  2
ENTITIES
  0
LINE
  5
217
100
AcDbEntity
  8
0
100
AcDbLine
 62
7
  6
BYLAYER
 10
7.8092530115
 20
65.2130030528
 11
7.4230392928
 21
64.9071436217
  0
LINE
  5
218
100
AcDbEntity
  8
0
100
AcDbLine
 62
7
  6
BYLAYER
 10
10.6730210253
 20
66.8663962235
 11
7.8092504992
 21
65.2130074087
  0
LINE
  5
219
100
AcDbEntity
  8
0
100
AcDbLine
 62
7
  6
BYLAYER
 10
9.9027629969
 20
65.2267815867
 11
12.7133884207
 21
66.8494872455
  0
LINE
  5
21A
100
AcDbEntity
  8
0
100
AcDbLine
 62
7
  6
BYLAYER
 10
13.1225550353
 20
66.6670725566
 11
16.3605069491
 21
68.5364938067
  0
LINE
  5
21B
100
AcDbEntity
  8
0
100
AcDbLine
 62
7
  6
BYLAYER
 10
13.87467773
 20
66.3317611638
 11
17.7991206291
 21
68.5975258033
  0
LINE
  5
21C
100
AcDbEntity
  8
0
100
AcDbLine
 62
7
  6
BYLAYER
 10
9.7429789141
 20
63.9410334954
 11
8.8433829017
 21
63.4216545958
  0
LINE
  5
21D
100
AcDbEntity
  8
0
100
AcDbLine
 62
7
  6
BYLAYER
 10
7.8674183052
 20
62.3308534334
 11
8.2881019522
 21
62.5737338004
  0
LINE
  5
21E
100
AcDbEntity
  8
0
100
AcDbLine
 62
7
  6
BYLAYER
 10
10.0422370238
 20
63.4182351796
 11
10.42919953
 21
63.6416467531
  0
LINE
  5
21F
100
AcDbEntity
  8
0
100
AcDbLine
 62
7
  6
BYLAYER
 10
12.1078991338
 20
24.5565208562
 11
22.7134436302
 21
18.4335454065
  0
LINE
  5
220
100
AcDbEntity
  8
0
100
AcDbLine
 62
7
  6
BYLAYER
 10
25.5209860297
 20
17.1508592149
 11
8.8861320821
 21
26.7547793497
  0
LINE
  5
221
100
AcDbEntity
  8
0
100
AcDbLine
 62
7
  6
BYLAYER
 10
7.222821867
 20
30.1779881695
 11
7.222821867
 21
64.4010067238
  0
LINE
  5
222
100
AcDbEntity
  8
0
100
AcDbLine
 62
7
  6
BYLAYER
 10
7.4230392928
 20
28.9787065758
 11
7.4230391645
 21
43.931456968
  0
LINE
  5
223
100
AcDbEntity
  8
0
100
AcDbLine
 62
7
  6
BYLAYER
 10
7.4230391645
 20
49.9544550569
 11
7.4230392928
 21
64.9071436217
  0
LINE
  5
224
100
AcDbEntity
  8
0
100
AcDbLine
 62
7
  6
BYLAYER
 10
7.5157180038
 20
43.8700076737
 11
7.5157180038
 21
49.8925589519
  0
LINE
  5
225
100
AcDbEntity
  8
0
100
AcDbLine
 62
7
  6
BYLAYER
 10
21.9694124397
 20
67.1646159015
 11
17.4812903681
 21
64.5734128827
  0
LINE
  5
226
100
AcDbEntity
  8
0
100
AcDbLine
 62
7
  6
BYLAYER
 10
7.8603472317
 20
49.6935915964
 11
7.8603472317
 21
43.6710403224
  0
LINE
  5
227
100
AcDbEntity
  8
0
100
AcDbLine
 62
7
  6
BYLAYER
 10
7.8674183052
 20
62.3308534334
 11
7.8674181968
 21
49.6978985071
  0
LINE
  5
228
100
AcDbEntity
  8
0
100
AcDbLine
 62
7
  6
BYLAYER
 10
7.8674181968
 20
43.6749004181
 11
7.8674183052
 21
31.0418836422
  0
LINE
  5
229
100
AcDbEntity
  8
0
100
AcDbLine
 62
7
  6
BYLAYER
 10
8.0176839082
 20
43.3145999993
 11
8.0176839082
 21
49.2629344824
  0
LINE
  5
22A
100
AcDbEntity
  8
0
100
AcDbLine
 62
7
  6
BYLAYER
 10
8.0335201947
 20
49.2629344824
 11
8.0335201947
 21
43.2879619996
  0
LINE
  5
22B
100
AcDbEntity
  8
0
100
AcDbLine
 62
7
  6
BYLAYER
 10
8.2270114451
 20
30.875627649
 11
8.2270113401
 21
43.1057258368
  0
LINE
  5
22C
100
AcDbEntity
  8
0
100
AcDbLine
 62
7
  6
BYLAYER
 10
8.2270113401
 20
49.8517981179
 11
8.2270114451
 21
62.0818964269
  0
LINE
  5
22D
100
AcDbEntity
  8
0
100
AcDbLine
 62
7
  6
BYLAYER
 10
8.2367740553
 20
49.4762662984
 11
8.2423845517
 21
49.4814164786
  0
LINE
  5
22E
100
AcDbEntity
  8
0
100
AcDbLine
 62
7
  6
BYLAYER
 10
8.052032767
 20
49.3558488806
 11
8.0470633571
 21
49.3516027574
  0
LINE
  5
22F
100
AcDbEntity
  8
0
100
AcDbLine
 62
7
  6
BYLAYER
 10
34.0822537777
 20
68.0729355332
 11
38.1392442386
 21
70.4151165408
  0
LINE
  5
230
100
AcDbEntity
  8
0
100
AcDbLine
 62
7
  6
BYLAYER
 10
8.2367740553
 20
49.4762662984
 11
8.2303036542
 21
49.4720487843
  0
LINE
  5
231
100
AcDbEntity
  8
0
100
AcDbLine
 62
7
  6
BYLAYER
 10
8.2367740553
 20
49.4762662984
 11
8.2302507153
 21
49.4720776429
  0
LINE
  5
232
100
AcDbEntity
  8
0
100
AcDbLine
 62
7
  6
BYLAYER
 10
8.2443216556
 20
49.4826072445
 11
8.2423845517
 21
49.4814164786
  0
LINE
  5
233
100
AcDbEntity
  8
0
100
AcDbLine
 62
7
  6
BYLAYER
 10
7.8674181968
 20
49.6978985071
 11
7.8603472317
 21
49.6935915964
  0
LINE
  5
234
100
AcDbEntity
  8
0
100
AcDbLine
 62
7
  6
BYLAYER
 10
34.3898593973
 20
65.8150713948
 11
35.0924748216
 21
66.2310251117
  0
LINE
  5
235
100
AcDbEntity
  8
0
100
AcDbLine
 62
7
  6
BYLAYER
 10
23.7872663405
 20
60.8657533056
 11
28.333399966
 21
63.4904491108
  0
LINE
  5
236
100
AcDbEntity
  8
0
100
AcDbLine
 62
7
  6
BYLAYER
 10
15.4059680262
 20
38.2239675892
 11
15.4059680262
 21
43.6141515253
  0
LINE
  5
237
100
AcDbEntity
  8
0
100
AcDbLine
 62
7
  6
BYLAYER
 10
16.5502219977
 20
42.9535311321
 11
16.5502219977
 21
37.563347196
  0
LINE
  5
238
100
AcDbEntity
  8
0
100
AcDbLine
 62
7
  6
BYLAYER
 10
8.4125908291
 20
49.5797725659
 11
8.2443148937
 21
49.4826189893
  0
LINE
  5
239
100
AcDbEntity
  8
0
100
AcDbLine
 62
7
  6
BYLAYER
 10
8.296723832
 20
49.4766587698
 11
8.4430399411
 21
49.5611339105
  0
LINE
  5
23A
100
AcDbEntity
  8
0
100
AcDbLine
 62
7
  6
BYLAYER
 10
24.6107905143
 20
56.7354576971
 11
27.4212707438
 21
58.3580795284
  0
LINE
  5
23B
100
AcDbEntity
  8
0
100
AcDbLine
 62
7
  6
BYLAYER
 10
32.0001298957
 20
60.6991689732
 11
31.839681703
 21
60.6465917102
  0
LINE
  5
23C
100
AcDbEntity
  8
0
100
AcDbLine
 62
7
  6
BYLAYER
 10
32.5036917766
 20
60.108029751
 11
28.2175263255
 21
57.6334257454
  0
LINE
  5
23D
100
AcDbEntity
  8
0
100
AcDbLine
 62
7
  6
BYLAYER
 10
24.3652880532
 20
55.1525925954
 11
24.6632131194
 21
55.3245986859
  0
LINE
  5
23E
100
AcDbEntity
  8
0
100
AcDbLine
 62
7
  6
BYLAYER
 10
14.61894633
 20
38.6420050188
 11
17.3747988146
 21
37.0509488394
  0
LINE
  5
23F
100
AcDbEntity
  8
0
100
AcDbLine
 62
7
  6
BYLAYER
 10
16.5502219977
 20
37.563347196
 11
15.4059680262
 21
38.2239675892
  0
LINE
  5
240
100
AcDbEntity
  8
0
100
AcDbLine
 62
7
  6
BYLAYER
 10
7.8603472317
 20
43.6710403224
 11
7.5157178449
 21
43.8700077654
  0
LINE
  5
241
100
AcDbEntity
  8
0
100
AcDbLine
 62
7
  6
BYLAYER
 10
26.8772582009
 20
32.6918701123
 11
26.5326286804
 21
32.8908374824
  0
LINE
  5
242
100
AcDbEntity
  8
0
100
AcDbLine
 62
7
  6
BYLAYER
 10
26.1601911618
 20
33.1058594384
 11
26.1545618994
 21
33.1091094199
  0
LINE
  5
243
100
AcDbEntity
  8
0
100
AcDbLine
 62
7
  6
BYLAYER
 10
26.0438155437
 20
32.9825908718
 11
25.9825107701
 21
33.0201170413
  0
LINE
  5
244
100
AcDbEntity
  8
0
100
AcDbLine
 62
7
  6
BYLAYER
 10
26.0438155437
 20
32.9825908718
 11
25.9825237507
 21
33.0205269917
  0
LINE
  5
245
100
AcDbEntity
  8
0
100
AcDbLine
 62
7
  6
BYLAYER
 10
7.8603472317
 20
43.6710403224
 11
7.8674181968
 21
43.6749004181
  0
LINE
  5
246
100
AcDbEntity
  8
0
100
AcDbLine
 62
7
  6
BYLAYER
 10
26.1801066132
 20
51.7169065861
 11
26.5078592543
 21
51.9061335322
  0
LINE
  5
247
100
AcDbEntity
  8
0
100
AcDbLine
 62
7
  6
BYLAYER
 10
30.4421398349
 20
53.2056360161
 11
34.7692931971
 21
55.703904262
  0
LINE
  5
248
100
AcDbEntity
  8
0
100
AcDbLine
 62
7
  6
BYLAYER
 10
15.4059680262
 20
43.6141515253
 11
16.5502219977
 21
42.9535311321
  0
LINE
  5
249
100
AcDbEntity
  8
0
100
AcDbLine
 62
7
  6
BYLAYER
 10
17.876931237
 20
42.303911769
 11
14.1542554692
 21
44.4531510033
  0
LINE
  5
24A
100
AcDbEntity
  8
0
100
AcDbLine
 62
7
  6
BYLAYER
 10
25.9581567979
 20
39.0179772251
 11
25.1495053123
 21
39.4848418161
  0
LINE
  5
24B
100
AcDbEntity
  8
0
100
AcDbLine
 62
7
  6
BYLAYER
 10
8.8606842677
 20
48.8889842808
 11
8.052032767
 21
49.3558488806
  0
LINE
  5
24C
100
AcDbEntity
  8
0
100
AcDbLine
 62
7
  6
BYLAYER
 10
7.5157178449
 20
49.8925590436
 11
7.8603472317
 21
49.6935915964
  0
LINE
  5
24D
100
AcDbEntity
  8
0
100
AcDbLine
 62
7
  6
BYLAYER
 10
26.5326286804
 20
38.9133887564
 11
26.8772582009
 21
38.7144213905
  0
LINE
  5
24E
100
AcDbEntity
  8
0
100
AcDbLine
 62
7
  6
BYLAYER
 10
26.984078186
 20
38.6611394012
 11
26.5396996455
 21
38.9176956671
  0
LINE
  5
24F
100
AcDbEntity
  8
0
100
AcDbLine
 62
7
  6
BYLAYER
 10
26.1650497253
 20
39.133995006
 11
25.4993618419
 21
39.5183213901
  0
LINE
  5
250
100
AcDbEntity
  8
0
100
AcDbLine
 62
7
  6
BYLAYER
 10
8.9077558852
 20
49.0972728506
 11
8.2423845517
 21
49.4814164786
  0
LINE
  5
251
100
AcDbEntity
  8
0
100
AcDbLine
 62
7
  6
BYLAYER
 10
7.8674181968
 20
49.6978985071
 11
7.4230396563
 21
49.954454773
  0
LINE
  5
252
100
AcDbEntity
  8
0
100
AcDbLine
 62
7
  6
BYLAYER
 10
8.3633024201
 20
49.6099432215
 11
8.9876377219
 21
49.2277721243
  0
LINE
  5
253
100
AcDbEntity
  8
0
100
AcDbLine
 62
7
  6
BYLAYER
 10
8.3633024201
 20
49.6099432215
 11
8.9875381497
 21
49.224407779
  0
LINE
  5
254
100
AcDbEntity
  8
0
100
AcDbLine
 62
7
  6
BYLAYER
 10
25.8280605736
 20
38.989484222
 11
25.8280605736
 21
33.0145117389
  0
LINE
  5
255
100
AcDbEntity
  8
0
100
AcDbLine
 62
7
  6
BYLAYER
 10
25.9508999124
 20
33.0052268747
 11
25.9508999124
 21
39.0123068587
  0
LINE
  5
256
100
AcDbEntity
  8
0
100
AcDbLine
 62
7
  6
BYLAYER
 10
26.1767812879
 20
39.0640974473
 11
26.1767812879
 21
33.1509567455
  0
LINE
  5
257
100
AcDbEntity
  8
0
100
AcDbLine
 62
7
  6
BYLAYER
 10
26.1801066132
 20
51.7169065861
 11
26.1801065083
 21
39.4868082772
  0
LINE
  5
258
100
AcDbEntity
  8
0
100
AcDbLine
 62
7
  6
BYLAYER
 10
26.1801065083
 20
32.7407359961
 11
26.1801066132
 21
20.5106378083
  0
LINE
  5
259
100
AcDbEntity
  8
0
100
AcDbLine
 62
7
  6
BYLAYER
 10
26.5326286804
 20
32.8908374824
 11
26.5326286804
 21
38.9133887564
  0
LINE
  5
25A
100
AcDbEntity
  8
0
100
AcDbLine
 62
7
  6
BYLAYER
 10
26.5396997539
 20
20.2616808022
 11
26.5396996455
 21
32.8946975781
  0
LINE
  5
25B
100
AcDbEntity
  8
0
100
AcDbLine
 62
7
  6
BYLAYER
 10
26.5396996455
 20
38.9176956671
 11
26.5396997539
 21
51.5506505934
  0
LINE
  5
25C
100
AcDbEntity
  8
0
100
AcDbLine
 62
7
  6
BYLAYER
 10
26.8772580171
 20
38.7144214966
 11
26.8772580171
 21
32.6918702184
  0
LINE
  5
25D
100
AcDbEntity
  8
0
100
AcDbLine
 62
7
  6
BYLAYER
 10
26.9840786777
 20
32.6381410283
 11
26.984078806
 21
17.6853906497
  0
LINE
  5
25E
100
AcDbEntity
  8
0
100
AcDbLine
 62
7
  6
BYLAYER
 10
26.984078806
 20
53.6138276893
 11
26.9840786777
 21
38.6611391173
  0
LINE
  5
25F
100
AcDbEntity
  8
0
100
AcDbLine
 62
7
  6
BYLAYER
 10
26.1549393261
 20
39.1360741305
 11
26.1545618994
 21
33.1091094199
  0
LINE
  5
260
100
AcDbEntity
  8
0
100
AcDbLine
 62
7
  6
BYLAYER
 10
26.0438155437
 20
39.4023250882
 11
26.1384632659
 21
39.3956269284
  0
LINE
  5
261
100
AcDbEntity
  8
0
100
AcDbLine
 62
7
  6
BYLAYER
 10
26.1122232869
 20
39.1911896255
 11
25.9067234982
 21
39.3006691983
  0
LINE
  5
262
100
AcDbEntity
  8
0
100
AcDbLine
 62
7
  6
BYLAYER
 10
25.574639964
 20
39.6541296959
 11
26.0438155437
 21
39.4023250882
  0
LINE
  5
263
100
AcDbEntity
  8
0
100
AcDbLine
 62
7
  6
BYLAYER
 10
25.5745586189
 20
39.6569202733
 11
26.0438155437
 21
39.4023250882
  0
LINE
  5
264
100
AcDbEntity
  8
0
100
AcDbLine
 62
7
  6
BYLAYER
 10
28.2852738356
 20
19.4657943073
 11
28.2852738356
 21
51.9333510749
  0
LINE
  5
265
100
AcDbEntity
  8
0
100
AcDbLine
 62
7
  6
BYLAYER
 10
26.1384632659
 20
39.3956269284
 11
26.1801065083
 21
39.487652513
  0
LINE
  5
266
100
AcDbEntity
  8
0
100
AcDbLine
 62
7
  6
BYLAYER
 10
30.4741189236
 20
53.0133969722
 11
30.4741189236
 21
20.8694620724
  0
LINE
  5
267
100
AcDbEntity
  8
0
100
AcDbLine
 62
7
  6
BYLAYER
 10
31.902497284
 20
60.6671757459
 11
31.9024911769
 21
60.5956485172
  0
LINE
  5
268
100
AcDbEntity
  8
0
100
AcDbLine
 62
7
  6
BYLAYER
 10
8.2270114419
 20
31.2494935972
 11
7.8674183052
 21
31.0418836422
  0
LWPOLYLINE
  5
269
100
AcDbEntity
  8
0
100
AcDbPolyline
 62
7
  6
BYLAYER
 90
3
 70
0
 10
38.6189434188
 20
64.3131120781
 10
38.3017419089
 20
63.2491545477
 10
38.2256934123
 20
62.0636109066
  0
LINE
  5
26A
100
AcDbEntity
  8
0
100
AcDbLine
 62
7
  6
BYLAYER
 10
25.9529195469
 20
39.0138849554
 11
25.9581567979
 21
39.0179772251
  0
LINE
  5
26B
100
AcDbEntity
  8
0
100
AcDbLine
 62
7
  6
BYLAYER
 10
26.5326286804
 20
38.9133887564
 11
26.5396996455
 21
38.9176956671
  0
LINE
  5
26C
100
AcDbEntity
  8
0
100
AcDbLine
 62
7
  6
BYLAYER
 10
26.5396996521
 20
39.6944182363
 11
26.1801065083
 21
39.4868082772
  0
LINE
  5
26D
100
AcDbEntity
  8
0
100
AcDbLine
 62
7
  6
BYLAYER
 10
26.5396996515
 20
39.6272714467
 11
26.1384667401
 21
39.3956209
  0
LINE
  5
26E
100
AcDbEntity
  8
0
100
AcDbLine
 62
7
  6
BYLAYER
 10
26.1103939915
 20
39.1921641785
 11
26.5396996499
 21
39.4400224365
  0
LINE
  5
26F
100
AcDbEntity
  8
0
100
AcDbLine
 62
7
  6
BYLAYER
 10
26.1767812879
 20
39.0640974473
 11
26.5396996485
 21
39.2736272098
  0
LINE
  5
270
100
AcDbEntity
  8
0
100
AcDbLine
 62
7
  6
BYLAYER
 10
30.4741189236
 20
41.4722075343
 11
35.0155865757
 21
44.0942094545
  0
LINE
  5
271
100
AcDbEntity
  8
0
100
AcDbLine
 62
7
  6
BYLAYER
 10
25.9581567979
 20
39.0179772251
 11
26.1563592718
 21
39.1306229997
  0
LINE
  5
272
100
AcDbEntity
  8
0
100
AcDbLine
 62
7
  6
BYLAYER
 10
26.1650497253
 20
39.133995006
 11
26.1563592718
 21
39.1306229997
  0
LINE
  5
273
100
AcDbEntity
  8
0
100
AcDbLine
 62
7
  6
BYLAYER
 10
34.7692931971
 20
55.703904262
 11
35.0155865757
 21
44.0942094545
  0
LINE
  5
274
100
AcDbEntity
  8
0
100
AcDbLine
 62
7
  6
BYLAYER
 10
35.0155865757
 20
36.2694066486
 11
35.0155865757
 21
44.0942094545
  0
LINE
  5
275
100
AcDbEntity
  8
0
100
AcDbLine
 62
7
  6
BYLAYER
 10
35.0155865757
 20
36.2694066486
 11
34.7692932617
 21
24.9441009419
  0
LINE
  5
276
100
AcDbEntity
  8
0
100
AcDbLine
 62
7
  6
BYLAYER
 10
9.9555107071
 20
27.0855577468
 11
10.2922739644
 21
27.2799869435
  0
LWPOLYLINE
  5
277
100
AcDbEntity
  8
0
100
AcDbPolyline
 62
7
  6
BYLAYER
 90
4
 70
0
 10
46.0350501663
 20
45.7369697671
 10
45.408852751
 20
45.4523830571
 10
43.4810430529
 20
45.2804381017
 10
42.5300192591
 20
45.5786192717
  0
LWPOLYLINE
  5
278
100
AcDbEntity
  8
0
100
AcDbPolyline
 62
7
  6
BYLAYER
 90
3
 70
0
 10
40.501074625
 20
43.8807691948
 10
39.2176712878
 20
42.3536966679
 10
39.0117846266
 20
42.2249787742
  0
LINE
  5
279
100
AcDbEntity
  8
0
100
AcDbLine
 62
7
  6
BYLAYER
 10
42.8137792422
 20
45.8777601461
 11
41.6009131246
 21
44.5991519826
  0
LINE
  5
27A
100
AcDbEntity
  8
0
100
AcDbLine
 62
7
  6
BYLAYER
 10
41.4052664674
 20
44.4088973397
 11
41.6009131246
 21
44.5991519826
  0
LINE
  5
27B
100
AcDbEntity
  8
0
100
AcDbLine
 62
7
  6
BYLAYER
 10
41.4052664674
 20
44.4088973397
 11
40.7500289676
 21
43.8218887945
  0
LINE
  5
27C
100
AcDbEntity
  8
0
100
AcDbLine
 62
7
  6
BYLAYER
 10
26.163939681
 20
33.1077707523
 11
26.1670947101
 21
33.1098162712
  0
LINE
  5
27D
100
AcDbEntity
  8
0
100
AcDbLine
 62
7
  6
BYLAYER
 10
35.0155865757
 20
39.9175270513
 11
39.0118969075
 21
42.2247841246
  0
LINE
  5
27E
100
AcDbEntity
  8
0
100
AcDbLine
 62
7
  6
BYLAYER
 10
26.5326286804
 20
33.356404107
 11
26.1767812879
 21
33.1509567455
  0
LINE
  5
27F
100
AcDbEntity
  8
0
100
AcDbLine
 62
7
  6
BYLAYER
 10
26.5326286804
 20
33.2648055833
 11
26.0438155442
 21
32.9825908721
  0
LINE
  5
280
100
AcDbEntity
  8
0
100
AcDbLine
 62
7
  6
BYLAYER
 10
26.1801065083
 20
32.7407359961
 11
26.5326286804
 21
32.9442635522
  0
LINE
  5
281
100
AcDbEntity
  8
0
100
AcDbLine
 62
7
  6
BYLAYER
 10
26.1601911618
 20
33.1058594384
 11
26.5326286804
 21
33.3206023682
  0
LINE
  5
282
100
AcDbEntity
  8
0
100
AcDbLine
 62
7
  6
BYLAYER
 10
26.1545618994
 20
33.1091094199
 11
25.9581567979
 21
33.0075201004
  0
LINE
  5
283
100
AcDbEntity
  8
0
100
AcDbLine
 62
7
  6
BYLAYER
 10
8.8861321113
 20
65.4416750462
 11
25.5209860169
 21
55.8377549356
  0
LINE
  5
284
100
AcDbEntity
  8
0
100
AcDbLine
 62
7
  6
BYLAYER
 10
30.4741189236
 20
33.6474047284
 11
35.0155865757
 21
36.2694066486
  0
LINE
  5
285
100
AcDbEntity
  8
0
100
AcDbLine
 62
7
  6
BYLAYER
 10
48.8321878332
 20
42.5251478421
 11
52.862679444
 21
44.8521393683
  0
LINE
  5
286
100
AcDbEntity
  8
0
100
AcDbLine
 62
7
  6
BYLAYER
 10
47.0306301539
 20
43.9204835053
 11
47.742166422
 21
44.3209857751
  0
LINE
  5
287
100
AcDbEntity
  8
0
100
AcDbLine
 62
7
  6
BYLAYER
 10
25.9581567979
 20
33.0075201004
 11
25.9529198457
 21
33.0058651875
  0
LINE
  5
288
100
AcDbEntity
  8
0
100
AcDbLine
 62
7
  6
BYLAYER
 10
20.0843448499
 20
60.6023582365
 11
15.7246398259
 21
63.1193781631
  0
LINE
  5
289
100
AcDbEntity
  8
0
100
AcDbLine
 62
7
  6
BYLAYER
 10
52.891861891
 20
44.8691216255
 11
52.8627431659
 21
44.8521761586
  0
LWPOLYLINE
  5
28A
100
AcDbEntity
  8
0
100
AcDbPolyline
 62
7
  6
BYLAYER
 90
3
 70
0
 10
45.7013097032
 20
49.1189225914
 10
46.7662508845
 20
48.5921325866
 10
47.9055551917
 20
48.3208873317
  0
LINE
  5
28B
100
AcDbEntity
  8
0
100
AcDbLine
 62
7
  6
BYLAYER
 10
18.4494489311
 20
64.0654329167
 11
21.6852102334
 21
62.1973075205
  0
LWPOLYLINE
  5
28C
100
AcDbEntity
  8
0
100
AcDbPolyline
 62
7
  6
BYLAYER
 90
8
 70
0
 10
33.9619197124
 20
59.2183275068
 10
35.1357479586
 20
58.4284810603
 10
37.3614052696
 20
56.2615092707
 10
39.2180573913
 20
53.5202207161
 10
40.5076989724
 20
50.4906424277
 10
41.0804933619
 20
47.5263972825
 10
41.0783894537
 20
46.1690935038
 10
40.501074625
 20
43.8807691948
  0
LINE
  5
28D
100
AcDbEntity
  8
0
100
AcDbLine
 62
7
  6
BYLAYER
 10
28.333399966
 20
63.4904491108
 11
32.5036917766
 21
60.108029751
  0
LINE
  5
28E
100
AcDbEntity
  8
0
100
AcDbLine
 62
7
  6
BYLAYER
 10
32.2627189624
 20
60.7734752695
 11
32.0001298957
 21
60.6991689732
  0
LINE
  5
28F
100
AcDbEntity
  8
0
100
AcDbLine
 62
7
  6
BYLAYER
 10
33.9764612973
 20
61.1845351979
 11
32.2627189624
 21
60.7734752695
  0
LINE
  5
290
100
AcDbEntity
  8
0
100
AcDbLine
 62
7
  6
BYLAYER
 10
26.5978650698
 20
17.3795311922
 11
26.984078806
 21
17.6853906497
  0
LINE
  5
291
100
AcDbEntity
  8
0
100
AcDbLine
 62
7
  6
BYLAYER
 10
26.5396997499
 20
20.7182477633
 11
26.1801066132
 21
20.5106378083
  0
LINE
  5
292
100
AcDbEntity
  8
0
100
AcDbLine
 62
7
  6
BYLAYER
 10
34.7692932617
 20
24.9441009419
 11
30.4741189236
 21
22.464295684
  0
LINE
  5
293
100
AcDbEntity
  8
0
100
AcDbLine
 62
7
  6
BYLAYER
 10
24.4468029389
 20
18.7112886551
 11
25.0943188192
 21
19.0851298914
  0
LINE
  5
294
100
AcDbEntity
  8
0
100
AcDbLine
 62
7
  6
BYLAYER
 10
25.5649119676
 20
19.1657423986
 11
26.4885528503
 21
19.6990035277
  0
LINE
  5
295
100
AcDbEntity
  8
0
100
AcDbLine
 62
7
  6
BYLAYER
 10
33.9423054766
 20
23.2170390258
 11
30.4741189236
 21
21.2146925382
  0
LINE
  5
296
100
AcDbEntity
  8
0
100
AcDbLine
 62
7
  6
BYLAYER
 10
17.7991206291
 20
68.5975258033
 11
21.9694124397
 21
67.1646159015
  0
LINE
  5
297
100
AcDbEntity
  8
0
100
AcDbLine
 62
7
  6
BYLAYER
 10
29.4616381125
 20
19.0329156535
 11
26.5978675864
 21
17.3795268387
  0
ARC
  5
298
100
AcDbEntity
  8
0
100
AcDbCircle
 62
7
  6
BYLAYER
 10
185.1623062913
 20
335.1218564059
 40
335.8197434057
100
AcDbArc
 50
238.3579329821
 51
239.9903707205
  0
ARC
  5
299
100
AcDbEntity
  8
0
100
AcDbCircle
 62
7
  6
BYLAYER
 10
178.3427100653
 20
322.6683698725
 40
321.7908463953
100
AcDbArc
 50
238.0998555864
 51
238.2281938808
  0
ARC
  5
29A
100
AcDbEntity
  8
0
100
AcDbCircle
 62
7
  6
BYLAYER
 10
176.8380830576
 20
320.7816761695
 40
319.2386671485
100
AcDbArc
 50
239.9968519709
 51
241.717089549
  0
ARC
  5
29B
100
AcDbEntity
  8
0
100
AcDbCircle
 62
7
  6
BYLAYER
 10
-59.9825880997
 20
159.5169785778
 40
165.5462161035
100
AcDbArc
 50
302.2213572352
 51
303.1213184246
  0
ARC
  5
29C
100
AcDbEntity
  8
0
100
AcDbCircle
 62
7
  6
BYLAYER
 10
37.064348586
 20
78.1725829064
 40
45.3842017986
100
AcDbArc
 50
230.2329212902
 51
230.6286860345
  0
ARC
  5
29D
100
AcDbEntity
  8
0
100
AcDbCircle
 62
7
  6
BYLAYER
 10
33.4858609417
 20
61.6288201838
 40
42.7945643333
100
AcDbArc
 50
236.5593053268
 51
240.0298301391
  0
ARC
  5
29E
100
AcDbEntity
  8
0
100
AcDbCircle
 62
7
  6
BYLAYER
 10
37.4445397554
 20
43.9163173827
 40
29.434305005
100
AcDbArc
 50
239.968593962
 51
244.1502089905
  0
ARC
  5
29F
100
AcDbEntity
  8
0
100
AcDbCircle
 62
7
  6
BYLAYER
 10
48.8690071298
 20
56.0686020238
 40
14.8022567181
100
AcDbArc
 50
236.5110850195
 51
239.9523522176
  0
ARC
  5
2A0
100
AcDbEntity
  8
0
100
AcDbCircle
 62
7
  6
BYLAYER
 10
46.1596623071
 20
53.872379607
 40
10.7607867134
100
AcDbArc
 50
243.3082831135
 51
243.5797259872
  0
ARC
  5
2A1
100
AcDbEntity
  8
0
100
AcDbCircle
 62
7
  6
BYLAYER
 10
42.5674155743
 20
60.0852674915
 40
10.7552507625
100
AcDbArc
 50
176.4822875796
 51
176.6479438341
  0
ARC
  5
2A2
100
AcDbEntity
  8
0
100
AcDbCircle
 62
7
  6
BYLAYER
 10
24.7051661986
 20
42.7760520147
 40
10.3169526954
100
AcDbArc
 50
0.0007567005
 51
0.5328042095
  0
ARC
  5
2A3
100
AcDbEntity
  8
0
100
AcDbCircle
 62
7
  6
BYLAYER
 10
24.8287877413
 20
42.7761616084
 40
10.1933311519
100
AcDbArc
 50
359.7401758286
 51
0.0001498612
  0
ARC
  5
2A4
100
AcDbEntity
  8
0
100
AcDbCircle
 62
7
  6
BYLAYER
 10
11.5885142392
 20
44.2527206815
 40
6.2064177258
100
AcDbArc
 50
122.7582325179
 51
123.0693832214
  0
ARC
  5
2A5
100
AcDbEntity
  8
0
100
AcDbCircle
 62
7
  6
BYLAYER
 10
38.5740047976
 20
46.2459508316
 40
3.2574589607
100
AcDbArc
 50
300.0286294191
 51
311.9136298823
  0
ARC
  5
2A6
100
AcDbEntity
  8
0
100
AcDbCircle
 62
7
  6
BYLAYER
 10
23.337289918
 20
20.2371344865
 40
3.2025039076
100
AcDbArc
 50
0.0004860409
 51
0.4391607651
  0
ARC
  5
2A7
100
AcDbEntity
  8
0
100
AcDbCircle
 62
7
  6
BYLAYER
 10
10.914575662
 20
30.965469141
 40
3.0481153412
100
AcDbArc
 50
178.5634772127
 51
180.0025988082
  0
SPLINE
  5
2A8
100
AcDbEntity
  8
0
100
AcDbSpline
 62
7
  6
BYLAYER
 70
0
 71
3
 72
30
 73
26
 74
0
 42
0.0000001
 43
0.0000001
 44
0.0000000001
 40
0.0
 40
0.0
 40
0.0
 40
0.0
 40
0.0213279503
 40
0.04288416
 40
0.0648852422
 40
0.0875254085
 40
0.1109703019
 40
0.1353521669
 40
0.1607702417
 40
0.1872902835
 40
0.2149487317
 40
0.2437535006
 40
0.2736893417
 40
0.3047182892
 40
0.3697925405
 40
0.438375612
 40
0.5096473435
 40
0.5826565382
 40
0.6563729173
 40
0.7297350066
 40
0.8016967717
 40
0.8712753817
 40
0.9376014282
 40
0.9693385243
 40
1.0
 40
1.0
 40
1.0
 40
1.0
 10
35.4651462301
 20
64.0446896432
 30
0.0
 10
35.5950108643
 20
64.1196585533
 30
0.0
 10
35.8660954128
 20
64.2538313001
 30
0.0
 10
36.2983211963
 20
64.4032366707
 30
0.0
 10
36.7546016488
 20
64.5005598792
 30
0.0
 10
37.2322143159
 20
64.5453575368
 30
0.0
 10
37.7285008165
 20
64.5375323209
 30
0.0
 10
38.2407463604
 20
64.4773071363
 30
0.0
 10
38.7661976267
 20
64.3651019105
 30
0.0
 10
39.3020734023
 20
64.2016553234
 30
0.0
 10
39.8455206202
 20
63.9878718142
 30
0.0
 10
40.3936754478
 20
63.7249865672
 30
0.0
 10
40.9436190601
 20
63.4143928559
 30
0.0
 10
41.6870753074
 20
62.9313173753
 30
0.0
 10
42.6007727485
 20
62.2159599078
 30
0.0
 10
43.6401140533
 20
61.2149891258
 30
0.0
 10
44.6177329068
 20
60.0791099545
 30
0.0
 10
45.5127650349
 20
58.832591024
 30
0.0
 10
46.3061797337
 20
57.5019583419
 30
0.0
 10
46.981039806
 20
56.1156205545
 30
0.0
 10
47.5229685518
 20
54.7030832769
 30
0.0
 10
47.9203723197
 20
53.2945385207
 30
0.0
 10
48.1271677572
 20
52.1317143878
 30
0.0
 10
48.2100150901
 20
51.2300769897
 30
0.0
 10
48.2242666155
 20
50.7912644643
 30
0.0
 10
48.2242666155
 20
50.5756926734
 30
0.0
  0
SPLINE
  5
2A9
100
AcDbEntity
  8
0
100
AcDbSpline
 62
7
  6
BYLAYER
 70
0
 71
3
 72
16
 73
12
 74
0
 42
0.0000001
 43
0.0000001
 44
0.0000000001
 40
0.0
 40
0.0
 40
0.0
 40
0.0
 40
0.109980498
 40
0.2217820933
 40
0.3369669668
 40
0.4568641838
 40
0.5189466545
 40
0.5825717173
 40
0.7147167163
 40
0.8537992959
 40
1.0
 40
1.0
 40
1.0
 40
1.0
 10
34.3898681069
 20
65.8150564294
 30
0.0
 10
34.2034852297
 20
65.7047183185
 30
0.0
 10
33.8443023904
 20
65.4526495865
 30
0.0
 10
33.3634702408
 20
64.9918872682
 30
0.0
 10
32.9422041593
 20
64.4512617404
 30
0.0
 10
32.6468365454
 20
63.9440388757
 30
0.0
 10
32.4424700578
 20
63.5053930665
 30
0.0
 10
32.2552154727
 20
63.0330856438
 30
0.0
 10
32.0644763969
 20
62.4003794635
 30
0.0
 10
31.9071268616
 20
61.5923259643
 30
0.0
 10
31.8500956557
 20
61.0325618817
 30
0.0
 10
31.8324290145
 20
60.7451784887
 30
0.0
  0
SPLINE
  5
2AA
100
AcDbEntity
  8
0
100
AcDbSpline
 62
7
  6
BYLAYER
 70
0
 71
3
 72
9
 73
5
 74
0
 42
0.0000001
 43
0.0000001
 44
0.0000000001
 40
0.0
 40
0.0
 40
0.0
 40
0.0
 40
0.48621267
 40
1.0
 40
1.0
 40
1.0
 40
1.0
 10
38.2256934123
 20
62.0636109066
 30
0.0
 10
38.2257581404
 20
61.682719147
 30
0.0
 10
38.2706214834
 20
60.8989654224
 30
0.0
 10
38.3919631771
 20
60.1237956309
 30
0.0
 10
38.4713809196
 20
59.7292152038
 30
0.0
  0
SPLINE
  5
2AB
100
AcDbEntity
  8
0
100
AcDbSpline
 62
7
  6
BYLAYER
 70
0
 71
3
 72
9
 73
5
 74
0
 42
0.0000001
 43
0.0000001
 44
0.0000000001
 40
0.0
 40
0.0
 40
0.0
 40
0.0
 40
0.5134055897
 40
1.0
 40
1.0
 40
1.0
 40
1.0
 10
43.864986002
 20
50.4435723359
 30
0.0
 10
44.157672776
 20
50.1889575192
 30
0.0
 10
44.7490333352
 20
49.7168022268
 30
0.0
 10
45.3828902678
 20
49.3027579793
 30
0.0
 10
45.7013097032
 20
49.1189225914
 30
0.0
  0
SPLINE
  5
2AC
100
AcDbEntity
  8
0
100
AcDbSpline
 62
7
  6
BYLAYER
 70
0
 71
3
 72
16
 73
12
 74
0
 42
0.0000001
 43
0.0000001
 44
0.0000000001
 40
0.0
 40
0.0
 40
0.0
 40
0.0
 40
0.1485742641
 40
0.2894771331
 40
0.4226789856
 40
0.5485876767
 40
0.6679344229
 40
0.7818608892
 40
0.8919003717
 40
0.9460792942
 40
1.0
 40
1.0
 40
1.0
 40
1.0
 10
41.4572208054
 20
43.255630962
 30
0.0
 10
41.7898953394
 20
43.0635655754
 30
0.0
 10
42.4539982122
 20
42.7159130367
 30
0.0
 10
43.4669880649
 20
42.3013088253
 30
0.0
 10
44.4619416846
 20
42.0112774066
 30
0.0
 10
45.429420414
 20
41.8489546067
 30
0.0
 10
46.360520737
 20
41.8166051709
 30
0.0
 10
47.2460061115
 20
41.9153088802
 30
0.0
 10
47.9425258824
 20
42.108024953
 30
0.0
 10
48.4632978461
 20
42.3259634035
 30
0.0
 10
48.7114458551
 20
42.4554561977
 30
0.0
 10
48.8321822178
 20
42.5251575865
 30
0.0
  0
SPLINE
  5
2AD
100
AcDbEntity
  8
0
100
AcDbSpline
 62
7
  6
BYLAYER
 70
0
 71
3
 72
16
 73
12
 74
0
 42
0.0000001
 43
0.0000001
 44
0.0000000001
 40
0.0
 40
0.0
 40
0.0
 40
0.0
 40
0.1461939042
 40
0.2852413742
 40
0.4173560159
 40
0.4809754579
 40
0.5430564466
 40
0.6629584747
 40
0.7781594993
 40
0.8899877135
 40
1.0
 40
1.0
 40
1.0
 40
1.0
 10
41.3716276892
 20
44.2355100329
 30
0.0
 10
41.6289649779
 20
44.1076541968
 30
0.0
 10
42.1414060191
 20
43.8781732428
 30
0.0
 10
42.9184950004
 20
43.6117897284
 30
0.0
 10
43.5605581301
 20
43.4615951158
 30
0.0
 10
44.0622244964
 20
43.3882128318
 30
0.0
 10
44.5433733454
 20
43.3463613352
 30
0.0
 10
45.1292099495
 20
43.3489830424
 30
0.0
 10
45.8067408911
 20
43.4437279367
 30
0.0
 10
46.4450029392
 20
43.6296715779
 30
0.0
 10
46.8421890933
 20
43.8144328559
 30
0.0
 10
47.0306216061
 20
43.9204984249
 30
0.0
  0
SPLINE
  5
2AE
100
AcDbEntity
  8
0
100
AcDbSpline
 62
7
  6
BYLAYER
 70
0
 71
3
 72
15
 73
11
 74
0
 42
0.0000001
 43
0.0000001
 44
0.0000000001
 40
0.0
 40
0.0
 40
0.0
 40
0.0
 40
0.1485793697
 40
0.2895084219
 40
0.4227235866
 40
0.5486404359
 40
0.6680006567
 40
0.7819380236
 40
0.8919867667
 40
1.0
 40
1.0
 40
1.0
 40
1.0
 10
48.2242666155
 20
50.5756926734
 30
0.0
 10
48.2242666155
 20
50.3004259067
 30
0.0
 10
48.2020597665
 20
49.763696781
 30
0.0
 10
48.0964274883
 20
48.9864474435
 30
0.0
 10
47.9199334144
 20
48.2650175261
 30
0.0
 10
47.673975699
 20
47.6064286001
 30
0.0
 10
47.3604833951
 20
47.0169885886
 30
0.0
 10
46.9818516237
 20
46.5027318009
 30
0.0
 10
46.5415746253
 20
46.0694755947
 30
0.0
 10
46.2083940245
 20
45.8369525686
 30
0.0
 10
46.0350874114
 20
45.7369052541
 30
0.0
  0
SPLINE
  5
2AF
100
AcDbEntity
  8
0
100
AcDbSpline
 62
7
  6
BYLAYER
 70
0
 71
3
 72
15
 73
11
 74
0
 42
0.0000001
 43
0.0000001
 44
0.0000000001
 40
0.0
 40
0.0
 40
0.0
 40
0.0
 40
0.1101329077
 40
0.2220185057
 40
0.3372260928
 40
0.4571071073
 40
0.5827327148
 40
0.7148518871
 40
0.8538967814
 40
1.0
 40
1.0
 40
1.0
 40
1.0
 10
38.1391958177
 20
70.4150789985
 30
0.0
 10
38.3862813184
 20
70.5557148655
 30
0.0
 10
38.909212933
 20
70.7978173156
 30
0.0
 10
39.7517551592
 20
71.0305102588
 30
0.0
 10
40.6450130549
 20
71.1328329466
 30
0.0
 10
41.5786635095
 20
71.1055388264
 30
0.0
 10
42.5436410943
 20
70.9509757842
 30
0.0
 10
43.5314361979
 20
70.6722122235
 30
0.0
 10
44.533696936
 20
70.2729997906
 30
0.0
 10
45.1901785915
 20
69.93752777
 30
0.0
 10
45.5186810118
 20
69.7522240437
 30
0.0
  0
SPLINE
  5
2B0
100
AcDbEntity
  8
0
100
AcDbSpline
 62
7
  6
BYLAYER
 70
0
 71
3
 72
23
 73
19
 74
0
 42
0.0000001
 43
0.0000001
 44
0.0000000001
 40
0.0
 40
0.0
 40
0.0
 40
0.0
 40
0.0558382451
 40
0.1141164071
 40
0.1746199883
 40
0.2370716192
 40
0.3011446249
 40
0.3664735378
 40
0.4326635836
 40
0.4993013309
 40
0.5659639456
 40
0.6322276451
 40
0.6976770763
 40
0.7619162148
 40
0.8245746192
 40
0.8853162227
 40
0.9438752446
 40
1.0
 40
1.0
 40
1.0
 40
1.0
 10
45.5186810118
 20
69.7522240437
 30
0.0
 10
45.8702729073
 20
69.55389586
 30
0.0
 10
46.5712056437
 20
69.1167105283
 30
0.0
 10
47.5875778927
 20
68.3661175883
 30
0.0
 10
48.5834756295
 20
67.5131140531
 30
0.0
 10
49.5496646768
 20
66.5659173672
 30
0.0
 10
50.4771960309
 20
65.5335291817
 30
0.0
 10
51.3573314941
 20
64.4257842818
 30
0.0
 10
52.1817508951
 20
63.253271588
 30
0.0
 10
52.9426230859
 20
62.0272162059
 30
0.0
 10
53.6326743654
 20
60.7593426261
 30
0.0
 10
54.2452760518
 20
59.4617651099
 30
0.0
 10
54.7745794275
 20
58.1468745792
 30
0.0
 10
55.2154839668
 20
56.8271629626
 30
0.0
 10
55.5636874526
 20
55.5151410475
 30
0.0
 10
55.815850304
 20
54.2230137109
 30
0.0
 10
55.9692614134
 20
52.9630241217
 30
0.0
 10
56.0054523744
 20
52.1336332901
 30
0.0
 10
56.0054523744
 20
51.7278902105
 30
0.0
  0
SPLINE
  5
2B1
100
AcDbEntity
  8
0
100
AcDbSpline
 62
7
  6
BYLAYER
 70
0
 71
3
 72
15
 73
11
 74
0
 42
0.0000001
 43
0.0000001
 44
0.0000000001
 40
0.0
 40
0.0
 40
0.0
 40
0.0
 40
0.1464315986
 40
0.2857738057
 40
0.4180515984
 40
0.5437272727
 40
0.6635398474
 40
0.7785648045
 40
0.8901823955
 40
1.0
 40
1.0
 40
1.0
 40
1.0
 10
56.0054523744
 20
51.7278902105
 30
0.0
 10
56.0054523744
 20
51.3433078403
 30
0.0
 10
55.9743892378
 20
50.59224968
 30
0.0
 10
55.8264979124
 20
49.5025653803
 30
0.0
 10
55.5785556261
 20
48.4868131435
 30
0.0
 10
55.2316243253
 20
47.5546065681
 30
0.0
 10
54.7872025783
 20
46.715178899
 30
0.0
 10
54.2478502797
 20
45.9779821742
 30
0.0
 10
53.6182531092
 20
45.3526615557
 30
0.0
 10
53.1406838723
 20
45.0151027358
 30
0.0
 10
52.8919095497
 20
44.8691648117
 30
0.0
  0
SPLINE
  5
2B2
100
AcDbEntity
  8
0
100
AcDbSpline
 62
7
  6
BYLAYER
 70
0
 71
3
 72
17
 73
13
 74
0
 42
0.0000001
 43
0.0000001
 44
0.0000000001
 40
0.0
 40
0.0
 40
0.0
 40
0.0
 40
0.0538894252
 40
0.1080384534
 40
0.1626997889
 40
0.2181150638
 40
0.3320022089
 40
0.4513274268
 40
0.5772322855
 40
0.7104569593
 40
0.8513680094
 40
1.0
 40
1.0
 40
1.0
 40
1.0
 10
34.0822593931
 20
68.0729257889
 30
0.0
 10
33.9612541032
 20
68.0030691479
 30
0.0
 10
33.7245196932
 20
67.8525762792
 30
0.0
 10
33.3886593722
 20
67.5965566613
 30
0.0
 10
33.0724026159
 20
67.3106935957
 30
0.0
 10
32.6745047891
 20
66.8870130242
 30
0.0
 10
32.2293504648
 20
66.2814701439
 30
0.0
 10
31.7917006652
 20
65.4563620879
 30
0.0
 10
31.4486859185
 20
64.5343083091
 30
0.0
 10
31.2030768142
 20
63.5244052084
 30
0.0
 10
31.0567169573
 20
62.436342463
 30
0.0
 10
31.0268046699
 20
61.6850626361
 30
0.0
 10
31.0273823575
 20
61.2996970106
 30
0.0
  0
SPLINE
  5
2B3
100
AcDbEntity
  8
0
100
AcDbSpline
 62
7
  6
BYLAYER
 70
0
 71
3
 72
16
 73
12
 74
0
 42
0.0000001
 43
0.0000001
 44
0.0000000001
 40
0.0
 40
0.0
 40
0.0
 40
0.0
 40
0.1485742641
 40
0.2894771331
 40
0.4226789856
 40
0.5485876767
 40
0.6679344229
 40
0.7818608892
 40
0.8919003717
 40
0.9460792942
 40
1.0
 40
1.0
 40
1.0
 40
1.0
 10
41.4572208054
 20
67.3424524133
 30
0.0
 10
41.1245462715
 20
67.5345178
 30
0.0
 10
40.4604433987
 20
67.8821703387
 30
0.0
 10
39.447453546
 20
68.29677455
 30
0.0
 10
38.4524999262
 20
68.5868059687
 30
0.0
 10
37.4850211969
 20
68.7491287687
 30
0.0
 10
36.5539208739
 20
68.7814782044
 30
0.0
 10
35.6684354994
 20
68.6827744951
 30
0.0
 10
34.9719157285
 20
68.4900584223
 30
0.0
 10
34.4511437648
 20
68.2721199718
 30
0.0
 10
34.2029957558
 20
68.1426271776
 30
0.0
 10
34.0822593931
 20
68.0729257889
 30
0.0
  0
SPLINE
  5
2B4
100
AcDbEntity
  8
0
100
AcDbSpline
 62
7
  6
BYLAYER
 70
0
 71
3
 72
29
 73
25
 74
0
 42
0.0000001
 43
0.0000001
 44
0.0000000001
 40
0.0
 40
0.0
 40
0.0
 40
0.0
 40
0.0306918965
 40
0.0624608273
 40
0.0952178213
 40
0.1288827203
 40
0.1985431871
 40
0.2705874959
 40
0.3440267042
 40
0.4178072469
 40
0.4908611267
 40
0.5621525547
 40
0.6307266464
 40
0.6957616566
 40
0.7566291219
 40
0.7853916229
 40
0.8130027718
 40
0.8647926822
 40
0.8891268602
 40
0.9125286086
 40
0.9351345146
 40
0.9571128391
 40
0.9786616842
 40
1.0
 40
1.0
 40
1.0
 40
1.0
 10
41.4572208054
 20
65.6277972084
 30
0.0
 10
41.6812685444
 20
65.4984461123
 30
0.0
 10
42.1287552854
 20
65.2202945847
 30
0.0
 10
42.7844371576
 20
64.7567045083
 30
0.0
 10
43.4328877368
 20
64.2416867307
 30
0.0
 10
44.2927275721
 20
63.48180968
 30
0.0
 10
45.3251522143
 20
62.420389845
 30
0.0
 10
46.4669351427
 20
61.0085181998
 30
0.0
 10
47.5013122544
 20
59.4741159005
 30
0.0
 10
48.4060193115
 20
57.8501816405
 30
0.0
 10
49.1616812069
 20
56.1715097481
 30
0.0
 10
49.7520961339
 20
54.4740789969
 30
0.0
 10
50.1646284731
 20
52.7940443699
 30
0.0
 10
50.3903717131
 20
51.1672768363
 30
0.0
 10
50.4191559199
 20
49.8601393801
 30
0.0
 10
50.3395725271
 20
48.8742595936
 30
0.0
 10
50.2000178966
 20
47.9727851473
 30
0.0
 10
49.9655849614
 20
47.1249411152
 30
0.0
 10
49.6280844712
 20
46.355611132
 30
0.0
 10
49.335140291
 20
45.8387969751
 30
0.0
 10
48.9988029224
 20
45.37329963
 30
0.0
 10
48.6206336435
 20
44.9618799701
 30
0.0
 10
48.2029000886
 20
44.6069940093
 30
0.0
 10
47.8988969691
 20
44.4092268904
 30
0.0
 10
47.7421578293
 20
44.3210007751
 30
0.0
  0
SPLINE
  5
2B5
100
AcDbEntity
  8
0
100
AcDbSpline
 62
7
  6
BYLAYER
 70
0
 71
3
 72
32
 73
28
 74
0
 42
0.0000001
 43
0.0000001
 44
0.0000000001
 40
0.0
 40
0.0
 40
0.0
 40
0.0
 40
0.0213268615
 40
0.0428820947
 40
0.0648821204
 40
0.0875212454
 40
0.1109651617
 40
0.1353459678
 40
0.1607631024
 40
0.1872820451
 40
0.2149394229
 40
0.2437430231
 40
0.2736775927
 40
0.3047053282
 40
0.3367706083
 40
0.3698011032
 40
0.4383812255
 40
0.5096496656
 40
0.5826553734
 40
0.6563681531
 40
0.7297267183
 40
0.8016846957
 40
0.8712602135
 40
0.9048853001
 40
0.9376039107
 40
0.9693377397
 40
1.0
 40
1.0
 40
1.0
 40
1.0
 10
48.8321822178
 20
42.5251575865
 30
0.0
 10
49.0134022101
 20
42.6297763181
 30
0.0
 10
49.3646830003
 20
42.8637899128
 30
0.0
 10
49.8468331094
 20
43.2818761971
 30
0.0
 10
50.282802414
 20
43.7654005579
 30
0.0
 10
50.6702047639
 20
44.3113334593
 30
0.0
 10
51.0070091856
 20
44.9165726012
 30
0.0
 10
51.2916591781
 20
45.5776440229
 30
0.0
 10
51.5226674508
 20
46.2909580915
 30
0.0
 10
51.6990552397
 20
47.0526150298
 30
0.0
 10
51.8198675435
 20
47.8585480776
 30
0.0
 10
51.8846388809
 20
48.7044320828
 30
0.0
 10
51.8929929937
 20
49.585748942
 30
0.0
 10
51.8449814038
 20
50.4977771478
 30
0.0
 10
51.7408530974
 20
51.4356490299
 30
0.0
 10
51.5252651743
 20
52.729927151
 30
0.0
 10
51.1163739951
 20
54.379241523
 30
0.0
 10
50.4258123359
 20
56.3530999342
 30
0.0
 10
49.5438552189
 20
58.3045361684
 30
0.0
 10
48.4893726842
 20
60.191792566
 30
0.0
 10
47.2848092328
 20
61.9746884654
 30
0.0
 10
45.9559611172
 20
63.6150769251
 30
0.0
 10
44.7548699609
 20
64.8483064231
 30
0.0
 10
43.7547898904
 20
65.7312698958
 30
0.0
 10
43.0006416941
 20
66.3297845938
 30
0.0
 10
42.2381299763
 20
66.8686494102
 30
0.0
 10
41.7177622247
 20
67.1920321578
 30
0.0
 10
41.4572208054
 20
67.3424524133
 30
0.0
  0
SPLINE
  5
2B6
100
AcDbEntity
  8
0
100
AcDbSpline
 62
7
  6
BYLAYER
 70
0
 71
3
 72
16
 73
12
 74
0
 42
0.0000001
 43
0.0000001
 44
0.0000000001
 40
0.0
 40
0.0
 40
0.0
 40
0.0
 40
0.1487044966
 40
0.2896752869
 40
0.4228729071
 40
0.5487232974
 40
0.66798459
 40
0.7818304716
 40
0.8918372672
 40
0.9460333744
 40
1.0
 40
1.0
 40
1.0
 40
1.0
 10
40.7501168207
 20
65.2122689012
 30
0.0
 10
40.4627860215
 20
65.3781556626
 30
0.0
 10
39.8891968729
 20
65.6781834049
 30
0.0
 10
39.0142105663
 20
66.0351408996
 30
0.0
 10
38.1550319205
 20
66.2835699663
 30
0.0
 10
37.3199514913
 20
66.4207094484
 30
0.0
 10
36.5167788904
 20
66.444627134
 30
0.0
 10
35.753611876
 20
66.3543904322
 30
0.0
 10
35.1541520423
 20
66.1829666258
 30
0.0
 10
34.7065438032
 20
65.9904863686
 30
0.0
 10
34.4934799297
 20
65.8763943213
 30
0.0
 10
34.3898681069
 20
65.8150564294
 30
0.0
  0
SPLINE
  5
2B7
100
AcDbEntity
  8
0
100
AcDbSpline
 62
7
  6
BYLAYER
 70
0
 71
3
 72
14
 73
10
 74
0
 42
0.0000001
 43
0.0000001
 44
0.0000000001
 40
0.0
 40
0.0
 40
0.0
 40
0.0
 40
0.2743043795
 40
0.4039004538
 40
0.5290147252
 40
0.6503192902
 40
0.7686187395
 40
0.884841329
 40
1.0
 40
1.0
 40
1.0
 40
1.0
 10
33.4881700979
 20
61.1253020406
 30
0.0
 10
33.5655359696
 20
61.4475022078
 30
0.0
 10
33.7149156785
 20
61.9151658287
 30
0.0
 10
33.9908994133
 20
62.4923678842
 30
0.0
 10
34.2259279046
 20
62.8819859513
 30
0.0
 10
34.4916854252
 20
63.2344157688
 30
0.0
 10
34.7871090903
 20
63.5479017473
 30
0.0
 10
35.1106843066
 20
63.8208409312
 30
0.0
 10
35.344669032
 20
63.9751399595
 30
0.0
 10
35.4651462301
 20
64.0446896432
 30
0.0
  0
SPLINE
  5
2B8
100
AcDbEntity
  8
0
100
AcDbSpline
 62
7
  6
BYLAYER
 70
0
 71
3
 72
15
 73
11
 74
0
 42
0.0000001
 43
0.0000001
 44
0.0000000001
 40
0.0
 40
0.0
 40
0.0
 40
0.0
 40
0.1079811023
 40
0.2180506488
 40
0.3320344512
 40
0.4514412341
 40
0.5773943262
 40
0.710610613
 40
0.8514855353
 40
1.0
 40
1.0
 40
1.0
 40
1.0
 10
38.1392443025
 20
70.4151164295
 30
0.0
 10
38.3809126428
 20
70.5526457352
 30
0.0
 10
38.8936760466
 20
70.7891202947
 30
0.0
 10
39.7223379249
 20
71.0139336064
 30
0.0
 10
40.6051057778
 20
71.1090098246
 30
0.0
 10
41.5327032228
 20
71.0741430479
 30
0.0
 10
42.4962539106
 20
70.9105418813
 30
0.0
 10
43.4868967515
 20
70.620437954
 30
0.0
 10
44.4953545901
 20
70.2069300891
 30
0.0
 10
45.156509539
 20
69.860659684
 30
0.0
 10
45.4877124163
 20
69.6694439395
 30
0.0
  0
SPLINE
  5
2B9
100
AcDbEntity
  8
0
100
AcDbSpline
 62
7
  6
BYLAYER
 70
0
 71
3
 72
23
 73
19
 74
0
 42
0.0000001
 43
0.0000001
 44
0.0000000001
 40
0.0
 40
0.0
 40
0.0
 40
0.0
 40
0.0558339426
 40
0.1141811874
 40
0.1747818798
 40
0.237352496
 40
0.3015478654
 40
0.3669914657
 40
0.4332815105
 40
0.4999989206
 40
0.5667163684
 40
0.6330065257
 40
0.6984503109
 40
0.7626459341
 40
0.8252168676
 40
0.8858179336
 40
0.9441655997
 40
1.0
 40
1.0
 40
1.0
 40
1.0
 10
45.4877124163
 20
69.6694439395
 30
0.0
 10
45.8371257014
 20
69.467714649
 30
0.0
 10
46.5340185306
 20
69.0239814256
 30
0.0
 10
47.544812103
 20
68.2649118548
 30
0.0
 10
48.535827229
 20
67.4040077197
 30
0.0
 10
49.4975557597
 20
66.4496743337
 30
0.0
 10
50.4208750006
 20
65.4109043157
 30
0.0
 10
51.2969703968
 20
64.2976639359
 30
0.0
 10
52.1174804422
 20
63.1205945043
 30
0.0
 10
52.8745509158
 20
61.8909478741
 30
0.0
 10
53.5609273713
 20
60.6204848714
 30
0.0
 10
54.1700517959
 20
59.3213684194
 30
0.0
 10
54.6961068378
 20
58.0060263935
 30
0.0
 10
55.1340575256
 20
56.6870207365
 30
0.0
 10
55.4796800071
 20
55.3769682414
 30
0.0
 10
55.7297477011
 20
54.0882657511
 30
0.0
 10
55.8817353695
 20
52.8333502819
 30
0.0
 10
55.9175809254
 20
52.0079507819
 30
0.0
 10
55.9175809254
 20
51.6044820482
 30
0.0
  0
SPLINE
  5
2BA
100
AcDbEntity
  8
0
100
AcDbSpline
 62
7
  6
BYLAYER
 70
0
 71
3
 72
29
 73
25
 74
0
 42
0.0000001
 43
0.0000001
 44
0.0000000001
 40
0.0
 40
0.0
 40
0.0
 40
0.0
 40
0.0213383591
 40
0.0428872406
 40
0.0648655887
 40
0.0874715136
 40
0.1108732813
 40
0.1352074871
 40
0.1869974762
 40
0.2146086638
 40
0.243371189
 40
0.3042386209
 40
0.3692734983
 40
0.437847432
 40
0.5091387226
 40
0.5821924283
 40
0.655972728
 40
0.72941177
 40
0.801456142
 40
0.8711168155
 40
0.9047818348
 40
0.9375390052
 40
0.9693080729
 40
1.0
 40
1.0
 40
1.0
 40
1.0
 10
47.0306216061
 20
43.9204984249
 30
0.0
 10
47.1872506245
 20
44.0086623289
 30
0.0
 10
47.4910399509
 20
44.2062903564
 30
0.0
 10
47.9084792532
 20
44.560926983
 30
0.0
 10
48.2863821802
 20
44.9720570875
 30
0.0
 10
48.6224823649
 20
45.4372268063
 30
0.0
 10
48.9152198384
 20
45.9536771976
 30
0.0
 10
49.252482323
 20
46.7224657899
 30
0.0
 10
49.4867496074
 20
47.569713287
 30
0.0
 10
49.6262053072
 20
48.4705532811
 30
0.0
 10
49.7057319269
 20
49.4557381082
 30
0.0
 10
49.6769673136
 20
50.7619525206
 30
0.0
 10
49.4513831203
 20
52.3875700275
 30
0.0
 10
49.039142422
 20
54.0664163066
 30
0.0
 10
48.4491453266
 20
55.7626463041
 30
0.0
 10
47.6940187488
 20
57.4401303128
 30
0.0
 10
46.7899529244
 20
59.062915483
 30
0.0
 10
45.7563081186
 20
60.5962340872
 30
0.0
 10
44.6153308905
 20
62.007111559
 30
0.0
 10
43.583633113
 20
63.0677862947
 30
0.0
 10
42.7243967364
 20
63.8271305734
 30
0.0
 10
42.0764008917
 20
64.3417878074
 30
0.0
 10
41.4211789846
 20
64.8050525282
 30
0.0
 10
40.9740067802
 20
65.0830088971
 30
0.0
 10
40.7501168207
 20
65.2122689012
 30
0.0
  0
SPLINE
  5
2BB
100
AcDbEntity
  8
0
100
AcDbSpline
 62
7
  6
BYLAYER
 70
0
 71
3
 72
16
 73
12
 74
0
 42
0.0000001
 43
0.0000001
 44
0.0000000001
 40
0.0
 40
0.0
 40
0.0
 40
0.0
 40
0.0539663762
 40
0.1081622592
 40
0.2181686604
 40
0.3320143813
 40
0.4512757511
 40
0.5771262214
 40
0.7103241348
 40
0.8512954862
 40
1.0
 40
1.0
 40
1.0
 40
1.0
 10
35.0924836331
 20
66.2310099751
 30
0.0
 10
35.1961680213
 20
66.2923909921
 30
0.0
 10
35.4093811499
 20
66.4065634275
 30
0.0
 10
35.8573039528
 20
66.5991775964
 30
0.0
 10
36.457184384
 20
66.7707241242
 30
0.0
 10
37.2208890332
 20
66.8610245505
 30
0.0
 10
38.0246283236
 20
66.837090334
 30
0.0
 10
38.860299392
 20
66.699855896
 30
0.0
 10
39.7200864512
 20
66.4512510146
 30
0.0
 10
40.5956919607
 20
66.0940407834
 30
0.0
 10
41.1696872072
 20
65.7938010532
 30
0.0
 10
41.4572208054
 20
65.6277972084
 30
0.0
  0
SPLINE
  5
2BC
100
AcDbEntity
  8
0
100
AcDbSpline
 62
7
  6
BYLAYER
 70
0
 71
3
 72
15
 73
11
 74
0
 42
0.0000001
 43
0.0000001
 44
0.0000000001
 40
0.0
 40
0.0
 40
0.0
 40
0.0
 40
0.148506772
 40
0.2893782109
 40
0.4225948357
 40
0.548551291
 40
0.6679630617
 40
0.7819514521
 40
0.8920227109
 40
1.0
 40
1.0
 40
1.0
 40
1.0
 10
55.9175809254
 20
51.6044820482
 30
0.0
 10
55.9175809254
 20
51.2222125639
 30
0.0
 10
55.8869170302
 20
50.4768193514
 30
0.0
 10
55.7409414373
 20
49.397153426
 30
0.0
 10
55.4970917535
 20
48.3945376618
 30
0.0
 10
55.1573197334
 20
47.4785436346
 30
0.0
 10
54.724119191
 20
46.6579495846
 30
0.0
 10
54.2008754891
 20
45.941036062
 30
0.0
 10
53.5923955777
 20
45.3357233261
 30
0.0
 10
53.1316066673
 20
45.0097444265
 30
0.0
 10
52.8918618134
 20
44.8691217591
 30
0.0
  0
SPLINE
  5
2BD
100
AcDbEntity
  8
0
100
AcDbSpline
 62
7
  6
BYLAYER
 70
0
 71
3
 72
9
 73
5
 74
0
 42
0.0000001
 43
0.0000001
 44
0.0000000001
 40
0.0
 40
0.0
 40
0.0
 40
0.0
 40
0.4997306124
 40
1.0
 40
1.0
 40
1.0
 40
1.0
 10
18.3019686625
 20
36.5389476531
 30
0.0
 10
18.1457125257
 20
36.6208895016
 30
0.0
 10
17.8350764245
 20
36.788773287
 30
0.0
 10
17.5277628488
 20
36.9626366427
 30
0.0
 10
17.3747974208
 20
37.0509496442
 30
0.0
  0
SPLINE
  5
2BE
100
AcDbEntity
  8
0
100
AcDbSpline
 62
7
  6
BYLAYER
 70
0
 71
3
 72
14
 73
10
 74
0
 42
0.0000001
 43
0.0000001
 44
0.0000000001
 40
0.0
 40
0.0
 40
0.0
 40
0.0
 40
0.1083237891
 40
0.2186427327
 40
0.3327799799
 40
0.4522225437
 40
0.5781191069
 40
0.7112646335
 40
1.0
 40
1.0
 40
1.0
 40
1.0
 10
8.8433868425
 20
63.4216477909
 30
0.0
 10
8.7951761014
 20
63.3938079658
 30
0.0
 10
8.7024468242
 20
63.3292437553
 30
0.0
 10
8.5796712737
 20
63.2091537275
 30
0.0
 10
8.47383205
 20
63.0667541413
 30
0.0
 10
8.3858047276
 20
62.9036725603
 30
0.0
 10
8.3163415818
 20
62.7214308704
 30
0.0
 10
8.2473134254
 20
62.4480114828
 30
0.0
 10
8.228227402
 20
62.2302833288
 30
0.0
 10
8.2270114451
 20
62.0818964269
 30
0.0
  0
SPLINE
  5
2BF
100
AcDbEntity
  8
0
100
AcDbSpline
 62
7
  6
BYLAYER
 70
0
 71
3
 72
9
 73
5
 74
0
 42
0.0000001
 43
0.0000001
 44
0.0000000001
 40
0.0
 40
0.0
 40
0.0
 40
0.0
 40
0.2643182229
 40
1.0
 40
1.0
 40
1.0
 40
1.0
 10
8.0470633571
 20
49.3516027574
 30
0.0
 10
8.0444953505
 20
49.3494085231
 30
0.0
 10
8.0351277113
 20
49.3407430738
 30
0.0
 10
8.0270892114
 20
49.330383087
 30
0.0
 10
8.0230653062
 20
49.3218863449
 30
0.0
  0
SPLINE
  5
2C0
100
AcDbEntity
  8
0
100
AcDbSpline
 62
7
  6
BYLAYER
 70
0
 71
3
 72
9
 73
5
 74
0
 42
0.0000001
 43
0.0000001
 44
0.0000000001
 40
0.0
 40
0.0
 40
0.0
 40
0.0
 40
0.2603904071
 40
1.0
 40
1.0
 40
1.0
 40
1.0
 10
8.0230653062
 20
49.3218863449
 30
0.0
 10
8.022176154
 20
49.3200088413
 30
0.0
 10
8.0191229911
 20
49.312636664
 30
0.0
 10
8.0176420997
 20
49.3045839855
 30
0.0
 10
8.0176591653
 20
49.2986833755
 30
0.0
  0
SPLINE
  5
2C1
100
AcDbEntity
  8
0
100
AcDbSpline
 62
7
  6
BYLAYER
 70
0
 71
3
 72
8
 73
4
 74
0
 42
0.0000001
 43
0.0000001
 44
0.0000000001
 40
0.0
 40
0.0
 40
0.0
 40
0.0
 40
1.0
 40
1.0
 40
1.0
 40
1.0
 10
8.2382233978
 20
49.4801262364
 30
0.0
 10
8.2351317528
 20
49.4780392409
 30
0.0
 10
8.2322496296
 20
49.4755917962
 30
0.0
 10
8.2297255548
 20
49.4728453684
 30
0.0
  0
SPLINE
  5
2C2
100
AcDbEntity
  8
0
100
AcDbSpline
 62
7
  6
BYLAYER
 70
0
 71
3
 72
9
 73
5
 74
0
 42
0.0000001
 43
0.0000001
 44
0.0000000001
 40
0.0
 40
0.0
 40
0.0
 40
0.0
 40
0.2419077847
 40
1.0
 40
1.0
 40
1.0
 40
1.0
 10
8.2299239951
 20
43.132557714
 30
0.0
 10
8.2295014274
 20
43.1304213288
 30
0.0
 10
8.2279579965
 20
43.1215502201
 30
0.0
 10
8.2272015539
 20
43.1125479119
 30
0.0
 10
8.2270113401
 20
43.1057258368
 30
0.0
  0
SPLINE
  5
2C3
100
AcDbEntity
  8
0
100
AcDbSpline
 62
7
  6
BYLAYER
 70
0
 71
3
 72
9
 73
5
 74
0
 42
0.0000001
 43
0.0000001
 44
0.0000000001
 40
0.0
 40
0.0
 40
0.0
 40
0.0
 40
0.2993993698
 40
1.0
 40
1.0
 40
1.0
 40
1.0
 10
8.0335201947
 20
43.2879619996
 30
0.0
 10
8.0311065543
 20
43.289973341
 30
0.0
 10
8.0235396726
 20
43.2970684739
 30
0.0
 10
8.0176915723
 20
43.3072511807
 30
0.0
 10
8.0176589939
 20
43.3146030766
 30
0.0
  0
SPLINE
  5
2C4
100
AcDbEntity
  8
0
100
AcDbSpline
 62
7
  6
BYLAYER
 70
0
 71
3
 72
9
 73
5
 74
0
 42
0.0000001
 43
0.0000001
 44
0.0000000001
 40
0.0
 40
0.0
 40
0.0
 40
0.0
 40
0.5137711331
 40
1.0
 40
1.0
 40
1.0
 40
1.0
 10
13.7690788169
 20
39.155953621
 30
0.0
 10
12.7895901139
 20
39.7729272339
 30
0.0
 10
10.91538721
 20
41.0260890635
 30
0.0
 10
9.1220856675
 20
42.3933087456
 30
0.0
 10
8.2751727929
 20
43.0882683193
 30
0.0
  0
SPLINE
  5
2C5
100
AcDbEntity
  8
0
100
AcDbSpline
 62
7
  6
BYLAYER
 70
0
 71
3
 72
9
 73
5
 74
0
 42
0.0000001
 43
0.0000001
 44
0.0000000001
 40
0.0
 40
0.0
 40
0.0
 40
0.0
 40
0.5095653821
 40
1.0
 40
1.0
 40
1.0
 40
1.0
 10
25.8280605736
 20
33.0145117389
 30
0.0
 10
24.5232822093
 20
33.5540855371
 30
0.0
 10
21.9853060368
 20
34.6686664285
 30
0.0
 10
19.5027429862
 20
35.9023055902
 30
0.0
 10
18.3021176473
 20
36.5388616386
 30
0.0
  0
SPLINE
  5
2C6
100
AcDbEntity
  8
0
100
AcDbSpline
 62
7
  6
BYLAYER
 70
0
 71
3
 72
10
 73
6
 74
0
 42
0.0000001
 43
0.0000001
 44
0.0000000001
 40
0.0
 40
0.0
 40
0.0
 40
0.0
 40
0.4717318294
 40
0.7412382534
 40
1.0
 40
1.0
 40
1.0
 40
1.0
 10
25.9529198457
 20
33.0058651875
 30
0.0
 10
25.933874425
 20
32.9998466024
 30
0.0
 10
25.9016193965
 20
32.9975970967
 30
0.0
 10
25.8597388763
 20
33.0038146897
 30
0.0
 10
25.8381869378
 20
33.0103287016
 30
0.0
 10
25.8280605736
 20
33.0145117389
 30
0.0
  0
SPLINE
  5
2C7
100
AcDbEntity
  8
0
100
AcDbSpline
 62
7
  6
BYLAYER
 70
0
 71
3
 72
24
 73
20
 74
0
 42
0.0000001
 43
0.0000001
 44
0.0000000001
 40
0.0
 40
0.0
 40
0.0
 40
0.0
 40
0.0216330434
 40
0.0438828049
 40
0.0906902425
 40
0.1412437585
 40
0.1958994232
 40
0.2546670651
 40
0.317279201
 40
0.383253171
 40
0.4519432365
 40
0.5225855619
 40
0.5943387194
 40
0.6663185379
 40
0.7376321499
 40
0.8074130314
 40
0.874846498
 40
0.9392434882
 40
1.0
 40
1.0
 40
1.0
 40
1.0
 10
42.8137669356
 20
45.8777773083
 30
0.0
 10
42.8981504981
 20
45.9667367151
 30
0.0
 10
43.0592285842
 20
46.1570491163
 30
0.0
 10
43.348009988
 20
46.5832408548
 30
0.0
 10
43.6403671054
 20
47.1998320576
 30
0.0
 10
43.8709210233
 20
48.0336199932
 30
0.0
 10
43.9852181296
 20
48.95889494
 30
0.0
 10
43.9819404478
 20
49.9589241183
 30
0.0
 10
43.8616688754
 20
51.0159110957
 30
0.0
 10
43.6267494329
 20
52.1107632769
 30
0.0
 10
43.2815418703
 20
53.2235528287
 30
0.0
 10
42.8324217951
 20
54.3339067196
 30
0.0
 10
42.2876519731
 20
55.4214227119
 30
0.0
 10
41.657262135
 20
56.4660818295
 30
0.0
 10
40.95284176
 20
57.4486494842
 30
0.0
 10
40.1873580035
 20
58.3509812203
 30
0.0
 10
39.3748283389
 20
59.1566925871
 30
0.0
 10
38.5301925733
 20
59.8506967308
 30
0.0
 10
37.937089639
 20
60.2429860447
 30
0.0
 10
37.6388600052
 20
60.4151651088
 30
0.0
  0
SPLINE
  5
2C8
100
AcDbEntity
  8
0
100
AcDbSpline
 62
7
  6
BYLAYER
 70
0
 71
3
 72
9
 73
5
 74
0
 42
0.0000001
 43
0.0000001
 44
0.0000000001
 40
0.0
 40
0.0
 40
0.0
 40
0.0
 40
0.2428718623
 40
1.0
 40
1.0
 40
1.0
 40
1.0
 10
32.9218254558
 20
59.7308782331
 30
0.0
 10
33.008796978
 20
59.6954411745
 30
0.0
 10
33.3641512716
 20
59.5428441686
 30
0.0
 10
33.7083745093
 20
59.3647085865
 30
0.0
 10
33.9619197124
 20
59.2183275068
 30
0.0
  0
SPLINE
  5
2C9
100
AcDbEntity
  8
0
100
AcDbSpline
 62
7
  6
BYLAYER
 70
0
 71
3
 72
15
 73
11
 74
0
 42
0.0000001
 43
0.0000001
 44
0.0000000001
 40
0.0
 40
0.0
 40
0.0
 40
0.0
 40
0.119059371
 40
0.2449707894
 40
0.3753161479
 40
0.5074478223
 40
0.6385639043
 40
0.7659293162
 40
0.8870957377
 40
1.0
 40
1.0
 40
1.0
 40
1.0
 10
24.4475843236
 20
55.5095550487
 30
0.0
 10
24.5952685373
 20
55.4009979709
 30
0.0
 10
24.8837059753
 20
55.1561585533
 30
0.0
 10
25.2778124341
 20
54.7320985667
 30
0.0
 10
25.6358686143
 20
54.251837739
 30
0.0
 10
25.946707238
 20
53.7304840854
 30
0.0
 10
26.2006164693
 20
53.1841893191
 30
0.0
 10
26.3897848215
 20
52.6299082498
 30
0.0
 10
26.5082111586
 20
52.0849548234
 30
0.0
 10
26.5387760599
 20
51.7244625561
 30
0.0
 10
26.5396997539
 20
51.5506505934
 30
0.0
  0
SPLINE
  5
2CA
100
AcDbEntity
  8
0
100
AcDbSpline
 62
7
  6
BYLAYER
 70
0
 71
3
 72
11
 73
7
 74
0
 42
0.0000001
 43
0.0000001
 44
0.0000000001
 40
0.0
 40
0.0
 40
0.0
 40
0.0
 40
0.237633857
 40
0.4836701382
 40
0.7378999934
 40
1.0
 40
1.0
 40
1.0
 40
1.0
 10
9.9602880258
 20
63.8769277732
 30
0.0
 10
11.1822549077
 20
63.3572263067
 30
0.0
 10
13.6349045914
 20
62.2167216232
 30
0.0
 10
17.2635341574
 20
60.2536687961
 30
0.0
 10
20.8914353251
 20
58.0166168025
 30
0.0
 10
23.2645513759
 20
56.3729812705
 30
0.0
 10
24.4475843236
 20
55.5095550487
 30
0.0
  0
SPLINE
  5
2CB
100
AcDbEntity
  8
0
100
AcDbSpline
 62
7
  6
BYLAYER
 70
0
 71
3
 72
9
 73
5
 74
0
 42
0.0000001
 43
0.0000001
 44
0.0000000001
 40
0.0
 40
0.0
 40
0.0
 40
0.0
 40
0.2449133292
 40
1.0
 40
1.0
 40
1.0
 40
1.0
 10
12.7133884207
 20
66.8494872455
 30
0.0
 10
13.1923830813
 20
66.6454637856
 30
0.0
 10
15.1374992131
 20
65.7875301973
 30
0.0
 10
17.0396019052
 20
64.8328110834
 30
0.0
 10
18.4494489311
 20
64.0654329167
 30
0.0
  0
SPLINE
  5
2CC
100
AcDbEntity
  8
0
100
AcDbSpline
 62
7
  6
BYLAYER
 70
0
 71
3
 72
11
 73
7
 74
0
 42
0.0000001
 43
0.0000001
 44
0.0000000001
 40
0.0
 40
0.0
 40
0.0
 40
0.0
 40
0.2290456521
 40
0.4674091701
 40
0.7228172988
 40
1.0
 40
1.0
 40
1.0
 40
1.0
 10
16.360509721
 20
68.5364890075
 30
0.0
 10
16.4585421877
 20
68.5930901022
 30
0.0
 10
16.6744816025
 20
68.6830084083
 30
0.0
 10
17.0308900295
 20
68.7360750114
 30
0.0
 10
17.4135072691
 20
68.7090564348
 30
0.0
 10
17.6695617196
 20
68.6420298435
 30
0.0
 10
17.7991206291
 20
68.5975258033
 30
0.0
  0
SPLINE
  5
2CD
100
AcDbEntity
  8
0
100
AcDbSpline
 62
7
  6
BYLAYER
 70
0
 71
3
 72
13
 73
9
 74
0
 42
0.0000001
 43
0.0000001
 44
0.0000000001
 40
0.0
 40
0.0
 40
0.0
 40
0.0
 40
0.2825219391
 40
0.5391977315
 40
0.6594426195
 40
0.7754648909
 40
0.8885064463
 40
1.0
 40
1.0
 40
1.0
 40
1.0
 10
30.4741189236
 20
20.8694620724
 30
0.0
 10
30.4526285192
 20
20.6657542729
 30
0.0
 10
30.3814238562
 20
20.2790616196
 30
0.0
 10
30.202764179
 20
19.8310698589
 30
0.0
 10
30.0117280956
 20
19.5279808399
 30
0.0
 10
29.8496418835
 20
19.3323708545
 30
0.0
 10
29.6668811806
 20
19.1651788335
 30
0.0
 10
29.5316349854
 20
19.0733509159
 30
0.0
 10
29.4616289388
 20
19.0329315299
 30
0.0
  0
SPLINE
  5
2CE
100
AcDbEntity
  8
0
100
AcDbSpline
 62
7
  6
BYLAYER
 70
0
 71
3
 72
15
 73
11
 74
0
 42
0.0000001
 43
0.0000001
 44
0.0000000001
 40
0.0
 40
0.0
 40
0.0
 40
0.0
 40
0.1175245442
 40
0.2415551617
 40
0.3700745449
 40
0.5008604578
 40
0.631530574
 40
0.7597091047
 40
0.8831932329
 40
1.0
 40
1.0
 40
1.0
 40
1.0
 10
27.4212707438
 20
58.3580795284
 30
0.0
 10
27.621302974
 20
58.2123093228
 30
0.0
 10
28.0131595869
 20
57.8856438036
 30
0.0
 10
28.5537194569
 20
57.3223073854
 30
0.0
 10
29.0514304023
 20
56.6849549816
 30
0.0
 10
29.4928780378
 20
55.9909070207
 30
0.0
 10
29.8661544313
 20
55.258740594
 30
0.0
 10
30.1613163864
 20
54.5081280676
 30
0.0
 10
30.3702868773
 20
53.7593675207
 30
0.0
 10
30.4510865172
 20
53.2583159999
 30
0.0
 10
30.4741189236
 20
53.0133969722
 30
0.0
  0
SPLINE
  5
2CF
100
AcDbEntity
  8
0
100
AcDbSpline
 62
7
  6
BYLAYER
 70
0
 71
3
 72
9
 73
5
 74
0
 42
0.0000001
 43
0.0000001
 44
0.0000000001
 40
0.0
 40
0.0
 40
0.0
 40
0.0
 40
0.2456331343
 40
1.0
 40
1.0
 40
1.0
 40
1.0
 10
21.6852102334
 20
62.1973075205
 30
0.0
 10
22.1676735348
 20
61.9028237274
 30
0.0
 10
24.118878774
 20
60.6828010032
 30
0.0
 10
26.0183591352
 20
59.3804281117
 30
0.0
 10
27.4212707438
 20
58.3580795284
 30
0.0
  0
SPLINE
  5
2D0
100
AcDbEntity
  8
0
100
AcDbSpline
 62
7
  6
BYLAYER
 70
0
 71
3
 72
13
 73
9
 74
0
 42
0.0000001
 43
0.0000001
 44
0.0000000001
 40
0.0
 40
0.0
 40
0.0
 40
0.0
 40
0.1121907051
 40
0.2258333377
 40
0.3422698599
 40
0.4626993324
 40
0.7189838386
 40
1.0
 40
1.0
 40
1.0
 40
1.0
 10
8.5777674261
 20
63.8812703418
 30
0.0
 10
8.624125408
 20
63.908040246
 30
0.0
 10
8.7213917998
 20
63.9553842858
 30
0.0
 10
8.8771905841
 20
64.0059403114
 30
0.0
 10
9.0422031222
 20
64.0360172951
 30
0.0
 10
9.2777104507
 20
64.0487565977
 30
0.0
 10
9.5917351786
 20
64.0094579298
 30
0.0
 10
9.8365528415
 20
63.9285913374
 30
0.0
 10
9.9602880258
 20
63.8769277732
 30
0.0
  0
SPLINE
  5
2D1
100
AcDbEntity
  8
0
100
AcDbSpline
 62
7
  6
BYLAYER
 70
0
 71
3
 72
11
 73
7
 74
0
 42
0.0000001
 43
0.0000001
 44
0.0000000001
 40
0.0
 40
0.0
 40
0.0
 40
0.0
 40
0.2356483016
 40
0.4743727839
 40
0.725442948
 40
1.0
 40
1.0
 40
1.0
 40
1.0
 10
7.2227799834
 20
64.4009737204
 30
0.0
 10
7.222779239
 20
64.4447107112
 30
0.0
 10
7.2302714411
 20
64.532985639
 30
0.0
 10
7.2666366539
 20
64.6634570329
 30
0.0
 10
7.3305503396
 20
64.79103404
 30
0.0
 10
7.3896946197
 20
64.8693251456
 30
0.0
 10
7.4234105803
 20
64.9075352139
 30
0.0
  0
SPLINE
  5
2D2
100
AcDbEntity
  8
0
100
AcDbSpline
 62
7
  6
BYLAYER
 70
0
 71
3
 72
13
 73
9
 74
0
 42
0.0000001
 43
0.0000001
 44
0.0000000001
 40
0.0
 40
0.0
 40
0.0
 40
0.0
 40
0.1119746113
 40
0.2254322689
 40
0.3417458307
 40
0.4621194835
 40
0.7185037681
 40
1.0
 40
1.0
 40
1.0
 40
1.0
 10
10.673030199
 20
66.8663803471
 30
0.0
 10
10.7413559025
 20
66.9058295535
 30
0.0
 10
10.8847768578
 20
66.975549775
 30
0.0
 10
11.1146823769
 20
67.0495441324
 30
0.0
 10
11.3582718971
 20
67.093002224
 30
0.0
 10
11.7060768383
 20
67.1101869227
 30
0.0
 10
12.169844739
 20
67.0492917027
 30
0.0
 10
12.5309118907
 20
66.9272114485
 30
0.0
 10
12.7133884207
 20
66.8494872455
 30
0.0
  0
SPLINE
  5
2D3
100
AcDbEntity
  8
0
100
AcDbSpline
 62
7
  6
BYLAYER
 70
0
 71
3
 72
9
 73
5
 74
0
 42
0.0000001
 43
0.0000001
 44
0.0000000001
 40
0.0
 40
0.0
 40
0.0
 40
0.0
 40
0.4996009211
 40
1.0
 40
1.0
 40
1.0
 40
1.0
 10
14.6189447395
 20
38.6420059371
 30
0.0
 10
14.475721141
 20
38.7246938813
 30
0.0
 10
14.1905840902
 20
38.8928816079
 30
0.0
 10
13.9089765386
 20
39.0669404381
 30
0.0
 10
13.7692277925
 20
39.1558676118
 30
0.0
  0
SPLINE
  5
2D4
100
AcDbEntity
  8
0
100
AcDbSpline
 62
7
  6
BYLAYER
 70
0
 71
3
 72
11
 73
7
 74
0
 42
0.0000001
 43
0.0000001
 44
0.0000000001
 40
0.0
 40
0.0
 40
0.0
 40
0.0
 40
0.2630024774
 40
0.5152753345
 40
0.7596611054
 40
1.0
 40
1.0
 40
1.0
 40
1.0
 10
25.5209860297
 20
17.1508592149
 30
0.0
 10
25.6186223377
 20
17.1440083637
 30
0.0
 10
25.8110455857
 20
17.1426108661
 30
0.0
 10
26.0922410015
 20
17.1801044892
 30
0.0
 10
26.3565802387
 20
17.2571329033
 30
0.0
 10
26.5204147571
 20
17.3347948475
 30
0.0
 10
26.5978623846
 20
17.3795358422
 30
0.0
  0
SPLINE
  5
2D5
100
AcDbEntity
  8
0
100
AcDbSpline
 62
7
  6
BYLAYER
 70
0
 71
3
 72
10
 73
6
 74
0
 42
0.0000001
 43
0.0000001
 44
0.0000000001
 40
0.0
 40
0.0
 40
0.0
 40
0.0
 40
0.5043322295
 40
0.7548363838
 40
1.0
 40
1.0
 40
1.0
 40
1.0
 10
7.4230392928
 20
28.9787065758
 30
0.0
 10
7.6082667187
 20
28.5695853056
 30
0.0
 10
7.9346298434
 20
27.9777843728
 30
0.0
 10
8.4529652515
 20
27.2530249282
 30
0.0
 10
8.7381409059
 20
26.9152768635
 30
0.0
 10
8.8861320821
 20
26.7547793497
 30
0.0
  0
SPLINE
  5
2D6
100
AcDbEntity
  8
0
100
AcDbSpline
 62
7
  6
BYLAYER
 70
0
 71
3
 72
9
 73
5
 74
0
 42
0.0000001
 43
0.0000001
 44
0.0000000001
 40
0.0
 40
0.0
 40
0.0
 40
0.0
 40
0.7493869225
 40
1.0
 40
1.0
 40
1.0
 40
1.0
 10
8.2019561125
 20
49.4537633694
 30
0.0
 10
8.1644678398
 20
49.4293628751
 30
0.0
 10
8.114728495
 20
49.3963648042
 30
0.0
 10
8.0646263387
 20
49.3639213876
 30
0.0
 10
8.052032767
 20
49.3558488806
 30
0.0
  0
SPLINE
  5
2D7
100
AcDbEntity
  8
0
100
AcDbSpline
 62
7
  6
BYLAYER
 70
0
 71
3
 72
14
 73
10
 74
0
 42
0.0000001
 43
0.0000001
 44
0.0000000001
 40
0.0
 40
0.0
 40
0.0
 40
0.0
 40
0.289267096
 40
0.4225635394
 40
0.5485070957
 40
0.6678896215
 40
0.7818690485
 40
0.8919534257
 40
1.0
 40
1.0
 40
1.0
 40
1.0
 10
26.5397938255
 20
20.2371616534
 30
0.0
 10
26.539793827
 20
20.0661383821
 30
0.0
 10
26.5198182819
 20
19.8150785805
 30
0.0
 10
26.4426412893
 20
19.4995334175
 30
0.0
 10
26.3641296733
 20
19.2892617003
 30
0.0
 10
26.264017939
 20
19.1011384774
 30
0.0
 10
26.1431751539
 20
18.936962536
 30
0.0
 10
26.0026241253
 20
18.7986505388
 30
0.0
 10
25.8962602415
 20
18.7244314399
 30
0.0
 10
25.8409411516
 20
18.6924862474
 30
0.0
  0
SPLINE
  5
2D8
100
AcDbEntity
  8
0
100
AcDbSpline
 62
7
  6
BYLAYER
 70
0
 71
3
 72
11
 73
7
 74
0
 42
0.0000001
 43
0.0000001
 44
0.0000000001
 40
0.0
 40
0.0
 40
0.0
 40
0.0
 40
0.239713856
 40
0.4824658376
 40
0.7345062985
 40
1.0
 40
1.0
 40
1.0
 40
1.0
 10
25.5196674921
 20
17.1509513594
 30
0.0
 10
25.44350516
 20
17.156295445
 30
0.0
 10
25.2908140558
 20
17.1777405339
 30
0.0
 10
25.0643266811
 20
17.2379708365
 30
0.0
 10
24.8370146027
 20
17.3222314732
 30
0.0
 10
24.6867866915
 20
17.390336194
 30
0.0
 10
24.6106452833
 20
17.4271189704
 30
0.0
  0
SPLINE
  5
2D9
100
AcDbEntity
  8
0
100
AcDbSpline
 62
7
  6
BYLAYER
 70
0
 71
3
 72
10
 73
6
 74
0
 42
0.0000001
 43
0.0000001
 44
0.0000000001
 40
0.0
 40
0.0
 40
0.0
 40
0.0
 40
0.2502211115
 40
0.5004160421
 40
1.0
 40
1.0
 40
1.0
 40
1.0
 10
7.4234103118
 20
28.9778868758
 30
0.0
 10
7.3876741916
 20
29.0733634494
 30
0.0
 10
7.3272257603
 20
29.2685792929
 30
0.0
 10
7.2450318173
 20
29.6680337918
 30
0.0
 10
7.2227782021
 20
29.9744433334
 30
0.0
 10
7.2227800721
 20
30.17798428
 30
0.0
  0
SPLINE
  5
2DA
100
AcDbEntity
  8
0
100
AcDbSpline
 62
7
  6
BYLAYER
 70
0
 71
3
 72
9
 73
5
 74
0
 42
0.0000001
 43
0.0000001
 44
0.0000000001
 40
0.0
 40
0.0
 40
0.0
 40
0.0
 40
0.490834327
 40
1.0
 40
1.0
 40
1.0
 40
1.0
 10
9.9027629602
 20
25.9185266875
 30
0.0
 10
9.7231195954
 20
26.0374417389
 30
0.0
 10
9.3659265597
 20
26.2933146369
 30
0.0
 10
9.0389451882
 20
26.589052038
 30
0.0
 10
8.8874507202
 20
26.7533488984
 30
0.0
  0
SPLINE
  5
2DB
100
AcDbEntity
  8
0
100
AcDbSpline
 62
7
  6
BYLAYER
 70
0
 71
3
 72
11
 73
7
 74
0
 42
0.0000001
 43
0.0000001
 44
0.0000000001
 40
0.0
 40
0.0
 40
0.0
 40
0.0
 40
0.2372229192
 40
0.497850528
 40
0.759634752
 40
1.0
 40
1.0
 40
1.0
 40
1.0
 10
8.2270113401
 20
49.8517981179
 30
0.0
 10
8.2276227919
 20
49.8291621883
 30
0.0
 10
8.2365663663
 20
49.781816563
 30
0.0
 10
8.265760538
 20
49.7149164547
 30
0.0
 10
8.3080694847
 20
49.6550681435
 30
0.0
 10
8.3441157579
 20
49.6225251722
 30
0.0
 10
8.3633024201
 20
49.6099432215
 30
0.0
  0
SPLINE
  5
2DC
100
AcDbEntity
  8
0
100
AcDbSpline
 62
7
  6
BYLAYER
 70
0
 71
3
 72
14
 73
10
 74
0
 42
0.0000001
 43
0.0000001
 44
0.0000000001
 40
0.0
 40
0.0
 40
0.0
 40
0.0
 40
0.2874303399
 40
0.4202079941
 40
0.5459958755
 40
0.66559157
 40
0.780115448
 40
0.8910041728
 40
1.0
 40
1.0
 40
1.0
 40
1.0
 10
34.7692932617
 20
24.9441009419
 30
0.0
 10
34.7638777358
 20
24.7526792888
 30
0.0
 10
34.7337060203
 20
24.4721230413
 30
0.0
 10
34.6381230794
 20
24.1205192507
 30
0.0
 10
34.5442551346
 20
23.886015313
 30
0.0
 10
34.4269910104
 20
23.6760384089
 30
0.0
 10
34.2872935427
 20
23.4924352639
 30
0.0
 10
34.1262473457
 20
23.3372085097
 30
0.0
 10
34.0051908531
 20
23.2533536126
 30
0.0
 10
33.9423027047
 20
23.2170438251
 30
0.0
  0
SPLINE
  5
2DD
100
AcDbEntity
  8
0
100
AcDbSpline
 62
7
  6
BYLAYER
 70
0
 71
3
 72
15
 73
11
 74
0
 42
0.0000001
 43
0.0000001
 44
0.0000000001
 40
0.0
 40
0.0
 40
0.0
 40
0.0
 40
0.1208464438
 40
0.2474657933
 40
0.3776569235
 40
0.509074209
 40
0.6392679792
 40
0.7658593097
 40
0.8867128951
 40
1.0
 40
1.0
 40
1.0
 40
1.0
 10
32.5036917766
 20
60.108029751
 30
0.0
 10
32.6628638123
 20
59.9789141496
 30
0.0
 10
32.9726039733
 20
59.6940880997
 30
0.0
 10
33.3955260694
 20
59.2116589599
 30
0.0
 10
33.778608895
 20
58.6748240419
 30
0.0
 10
34.1113281906
 20
58.098453368
 30
0.0
 10
34.3845271749
 20
57.4982766749
 30
0.0
 10
34.590803414
 20
56.8906969201
 30
0.0
 10
34.7243959204
 20
56.2924322038
 30
0.0
 10
34.7640314127
 20
55.8959666493
 30
0.0
 10
34.7692931971
 20
55.703904262
 30
0.0
  0
SPLINE
  5
2DE
100
AcDbEntity
  8
0
100
AcDbSpline
 62
7
  6
BYLAYER
 70
0
 71
3
 72
10
 73
6
 74
0
 42
0.0000001
 43
0.0000001
 44
0.0000000001
 40
0.0
 40
0.0
 40
0.0
 40
0.0
 40
0.2361146584
 40
0.4821443954
 40
1.0
 40
1.0
 40
1.0
 40
1.0
 10
25.1514062029
 20
66.0036325418
 30
0.0
 10
25.4285103221
 20
65.8436916192
 30
0.0
 10
25.9813928247
 20
65.4941421901
 30
0.0
 10
27.0723313304
 20
64.689081707
 30
0.0
 10
27.8414780888
 20
63.9908807853
 30
0.0
 10
28.333399966
 20
63.4904491108
 30
0.0
  0
SPLINE
  5
2DF
100
AcDbEntity
  8
0
100
AcDbSpline
 62
7
  6
BYLAYER
 70
0
 71
3
 72
10
 73
6
 74
0
 42
0.0000001
 43
0.0000001
 44
0.0000000001
 40
0.0
 40
0.0
 40
0.0
 40
0.0
 40
0.4740642585
 40
0.7305887229
 40
1.0
 40
1.0
 40
1.0
 40
1.0
 10
21.9694124397
 20
67.1646159015
 30
0.0
 10
22.5023941383
 20
67.0913973629
 30
0.0
 10
23.3116455213
 20
66.8764046828
 30
0.0
 10
24.3578053175
 20
66.4353076799
 30
0.0
 10
24.8866442833
 20
66.1565291925
 30
0.0
 10
25.1514062029
 20
66.0036325418
 30
0.0
  0
SPLINE
  5
2E0
100
AcDbEntity
  8
0
100
AcDbSpline
 62
7
  6
BYLAYER
 70
0
 71
3
 72
11
 73
7
 74
0
 42
0.0000001
 43
0.0000001
 44
0.0000000001
 40
0.0
 40
0.0
 40
0.0
 40
0.0
 40
0.262058797
 40
0.516273526
 40
0.7623231464
 40
1.0
 40
1.0
 40
1.0
 40
1.0
 10
10.0422370317
 20
27.4432943946
 30
0.0
 10
11.2119524349
 20
26.5901848141
 30
0.0
 10
13.5583084628
 20
24.9659793225
 30
0.0
 10
17.1450364853
 20
22.7547371774
 30
0.0
 10
20.7324818511
 20
20.8134502954
 30
0.0
 10
23.1572031822
 20
19.6849431489
 30
0.0
 10
24.3652880498
 20
19.1704764135
 30
0.0
  0
SPLINE
  5
2E1
100
AcDbEntity
  8
0
100
AcDbSpline
 62
7
  6
BYLAYER
 70
0
 71
3
 72
13
 73
9
 74
0
 42
0.0000001
 43
0.0000001
 44
0.0000000001
 40
0.0
 40
0.0
 40
0.0
 40
0.0
 40
0.2810874258
 40
0.5373922925
 40
0.657812546
 40
0.774228649
 40
0.8878425408
 40
1.0
 40
1.0
 40
1.0
 40
1.0
 10
24.3652880498
 20
19.1704764135
 30
0.0
 10
24.4726401334
 20
19.125513048
 30
0.0
 10
24.6850488661
 20
19.0550959255
 30
0.0
 10
24.9575591081
 20
19.0207302616
 30
0.0
 10
25.1619329621
 20
19.0316343027
 30
0.0
 10
25.3051194128
 20
19.057649643
 30
0.0
 10
25.4403028014
 20
19.1014624907
 30
0.0
 10
25.5246914782
 20
19.1425256981
 30
0.0
 10
25.5649080291
 20
19.1657491998
 30
0.0
  0
SPLINE
  5
2E2
100
AcDbEntity
  8
0
100
AcDbSpline
 62
7
  6
BYLAYER
 70
0
 71
3
 72
15
 73
11
 74
0
 42
0.0000001
 43
0.0000001
 44
0.0000000001
 40
0.0
 40
0.0
 40
0.0
 40
0.0
 40
0.1130044601
 40
0.2342115657
 40
0.361567407
 40
0.4926401837
 40
0.6247158275
 40
0.7550147856
 40
0.8809100089
 40
1.0
 40
1.0
 40
1.0
 40
1.0
 10
8.2270114451
 20
30.875627649
 30
0.0
 10
8.2282356734
 20
30.7248177831
 30
0.0
 10
8.2554447384
 20
30.4121919597
 30
0.0
 10
8.3588487134
 20
29.9397599344
 30
0.0
 10
8.5232848774
 20
29.4594283488
 30
0.0
 10
8.7435756613
 20
28.9860909241
 30
0.0
 10
9.0129937659
 20
28.534329989
 30
0.0
 10
9.323183938
 20
28.1180376542
 30
0.0
 10
9.6645433592
 20
27.7502124337
 30
0.0
 10
9.9143319142
 20
27.5376400521
 30
0.0
 10
10.0422370317
 20
27.4432943946
 30
0.0
  0
SPLINE
  5
2E3
100
AcDbEntity
  8
0
100
AcDbSpline
 62
7
  6
BYLAYER
 70
0
 71
3
 72
8
 73
4
 74
0
 42
0.0000001
 43
0.0000001
 44
0.0000000001
 40
0.0
 40
0.0
 40
0.0
 40
0.0
 40
1.0
 40
1.0
 40
1.0
 40
1.0
 10
26.1561535456
 20
33.1045127286
 30
0.0
 10
26.1588697961
 20
33.1052509291
 30
0.0
 10
26.1615177829
 20
33.1063360554
 30
0.0
 10
26.1639553124
 20
33.1077436797
 30
0.0
  0
SPLINE
  5
2E4
100
AcDbEntity
  8
0
100
AcDbSpline
 62
7
  6
BYLAYER
 70
0
 71
3
 72
13
 73
9
 74
0
 42
0.0000001
 43
0.0000001
 44
0.0000000001
 40
0.0
 40
0.0
 40
0.0
 40
0.0
 40
0.2825926357
 40
0.4152562983
 40
0.5421338325
 40
0.779602669
 40
0.8915921784
 40
1.0
 40
1.0
 40
1.0
 40
1.0
 10
37.6388600052
 20
60.4151651088
 30
0.0
 10
37.3265270149
 20
60.5954865654
 30
0.0
 10
36.8495064931
 20
60.8319398448
 30
0.0
 10
36.1966755721
 20
61.0632858185
 30
0.0
 10
35.5824273408
 20
61.2234090686
 30
0.0
 10
34.9736324915
 20
61.295282257
 30
0.0
 10
34.3890085712
 20
61.2649358974
 30
0.0
 10
34.1110046843
 20
61.2167876678
 30
0.0
 10
33.976468785
 20
61.1845186579
 30
0.0
  0
SPLINE
  5
2E5
100
AcDbEntity
  8
0
100
AcDbSpline
 62
7
  6
BYLAYER
 70
0
 71
3
 72
9
 73
5
 74
0
 42
0.0000001
 43
0.0000001
 44
0.0000000001
 40
0.0
 40
0.0
 40
0.0
 40
0.0
 40
0.5012557252
 40
1.0
 40
1.0
 40
1.0
 40
1.0
 10
28.2852738356
 20
51.9333510749
 30
0.0
 10
28.6495870733
 20
52.116650597
 30
0.0
 10
29.3774464327
 20
52.4802310876
 30
0.0
 10
30.108346234
 20
52.8376963628
 30
0.0
 10
30.4741189236
 20
53.0133969722
 30
0.0
  0
SPLINE
  5
2E6
100
AcDbEntity
  8
0
100
AcDbSpline
 62
7
  6
BYLAYER
 70
0
 71
3
 72
26
 73
22
 74
0
 42
0.0000001
 43
0.0000001
 44
0.0000000001
 40
0.0
 40
0.0
 40
0.0
 40
0.0
 40
0.2830880518
 40
0.4177830674
 40
0.4831789563
 40
0.5471985509
 40
0.6097850741
 40
0.6708731361
 40
0.7303812479
 40
0.7881713274
 40
0.8163617277
 40
0.8440336878
 40
0.8711365526
 40
0.8975970856
 40
0.923324632
 40
0.9359076627
 40
0.9483309719
 40
0.9606325323
 40
0.9730651075
 40
0.9860543213
 40
1.0
 40
1.0
 40
1.0
 40
1.0
 10
26.9831344549
 20
53.6159134961
 30
0.0
 10
27.0806899687
 20
53.4344190919
 30
0.0
 10
27.2362206886
 20
53.1727309206
 30
0.0
 10
27.4276267304
 20
52.8776957015
 30
0.0
 10
27.5346443758
 20
52.7179929381
 30
0.0
 10
27.6136213525
 20
52.6026932075
 30
0.0
 10
27.6920015303
 20
52.4907932587
 30
0.0
 10
27.7698287126
 20
52.3825258641
 30
0.0
 10
27.8471733297
 20
52.2782273728
 30
0.0
 10
27.9121382812
 20
52.1945773374
 30
0.0
 10
27.9646504198
 20
52.1306492615
 30
0.0
 10
28.004120626
 20
52.0849360318
 30
0.0
 10
28.044267762
 20
52.0415011082
 30
0.0
 10
28.0855096668
 20
52.0010931769
 30
0.0
 10
28.1217388506
 20
51.9707632898
 30
0.0
 10
28.1523368693
 20
51.9500332421
 30
0.0
 10
28.1760222979
 20
51.9366633621
 30
0.0
 10
28.2011965646
 20
51.9264647048
 30
0.0
 10
28.2283574155
 20
51.9211760725
 30
0.0
 10
28.2572884376
 20
51.9224295486
 30
0.0
 10
28.2761870848
 20
51.9287792012
 30
0.0
 10
28.2852546826
 20
51.9333415
 30
0.0
  0
SPLINE
  5
2E7
100
AcDbEntity
  8
0
100
AcDbSpline
 62
7
  6
BYLAYER
 70
0
 71
3
 72
9
 73
5
 74
0
 42
0.0000001
 43
0.0000001
 44
0.0000000001
 40
0.0
 40
0.0
 40
0.0
 40
0.0
 40
0.239093611
 40
1.0
 40
1.0
 40
1.0
 40
1.0
 10
24.61064532
 20
56.7353738696
 30
0.0
 10
24.6900228045
 20
56.6716239084
 30
0.0
 10
25.0121588423
 20
56.3925225425
 30
0.0
 10
25.3000337862
 20
56.0773796847
 30
0.0
 10
25.5196677579
 20
55.8391849585
 30
0.0
  0
SPLINE
  5
2E8
100
AcDbEntity
  8
0
100
AcDbSpline
 62
7
  6
BYLAYER
 70
0
 71
3
 72
11
 73
7
 74
0
 42
0.0000001
 43
0.0000001
 44
0.0000000001
 40
0.0
 40
0.0
 40
0.0
 40
0.0
 40
0.2899711572
 40
0.5491101729
 40
0.7822862622
 40
1.0
 40
1.0
 40
1.0
 40
1.0
 10
8.2954024912
 20
49.4774805468
 30
0.0
 10
8.2909629011
 20
49.4801554322
 30
0.0
 10
8.2820101945
 20
49.4843803143
 30
0.0
 10
8.2682941555
 20
49.4876124555
 30
0.0
 10
8.2554338401
 20
49.4873864216
 30
0.0
 10
8.2476793364
 20
49.4845746704
 30
0.0
 10
8.244312228
 20
49.4826235538
 30
0.0
  0
SPLINE
  5
2E9
100
AcDbEntity
  8
0
100
AcDbSpline
 62
7
  6
BYLAYER
 70
0
 71
3
 72
24
 73
20
 74
0
 42
0.0000001
 43
0.0000001
 44
0.0000000001
 40
0.0
 40
0.0
 40
0.0
 40
0.0
 40
0.0216331425
 40
0.0438830529
 40
0.0906906258
 40
0.1412436668
 40
0.1958988809
 40
0.2546667656
 40
0.3172794448
 40
0.3832534518
 40
0.451943145
 40
0.5225854037
 40
0.5943387222
 40
0.6663187095
 40
0.7376320034
 40
0.807412766
 40
0.8748476532
 40
0.9392412918
 40
1.0
 40
1.0
 40
1.0
 40
1.0
 10
41.600908005
 20
44.5991591224
 30
0.0
 10
41.6900811855
 20
44.6931547511
 30
0.0
 10
41.860263583
 20
44.8942778362
 30
0.0
 10
42.1654266886
 20
45.3446159506
 30
0.0
 10
42.474327862
 20
45.9961675215
 30
0.0
 10
42.7179696884
 20
46.8771982718
 30
0.0
 10
42.8387639252
 20
47.8549108254
 30
0.0
 10
42.8352984698
 20
48.9116219289
 30
0.0
 10
42.708189964
 20
50.0285193106
 30
0.0
 10
42.459945815
 20
51.1854234249
 30
0.0
 10
42.0951863566
 20
52.3612845915
 30
0.0
 10
41.6206218192
 20
53.534573365
 30
0.0
 10
41.0449779729
 20
54.6837305451
 30
0.0
 10
40.3788443967
 20
55.7875898742
 30
0.0
 10
39.6344978892
 20
56.8258432668
 30
0.0
 10
38.8256339265
 20
57.7793300461
 30
0.0
 10
37.9670536712
 20
58.6306909634
 30
0.0
 10
37.0745570178
 20
59.3640457357
 30
0.0
 10
36.4478368798
 20
59.7785549446
 30
0.0
 10
36.1326929123
 20
59.960499283
 30
0.0
  0
LINE
  5
2EA
100
AcDbEntity
  8
0
100
AcDbLine
 62
7
  6
BYLAYER
 10
25.9067234982
 20
39.3006691983
 11
25.4993618419
 21
39.5183213901
  0
SPLINE
  5
2EB
100
AcDbEntity
  8
0
100
AcDbSpline
 62
7
  6
BYLAYER
 70
0
 71
3
 72
13
 73
9
 74
0
 42
0.0000001
 43
0.0000001
 44
0.0000000001
 40
0.0
 40
0.0
 40
0.0
 40
0.0
 40
0.111758832
 40
0.2250286891
 40
0.341201296
 40
0.4615123863
 40
0.7180616292
 40
1.0
 40
1.0
 40
1.0
 40
1.0
 10
25.8409411516
 20
18.6924862474
 30
0.0
 10
25.7943199458
 20
18.6655638343
 30
0.0
 10
25.6963814118
 20
18.6180811958
 30
0.0
 10
25.5393273358
 20
18.5679263646
 30
0.0
 10
25.3728597124
 20
18.5388396195
 30
0.0
 10
25.1350242626
 20
18.5282509711
 30
0.0
 10
24.8179231495
 20
18.5718849235
 30
0.0
 10
24.5713691445
 20
18.6571684669
 30
0.0
 10
24.4468029355
 20
18.7112886532
 30
0.0
  0
SPLINE
  5
2EC
100
AcDbEntity
  8
0
100
AcDbSpline
 62
7
  6
BYLAYER
 70
0
 71
3
 72
10
 73
6
 74
0
 42
0.0000001
 43
0.0000001
 44
0.0000000001
 40
0.0
 40
0.0
 40
0.0
 40
0.0
 40
0.524581062
 40
0.77227745
 40
1.0
 40
1.0
 40
1.0
 40
1.0
 10
26.1650497253
 20
39.133995006
 30
0.0
 10
26.1584794155
 20
39.1460775386
 30
0.0
 10
26.1466007913
 20
39.1628245349
 30
0.0
 10
26.1276460637
 20
39.1809784504
 30
0.0
 10
26.1174698014
 20
39.1883400853
 30
0.0
 10
26.1122232869
 20
39.1911896255
 30
0.0
  0
SPLINE
  5
2ED
100
AcDbEntity
  8
0
100
AcDbSpline
 62
7
  6
BYLAYER
 70
0
 71
3
 72
9
 73
5
 74
0
 42
0.0000001
 43
0.0000001
 44
0.0000000001
 40
0.0
 40
0.0
 40
0.0
 40
0.0
 40
0.4896466046
 40
1.0
 40
1.0
 40
1.0
 40
1.0
 10
8.0176591653
 20
49.2986833755
 30
0.0
 10
8.0176780107
 20
49.2921674199
 30
0.0
 10
8.020579845
 20
49.2787198383
 30
0.0
 10
8.0286371739
 20
49.2676547692
 30
0.0
 10
8.0335201947
 20
49.2629344824
 30
0.0
  0
SPLINE
  5
2EE
100
AcDbEntity
  8
0
100
AcDbSpline
 62
7
  6
BYLAYER
 70
0
 71
3
 72
37
 73
33
 74
0
 42
0.0000001
 43
0.0000001
 44
0.0000000001
 40
0.0
 40
0.0
 40
0.0
 40
0.0
 40
0.0015899857
 40
0.0030856322
 40
0.0045958913
 40
0.0060918265
 40
0.0091265991
 40
0.0123134377
 40
0.0189281687
 40
0.0257237255
 40
0.0326768176
 40
0.0397492156
 40
0.0468972218
 40
0.0540996928
 40
0.068644286
 40
0.0833442345
 40
0.1130806434
 40
0.1431174921
 40
0.1733905366
 40
0.2038535627
 40
0.2344662117
 40
0.2652179852
 40
0.2960978574
 40
0.3582068446
 40
0.4207369045
 40
0.4836472445
 40
0.5469260996
 40
0.6105696457
 40
0.6745739898
 40
0.7389368647
 40
0.8687392515
 40
1.0
 40
1.0
 40
1.0
 40
1.0
 10
20.0827541208
 20
60.6008499655
 30
0.0
 10
20.0804313451
 20
60.5986943352
 30
0.0
 10
20.076826587
 20
60.5933473355
 30
0.0
 10
20.0756460573
 20
60.5840808189
 30
0.0
 10
20.0765306812
 20
60.5751330182
 30
0.0
 10
20.0789846046
 20
60.5633220547
 30
0.0
 10
20.0846094455
 20
60.5488968305
 30
0.0
 10
20.0972196096
 20
60.5266038997
 30
0.0
 10
20.1160694066
 20
60.4993660034
 30
0.0
 10
20.1410742175
 20
60.4673827311
 30
0.0
 10
20.1682755723
 20
60.4360233114
 30
0.0
 10
20.1970385849
 20
60.4051390469
 30
0.0
 10
20.2267275473
 20
60.3744515746
 30
0.0
 10
20.2673260488
 20
60.3336049729
 30
0.0
 10
20.3194746966
 20
60.2830274039
 30
0.0
 10
20.4053449095
 20
60.2027418114
 30
0.0
 10
20.5157733533
 20
60.1035463678
 30
0.0
 10
20.6507158187
 20
59.9852276369
 30
0.0
 10
20.7879239016
 20
59.8673080538
 30
0.0
 10
20.9267813023
 20
59.7495563227
 30
0.0
 10
21.0667777939
 20
59.6316745052
 30
0.0
 10
21.2078221305
 20
59.5137490944
 30
0.0
 10
21.3974322709
 20
59.3560469946
 30
0.0
 10
21.6363420543
 20
59.1585740877
 30
0.0
 10
21.9250308198
 20
58.921126471
 30
0.0
 10
22.2157622322
 20
58.6824922278
 30
0.0
 10
22.5084361529
 20
58.4427269579
 30
0.0
 10
22.8030240471
 20
58.201857651
 30
0.0
 10
23.0995042272
 20
57.9598897332
 30
0.0
 10
23.4984447323
 20
57.6349247491
 30
0.0
 10
24.0019738956
 20
57.2261130875
 30
0.0
 10
24.4068195103
 20
56.8992716481
 30
0.0
 10
24.6107905143
 20
56.7354576971
 30
0.0
  0
SPLINE
  5
2EF
100
AcDbEntity
  8
0
100
AcDbSpline
 62
7
  6
BYLAYER
 70
0
 71
3
 72
10
 73
6
 74
0
 42
0.0000001
 43
0.0000001
 44
0.0000000001
 40
0.0
 40
0.0
 40
0.0
 40
0.0
 40
0.2459181199
 40
0.4949250356
 40
1.0
 40
1.0
 40
1.0
 40
1.0
 10
21.6852104994
 20
62.1973073669
 30
0.0
 10
21.5604859268
 20
62.0602853065
 30
0.0
 10
21.3048587041
 20
61.7886997178
 30
0.0
 10
20.7747907779
 20
61.253177868
 30
0.0
 10
20.363286917
 20
60.8612184569
 30
0.0
 10
20.0843448499
 20
60.6023582365
 30
0.0
  0
SPLINE
  5
2F0
100
AcDbEntity
  8
0
100
AcDbSpline
 62
7
  6
BYLAYER
 70
0
 71
3
 72
9
 73
5
 74
0
 42
0.0000001
 43
0.0000001
 44
0.0000000001
 40
0.0
 40
0.0
 40
0.0
 40
0.0
 40
0.4773925827
 40
1.0
 40
1.0
 40
1.0
 40
1.0
 10
8.8873814254
 20
65.4415877511
 30
0.0
 10
9.0525567679
 20
65.4300027617
 30
0.0
 10
9.3974157004
 20
65.3846226677
 30
0.0
 10
9.7330205003
 20
65.2903739872
 30
0.0
 10
9.9027629969
 20
65.2267815867
 30
0.0
  0
SPLINE
  5
2F1
100
AcDbEntity
  8
0
100
AcDbSpline
 62
7
  6
BYLAYER
 70
0
 71
3
 72
9
 73
5
 74
0
 42
0.0000001
 43
0.0000001
 44
0.0000000001
 40
0.0
 40
0.0
 40
0.0
 40
0.0
 40
0.4969140567
 40
1.0
 40
1.0
 40
1.0
 40
1.0
 10
15.7246398259
 20
63.1193781631
 30
0.0
 10
16.1723813645
 20
63.2861705146
 30
0.0
 10
17.0763696525
 20
63.6139775325
 30
0.0
 10
17.9880897633
 20
63.920015293
 30
0.0
 10
18.449448665
 20
64.0654330703
 30
0.0
  0
SPLINE
  5
2F2
100
AcDbEntity
  8
0
100
AcDbSpline
 62
7
  6
BYLAYER
 70
0
 71
3
 72
35
 73
31
 74
0
 42
0.0000001
 43
0.0000001
 44
0.0000000001
 40
0.0
 40
0.0
 40
0.0
 40
0.0
 40
0.1189763229
 40
0.2395280977
 40
0.3615457432
 40
0.4230834083
 40
0.4849672546
 40
0.547192961
 40
0.6097647368
 40
0.6727168554
 40
0.7043496407
 40
0.7360967652
 40
0.7679675052
 40
0.7999701527
 40
0.8321416684
 40
0.8645226986
 40
0.8808048964
 40
0.8971679535
 40
0.9136382687
 40
0.9302429692
 40
0.9470126522
 40
0.9554834321
 40
0.9640521266
 40
0.9727418047
 40
0.9771398066
 40
0.9815900172
 40
0.9860869286
 40
0.9906429321
 40
0.9954060973
 40
1.0
 40
1.0
 40
1.0
 40
1.0
 10
9.9029082037
 20
65.2268654215
 30
0.0
 10
10.1330755968
 20
65.140635363
 30
0.0
 10
10.5965474976
 20
64.9672718798
 30
0.0
 10
11.29582684
 20
64.7048234865
 30
0.0
 10
11.883646264
 20
64.4830979
 30
0.0
 10
12.3578061818
 20
64.3034650459
 30
0.0
 10
12.7163319765
 20
64.167268563
 30
0.0
 10
13.0767308794
 20
64.02998745
 30
0.0
 10
13.4390755808
 20
63.891615322
 30
0.0
 10
13.7424095481
 20
63.7758730185
 30
0.0
 10
13.9863541531
 20
63.6831118525
 30
0.0
 10
14.1703627739
 20
63.6133872604
 30
0.0
 10
14.3552144309
 20
63.5437320806
 30
0.0
 10
14.5410117985
 20
63.4741006654
 30
0.0
 10
14.7280843403
 20
63.4048709526
 30
0.0
 10
14.8850620431
 20
63.3479006981
 30
0.0
 10
15.011614132
 20
63.3028357887
 30
0.0
 10
15.1074024996
 20
63.2693662258
 30
0.0
 10
15.2041158641
 20
63.2365331754
 30
0.0
 10
15.302011443
 20
63.2045895981
 30
0.0
 10
15.3845768983
 20
63.1789620163
 30
0.0
 10
15.4516113228
 20
63.1593362409
 30
0.0
 10
15.5029308632
 20
63.1454784827
 30
0.0
 10
15.5464214274
 20
63.1349471933
 30
0.0
 10
15.5818443685
 20
63.1273340936
 30
0.0
 10
15.6088898292
 20
63.1219662441
 30
0.0
 10
15.6364075818
 20
63.1173851325
 30
0.0
 10
15.6648550809
 20
63.1144273772
 30
0.0
 10
15.6934645967
 20
63.1134704375
 30
0.0
 10
15.7131718088
 20
63.1151249994
 30
0.0
 10
15.7220652293
 20
63.11843786
 30
0.0
  0
SPLINE
  5
2F3
100
AcDbEntity
  8
0
100
AcDbSpline
 62
7
  6
BYLAYER
 70
0
 71
3
 72
27
 73
23
 74
0
 42
0.0000001
 43
0.0000001
 44
0.0000000001
 40
0.0
 40
0.0
 40
0.0
 40
0.0
 40
0.1242378207
 40
0.2484714918
 40
0.3727172147
 40
0.4970051165
 40
0.5591769308
 40
0.6213720971
 40
0.6836100782
 40
0.745922749
 40
0.808339481
 40
0.8396154886
 40
0.8709646173
 40
0.9024125105
 40
0.934015028
 40
0.9499346407
 40
0.9659761887
 40
0.9740840598
 40
0.98228
 40
0.9864229439
 40
0.9907323028
 40
1.0
 40
1.0
 40
1.0
 40
1.0
 10
17.3747974208
 20
37.0509496442
 30
0.0
 10
17.3394815413
 20
37.0713389005
 30
0.0
 10
17.2689341028
 20
37.1122609307
 30
0.0
 10
17.1633619203
 20
37.1740775594
 30
0.0
 10
17.0580368998
 20
37.2363467498
 30
0.0
 10
16.9704838671
 20
37.2886469593
 30
0.0
 10
16.9005806732
 20
37.330776408
 30
0.0
 10
16.8482095251
 20
37.3625387614
 30
0.0
 10
16.7959011131
 20
37.3944932271
 30
0.0
 10
16.7436636712
 20
37.4267023885
 30
0.0
 10
16.7002065792
 20
37.4537874784
 30
0.0
 10
16.6654970979
 20
37.4756915048
 30
0.0
 10
16.6394666678
 20
37.4923012087
 30
0.0
 10
16.613461572
 20
37.5091479092
 30
0.0
 10
16.5918191414
 20
37.5234151805
 30
0.0
 10
16.5745907344
 20
37.5351830343
 30
0.0
 10
16.563798357
 20
37.5427014995
 30
0.0
 10
16.5552601289
 20
37.5490143489
 30
0.0
 10
16.5499800223
 20
37.553156208
 30
0.0
 10
16.5455064939
 20
37.5563054311
 30
0.0
 10
16.5413877183
 20
37.560478754
 30
0.0
 10
16.539424704
 20
37.5646024184
 30
0.0
 10
16.5383507553
 20
37.5674485097
 30
0.0
  0
SPLINE
  5
2F4
100
AcDbEntity
  8
0
100
AcDbSpline
 62
7
  6
BYLAYER
 70
0
 71
3
 72
11
 73
7
 74
0
 42
0.0000001
 43
0.0000001
 44
0.0000000001
 40
0.0
 40
0.0
 40
0.0
 40
0.0
 40
0.241665749
 40
0.4994419338
 40
0.75658082
 40
1.0
 40
1.0
 40
1.0
 40
1.0
 10
25.8280605736
 20
38.989484222
 30
0.0
 10
25.8381505201
 20
38.9861795712
 30
0.0
 10
25.8601369785
 20
38.9826855056
 30
0.0
 10
25.8935377948
 20
38.9853722337
 30
0.0
 10
25.9255404454
 20
38.9957030585
 30
0.0
 10
25.9444926789
 20
39.0073003231
 30
0.0
 10
25.9529195469
 20
39.0138849554
 30
0.0
  0
SPLINE
  5
2F5
100
AcDbEntity
  8
0
100
AcDbSpline
 62
7
  6
BYLAYER
 70
0
 71
3
 72
11
 73
7
 74
0
 42
0.0000001
 43
0.0000001
 44
0.0000000001
 40
0.0
 40
0.0
 40
0.0
 40
0.0
 40
0.2232076304
 40
0.4629546717
 40
0.7216907679
 40
1.0
 40
1.0
 40
1.0
 40
1.0
 10
31.9328326629
 20
60.5843408482
 30
0.0
 10
32.2005409041
 20
60.610322644
 30
0.0
 10
32.76243747
 20
60.6058405672
 30
0.0
 10
33.6207063015
 20
60.4445613831
 30
0.0
 10
34.5066921156
 20
60.1331899638
 30
0.0
 10
35.0856924596
 20
59.8400389
 30
0.0
 10
35.3761276186
 20
59.6723598761
 30
0.0
  0
SPLINE
  5
2F6
100
AcDbEntity
  8
0
100
AcDbSpline
 62
7
  6
BYLAYER
 70
0
 71
3
 72
9
 73
5
 74
0
 42
0.0000001
 43
0.0000001
 44
0.0000000001
 40
0.0
 40
0.0
 40
0.0
 40
0.0
 40
0.2441854302
 40
1.0
 40
1.0
 40
1.0
 40
1.0
 10
17.876931237
 20
42.303911769
 30
0.0
 10
18.4999265653
 20
41.9812543031
 30
0.0
 10
21.0796301125
 20
40.7150695769
 30
0.0
 10
23.7647485764
 20
39.6666797761
 30
0.0
 10
25.8280605736
 20
38.989484222
 30
0.0
  0
SPLINE
  5
2F7
100
AcDbEntity
  8
0
100
AcDbSpline
 62
7
  6
BYLAYER
 70
0
 71
3
 72
15
 73
11
 74
0
 42
0.0000001
 43
0.0000001
 44
0.0000000001
 40
0.0
 40
0.0
 40
0.0
 40
0.0
 40
0.1179779394
 40
0.2433546969
 40
0.373637183
 40
0.506051039
 40
0.6376354881
 40
0.7654873334
 40
0.8870041797
 40
1.0
 40
1.0
 40
1.0
 40
1.0
 10
9.9555107158
 20
27.0855577518
 30
0.0
 10
9.8085670563
 20
27.1878851228
 30
0.0
 10
9.5209015323
 20
27.4216459502
 30
0.0
 10
9.1273881146
 20
27.8316376612
 30
0.0
 10
8.7689020843
 20
28.3004760901
 30
0.0
 10
8.4572266105
 20
28.8126148973
 30
0.0
 10
8.2026239597
 20
29.3513326915
 30
0.0
 10
8.0133518905
 20
29.8990016793
 30
0.0
 10
7.8957396443
 20
30.4375879177
 30
0.0
 10
7.8664603254
 20
30.7938301903
 30
0.0
 10
7.8664603239
 20
30.9653308853
 30
0.0
  0
SPLINE
  5
2F8
100
AcDbEntity
  8
0
100
AcDbSpline
 62
7
  6
BYLAYER
 70
0
 71
3
 72
11
 73
7
 74
0
 42
0.0000001
 43
0.0000001
 44
0.0000000001
 40
0.0
 40
0.0
 40
0.0
 40
0.0
 40
0.2377088643
 40
0.4837687496
 40
0.7379723882
 40
1.0
 40
1.0
 40
1.0
 40
1.0
 10
24.4468029355
 20
18.7112886532
 30
0.0
 10
23.2245117473
 20
19.2326150102
 30
0.0
 10
20.7713445353
 20
20.3757370682
 30
0.0
 10
17.1417661557
 20
22.3411960616
 30
0.0
 10
13.5129684358
 20
24.57910208
 30
0.0
 10
11.1389988305
 20
26.2224768493
 30
0.0
 10
9.9555107158
 20
27.0855577518
 30
0.0
  0
SPLINE
  5
2F9
100
AcDbEntity
  8
0
100
AcDbSpline
 62
7
  6
BYLAYER
 70
0
 71
3
 72
23
 73
19
 74
0
 42
0.0000001
 43
0.0000001
 44
0.0000000001
 40
0.0
 40
0.0
 40
0.0
 40
0.0
 40
0.016337496
 40
0.0340547556
 40
0.0521886818
 40
0.0704384584
 40
0.1067581372
 40
0.1426417816
 40
0.1780704374
 40
0.2130496985
 40
0.2819017753
 40
0.3495113996
 40
0.4159400705
 40
0.545284194
 40
0.6695628842
 40
0.7878319158
 40
0.8986416841
 40
1.0
 40
1.0
 40
1.0
 40
1.0
 10
28.2852751113
 20
19.465795116
 30
0.0
 10
28.2750844085
 20
19.4593589447
 30
0.0
 10
28.2551581456
 20
19.4438698815
 30
0.0
 10
28.2275325422
 20
19.4169997322
 30
0.0
 10
28.2011500498
 20
19.3870035127
 30
0.0
 10
28.1681131658
 20
19.3447269422
 30
0.0
 10
28.1298282775
 20
19.2900287703
 30
0.0
 10
28.0865129462
 20
19.2234738727
 30
0.0
 10
28.0449655725
 20
19.1569635368
 30
0.0
 10
27.9917006387
 20
19.0691091866
 30
0.0
 10
27.926799745
 20
18.9605493971
 30
0.0
 10
27.8492499256
 20
18.8325202696
 30
0.0
 10
27.7469148863
 20
18.6673381374
 30
0.0
 10
27.6182948848
 20
18.4692721175
 30
0.0
 10
27.4604379257
 20
18.2447826021
 30
0.0
 10
27.3015945305
 20
18.0379643733
 30
0.0
 10
27.1441315375
 20
17.8517390171
 30
0.0
 10
27.0367254174
 20
17.7377316581
 30
0.0
 10
26.9837075319
 20
17.6849990652
 30
0.0
  0
SPLINE
  5
2FA
100
AcDbEntity
  8
0
100
AcDbSpline
 62
7
  6
BYLAYER
 70
0
 71
3
 72
9
 73
5
 74
0
 42
0.0000001
 43
0.0000001
 44
0.0000000001
 40
0.0
 40
0.0
 40
0.0
 40
0.0
 40
0.4916495601
 40
1.0
 40
1.0
 40
1.0
 40
1.0
 10
8.0335201947
 20
49.2629344824
 30
0.0
 10
8.9526351998
 20
48.3759890991
 30
0.0
 10
10.9192136254
 20
46.6705427535
 30
0.0
 10
13.0430555743
 20
45.166873032
 30
0.0
 10
14.1542554692
 20
44.4531510033
 30
0.0
  0
SPLINE
  5
2FB
100
AcDbEntity
  8
0
100
AcDbSpline
 62
7
  6
BYLAYER
 70
0
 71
3
 72
18
 73
14
 74
0
 42
0.0000001
 43
0.0000001
 44
0.0000000001
 40
0.0
 40
0.0
 40
0.0
 40
0.0
 40
0.2464553403
 40
0.3703836249
 40
0.4947837975
 40
0.5571302998
 40
0.6195767814
 40
0.6822115335
 40
0.7451248464
 40
0.8081835613
 40
0.8710896571
 40
0.9342800186
 40
1.0
 40
1.0
 40
1.0
 40
1.0
 10
14.1542844132
 20
44.4531342929
 30
0.0
 10
14.2575278495
 20
44.3844991147
 30
0.0
 10
14.4126895515
 20
44.281355763
 30
0.0
 10
14.6200987246
 20
44.1437710027
 30
0.0
 10
14.7502917387
 20
44.057322237
 30
0.0
 10
14.8548406726
 20
43.9881635785
 30
0.0
 10
14.9335546462
 20
43.9362662363
 30
0.0
 10
15.0123882924
 20
43.8840314323
 30
0.0
 10
15.091077422
 20
43.8310267002
 30
0.0
 10
15.1697618631
 20
43.7777694157
 30
0.0
 10
15.2494113368
 20
43.725704492
 30
0.0
 10
15.3308353846
 20
43.6739328111
 30
0.0
 10
15.3827443091
 20
43.6347907281
 30
0.0
 10
15.4077252328
 20
43.6131370246
 30
0.0
  0
SPLINE
  5
2FC
100
AcDbEntity
  8
0
100
AcDbSpline
 62
7
  6
BYLAYER
 70
0
 71
3
 72
15
 73
11
 74
0
 42
0.0000001
 43
0.0000001
 44
0.0000000001
 40
0.0
 40
0.0
 40
0.0
 40
0.0
 40
0.1128991989
 40
0.2340568337
 40
0.3614120918
 40
0.4925194415
 40
0.6246467576
 40
0.75499486
 40
0.8809182474
 40
1.0
 40
1.0
 40
1.0
 40
1.0
 10
26.1801066132
 20
51.7169065861
 30
0.0
 10
26.1793013377
 20
51.8677212269
 30
0.0
 10
26.1527859843
 20
52.1805110382
 30
0.0
 10
26.0500646609
 20
52.6533571704
 30
0.0
 10
25.8859859644
 20
53.134305263
 30
0.0
 10
25.6657502375
 20
53.6083461425
 30
0.0
 10
25.3961266427
 20
54.0607813111
 30
0.0
 10
25.0855314613
 20
54.4776072257
 30
0.0
 10
24.7436427044
 20
54.8457236588
 30
0.0
 10
24.4934145739
 20
55.0583127094
 30
0.0
 10
24.3652880498
 20
55.1525925935
 30
0.0
  0
SPLINE
  5
2FD
100
AcDbEntity
  8
0
100
AcDbSpline
 62
7
  6
BYLAYER
 70
0
 71
3
 72
11
 73
7
 74
0
 42
0.0000001
 43
0.0000001
 44
0.0000000001
 40
0.0
 40
0.0
 40
0.0
 40
0.0
 40
0.2620643759
 40
0.5162805192
 40
0.7623280278
 40
1.0
 40
1.0
 40
1.0
 40
1.0
 10
24.3652880498
 20
55.1525925935
 30
0.0
 10
23.195515676
 20
56.0051475901
 30
0.0
 10
20.8490770808
 20
57.6282246383
 30
0.0
 10
17.2622938772
 20
59.8377039307
 30
0.0
 10
13.6748938246
 20
61.7771691416
 30
0.0
 10
11.2502589743
 20
62.9044108795
 30
0.0
 10
10.0422370317
 20
63.4182351841
 30
0.0
  0
SPLINE
  5
2FE
100
AcDbEntity
  8
0
100
AcDbSpline
 62
7
  6
BYLAYER
 70
0
 71
3
 72
19
 73
15
 74
0
 42
0.0000001
 43
0.0000001
 44
0.0000000001
 40
0.0
 40
0.0
 40
0.0
 40
0.0
 40
0.058766165
 40
0.1209807723
 40
0.1833189723
 40
0.2451349296
 40
0.3070681048
 40
0.3694106117
 40
0.4320006057
 40
0.4946731004
 40
0.6202691374
 40
0.7463708313
 40
0.8729514801
 40
1.0
 40
1.0
 40
1.0
 40
1.0
 10
16.5484654598
 20
42.9545452468
 30
0.0
 10
16.5762580441
 20
42.9463277385
 30
0.0
 10
16.6315742609
 20
42.923231633
 30
0.0
 10
16.7117012121
 20
42.8814596624
 30
0.0
 10
16.7938062741
 20
42.8401078154
 30
0.0
 10
16.8764794831
 20
42.8002687036
 30
0.0
 10
16.9590460037
 20
42.7601966052
 30
0.0
 10
17.0416001494
 20
42.7192342827
 30
0.0
 10
17.124369727
 20
42.6778881328
 30
0.0
 10
17.2351246185
 20
42.6227584441
 30
0.0
 10
17.3740243942
 20
42.5538811891
 30
0.0
 10
17.5410796737
 20
42.4708380562
 30
0.0
 10
17.7087861505
 20
42.3874957258
 30
0.0
 10
17.8208004885
 20
42.3318300959
 30
0.0
 10
17.8769022929
 20
42.3039284795
 30
0.0
  0
SPLINE
  5
2FF
100
AcDbEntity
  8
0
100
AcDbSpline
 62
7
  6
BYLAYER
 70
0
 71
3
 72
14
 73
10
 74
0
 42
0.0000001
 43
0.0000001
 44
0.0000000001
 40
0.0
 40
0.0
 40
0.0
 40
0.0
 40
0.1082285603
 40
0.2184667459
 40
0.3325497385
 40
0.4519717917
 40
0.5778843182
 40
0.7110809707
 40
1.0
 40
1.0
 40
1.0
 40
1.0
 10
25.5649080291
 20
19.1657491998
 30
0.0
 10
25.6132238077
 20
19.1936496921
 30
0.0
 10
25.7061429153
 20
19.2583959041
 30
0.0
 10
25.8290888685
 20
19.3789007855
 30
0.0
 10
25.9349775084
 20
19.5218453597
 30
0.0
 10
26.0229287061
 20
19.6855810653
 30
0.0
 10
26.0921852077
 20
19.8685677622
 30
0.0
 10
26.1607563339
 20
20.1431269483
 30
0.0
 10
26.1793064214
 20
20.3616992213
 30
0.0
 10
26.1801066132
 20
20.5106378083
 30
0.0
  0
SPLINE
  5
300
100
AcDbEntity
  8
0
100
AcDbSpline
 62
7
  6
BYLAYER
 70
0
 71
3
 72
14
 73
10
 74
0
 42
0.0000001
 43
0.0000001
 44
0.0000000001
 40
0.0
 40
0.0
 40
0.0
 40
0.0
 40
0.2888680443
 40
0.4220503326
 40
0.5479583938
 40
0.6673861926
 40
0.7814842902
 40
0.8917449288
 40
1.0
 40
1.0
 40
1.0
 40
1.0
 10
7.8674183052
 20
62.3308534334
 30
0.0
 10
7.8684755655
 20
62.5025587476
 30
0.0
 10
7.8900556967
 20
62.7545307361
 30
0.0
 10
7.9693375074
 20
63.0710192344
 30
0.0
 10
8.0493294895
 20
63.2819554297
 30
0.0
 10
8.1508541981
 20
63.4707042474
 30
0.0
 10
8.2730390081
 20
63.6354943174
 30
0.0
 10
8.4148702551
 20
63.7744292906
 30
0.0
 10
8.522042357
 20
63.8490913145
 30
0.0
 10
8.5777674261
 20
63.8812703418
 30
0.0
  0
SPLINE
  5
301
100
AcDbEntity
  8
0
100
AcDbSpline
 62
7
  6
BYLAYER
 70
0
 71
3
 72
13
 73
9
 74
0
 42
0.0000001
 43
0.0000001
 44
0.0000000001
 40
0.0
 40
0.0
 40
0.0
 40
0.0
 40
0.2809903645
 40
0.5372667568
 40
0.6576996557
 40
0.7741438523
 40
0.887797113
 40
1.0
 40
1.0
 40
1.0
 40
1.0
 10
10.0422370317
 20
63.4182351841
 30
0.0
 10
9.9349351429
 20
63.4629856715
 30
0.0
 10
9.7226344554
 20
63.5330176695
 30
0.0
 10
9.4503393273
 20
63.566997252
 30
0.0
 10
9.2461281885
 20
63.5558951761
 30
0.0
 10
9.1030393482
 20
63.5297835579
 30
0.0
 10
8.9679369373
 20
63.4859243662
 30
0.0
 10
8.8835891829
 20
63.4448630765
 30
0.0
 10
8.8433868425
 20
63.4216477909
 30
0.0
  0
SPLINE
  5
302
100
AcDbEntity
  8
0
100
AcDbSpline
 62
7
  6
BYLAYER
 70
0
 71
3
 72
11
 73
7
 74
0
 42
0.0000001
 43
0.0000001
 44
0.0000000001
 40
0.0
 40
0.0
 40
0.0
 40
0.0
 40
0.2630017611
 40
0.5152751193
 40
0.759660953
 40
1.0
 40
1.0
 40
1.0
 40
1.0
 10
8.8861321113
 20
65.4416750462
 30
0.0
 10
8.7884958856
 20
65.4485230157
 30
0.0
 10
8.5960731609
 20
65.4499195737
 30
0.0
 10
8.3148771654
 20
65.4124306854
 30
0.0
 10
8.0505374834
 20
65.3354022247
 30
0.0
 10
7.8867033116
 20
65.2577395013
 30
0.0
 10
7.8092557278
 20
65.2129983489
 30
0.0
  0
SPLINE
  5
303
100
AcDbEntity
  8
0
100
AcDbSpline
 62
7
  6
BYLAYER
 70
0
 71
3
 72
10
 73
6
 74
0
 42
0.0000001
 43
0.0000001
 44
0.0000000001
 40
0.0
 40
0.0
 40
0.0
 40
0.0
 40
0.5043314998
 40
0.7548366743
 40
1.0
 40
1.0
 40
1.0
 40
1.0
 10
26.984078806
 20
53.6138276893
 30
0.0
 10
26.7987840402
 20
54.0229178641
 30
0.0
 10
26.472515007
 20
54.614763842
 30
0.0
 10
25.9541465046
 20
55.3395047852
 30
0.0
 10
25.6689770384
 20
55.6772575633
 30
0.0
 10
25.5209860169
 20
55.8377549356
 30
0.0
  0
SPLINE
  5
304
100
AcDbEntity
  8
0
100
AcDbSpline
 62
7
  6
BYLAYER
 70
0
 71
3
 72
11
 73
7
 74
0
 42
0.0000001
 43
0.0000001
 44
0.0000000001
 40
0.0
 40
0.0
 40
0.0
 40
0.0
 40
0.2360469841
 40
0.4974534314
 40
0.7602396917
 40
1.0
 40
1.0
 40
1.0
 40
1.0
 10
26.1801065083
 20
32.7398917602
 30
0.0
 10
26.1800045139
 20
32.762545907
 30
0.0
 10
26.1718813218
 20
32.8103232142
 30
0.0
 10
26.1427669706
 20
32.8778187819
 30
0.0
 10
26.1000277635
 20
32.9380173169
 30
0.0
 10
26.0633276002
 20
32.9703935492
 30
0.0
 10
26.0438155437
 20
32.9825908718
 30
0.0
  0
SPLINE
  5
305
100
AcDbEntity
  8
0
100
AcDbSpline
 62
7
  6
BYLAYER
 70
0
 71
3
 72
28
 73
24
 74
0
 42
0.0000001
 43
0.0000001
 44
0.0000000001
 40
0.0
 40
0.0
 40
0.0
 40
0.0
 40
0.005803487
 40
0.0126661711
 40
0.0200583825
 40
0.0274629459
 40
0.0425953088
 40
0.0578721623
 40
0.0732582547
 40
0.0887133788
 40
0.1197442771
 40
0.1508947119
 40
0.1821331762
 40
0.2134331462
 40
0.2447713614
 40
0.3075320744
 40
0.3703805355
 40
0.4332784407
 40
0.4962024829
 40
0.6221130244
 40
0.7480699883
 40
0.874038387
 40
1.0
 40
1.0
 40
1.0
 40
1.0
 10
15.4176007814
 20
38.2144991706
 30
0.0
 10
15.4165125325
 20
38.2131171375
 30
0.0
 10
15.4131372061
 20
38.210117282
 30
0.0
 10
15.4070233765
 20
38.213274789
 30
0.0
 10
15.4010388054
 20
38.215365153
 30
0.0
 10
15.3925846594
 20
38.218870329
 30
0.0
 10
15.3821830172
 20
38.2235933063
 30
0.0
 10
15.3696018211
 20
38.2294878931
 30
0.0
 10
15.3570319313
 20
38.2355964192
 30
0.0
 10
15.3402239413
 20
38.2439172945
 30
0.0
 10
15.3192188305
 20
38.2545253364
 30
0.0
 10
15.2940400128
 20
38.267480642
 30
0.0
 10
15.2688635529
 20
38.280617186
 30
0.0
 10
15.2436936738
 20
38.2938888047
 30
0.0
 10
15.2101284011
 20
38.3117229532
 30
0.0
 10
15.1682110555
 20
38.3342174035
 30
0.0
 10
15.1179861352
 20
38.3614597853
 30
0.0
 10
15.0678130904
 20
38.3889008329
 30
0.0
 10
15.0009798215
 20
38.425713959
 30
0.0
 10
14.9175991184
 20
38.4721005672
 30
0.0
 10
14.8177913257
 20
38.5282626575
 30
0.0
 10
14.7182238299
 20
38.5848809176
 30
0.0
 10
14.6520093995
 20
38.6229165636
 30
0.0
 10
14.6189447395
 20
38.6420059371
 30
0.0
  0
SPLINE
  5
306
100
AcDbEntity
  8
0
100
AcDbSpline
 62
7
  6
BYLAYER
 70
0
 71
3
 72
9
 73
5
 74
0
 42
0.0000001
 43
0.0000001
 44
0.0000000001
 40
0.0
 40
0.0
 40
0.0
 40
0.0
 40
0.4744858582
 40
1.0
 40
1.0
 40
1.0
 40
1.0
 10
26.1767812879
 20
39.0633504644
 30
0.0
 10
26.1766829472
 20
39.0754543288
 30
0.0
 10
26.1721973603
 20
39.1010175306
 30
0.0
 10
26.1613436715
 20
39.1242968028
 30
0.0
 10
26.1549393261
 20
39.1360741305
 30
0.0
  0
SPLINE
  5
307
100
AcDbEntity
  8
0
100
AcDbSpline
 62
7
  6
BYLAYER
 70
0
 71
3
 72
9
 73
5
 74
0
 42
0.0000001
 43
0.0000001
 44
0.0000000001
 40
0.0
 40
0.0
 40
0.0
 40
0.0
 40
0.2321250009
 40
1.0
 40
1.0
 40
1.0
 40
1.0
 10
26.1603526858
 20
33.1057661847
 30
0.0
 10
26.1621637146
 20
33.1071243621
 30
0.0
 10
26.1692468995
 20
33.1139492708
 30
0.0
 10
26.1732133173
 20
33.1234189819
 30
0.0
 10
26.1749997211
 20
33.1306912553
 30
0.0
  0
SPLINE
  5
308
100
AcDbEntity
  8
0
100
AcDbSpline
 62
7
  6
BYLAYER
 70
0
 71
3
 72
9
 73
5
 74
0
 42
0.0000001
 43
0.0000001
 44
0.0000000001
 40
0.0
 40
0.0
 40
0.0
 40
0.0
 40
0.2371326641
 40
1.0
 40
1.0
 40
1.0
 40
1.0
 10
26.1749997211
 20
33.1306912553
 30
0.0
 10
26.1753145285
 20
33.131972805
 30
0.0
 10
26.1764880734
 20
33.1374128549
 30
0.0
 10
26.1769257884
 20
33.1430198314
 30
0.0
 10
26.1767812879
 20
33.1472627466
 30
0.0
  0
SPLINE
  5
309
100
AcDbEntity
  8
0
100
AcDbSpline
 62
7
  6
BYLAYER
 70
0
 71
3
 72
24
 73
20
 74
0
 42
0.0000001
 43
0.0000001
 44
0.0000000001
 40
0.0
 40
0.0
 40
0.0
 40
0.0
 40
0.0612322244
 40
0.1261935003
 40
0.1942573571
 40
0.2646826393
 40
0.336607803
 40
0.4091172554
 40
0.4812700436
 40
0.5521396276
 40
0.6208513403
 40
0.686622251
 40
0.7488051971
 40
0.8069396765
 40
0.860812501
 40
0.9105291625
 40
0.9565883801
 40
0.97855663
 40
1.0
 40
1.0
 40
1.0
 40
1.0
 10
35.3761276186
 20
59.6723598761
 30
0.0
 10
35.7047328676
 20
59.4826438391
 30
0.0
 10
36.358035439
 20
59.0492580822
 30
0.0
 10
37.2869126686
 20
58.280712557
 30
0.0
 10
38.1788952311
 20
57.3872437024
 30
0.0
 10
39.0168318726
 20
56.3862311674
 30
0.0
 10
39.7847055532
 20
55.2967313654
 30
0.0
 10
40.4677618151
 20
54.1397443522
 30
0.0
 10
41.0528491303
 20
52.9375028478
 30
0.0
 10
41.5287183637
 20
51.7131297383
 30
0.0
 10
41.8862318934
 20
50.4901138837
 30
0.0
 10
42.1185179422
 20
49.2918177994
 30
0.0
 10
42.2210335591
 20
48.1409636224
 30
0.0
 10
42.191570428
 20
47.0591935957
 30
0.0
 10
42.0299171459
 20
46.0665586429
 30
0.0
 10
41.7380371709
 20
45.1818368362
 30
0.0
 10
41.3826979407
 20
44.5383156358
 30
0.0
 10
41.0388609456
 20
44.102159578
 30
0.0
 10
40.8489887019
 20
43.9105697522
 30
0.0
 10
40.7500186487
 20
43.8219040911
 30
0.0
  0
SPLINE
  5
30A
100
AcDbEntity
  8
0
100
AcDbSpline
 62
7
  6
BYLAYER
 70
0
 71
3
 72
13
 73
9
 74
0
 42
0.0000001
 43
0.0000001
 44
0.0000000001
 40
0.0
 40
0.0
 40
0.0
 40
0.0
 40
0.2825806637
 40
0.5418521542
 40
0.6632447848
 40
0.7796207774
 40
0.8915995753
 40
1.0
 40
1.0
 40
1.0
 40
1.0
 10
36.1326929123
 20
59.960499283
 30
0.0
 10
35.8026477644
 20
60.1510466272
 30
0.0
 10
35.1454898419
 20
60.476841052
 30
0.0
 10
34.2875172566
 20
60.7463421732
 30
0.0
 10
33.6248992218
 20
60.8541204716
 30
0.0
 10
33.15311885
 20
60.8820309658
 30
0.0
 10
32.6986221072
 20
60.8584158214
 30
0.0
 10
32.404886128
 20
60.8075583155
 30
0.0
 10
32.2627230329
 20
60.7734662776
 30
0.0
  0
ELLIPSE
  5
30B
100
AcDbEntity
  8
0
100
AcDbEllipse
 62
7
  6
BYLAYER
 10
27.5843615916
 20
33.0778834464
 30
0.0
 11
0.9999163136
 21
-0.0229562587
 31
0.0
 40
0.5614199498
 41
-2.3433018602
 42
-2.2017637471
  0
ELLIPSE
  5
30C
100
AcDbEntity
  8
0
100
AcDbEllipse
 62
7
  6
BYLAYER
 10
8.2228212357
 20
44.2560210996
 30
0.0
 11
0.9999163136
 21
-0.0229562587
 31
0.0
 40
0.5614199498
 41
-2.4848399734
 42
-2.3433018602
  0
ELLIPSE
  5
30D
100
AcDbEntity
  8
0
100
AcDbEllipse
 62
7
  6
BYLAYER
 10
1115.9563955054
 20
941.9844886392
 30
0.0
 11
1112.566302525
 21
887.4038405467
 31
0.0
 40
0.1727490071
 41
-3.1096122353
 42
-3.0382136853
  0
ELLIPSE
  5
30E
100
AcDbEntity
  8
0
100
AcDbEllipse
 62
7
  6
BYLAYER
 10
8310.2871333331
 20
5095.6084829718
 30
0.0
 11
8300.8358331364
 21
5052.500455402
 31
0.0
 40
0.0237915238
 41
3.1182395534
 42
3.1189034397
  0
ELLIPSE
  5
30F
100
AcDbEntity
  8
0
100
AcDbEllipse
 62
7
  6
BYLAYER
 10
8.2228212357
 20
50.3232543105
 30
0.0
 11
0.9998939333
 21
0.0244878907
 31
0.0
 40
0.592987056
 41
-2.5122499617
 42
-2.3707118486
  0
ELLIPSE
  5
310
100
AcDbEntity
  8
0
100
AcDbEllipse
 62
7
  6
BYLAYER
 10
8310.2871333331
 20
5095.6084829718
 30
0.0
 11
8300.8358331364
 21
5052.5004554019
 31
0.0
 40
0.0237915238
 41
-3.0928833175
 42
-3.0922194312
  0
ELLIPSE
  5
311
100
AcDbEntity
  8
0
100
AcDbEllipse
 62
7
  6
BYLAYER
 10
27.5843615916
 20
39.1451166573
 30
0.0
 11
0.9998939333
 21
0.0244878907
 31
0.0
 40
0.592987056
 41
-2.3707118486
 42
-2.2291737354
  0
ENDSEC
  0
SECTION
  2
OBJECTS
  0
DICTIONARY
  5
C
100
AcDbDictionary
280
0
281
1
  3
ACAD_GROUP
350
D
  3
ACAD_MLINESTYLE
350
17
  3
ACAD_LAYOUT
350
1A
  3
ACAD_PLOTSETTINGS
350
19
  3
ACAD_PLOTSTYLENAME
350
E
  0
DICTIONARY
  5
D
102
{ACAD_REACTORS
330
C
102
}
100
AcDbDictionary
280
0
281
1
  0
ACDBDICTIONARYWDFLT
  5
E
102
{ACAD_REACTORS
330
C
102
}
100
AcDbDictionary
281
1
  3
Normal
350
F
100
AcDbDictionaryWithDefault
340
F
  0
DICTIONARY
  5
17
102
{ACAD_REACTORS
330
C
102
}
100
AcDbDictionary
280
0
281
1
  3
Standard
350
18
  0
DICTIONARY
  5
19
102
{ACAD_REACTORS
330
C
102
}
100
AcDbDictionary
281
1
  0
DICTIONARY
  5
1A
102
{ACAD_REACTORS
330
C
102
}
100
AcDbDictionary
281
1
  3
Model
350
312
  3
Layout1
350
313
  0
ACDBPLACEHOLDER
  5
F
102
{ACAD_REACTORS
330
E
102
}
  0
MLINESTYLE
  5
18
102
{ACAD_REACTORS
330
17
102
}
100
AcDbMlineStyle
  2
STANDARD
 70
0
  3

 62
256
 51
90.0
 52
90.0
 71
2
 49
0.5
 62
256
  6
BYLAYER
 49
-0.5
 62
256
  6
BYLAYER
  0
LAYOUT
  5
312
102
{ACAD_REACTORS
330
1A
102
}
100
AcDbPlotSettings
  1

  2
none_device
  4

  6

 40
0.0
 41
0.0
 42
0.0
 43
0.0
 44
210.0
 45
297.0
 46
0.0
 47
0.0
 48
0.0
 49
0.0
140
0.0
141
0.0
142
1.0
143
1.0
 70
1024
 72
1
 73
0
 74
0
  7

 75
0
147
1.0
148
0.0
149
0.0
100
AcDbLayout
  1
Model
 70
0
 71
0
 10
0.0
 20
0.0
 11
210.0
 21
297.0
 12
0.0
 22
0.0
 32
0.0
 14
0.0
 24
0.0
 34
0.0
 15
0.0
 25
0.0
 35
0.0
146
0.0
 13
0.0
 23
0.0
 33
0.0
 16
1.0
 26
0.0
 36
0.0
 17
0.0
 27
1.0
 37
0.0
 76
0
330
210
345
0
346
0
  0
LAYOUT
  5
313
102
{ACAD_REACTORS
330
1A
102
}
100
AcDbPlotSettings
  1

  2
none_device
  4

  6

 40
0.0
 41
0.0
 42
0.0
 43
0.0
 44
210.0
 45
297.0
 46
0.0
 47
0.0
 48
0.0
 49
0.0
140
0.0
141
0.0
142
1.0
143
1.0
 70
0
 72
1
 73
0
 74
0
  7

 75
0
147
1.0
148
0.0
149
0.0
100
AcDbLayout
  1
Layout1
 70
0
 71
1
 10
0.0
 20
0.0
 11
210.0
 21
297.0
 12
0.0
 22
0.0
 32
0.0
 14
0.0
 24
0.0
 34
0.0
 15
0.0
 25
0.0
 35
0.0
146
0.0
 13
0.0
 23
0.0
 33
0.0
 16
1.0
 26
0.0
 36
0.0
 17
0.0
 27
1.0
 37
0.0
 76
0
330
211
345
0
346
0
  0
ENDSEC
  0
EOF
