999
DXF file: C:\Users\sesa63760\Dev\_Creo\CAD\MCADID0004544_3D-CAD\drw0001_1.dxf
999
Pro/ENGINEER 2019471 by Parametric Technology Corporation
  0
SECTION
  2
HEADER
  9
$ACADVER
  1
AC1024
  9
$DWGCODEPAGE
  3
ANSI_1252
  9
$EXTMAX
 10
81.739165365
 20
115.6025338734
 30
0.0
  9
$EXTMIN
 10
0.0
 20
0.0
 30
0.0
  9
$LIMMIN
 10
0.0
 20
0.0
  9
$LIMMAX
 10
81.739165365
 20
115.6025338734
  9
$VIEWCTR
 10
40.8695826825
 20
57.8012669367
  9
$VIEWSIZE
 40
115.6025338734
  9
$CLAYER
  8
0
  9
$LTSCALE
 40
7.5355725784
  9
$CELTYPE
  6
BYLAYER
  9
$DIMSCALE
 40
1.0
  9
$DIMASZ
 40
0.973085302
  9
$DIMEXO
 40
1.0
  9
$DIMDLI
 40
5.2063955996
  9
$DIMEXE
 40
1.0
  9
$DIMCEN
 40
1.2330936946
  9
$DIMLFAC
 40
1.0
  9
$DIMBLK
  1
_FILLED
  9
$DIMALT
 70
0
  9
$DIMALTF
 40
0.0393700787
  9
$DIMTXT
 40
1.3623194228
  9
$DIMTOL
 70
1
  9
$DIMLIM
 70
0
  9
$DIMTFAC
 40
1.0
  9
$DIMTP
 40
0.01
  9
$DIMTM
 40
0.01
  9
$DIMGAP
 40
0.625
  9
$DIMDSEP
 70
46
  9
$AUNITS
 70
0
  9
$PDMODE
 70
3
  9
$PDSIZE
 40
0.3125
  9
$HANDSEED
  5
2B1
  9
$TILEMODE
 70
1
  9
$MEASUREMENT
 70
1
  9
$INSUNITS
 70
4
  0
ENDSEC
  0
SECTION
  2
CLASSES
  0
CLASS
  1
ACDBDICTIONARYWDFLT
  2
AcDbDictionaryWithDefault
  3
AutoCAD 2000
 90
0
 91
1
280
0
281
0
  0
CLASS
  1
ACDBPLACEHOLDER
  2
AcDbPlaceHolder
  3
AutoCAD 2000
 90
0
 91
1
280
0
281
0
  0
CLASS
  1
LAYOUT
  2
AcDbLayout
  3
AutoCAD 2000
 90
0
 91
0
280
0
281
0
  0
ENDSEC
  0
SECTION
  2
TABLES
  0
TABLE
  2
VPORT
  5
8
100
AcDbSymbolTable
 70
2
  0
VPORT
  5
1F4
100
AcDbSymbolTableRecord
100
AcDbViewportTableRecord
  2
*ACTIVE
 70
0
 10
0.0
 20
0.0
 11
1.0
 21
1.0
 12
40.8695826825
 22
57.8012669367
 13
0.0
 23
0.0
 14
1.0
 24
1.0
 15
0.0
 25
0.0
 16
0.0
 26
0.0
 36
1.0
 17
0.0
 27
0.0
 37
0.0
 40
115.6025338734
 41
0.7070707071
 42
50.0
 43
0.0
 44
0.0
 50
0.0
 51
0.0
 71
0
 72
100
 73
1
 74
1
 75
0
 76
0
 77
0
 78
0
  0
ENDTAB
  0
TABLE
  2
LTYPE
  5
5
100
AcDbSymbolTable
 70
6
  0
LTYPE
  5
14
100
AcDbSymbolTableRecord
100
AcDbLinetypeTableRecord
  2
BYBLOCK
 70
0
  3

 72
65
 73
0
 40
0.0
  0
LTYPE
  5
15
100
AcDbSymbolTableRecord
100
AcDbLinetypeTableRecord
  2
BYLAYER
 70
0
  3

 72
65
 73
0
 40
0.0
  0
LTYPE
  5
16
100
AcDbSymbolTableRecord
100
AcDbLinetypeTableRecord
  2
CONTINUOUS
 70
64
  3
Solid line
 72
65
 73
0
 40
0.0
  0
LTYPE
  5
1F5
100
AcDbSymbolTableRecord
100
AcDbLinetypeTableRecord
  2
CENTER
 70
64
  3
____ _ ____ _ ____ _ ____ _ ____ _ ____ _ ____
 72
65
 73
4
 40
0.6
 49
0.375
 74
0
 49
-0.075
 74
0
 49
0.075
 74
0
 49
-0.075
 74
0
  0
LTYPE
  5
1F6
100
AcDbSymbolTableRecord
100
AcDbLinetypeTableRecord
  2
HIDDEN
 70
64
  3
- - - - - - - - - - - - - - - - - - - -
 72
65
 73
2
 40
0.2
 49
0.1
 74
0
 49
-0.1
 74
0
  0
LTYPE
  5
1F7
100
AcDbSymbolTableRecord
100
AcDbLinetypeTableRecord
  2
PHANTOM
 70
64
  3
_____ _ _ _____ _ _ _____ _ _ _____
 72
65
 73
6
 40
0.8
 49
0.45
 74
0
 49
-0.05
 74
0
 49
0.1
 74
0
 49
-0.05
 74
0
 49
0.1
 74
0
 49
-0.05
 74
0
  0
LTYPE
  5
1F8
100
AcDbSymbolTableRecord
100
AcDbLinetypeTableRecord
  2
DOT
 70
64
  3
. . . . . . . . . . . . . . . . . . . .
 72
65
 73
2
 40
0.2
 49
0.1
 74
0
 49
-0.1
 74
0
  0
LTYPE
  5
1F9
100
AcDbSymbolTableRecord
100
AcDbLinetypeTableRecord
  2
DASHED
 70
64
  3
- - - - - - - - - - - - - - - - - - - -
 72
65
 73
2
 40
0.2
 49
0.1
 74
0
 49
-0.1
 74
0
  0
ENDTAB
  0
TABLE
  2
LAYER
  5
2
100
AcDbSymbolTable
 70
36
  0
LAYER
  5
10
100
AcDbSymbolTableRecord
100
AcDbLayerTableRecord
  2
0
 70
0
 62
7
  6
CONTINUOUS
370
-3
390
F
  0
LAYER
  5
1FA
100
AcDbSymbolTableRecord
100
AcDbLayerTableRecord
  2
DEFAULT_1
 70
0
 62
7
  6
CENTER
370
-3
390
F
  0
LAYER
  5
1FB
100
AcDbSymbolTableRecord
100
AcDbLayerTableRecord
  2
DEFAULT_2
 70
0
 62
7
  6
HIDDEN
370
-3
390
F
  0
LAYER
  5
1FC
100
AcDbSymbolTableRecord
100
AcDbLayerTableRecord
  2
DEFAULT_3
 70
0
 62
7
  6
PHANTOM
370
-3
390
F
  0
LAYER
  5
1FD
100
AcDbSymbolTableRecord
100
AcDbLayerTableRecord
  2
00_COMPONENTS
 70
0
 62
7
  6
CONTINUOUS
370
-3
390
F
  0
LAYER
  5
1FE
100
AcDbSymbolTableRecord
100
AcDbLayerTableRecord
  2
01_1_DEFAULT_DATUMS
 70
0
 62
7
  6
CONTINUOUS
370
-3
390
F
  0
LAYER
  5
1FF
100
AcDbSymbolTableRecord
100
AcDbLayerTableRecord
  2
01_PLANES
 70
0
 62
7
  6
CONTINUOUS
370
-3
390
F
  0
LAYER
  5
200
100
AcDbSymbolTableRecord
100
AcDbLayerTableRecord
  2
02_COORD_SYS
 70
0
 62
7
  6
CONTINUOUS
370
-3
390
F
  0
LAYER
  5
201
100
AcDbSymbolTableRecord
100
AcDbLayerTableRecord
  2
03_AXES
 70
0
 62
7
  6
CONTINUOUS
370
-3
390
F
  0
LAYER
  5
202
100
AcDbSymbolTableRecord
100
AcDbLayerTableRecord
  2
04_POINTS
 70
0
 62
7
  6
CONTINUOUS
370
-3
390
F
  0
LAYER
  5
203
100
AcDbSymbolTableRecord
100
AcDbLayerTableRecord
  2
05_CURVES
 70
0
 62
7
  6
CONTINUOUS
370
-3
390
F
  0
LAYER
  5
204
100
AcDbSymbolTableRecord
100
AcDbLayerTableRecord
  2
06_SURFS
 70
0
 62
7
  6
CONTINUOUS
370
-3
390
F
  0
LAYER
  5
205
100
AcDbSymbolTableRecord
100
AcDbLayerTableRecord
  2
07_COSMETICS
 70
0
 62
7
  6
CONTINUOUS
370
-3
390
F
  0
LAYER
  5
206
100
AcDbSymbolTableRecord
100
AcDbLayerTableRecord
  2
10_NOTES
 70
0
 62
7
  6
CONTINUOUS
370
-3
390
F
  0
LAYER
  5
207
100
AcDbSymbolTableRecord
100
AcDbLayerTableRecord
  2
11_NOTES_PUB
 70
0
 62
7
  6
CONTINUOUS
370
-3
390
F
  0
LAYER
  5
208
100
AcDbSymbolTableRecord
100
AcDbLayerTableRecord
  2
13_REF_GTOL
 70
0
 62
7
  6
CONTINUOUS
370
-3
390
F
  0
LAYER
  5
209
100
AcDbSymbolTableRecord
100
AcDbLayerTableRecord
  2
16_MISC
 70
0
 62
7
  6
CONTINUOUS
370
-3
390
F
  0
LAYER
  5
20A
100
AcDbSymbolTableRecord
100
AcDbLayerTableRecord
  2
17_NO_PRINT
 70
0
 62
7
  6
CONTINUOUS
370
-3
390
F
  0
LAYER
  5
20B
100
AcDbSymbolTableRecord
100
AcDbLayerTableRecord
  2
18_DATUM_CAMS_JOINTS
 70
0
 62
7
  6
CONTINUOUS
370
-3
390
F
  0
LAYER
  5
20C
100
AcDbSymbolTableRecord
100
AcDbLayerTableRecord
  2
19_DATUM_FUNCTIONAL
 70
0
 62
7
  6
CONTINUOUS
370
-3
390
F
  0
LAYER
  5
20D
100
AcDbSymbolTableRecord
100
AcDbLayerTableRecord
  2
20_DATUM_KINEMATIC_SCHEME
 70
0
 62
7
  6
CONTINUOUS
370
-3
390
F
  0
ENDTAB
  0
TABLE
  2
STYLE
  5
3
100
AcDbSymbolTable
 70
1
  0
STYLE
  5
11
100
AcDbSymbolTableRecord
100
AcDbTextStyleTableRecord
  2
STANDARD
 70
0
 40
0.0
 41
1.0
 50
0.0
 71
0
 42
0.2
  3
ARIAL.TTF
  4

  0
STYLE
  5
20E
100
AcDbSymbolTableRecord
100
AcDbTextStyleTableRecord
  2
TEXTSTYLE_1
 70
0
 40
0.0
 41
0.8
 50
0.0
 71
0
 42
0.2
  3
gdt
  4

  0
ENDTAB
  0
TABLE
  2
VIEW
  5
6
100
AcDbSymbolTable
 70
0
  0
ENDTAB
  0
TABLE
  2
UCS
  5
7
100
AcDbSymbolTable
 70
0
  0
ENDTAB
  0
TABLE
  2
APPID
  5
9
100
AcDbSymbolTable
 70
1
  0
APPID
  5
20F
100
AcDbSymbolTableRecord
100
AcDbRegAppTableRecord
  2
ACAD
 70
0
  0
ENDTAB
  0
TABLE
  2
BLOCK_RECORD
  5
1
100
AcDbSymbolTable
 70
0
  0
BLOCK_RECORD
  5
210
100
AcDbSymbolTableRecord
100
AcDbBlockTableRecord
  2
*Model_Space
  0
BLOCK_RECORD
  5
211
100
AcDbSymbolTableRecord
100
AcDbBlockTableRecord
  2
*Paper_Space
  0
BLOCK_RECORD
  5
212
100
AcDbSymbolTableRecord
100
AcDbBlockTableRecord
  2
_FILLED
  0
ENDTAB
  0
TABLE
  2
DIMSTYLE
  5
A
100
AcDbSymbolTable
 70
1
100
AcDbDimStyleTable
 71
0
  0
DIMSTYLE
105
213
100
AcDbSymbolTableRecord
100
AcDbDimStyleTableRecord
  2
STANDARD
 70
0
  3

  4

 40
1.0
 41
0.973085302
 42
1.0
 43
0.38
 44
1.0
 45
0.0
 46
0.0
 47
0.01
 48
0.01
140
1.3623194228
141
0.09
142
0.0
143
25.4
144
1.0
145
0.0
146
1.0
147
0.625
 71
1
 72
0
 73
0
 74
0
 75
0
 76
0
 77
1
 78
8
 79
2
170
0
171
1
172
0
173
0
174
0
175
0
176
0
177
0
178
0
270
2
179
2
271
2
272
2
273
2
274
2
275
0
280
0
281
0
282
0
283
1
284
8
285
0
286
0
287
3
288
0
340
11
278
46
341
212
342
212
343
212
344
212
  0
ENDTAB
  0
ENDSEC
  0
SECTION
  2
BLOCKS
  0
BLOCK
  5
20
100
AcDbEntity
  8
0
100
AcDbBlockBegin
  2
*Model_Space
 70
0
 10
0.0
 20
0.0
 30
0.0
  3
*Model_Space
  1

  0
ENDBLK
  5
21
100
AcDbEntity
  8
0
100
AcDbBlockEnd
  0
BLOCK
  5
1C
100
AcDbEntity
  8
0
100
AcDbBlockBegin
  2
*Paper_Space
 70
0
 10
0.0
 20
0.0
 30
0.0
  3
*Paper_Space
  1

  0
ENDBLK
  5
1D
100
AcDbEntity
  8
0
100
AcDbBlockEnd
  0
BLOCK
  5
214
100
AcDbEntity
  8
0
100
AcDbBlockBegin
  2
_FILLED
 70
64
 10
0.0
 20
0.0
  3
_FILLED
  1

  0
SOLID
  5
215
100
AcDbEntity
  8
0
  6
BYBLOCK
 62
0
100
AcDbTrace
 10
0.0
 20
0.0
 11
-1.0
 21
0.25
 12
-1.0
 22
-0.25
 13
-1.0
 23
-0.25
  0
ENDBLK
  5
216
100
AcDbEntity
  8
0
  6
BYBLOCK
 62
0
100
AcDbBlockEnd
  0
ENDSEC
  0
SECTION
  2
ENTITIES
  0
LINE
  5
217
100
AcDbEntity
  8
0
100
AcDbLine
 62
7
  6
BYLAYER
 10
10.380716577
 20
71.7008573083
 11
10.3807129647
 21
72.2017707996
  0
LINE
  5
218
100
AcDbEntity
  8
0
100
AcDbLine
 62
7
  6
BYLAYER
 10
14.1894619666
 20
78.7988302043
 11
14.6232662867
 21
79.0492944062
  0
LINE
  5
219
100
AcDbEntity
  8
0
100
AcDbLine
 62
7
  6
BYLAYER
 10
35.8026702001
 20
46.6875619584
 11
36.703331905
 21
46.1675764443
  0
LINE
  5
21A
100
AcDbEntity
  8
0
100
AcDbLine
 62
7
  6
BYLAYER
 10
49.8741537305
 20
38.5635709435
 11
50.7748154354
 21
38.0435854294
  0
LINE
  5
21B
100
AcDbEntity
  8
0
100
AcDbLine
 62
7
  6
BYLAYER
 10
41.8979670985
 20
46.06620295
 11
41.3143364546
 21
46.1222190863
  0
LINE
  5
21C
100
AcDbEntity
  8
0
100
AcDbLine
 62
7
  6
BYLAYER
 10
50.3117764693
 20
38.7023397608
 11
49.4111147645
 21
39.2223252749
  0
LINE
  5
21D
100
AcDbEntity
  8
0
100
AcDbLine
 62
7
  6
BYLAYER
 10
36.2402929389
 20
46.8263307757
 11
35.339631234
 21
47.3463162898
  0
LINE
  5
21E
100
AcDbEntity
  8
0
100
AcDbLine
 62
7
  6
BYLAYER
 10
59.8148447768
 20
37.6673387332
 11
59.299492283
 21
37.9648709032
  0
LINE
  5
21F
100
AcDbEntity
  8
0
100
AcDbLine
 62
7
  6
BYLAYER
 10
48.837791591
 20
44.0047999724
 11
41.3335011921
 21
48.3373060399
  0
LINE
  5
220
100
AcDbEntity
  8
0
100
AcDbLine
 62
7
  6
BYLAYER
 10
34.7663080605
 20
52.1287909874
 11
30.1315098907
 21
54.8046324227
  0
LINE
  5
221
100
AcDbEntity
  8
0
100
AcDbLine
 62
7
  6
BYLAYER
 10
28.8549258167
 20
56.3432404882
 11
24.5560367922
 21
58.8251490754
  0
LINE
  5
222
100
AcDbEntity
  8
0
100
AcDbLine
 62
7
  6
BYLAYER
 10
60.595750704
 20
38.0180812657
 11
63.1281934718
 21
36.5560078285
  0
LINE
  5
223
100
AcDbEntity
  8
0
100
AcDbLine
 62
7
  6
BYLAYER
 10
24.5560367922
 20
58.8251490754
 11
24.2362981685
 21
59.0406497469
  0
LINE
  5
224
100
AcDbEntity
  8
0
100
AcDbLine
 62
7
  6
BYLAYER
 10
16.7143991598
 20
64.903527421
 11
24.2362981685
 21
59.0406497469
  0
LINE
  5
225
100
AcDbEntity
  8
0
100
AcDbLine
 62
7
  6
BYLAYER
 10
16.0852631468
 20
65.2407617277
 11
16.8429929978
 21
64.8032960911
  0
LINE
  5
226
100
AcDbEntity
  8
0
100
AcDbLine
 62
7
  6
BYLAYER
 10
11.6233905013
 20
68.9541404214
 11
14.9038944784
 21
67.0601834142
  0
LINE
  5
227
100
AcDbEntity
  8
0
100
AcDbLine
 62
7
  6
BYLAYER
 10
35.339631234
 20
57.4300351934
 11
36.2402929389
 21
56.9100496793
  0
LINE
  5
228
100
AcDbEntity
  8
0
100
AcDbLine
 62
7
  6
BYLAYER
 10
49.4111147645
 20
49.3060441784
 11
50.3117764693
 21
48.7860586643
  0
LINE
  5
229
100
AcDbEntity
  8
0
100
AcDbLine
 62
7
  6
BYLAYER
 10
50.7748154354
 20
49.9794811476
 11
49.8741537305
 21
50.4994666617
  0
LINE
  5
22A
100
AcDbEntity
  8
0
100
AcDbLine
 62
7
  6
BYLAYER
 10
36.703331905
 20
58.1034721626
 11
35.8026702001
 21
58.6234576767
  0
LINE
  5
22B
100
AcDbEntity
  8
0
100
AcDbLine
 62
7
  6
BYLAYER
 10
17.6232886992
 20
79.3465040417
 11
20.9009780205
 21
77.4541720399
  0
LINE
  5
22C
100
AcDbEntity
  8
0
100
AcDbLine
 62
7
  6
BYLAYER
 10
23.0701446321
 20
77.3392050423
 11
23.8278744831
 21
76.9017394057
  0
LINE
  5
22D
100
AcDbEntity
  8
0
100
AcDbLine
 62
7
  6
BYLAYER
 10
32.5151941856
 20
73.3804426813
 11
32.8616958674
 21
73.2112980349
  0
LINE
  5
22E
100
AcDbEntity
  8
0
100
AcDbLine
 62
7
  6
BYLAYER
 10
37.2040405074
 20
70.704300904
 11
32.8616958674
 21
73.2112980349
  0
LINE
  5
22F
100
AcDbEntity
  8
0
100
AcDbLine
 62
7
  6
BYLAYER
 10
68.9014097792
 20
52.4042302252
 11
71.4338525471
 21
50.942156788
  0
LINE
  5
230
100
AcDbEntity
  8
0
100
AcDbLine
 62
7
  6
BYLAYER
 10
57.3798947635
 20
59.8576181175
 11
50.3333484678
 21
63.9258514824
  0
LINE
  5
231
100
AcDbEntity
  8
0
100
AcDbLine
 62
7
  6
BYLAYER
 10
43.3084112331
 20
67.9816091325
 11
39.1313571875
 21
70.3931778531
  0
LINE
  5
232
100
AcDbEntity
  8
0
100
AcDbLine
 62
7
  6
BYLAYER
 10
43.3653738337
 20
68.0316200438
 11
44.2660355386
 21
67.5116345297
  0
LINE
  5
233
100
AcDbEntity
  8
0
100
AcDbLine
 62
7
  6
BYLAYER
 10
57.4368573641
 20
59.9076290288
 11
58.337519069
 21
59.3876435147
  0
LINE
  5
234
100
AcDbEntity
  8
0
100
AcDbLine
 62
7
  6
BYLAYER
 10
59.2635970012
 20
59.9223116666
 11
58.3629352963
 21
60.4422971807
  0
LINE
  5
235
100
AcDbEntity
  8
0
100
AcDbLine
 62
7
  6
BYLAYER
 10
45.1921134707
 20
68.0463026816
 11
44.2914517659
 21
68.5662881957
  0
LINE
  5
236
100
AcDbEntity
  8
0
100
AcDbLine
 62
7
  6
BYLAYER
 10
45.1921134707
 20
46.0266880598
 11
45.2484504559
 21
46.0770601622
  0
LINE
  5
237
100
AcDbEntity
  8
0
100
AcDbLine
 62
7
  6
BYLAYER
 10
45.1921134707
 20
46.0266880598
 11
45.2506149817
 21
46.0746557551
  0
LINE
  5
238
100
AcDbEntity
  8
0
100
AcDbLine
 62
7
  6
BYLAYER
 10
23.6767734861
 20
76.9629863108
 11
32.5151941856
 21
73.3804426813
  0
LINE
  5
239
100
AcDbEntity
  8
0
100
AcDbLine
 62
7
  6
BYLAYER
 10
52.5824017419
 20
64.5726052638
 11
52.2420656692
 21
65.050029492
  0
LINE
  5
23A
100
AcDbEntity
  8
0
100
AcDbLine
 62
7
  6
BYLAYER
 10
51.8541553994
 20
67.8907316592
 11
52.7548171043
 21
67.3707461451
  0
LINE
  5
23B
100
AcDbEntity
  8
0
100
AcDbLine
 62
7
  6
BYLAYER
 10
65.9256389299
 20
59.7667406443
 11
66.8263006347
 21
59.2467551302
  0
LINE
  5
23C
100
AcDbEntity
  8
0
100
AcDbLine
 62
7
  6
BYLAYER
 10
59.2635970012
 20
37.9026970448
 11
59.3199339863
 21
37.9530691472
  0
LINE
  5
23D
100
AcDbEntity
  8
0
100
AcDbLine
 62
7
  6
BYLAYER
 10
59.2635970012
 20
37.9026970448
 11
59.3220985121
 21
37.9506647402
  0
ARC
  5
23E
100
AcDbEntity
  8
0
100
AcDbCircle
 62
7
  6
BYLAYER
 10
56.8951489478
 20
49.5826596395
 40
21.9160608127
100
AcDbArc
 50
157.1205786036
 51
160.4676626893
  0
ARC
  5
23F
100
AcDbEntity
  8
0
100
AcDbCircle
 62
7
  6
BYLAYER
 10
70.9666324783
 20
41.4586686245
 40
21.9160608127
100
AcDbArc
 50
157.1205786036
 51
160.4676626893
  0
ARC
  5
240
100
AcDbEntity
  8
0
100
AcDbCircle
 62
7
  6
BYLAYER
 10
55.8221887513
 20
50.1694956752
 40
21.7313275376
100
AcDbArc
 50
157.1063480889
 51
160.4818932041
  0
ARC
  5
241
100
AcDbEntity
  8
0
100
AcDbCircle
 62
7
  6
BYLAYER
 10
69.8936722817
 20
42.0455046602
 40
21.7313275375
100
AcDbArc
 50
157.1063480888
 51
160.4818932041
  0
ARC
  5
242
100
AcDbEntity
  8
0
100
AcDbCircle
 62
7
  6
BYLAYER
 10
67.2873829465
 20
43.8000520239
 40
18.4647536458
100
AcDbArc
 50
141.8558087843
 51
145.0970536999
  0
ARC
  5
243
100
AcDbEntity
  8
0
100
AcDbCircle
 62
7
  6
BYLAYER
 10
50.467846289
 20
56.8217486553
 40
13.2705060764
100
AcDbArc
 50
120.0208436263
 51
122.3579748034
  0
ARC
  5
244
100
AcDbEntity
  8
0
100
AcDbCircle
 62
7
  6
BYLAYER
 10
64.5393298195
 20
48.6977576404
 40
13.2705060764
100
AcDbArc
 50
120.0208436263
 51
122.3579748034
  0
ARC
  5
245
100
AcDbEntity
  8
0
100
AcDbCircle
 62
7
  6
BYLAYER
 10
38.17046977
 20
57.1030396181
 40
13.1144593523
100
AcDbArc
 50
300.0069371
 51
302.3718813297
  0
ARC
  5
246
100
AcDbEntity
  8
0
100
AcDbCircle
 62
7
  6
BYLAYER
 10
51.2876792393
 20
56.4352829713
 40
13.1144593523
100
AcDbArc
 50
120.0069371
 51
122.3718813297
  0
ARC
  5
247
100
AcDbEntity
  8
0
100
AcDbCircle
 62
7
  6
BYLAYER
 10
52.2419533004
 20
48.9790486031
 40
13.1144593523
100
AcDbArc
 50
300.0069371
 51
302.3718813297
  0
ARC
  5
248
100
AcDbEntity
  8
0
100
AcDbCircle
 62
7
  6
BYLAYER
 10
65.3591627697
 20
48.3112919564
 40
13.1144593523
100
AcDbArc
 50
120.0069371
 51
122.3718813297
  0
ARC
  5
249
100
AcDbEntity
  8
0
100
AcDbCircle
 62
7
  6
BYLAYER
 10
50.0011833806
 20
57.6235551752
 40
12.3427890313
100
AcDbArc
 50
117.5547854192
 51
120.0073762199
  0
ARC
  5
24A
100
AcDbEntity
  8
0
100
AcDbCircle
 62
7
  6
BYLAYER
 10
64.0726669111
 20
49.4995641602
 40
12.3427890313
100
AcDbArc
 50
117.5547854192
 51
120.0073762199
  0
ARC
  5
24B
100
AcDbEntity
  8
0
100
AcDbCircle
 62
7
  6
BYLAYER
 10
38.6296494862
 20
56.3012334303
 40
12.1904858273
100
AcDbArc
 50
297.539462176
 51
300.0226994631
  0
ARC
  5
24C
100
AcDbEntity
  8
0
100
AcDbCircle
 62
7
  6
BYLAYER
 10
50.8284995231
 20
57.2370891591
 40
12.1904858273
100
AcDbArc
 50
117.539462176
 51
120.0226994631
  0
ARC
  5
24D
100
AcDbEntity
  8
0
100
AcDbCircle
 62
7
  6
BYLAYER
 10
52.7011330166
 20
48.1772424154
 40
12.1904858273
100
AcDbArc
 50
297.539462176
 51
300.0226994631
  0
ARC
  5
24E
100
AcDbEntity
  8
0
100
AcDbCircle
 62
7
  6
BYLAYER
 10
64.8999830535
 20
49.1130981442
 40
12.1904858272
100
AcDbArc
 50
117.539462176
 51
120.0226994631
  0
ARC
  5
24F
100
AcDbEntity
  8
0
100
AcDbCircle
 62
7
  6
BYLAYER
 10
39.1230249833
 20
62.179933025
 40
8.9726448847
100
AcDbArc
 50
120.0396695858
 51
123.1513221747
  0
ARC
  5
250
100
AcDbEntity
  8
0
100
AcDbCircle
 62
7
  6
BYLAYER
 10
37.0693393121
 20
58.9227820858
 40
8.8018405186
100
AcDbArc
 50
176.9748213382
 51
179.9874648256
  0
ARC
  5
251
100
AcDbEntity
  8
0
100
AcDbCircle
 62
7
  6
BYLAYER
 10
67.5344861785
 20
50.0376431911
 40
2.8136613379
100
AcDbArc
 50
51.6920619627
 51
60.0653869012
  0
ARC
  5
252
100
AcDbEntity
  8
0
100
AcDbCircle
 62
7
  6
BYLAYER
 10
61.9543732975
 20
40.3718823374
 40
2.7984389024
100
AcDbArc
 50
240.0820380445
 51
241.3919494541
  0
SPLINE
  5
253
100
AcDbEntity
  8
0
100
AcDbSpline
 62
7
  6
BYLAYER
 70
0
 71
3
 72
26
 73
22
 74
0
 42
0.0000001
 43
0.0000001
 44
0.0000000001
 40
0.0
 40
0.0
 40
0.0
 40
0.0
 40
0.0213311363
 40
0.0428905758
 40
0.0648949725
 40
0.0875385745
 40
0.135311386
 40
0.1607334141
 40
0.1872576103
 40
0.2436925624
 40
0.3046375382
 40
0.3697222005
 40
0.4383162517
 40
0.5095993677
 40
0.5826201701
 40
0.6563481868
 40
0.7297217452
 40
0.801694629
 40
0.8712838315
 40
0.9376197865
 40
1.0
 40
1.0
 40
1.0
 40
1.0
 10
41.333506094
 20
48.3373145323
 30
0.0
 10
41.2229360854
 20
48.4011575458
 30
0.0
 10
41.0085861036
 20
48.5439304987
 30
0.0
 10
40.7144029076
 20
48.7990340089
 30
0.0
 10
40.4483709427
 20
49.0940828864
 30
0.0
 10
40.1276203968
 20
49.5460486363
 30
0.0
 10
39.8758675492
 20
50.066743249
 30
0.0
 10
39.6918743169
 20
50.6350244227
 30
0.0
 10
39.5453547634
 20
51.2677603092
 30
0.0
 10
39.4526340153
 20
52.1274653767
 30
0.0
 10
39.4804973188
 20
53.2218791639
 30
0.0
 10
39.6440771575
 20
54.377594018
 30
0.0
 10
39.9397243565
 20
55.5702316747
 30
0.0
 10
40.3611006846
 20
56.7746944641
 30
0.0
 10
40.8992312976
 20
57.9653890074
 30
0.0
 10
41.5426441093
 20
59.1169505114
 30
0.0
 10
42.2776165644
 20
60.2048156743
 30
0.0
 10
43.0884658949
 20
61.20577593
 30
0.0
 10
43.9580258062
 20
62.0985806541
 30
0.0
 10
44.8677009973
 20
62.8641318518
 30
0.0
 10
45.5100695002
 20
63.293412343
 30
0.0
 10
45.83342483
 20
63.4801005153
 30
0.0
  0
SPLINE
  5
254
100
AcDbEntity
  8
0
100
AcDbSpline
 62
7
  6
BYLAYER
 70
0
 71
3
 72
11
 73
7
 74
0
 42
0.0000001
 43
0.0000001
 44
0.0000000001
 40
0.0
 40
0.0
 40
0.0
 40
0.0
 40
0.2326339188
 40
0.4759473277
 40
0.731412664
 40
1.0
 40
1.0
 40
1.0
 40
1.0
 10
41.8979704487
 20
46.0662115189
 30
0.0
 10
42.097373464
 20
46.0470781009
 30
0.0
 10
42.5083870585
 20
46.0356668354
 30
0.0
 10
43.1367032786
 20
46.0956094518
 30
0.0
 10
43.7846436295
 20
46.2312514218
 30
0.0
 10
44.2155322516
 20
46.3679723928
 30
0.0
 10
44.4326577551
 20
46.4476344162
 30
0.0
  0
SPLINE
  5
255
100
AcDbEntity
  8
0
100
AcDbSpline
 62
7
  6
BYLAYER
 70
0
 71
3
 72
9
 73
5
 74
0
 42
0.0000001
 43
0.0000001
 44
0.0000000001
 40
0.0
 40
0.0
 40
0.0
 40
0.0
 40
0.2461771807
 40
1.0
 40
1.0
 40
1.0
 40
1.0
 10
35.8026702001
 20
46.6875619584
 30
0.0
 10
35.7606747575
 20
46.7386187895
 30
0.0
 10
35.5941088813
 20
46.9493070084
 30
0.0
 10
35.4437403532
 20
47.1727054689
 30
0.0
 10
35.339631234
 20
47.3463162898
 30
0.0
  0
SPLINE
  5
256
100
AcDbEntity
  8
0
100
AcDbSpline
 62
7
  6
BYLAYER
 70
0
 71
3
 72
11
 73
7
 74
0
 42
0.0000001
 43
0.0000001
 44
0.0000000001
 40
0.0
 40
0.0
 40
0.0
 40
0.0
 40
0.2597151621
 40
0.513807829
 40
0.760959036
 40
1.0
 40
1.0
 40
1.0
 40
1.0
 10
35.339631234
 20
47.3463162898
 30
0.0
 10
35.246420763
 20
47.8076948074
 30
0.0
 10
35.0769140427
 20
48.7235906191
 30
0.0
 10
34.8818160303
 20
50.0893366984
 30
0.0
 10
34.7585479225
 20
51.4259559824
 30
0.0
 10
34.7292974987
 20
52.3073135733
 30
0.0
 10
34.7292974987
 20
52.7405441163
 30
0.0
  0
SPLINE
  5
257
100
AcDbEntity
  8
0
100
AcDbSpline
 62
7
  6
BYLAYER
 70
0
 71
3
 72
11
 73
7
 74
0
 42
0.0000001
 43
0.0000001
 44
0.0000000001
 40
0.0
 40
0.0
 40
0.0
 40
0.0
 40
0.2716847903
 40
0.5307386397
 40
0.7743479271
 40
1.0
 40
1.0
 40
1.0
 40
1.0
 10
36.703331905
 20
46.1675764443
 30
0.0
 10
37.098040719
 20
46.0873062441
 30
0.0
 10
37.8703667635
 20
45.9365635156
 30
0.0
 10
39.0015765725
 20
45.7402164261
 30
0.0
 10
40.0701633988
 20
45.5841880239
 30
0.0
 10
40.7618021517
 20
45.5071950531
 30
0.0
 10
41.0950174571
 20
45.4774298014
 30
0.0
  0
SPLINE
  5
258
100
AcDbEntity
  8
0
100
AcDbSpline
 62
7
  6
BYLAYER
 70
0
 71
3
 72
11
 73
7
 74
0
 42
0.0000001
 43
0.0000001
 44
0.0000000001
 40
0.0
 40
0.0
 40
0.0
 40
0.0
 40
0.2138609745
 40
0.4498736999
 40
0.7112735674
 40
1.0
 40
1.0
 40
1.0
 40
1.0
 10
44.2914517659
 20
68.5662881957
 30
0.0
 10
44.5161698174
 20
68.5943268915
 30
0.0
 10
44.9907987199
 20
68.6387409571
 30
0.0
 10
45.7439079817
 20
68.6650279944
 30
0.0
 10
46.5765703036
 20
68.648378056
 30
0.0
 10
47.1579457277
 20
68.6080806453
 30
0.0
 10
47.4624698474
 20
68.5808783022
 30
0.0
  0
SPLINE
  5
259
100
AcDbEntity
  8
0
100
AcDbSpline
 62
7
  6
BYLAYER
 70
0
 71
3
 72
11
 73
7
 74
0
 42
0.0000001
 43
0.0000001
 44
0.0000000001
 40
0.0
 40
0.0
 40
0.0
 40
0.0
 40
0.2477731512
 40
0.4973921748
 40
0.7482964972
 40
1.0
 40
1.0
 40
1.0
 40
1.0
 10
38.9736882816
 20
63.6799072349
 30
0.0
 10
39.2941563895
 20
64.0785763008
 30
0.0
 10
39.9626571619
 20
64.8589808989
 30
0.0
 10
41.0360426083
 20
65.9710159408
 30
0.0
 10
42.1725078095
 20
67.0302048733
 30
0.0
 10
42.9632555638
 20
67.7025241645
 30
0.0
 10
43.3653738337
 20
68.0316200438
 30
0.0
  0
SPLINE
  5
25A
100
AcDbEntity
  8
0
100
AcDbSpline
 62
7
  6
BYLAYER
 70
0
 71
3
 72
11
 73
7
 74
0
 42
0.0000001
 43
0.0000001
 44
0.0000000001
 40
0.0
 40
0.0
 40
0.0
 40
0.0
 40
0.2458891186
 40
0.4944449149
 40
0.7458370139
 40
1.0
 40
1.0
 40
1.0
 40
1.0
 10
35.8026702001
 20
58.6234576767
 30
0.0
 10
36.0181561404
 20
59.0637146656
 30
0.0
 10
36.4706644166
 20
59.9398087996
 30
0.0
 10
37.2191642857
 20
61.2252535806
 30
0.0
 10
38.0490071357
 20
62.4797533303
 30
0.0
 10
38.6562571823
 20
63.2850162716
 30
0.0
 10
38.9736882816
 20
63.6799072349
 30
0.0
  0
SPLINE
  5
25B
100
AcDbEntity
  8
0
100
AcDbSpline
 62
7
  6
BYLAYER
 70
0
 71
3
 72
9
 73
5
 74
0
 42
0.0000001
 43
0.0000001
 44
0.0000000001
 40
0.0
 40
0.0
 40
0.0
 40
0.0
 40
0.254188329
 40
1.0
 40
1.0
 40
1.0
 40
1.0
 10
53.2178560704
 20
66.7119918137
 30
0.0
 10
53.1827509618
 20
66.7705325714
 30
0.0
 10
53.0406112214
 20
66.9983846503
 30
0.0
 10
52.882043952
 20
67.2160674642
 30
0.0
 10
52.7548171043
 20
67.3707461451
 30
0.0
  0
SPLINE
  5
25C
100
AcDbEntity
  8
0
100
AcDbSpline
 62
7
  6
BYLAYER
 70
0
 71
3
 72
9
 73
5
 74
0
 42
0.0000001
 43
0.0000001
 44
0.0000000001
 40
0.0
 40
0.0
 40
0.0
 40
0.0
 40
0.4883302045
 40
1.0
 40
1.0
 40
1.0
 40
1.0
 10
53.8192986137
 20
61.9141150547
 30
0.0
 10
53.7960463395
 20
62.7015726148
 30
0.0
 10
53.6560623376
 20
64.3118878318
 30
0.0
 10
53.3813167369
 20
65.902884863
 30
0.0
 10
53.2178560704
 20
66.7119918137
 30
0.0
  0
SPLINE
  5
25D
100
AcDbEntity
  8
0
100
AcDbSpline
 62
7
  6
BYLAYER
 70
0
 71
3
 72
11
 73
7
 74
0
 42
0.0000001
 43
0.0000001
 44
0.0000000001
 40
0.0
 40
0.0
 40
0.0
 40
0.0
 40
0.2640505373
 40
0.518096522
 40
0.7629874112
 40
1.0
 40
1.0
 40
1.0
 40
1.0
 10
34.7292974987
 20
52.7405441163
 30
0.0
 10
34.7292974987
 20
53.157896334
 30
0.0
 10
34.7554933605
 20
53.9770967894
 30
0.0
 10
34.8766185464
 20
55.1778708489
 30
0.0
 10
35.070566226
 20
56.3256262009
 30
0.0
 10
35.2441806441
 20
57.0677827614
 30
0.0
 10
35.339631234
 20
57.4300351934
 30
0.0
  0
SPLINE
  5
25E
100
AcDbEntity
  8
0
100
AcDbSpline
 62
7
  6
BYLAYER
 70
0
 71
3
 72
11
 73
7
 74
0
 42
0.0000001
 43
0.0000001
 44
0.0000000001
 40
0.0
 40
0.0
 40
0.0
 40
0.0
 40
0.2256492086
 40
0.4692584096
 40
0.7283047998
 40
1.0
 40
1.0
 40
1.0
 40
1.0
 10
47.4624698474
 20
68.5808783022
 30
0.0
 10
47.7956809232
 20
68.5511134282
 30
0.0
 10
48.4873160057
 20
68.4741252147
 30
0.0
 10
49.5558841716
 20
68.3180775823
 30
0.0
 10
50.6871052963
 20
68.1217710824
 30
0.0
 10
51.4594314616
 20
67.9710049351
 30
0.0
 10
51.8541553994
 20
67.8907316592
 30
0.0
  0
SPLINE
  5
25F
100
AcDbEntity
  8
0
100
AcDbSpline
 62
7
  6
BYLAYER
 70
0
 71
3
 72
15
 73
11
 74
0
 42
0.0000001
 43
0.0000001
 44
0.0000000001
 40
0.0
 40
0.0
 40
0.0
 40
0.0
 40
0.1485791041
 40
0.289507903
 40
0.422722896
 40
0.5486396802
 40
0.6679999518
 40
0.7819374773
 40
0.8919864664
 40
1.0
 40
1.0
 40
1.0
 40
1.0
 10
45.83342483
 20
63.4801005153
 30
0.0
 10
46.036396346
 20
63.5972854752
 30
0.0
 10
46.4416141823
 20
63.8094043266
 30
0.0
 10
47.059697952
 20
64.062401883
 30
0.0
 10
47.6667895657
 20
64.2393861648
 30
0.0
 10
48.2571166915
 20
64.3383989636
 30
0.0
 10
48.8252071205
 20
64.3581773949
 30
0.0
 10
49.3655919966
 20
64.2979186072
 30
0.0
 10
49.872494558
 20
64.1577226007
 30
0.0
 10
50.1857913556
 20
64.0110394903
 30
0.0
 10
50.333343566
 20
63.92584299
 30
0.0
  0
SPLINE
  5
260
100
AcDbEntity
  8
0
100
AcDbSpline
 62
7
  6
BYLAYER
 70
0
 71
3
 72
11
 73
7
 74
0
 42
0.0000001
 43
0.0000001
 44
0.0000000001
 40
0.0
 40
0.0
 40
0.0
 40
0.0
 40
0.2690726974
 40
0.5246887975
 40
0.7678177748
 40
1.0
 40
1.0
 40
1.0
 40
1.0
 10
53.5309336683
 20
62.1189339457
 30
0.0
 10
53.4922838932
 20
62.3536338482
 30
0.0
 10
53.3962404706
 20
62.8082755938
 30
0.0
 10
53.1883114648
 20
63.4557544097
 30
0.0
 10
52.921791496
 20
64.0459583368
 30
0.0
 10
52.7015293178
 20
64.4054600557
 30
0.0
 10
52.5823936304
 20
64.5725951263
 30
0.0
  0
SPLINE
  5
261
100
AcDbEntity
  8
0
100
AcDbSpline
 62
7
  6
BYLAYER
 70
0
 71
3
 72
11
 73
7
 74
0
 42
0.0000001
 43
0.0000001
 44
0.0000000001
 40
0.0
 40
0.0
 40
0.0
 40
0.0
 40
0.2887226778
 40
0.5501130261
 40
0.7861436391
 40
1.0
 40
1.0
 40
1.0
 40
1.0
 10
41.0950174571
 20
45.4774298014
 30
0.0
 10
41.3995376526
 20
45.4502278087
 30
0.0
 10
41.9808992808
 20
45.4099222243
 30
0.0
 10
42.8135659279
 20
45.3933086811
 30
0.0
 10
43.5666821613
 20
45.4195298632
 30
0.0
 10
44.0413223081
 20
45.4639818136
 30
0.0
 10
44.2660355386
 20
45.4920199079
 30
0.0
  0
SPLINE
  5
262
100
AcDbEntity
  8
0
100
AcDbSpline
 62
7
  6
BYLAYER
 70
0
 71
3
 72
32
 73
28
 74
0
 42
0.0000001
 43
0.0000001
 44
0.0000000001
 40
0.0
 40
0.0
 40
0.0
 40
0.0
 40
0.0229486056
 40
0.0452994278
 40
0.0673183825
 40
0.0892927982
 40
0.1115129088
 40
0.1342531462
 40
0.1577562906
 40
0.1822238473
 40
0.20780974
 40
0.2346214672
 40
0.2627218997
 40
0.29213319
 40
0.3228429553
 40
0.3548067102
 40
0.3879543193
 40
0.4221926554
 40
0.4934504209
 40
0.5675363526
 40
0.6432098723
 40
0.7191424539
 40
0.7939912842
 40
0.8664739399
 40
0.935439439
 40
0.9683269426
 40
1.0
 40
1.0
 40
1.0
 40
1.0
 10
41.3143376151
 20
46.1222220563
 30
0.0
 10
41.1295832783
 20
46.1399503591
 30
0.0
 10
40.7665499949
 20
46.1975593222
 30
0.0
 10
40.2434327722
 20
46.3542965023
 30
0.0
 10
39.7542583607
 20
46.579165833
 30
0.0
 10
39.3027848088
 20
46.8705047941
 30
0.0
 10
38.892318298
 20
47.2261284468
 30
0.0
 10
38.5257676687
 20
47.6433022431
 30
0.0
 10
38.2054702515
 20
48.1188444847
 30
0.0
 10
37.9334532337
 20
48.6493684704
 30
0.0
 10
37.7112471908
 20
49.231166026
 30
0.0
 10
37.5401455542
 20
49.8603374325
 30
0.0
 10
37.421135192
 20
50.5327168565
 30
0.0
 10
37.3548341596
 20
51.2438816909
 30
0.0
 10
37.3416680145
 20
51.9891719977
 30
0.0
 10
37.3816178897
 20
52.7636888752
 30
0.0
 10
37.4744133486
 20
53.5623610572
 30
0.0
 10
37.6703914473
 20
54.6669829054
 30
0.0
 10
38.0458620683
 20
56.0732241657
 30
0.0
 10
38.6811260525
 20
57.7470329935
 30
0.0
 10
39.4905998531
 20
59.3861463752
 30
0.0
 10
40.4530524409
 20
60.9475294086
 30
0.0
 10
41.5433728826
 20
62.390471719
 30
0.0
 10
42.7329710668
 20
63.6770857028
 30
0.0
 10
43.79826776
 20
64.6060386979
 30
0.0
 10
44.6746479266
 20
65.2380844374
 30
0.0
 10
45.1175631316
 20
65.5155381717
 30
0.0
 10
45.3394082399
 20
65.6436197401
 30
0.0
  0
SPLINE
  5
263
100
AcDbEntity
  8
0
100
AcDbSpline
 62
7
  6
BYLAYER
 70
0
 71
3
 72
9
 73
5
 74
0
 42
0.0000001
 43
0.0000001
 44
0.0000000001
 40
0.0
 40
0.0
 40
0.0
 40
0.0
 40
0.254188329
 40
1.0
 40
1.0
 40
1.0
 40
1.0
 10
36.2402929389
 20
46.8263307757
 30
0.0
 10
36.2753980475
 20
46.7677900181
 30
0.0
 10
36.4175377879
 20
46.5399379391
 30
0.0
 10
36.5761050573
 20
46.3222551252
 30
0.0
 10
36.703331905
 20
46.1675764443
 30
0.0
  0
SPLINE
  5
264
100
AcDbEntity
  8
0
100
AcDbSpline
 62
7
  6
BYLAYER
 70
0
 71
3
 72
11
 73
7
 74
0
 42
0.0000001
 43
0.0000001
 44
0.0000000001
 40
0.0
 40
0.0
 40
0.0
 40
0.0
 40
0.2138609745
 40
0.4498736999
 40
0.7112735674
 40
1.0
 40
1.0
 40
1.0
 40
1.0
 10
52.7548171043
 20
67.3707461451
 30
0.0
 10
52.5300990527
 20
67.3427074493
 30
0.0
 10
52.0554701503
 20
67.2982933836
 30
0.0
 10
51.3023608885
 20
67.2720063464
 30
0.0
 10
50.4696985666
 20
67.2886562847
 30
0.0
 10
49.8883231425
 20
67.3289536954
 30
0.0
 10
49.5837990228
 20
67.3561560386
 30
0.0
  0
SPLINE
  5
265
100
AcDbEntity
  8
0
100
AcDbSpline
 62
7
  6
BYLAYER
 70
0
 71
3
 72
11
 73
7
 74
0
 42
0.0000001
 43
0.0000001
 44
0.0000000001
 40
0.0
 40
0.0
 40
0.0
 40
0.0
 40
0.2640505373
 40
0.518096522
 40
0.7629874112
 40
1.0
 40
1.0
 40
1.0
 40
1.0
 10
36.8506266742
 20
51.5158218528
 30
0.0
 10
36.8506266742
 20
51.0984696351
 30
0.0
 10
36.8244308124
 20
50.2792691797
 30
0.0
 10
36.7033056265
 20
49.0784951202
 30
0.0
 10
36.5093579469
 20
47.9307397682
 30
0.0
 10
36.3357435288
 20
47.1885832077
 30
0.0
 10
36.2402929389
 20
46.8263307757
 30
0.0
  0
SPLINE
  5
266
100
AcDbEntity
  8
0
100
AcDbSpline
 62
7
  6
BYLAYER
 70
0
 71
3
 72
20
 73
16
 74
0
 42
0.0000001
 43
0.0000001
 44
0.0000000001
 40
0.0
 40
0.0
 40
0.0
 40
0.0
 40
0.058221751
 40
0.1151345961
 40
0.1711532143
 40
0.2267270019
 40
0.2823242148
 40
0.3384123011
 40
0.3954373205
 40
0.4538097748
 40
0.5138900368
 40
0.5759829333
 40
0.7069976072
 40
0.848223086
 40
1.0
 40
1.0
 40
1.0
 40
1.0
 10
52.5823936304
 20
64.5725951263
 30
0.0
 10
52.4980576941
 20
64.6909097386
 30
0.0
 10
52.319578035
 20
64.9168372479
 30
0.0
 10
52.0204271972
 20
65.222809829
 30
0.0
 10
51.6946541208
 20
65.4900989765
 30
0.0
 10
51.3436674837
 20
65.7173252487
 30
0.0
 10
50.9691149357
 20
65.903552518
 30
0.0
 10
50.572660044
 20
66.0478294258
 30
0.0
 10
50.1561583701
 20
66.1496799161
 30
0.0
 10
49.7214602163
 20
66.2086228504
 30
0.0
 10
49.2704662467
 20
66.2245748971
 30
0.0
 10
48.6389113378
 20
66.1878201202
 30
0.0
 10
47.8156815272
 20
66.0286924043
 30
0.0
 10
46.8154291391
 20
65.6740550931
 30
0.0
 10
46.161448426
 20
65.3423632209
 30
0.0
 10
45.83342483
 20
65.1529798399
 30
0.0
  0
SPLINE
  5
267
100
AcDbEntity
  8
0
100
AcDbSpline
 62
7
  6
BYLAYER
 70
0
 71
3
 72
11
 73
7
 74
0
 42
0.0000001
 43
0.0000001
 44
0.0000000001
 40
0.0
 40
0.0
 40
0.0
 40
0.0
 40
0.2477731512
 40
0.4973921748
 40
0.7482964972
 40
1.0
 40
1.0
 40
1.0
 40
1.0
 10
41.0950174571
 20
62.4551849714
 30
0.0
 10
40.7745493491
 20
62.0565159055
 30
0.0
 10
40.1060485768
 20
61.2761113075
 30
0.0
 10
39.0326631304
 20
60.1640762655
 30
0.0
 10
37.8961979291
 20
59.104887333
 30
0.0
 10
37.1054501749
 20
58.4325680418
 30
0.0
 10
36.703331905
 20
58.1034721626
 30
0.0
  0
SPLINE
  5
268
100
AcDbEntity
  8
0
100
AcDbSpline
 62
7
  6
BYLAYER
 70
0
 71
3
 72
11
 73
7
 74
0
 42
0.0000001
 43
0.0000001
 44
0.0000000001
 40
0.0
 40
0.0
 40
0.0
 40
0.0
 40
0.2597151621
 40
0.513807829
 40
0.760959036
 40
1.0
 40
1.0
 40
1.0
 40
1.0
 10
36.2402929389
 20
56.9100496793
 30
0.0
 10
36.3335034099
 20
56.4486711617
 30
0.0
 10
36.5030101303
 20
55.53277535
 30
0.0
 10
36.6981081426
 20
54.1670292707
 30
0.0
 10
36.8213762504
 20
52.8304099867
 30
0.0
 10
36.8506266742
 20
51.9490523958
 30
0.0
 10
36.8506266742
 20
51.5158218528
 30
0.0
  0
SPLINE
  5
269
100
AcDbEntity
  8
0
100
AcDbSpline
 62
7
  6
BYLAYER
 70
0
 71
3
 72
20
 73
16
 74
0
 42
0.0000001
 43
0.0000001
 44
0.0000000001
 40
0.0
 40
0.0
 40
0.0
 40
0.0
 40
0.1490086001
 40
0.2879832738
 40
0.4176087264
 40
0.4793810191
 40
0.5394114925
 40
0.5980033154
 40
0.6555036382
 40
0.7122955516
 40
0.7687853606
 40
0.8253945205
 40
0.8825477913
 40
0.9406404095
 40
1.0
 40
1.0
 40
1.0
 40
1.0
 10
53.8074528505
 20
61.9902730773
 30
0.0
 10
53.7841145061
 20
62.3617785263
 30
0.0
 10
53.6996314967
 20
63.0783035611
 30
0.0
 10
53.4439151849
 20
64.0928858637
 30
0.0
 10
53.1237608395
 20
64.8578923855
 30
0.0
 10
52.8074962174
 20
65.4014022023
 30
0.0
 10
52.5459393741
 20
65.7692015777
 30
0.0
 10
52.2572269213
 20
66.1021318239
 30
0.0
 10
51.9424060316
 20
66.3988845862
 30
0.0
 10
51.6026693816
 20
66.6582303705
 30
0.0
 10
51.2393736172
 20
66.8791639862
 30
0.0
 10
50.8539086401
 20
67.0607523503
 30
0.0
 10
50.4477948443
 20
67.2023400066
 30
0.0
 10
50.0227453282
 20
67.3033247679
 30
0.0
 10
49.7314968837
 20
67.342962575
 30
0.0
 10
49.5837990228
 20
67.3561560386
 30
0.0
  0
SPLINE
  5
26A
100
AcDbEntity
  8
0
100
AcDbSpline
 62
7
  6
BYLAYER
 70
0
 71
3
 72
11
 73
7
 74
0
 42
0.0000001
 43
0.0000001
 44
0.0000000001
 40
0.0
 40
0.0
 40
0.0
 40
0.0
 40
0.2269485409
 40
0.4681217078
 40
0.7254714389
 40
1.0
 40
1.0
 40
1.0
 40
1.0
 10
41.0950174571
 20
45.4774298014
 30
0.0
 10
41.3803343436
 20
45.4519431901
 30
0.0
 10
41.9743787707
 20
45.4518892465
 30
0.0
 10
42.8820695116
 20
45.5936694182
 30
0.0
 10
43.8193404534
 20
45.8741492806
 30
0.0
 10
44.4365144565
 20
46.1424009492
 30
0.0
 10
44.7468682109
 20
46.2965062288
 30
0.0
  0
SPLINE
  5
26B
100
AcDbEntity
  8
0
100
AcDbSpline
 62
7
  6
BYLAYER
 70
0
 71
3
 72
19
 73
15
 74
0
 42
0.0000001
 43
0.0000001
 44
0.0000000001
 40
0.0
 40
0.0
 40
0.0
 40
0.0
 40
0.151814537
 40
0.2930199882
 40
0.4239849096
 40
0.5459524373
 40
0.6042922699
 40
0.661293991
 40
0.7173721011
 40
0.7729769439
 40
0.8285792166
 40
0.8846596827
 40
0.9416738691
 40
1.0
 40
1.0
 40
1.0
 40
1.0
 10
36.8506266742
 20
51.5158218528
 30
0.0
 10
36.8506266742
 20
51.1026110783
 30
0.0
 10
36.8940925491
 20
50.304009718
 30
0.0
 10
37.1056721602
 20
49.1658483099
 30
0.0
 10
37.4588840318
 20
48.14809866
 30
0.0
 10
37.8748615381
 20
47.4036206513
 30
0.0
 10
38.2725854591
 20
46.8933796617
 30
0.0
 10
38.597186569
 20
46.5569432818
 30
0.0
 10
38.9510787646
 20
46.262953633
 30
0.0
 10
39.3326139722
 20
46.012675353
 30
0.0
 10
39.740115723
 20
45.8073629302
 30
0.0
 10
40.1717146718
 20
45.6478713262
 30
0.0
 10
40.6253239847
 20
45.534991777
 30
0.0
 10
40.9368942472
 20
45.4915545342
 30
0.0
 10
41.0950174571
 20
45.4774298014
 30
0.0
  0
SPLINE
  5
26C
100
AcDbEntity
  8
0
100
AcDbSpline
 62
7
  6
BYLAYER
 70
0
 71
3
 72
15
 73
11
 74
0
 42
0.0000001
 43
0.0000001
 44
0.0000000001
 40
0.0
 40
0.0
 40
0.0
 40
0.0
 40
0.129847411
 40
0.2611866596
 40
0.3925260486
 40
0.5223738886
 40
0.6492905064
 40
0.7719421396
 40
0.8891589506
 40
1.0
 40
1.0
 40
1.0
 40
1.0
 10
41.0950174571
 20
62.4551849714
 30
0.0
 10
40.7712574927
 20
62.0524207669
 30
0.0
 10
40.1520335502
 20
61.2160029865
 30
0.0
 10
39.3199088129
 20
59.8922709993
 30
0.0
 10
38.5895492904
 20
58.5096657924
 30
0.0
 10
37.9733882417
 20
57.0916674154
 30
0.0
 10
37.4818179319
 20
55.6622217968
 30
0.0
 10
37.1231483723
 20
54.2453471489
 30
0.0
 10
36.903462717
 20
52.8650658937
 30
0.0
 10
36.8506266742
 20
51.9569401807
 30
0.0
 10
36.8506266742
 20
51.5158218528
 30
0.0
  0
SPLINE
  5
26D
100
AcDbEntity
  8
0
100
AcDbSpline
 62
7
  6
BYLAYER
 70
0
 71
3
 72
11
 73
7
 74
0
 42
0.0000001
 43
0.0000001
 44
0.0000000001
 40
0.0
 40
0.0
 40
0.0
 40
0.0
 40
0.232065918
 40
0.4774810713
 40
0.7342754496
 40
1.0
 40
1.0
 40
1.0
 40
1.0
 10
45.3394082399
 20
66.2189044376
 30
0.0
 10
44.9573924112
 20
65.9983488126
 30
0.0
 10
44.197360968
 20
65.4985369876
 30
0.0
 10
43.1118451653
 20
64.6181355122
 30
0.0
 10
42.0641860139
 20
63.5991464403
 30
0.0
 10
41.4114679463
 20
62.848856035
 30
0.0
 10
41.0950174571
 20
62.4551849714
 30
0.0
  0
SPLINE
  5
26E
100
AcDbEntity
  8
0
100
AcDbSpline
 62
7
  6
BYLAYER
 70
0
 71
3
 72
11
 73
7
 74
0
 42
0.0000001
 43
0.0000001
 44
0.0000000001
 40
0.0
 40
0.0
 40
0.0
 40
0.0
 40
0.2234035249
 40
0.4632869182
 40
0.7219272534
 40
1.0
 40
1.0
 40
1.0
 40
1.0
 10
49.5837990228
 20
67.3561560386
 30
0.0
 10
49.2531468558
 20
67.3856923319
 30
0.0
 10
48.5599256944
 20
67.3759612577
 30
0.0
 10
47.5020755576
 20
67.1729884769
 30
0.0
 10
46.4105783178
 20
66.7871555773
 30
0.0
 10
45.6972548297
 20
66.4255060293
 30
0.0
 10
45.3394082399
 20
66.2189044376
 30
0.0
  0
SPLINE
  5
26F
100
AcDbEntity
  8
0
100
AcDbSpline
 62
7
  6
BYLAYER
 70
0
 71
3
 72
19
 73
15
 74
0
 42
0.0000001
 43
0.0000001
 44
0.0000000001
 40
0.0
 40
0.0
 40
0.0
 40
0.0
 40
0.1517988795
 40
0.2930391422
 40
0.4240729861
 40
0.5461286381
 40
0.6045087121
 40
0.6615418545
 40
0.7176372731
 40
0.7732421572
 40
0.8288234739
 40
0.8848497175
 40
0.9417702099
 40
1.0
 40
1.0
 40
1.0
 40
1.0
 10
45.3394082399
 20
65.6436197401
 30
0.0
 10
45.6749052513
 20
65.8373178737
 30
0.0
 10
46.3437123345
 20
66.1765695966
 30
0.0
 10
47.3669846895
 20
66.5392557312
 30
0.0
 10
48.3591273869
 20
66.7312562782
 30
0.0
 10
49.159075912
 20
66.7446317913
 30
0.0
 10
49.7605473612
 20
66.6629980983
 30
0.0
 10
50.186562515
 20
66.5588680672
 30
0.0
 10
50.5920298134
 20
66.4112711979
 30
0.0
 10
50.9751273787
 20
66.2208325286
 30
0.0
 10
51.334094362
 20
65.9884096453
 30
0.0
 10
51.6672970311
 20
65.715048054
 30
0.0
 10
51.9732589071
 20
65.4021030516
 30
0.0
 10
52.1557947182
 20
65.1710245471
 30
0.0
 10
52.2420577786
 20
65.0500196186
 30
0.0
  0
SPLINE
  5
270
100
AcDbEntity
  8
0
100
AcDbSpline
 62
7
  6
BYLAYER
 70
0
 71
3
 72
33
 73
29
 74
0
 42
0.0000001
 43
0.0000001
 44
0.0000000001
 40
0.0
 40
0.0
 40
0.0
 40
0.0
 40
0.0316710886
 40
0.0645585294
 40
0.0985522672
 40
0.1335502342
 40
0.2060307785
 40
0.2808774608
 40
0.3568081652
 40
0.4324797916
 40
0.506563854
 40
0.577819747
 40
0.6120570693
 40
0.6452037272
 40
0.6771667989
 40
0.707875316
 40
0.7372860958
 40
0.7653853623
 40
0.7921963855
 40
0.8177815367
 40
0.8422481995
 40
0.8657508626
 40
0.8884902861
 40
0.9107097993
 40
0.9326835754
 40
0.9547018596
 40
0.9770520228
 40
1.0
 40
1.0
 40
1.0
 40
1.0
 10
45.83342483
 20
65.1529798399
 30
0.0
 10
45.6165262316
 20
65.0277541232
 30
0.0
 10
45.1834884367
 20
64.7564752719
 30
0.0
 10
44.5509758537
 20
64.3003522042
 30
0.0
 10
43.9270075704
 20
63.7899322367
 30
0.0
 10
43.1025751096
 20
63.0329434943
 30
0.0
 10
42.1218385027
 20
61.9721763023
 30
0.0
 10
41.0558870459
 20
60.561471966
 30
0.0
 10
40.1148355488
 20
59.034816632
 30
0.0
 10
39.3233827479
 20
57.4322023153
 30
0.0
 10
38.7022549518
 20
55.7956539917
 30
0.0
 10
38.335140476
 20
54.4207195575
 30
0.0
 10
38.1435394766
 20
53.3406875776
 30
0.0
 10
38.0528117544
 20
52.5597963461
 30
0.0
 10
38.013733255
 20
51.8025245561
 30
0.0
 10
38.0266413787
 20
51.0738276397
 30
0.0
 10
38.0914253041
 20
50.3784954331
 30
0.0
 10
38.2078233574
 20
49.7210919453
 30
0.0
 10
38.3750937394
 20
49.1059266435
 30
0.0
 10
38.5923544682
 20
48.5370821798
 30
0.0
 10
38.8583341061
 20
48.0183821714
 30
0.0
 10
39.171468881
 20
47.5534061583
 30
0.0
 10
39.5298916377
 20
47.1455493273
 30
0.0
 10
39.9311927491
 20
46.797815841
 30
0.0
 10
40.3726286294
 20
46.512981626
 30
0.0
 10
40.85090908
 20
46.2931189749
 30
0.0
 10
41.3623763422
 20
46.1398581286
 30
0.0
 10
41.7173292771
 20
46.0835446723
 30
0.0
 10
41.8979704487
 20
46.0662115189
 30
0.0
  0
SPLINE
  5
271
100
AcDbEntity
  8
0
100
AcDbSpline
 62
7
  6
BYLAYER
 70
0
 71
3
 72
11
 73
7
 74
0
 42
0.0000001
 43
0.0000001
 44
0.0000000001
 40
0.0
 40
0.0
 40
0.0
 40
0.0
 40
0.2458891186
 40
0.4944449149
 40
0.7458370139
 40
1.0
 40
1.0
 40
1.0
 40
1.0
 10
44.2660355386
 20
67.5116345297
 30
0.0
 10
44.0505495983
 20
67.0713775407
 30
0.0
 10
43.598041322
 20
66.1952834068
 30
0.0
 10
42.849541453
 20
64.9098386257
 30
0.0
 10
42.019698603
 20
63.655338876
 30
0.0
 10
41.4124485564
 20
62.8500759347
 30
0.0
 10
41.0950174571
 20
62.4551849714
 30
0.0
  0
SPLINE
  5
272
100
AcDbEntity
  8
0
100
AcDbSpline
 62
7
  6
BYLAYER
 70
0
 71
3
 72
11
 73
7
 74
0
 42
0.0000001
 43
0.0000001
 44
0.0000000001
 40
0.0
 40
0.0
 40
0.0
 40
0.0
 40
0.2256492086
 40
0.4692584096
 40
0.7283047998
 40
1.0
 40
1.0
 40
1.0
 40
1.0
 10
49.5837990228
 20
67.3561560386
 30
0.0
 10
49.250587947
 20
67.3859209126
 30
0.0
 10
48.5589528644
 20
67.4629091261
 30
0.0
 10
47.4903846986
 20
67.6189567585
 30
0.0
 10
46.3591635739
 20
67.8152632584
 30
0.0
 10
45.5868374086
 20
67.9660294057
 30
0.0
 10
45.1921134707
 20
68.0463026816
 30
0.0
  0
SPLINE
  5
273
100
AcDbEntity
  8
0
100
AcDbSpline
 62
7
  6
BYLAYER
 70
0
 71
3
 72
11
 73
7
 74
0
 42
0.0000001
 43
0.0000001
 44
0.0000000001
 40
0.0
 40
0.0
 40
0.0
 40
0.0
 40
0.2256492086
 40
0.4692584096
 40
0.7283047998
 40
1.0
 40
1.0
 40
1.0
 40
1.0
 10
61.5339533778
 20
60.4568872872
 30
0.0
 10
61.8671644536
 20
60.4271224133
 30
0.0
 10
62.5587995362
 20
60.3501341997
 30
0.0
 10
63.627367702
 20
60.1940865674
 30
0.0
 10
64.7585888267
 20
59.9977800675
 30
0.0
 10
65.530914992
 20
59.8470139202
 30
0.0
 10
65.9256389299
 20
59.7667406443
 30
0.0
  0
SPLINE
  5
274
100
AcDbEntity
  8
0
100
AcDbSpline
 62
7
  6
BYLAYER
 70
0
 71
3
 72
11
 73
7
 74
0
 42
0.0000001
 43
0.0000001
 44
0.0000000001
 40
0.0
 40
0.0
 40
0.0
 40
0.0
 40
0.2640505373
 40
0.518096522
 40
0.7629874112
 40
1.0
 40
1.0
 40
1.0
 40
1.0
 10
48.8007810292
 20
44.6165531014
 30
0.0
 10
48.8007810292
 20
45.0339053191
 30
0.0
 10
48.826976891
 20
45.8531057745
 30
0.0
 10
48.9481020768
 20
47.0538798339
 30
0.0
 10
49.1420497564
 20
48.201635186
 30
0.0
 10
49.3156641745
 20
48.9437917464
 30
0.0
 10
49.4111147645
 20
49.3060441784
 30
0.0
  0
SPLINE
  5
275
100
AcDbEntity
  8
0
100
AcDbSpline
 62
7
  6
BYLAYER
 70
0
 71
3
 72
11
 73
7
 74
0
 42
0.0000001
 43
0.0000001
 44
0.0000000001
 40
0.0
 40
0.0
 40
0.0
 40
0.0
 40
0.2458891186
 40
0.4944449149
 40
0.7458370139
 40
1.0
 40
1.0
 40
1.0
 40
1.0
 10
49.8741537305
 20
50.4994666617
 30
0.0
 10
50.0896396708
 20
50.9397236507
 30
0.0
 10
50.5421479471
 20
51.8158177846
 30
0.0
 10
51.2906478161
 20
53.1012625657
 30
0.0
 10
52.1204906661
 20
54.3557623153
 30
0.0
 10
52.7277407127
 20
55.1610252567
 30
0.0
 10
53.045171812
 20
55.55591622
 30
0.0
  0
SPLINE
  5
276
100
AcDbEntity
  8
0
100
AcDbSpline
 62
7
  6
BYLAYER
 70
0
 71
3
 72
11
 73
7
 74
0
 42
0.0000001
 43
0.0000001
 44
0.0000000001
 40
0.0
 40
0.0
 40
0.0
 40
0.0
 40
0.2716847903
 40
0.5307386397
 40
0.7743479271
 40
1.0
 40
1.0
 40
1.0
 40
1.0
 10
50.7748154354
 20
38.0435854294
 30
0.0
 10
51.1695242495
 20
37.9633152291
 30
0.0
 10
51.9418502939
 20
37.8125725006
 30
0.0
 10
53.0730601029
 20
37.6162254111
 30
0.0
 10
54.1416469292
 20
37.4601970089
 30
0.0
 10
54.8332856822
 20
37.3832040382
 30
0.0
 10
55.1665009875
 20
37.3534387864
 30
0.0
  0
SPLINE
  5
277
100
AcDbEntity
  8
0
100
AcDbSpline
 62
7
  6
BYLAYER
 70
0
 71
3
 72
9
 73
5
 74
0
 42
0.0000001
 43
0.0000001
 44
0.0000000001
 40
0.0
 40
0.0
 40
0.0
 40
0.0
 40
0.2461771807
 40
1.0
 40
1.0
 40
1.0
 40
1.0
 10
49.8741537305
 20
38.5635709435
 30
0.0
 10
49.8321582879
 20
38.6146277745
 30
0.0
 10
49.6655924118
 20
38.8253159935
 30
0.0
 10
49.5152238836
 20
39.048714454
 30
0.0
 10
49.4111147645
 20
39.2223252749
 30
0.0
  0
SPLINE
  5
278
100
AcDbEntity
  8
0
100
AcDbSpline
 62
7
  6
BYLAYER
 70
0
 71
3
 72
20
 73
16
 74
0
 42
0.0000001
 43
0.0000001
 44
0.0000000001
 40
0.0
 40
0.0
 40
0.0
 40
0.0
 40
0.0558474212
 40
0.1141981339
 40
0.1748120827
 40
0.2373925674
 40
0.3015987145
 40
0.3670534327
 40
0.5000288929
 40
0.6330044534
 40
0.7626069809
 40
0.8251872635
 40
0.8857980137
 40
0.9441611799
 40
1.0
 40
1.0
 40
1.0
 40
1.0
 10
53.0469698054
 20
44.6185505871
 30
0.0
 10
53.0469679508
 20
44.8647520083
 30
0.0
 10
53.068815283
 20
45.3683754457
 30
0.0
 10
53.1615705007
 20
46.1340861375
 30
0.0
 10
53.3141399456
 20
46.9203977262
 30
0.0
 10
53.5250233206
 20
47.7197578755
 30
0.0
 10
53.7922434114
 20
48.5245970291
 30
0.0
 10
54.2224163805
 20
49.6001415949
 30
0.0
 10
54.8824378962
 20
50.907457248
 30
0.0
 10
55.8394809876
 20
52.3692805011
 30
0.0
 10
56.759524426
 20
53.4734921194
 30
0.0
 10
57.5509944296
 20
54.2589908177
 30
0.0
 10
58.1557187726
 20
54.7843169549
 30
0.0
 10
58.7724864006
 20
55.2474686655
 30
0.0
 10
59.1977076045
 20
55.5182424584
 30
0.0
 10
59.4108917704
 20
55.6413236592
 30
0.0
  0
SPLINE
  5
279
100
AcDbEntity
  8
0
100
AcDbSpline
 62
7
  6
BYLAYER
 70
0
 71
3
 72
11
 73
7
 74
0
 42
0.0000001
 43
0.0000001
 44
0.0000000001
 40
0.0
 40
0.0
 40
0.0
 40
0.0
 40
0.2597151621
 40
0.513807829
 40
0.760959036
 40
1.0
 40
1.0
 40
1.0
 40
1.0
 10
49.4111147645
 20
39.2223252749
 30
0.0
 10
49.3179042934
 20
39.6837037925
 30
0.0
 10
49.1483975731
 20
40.5995996041
 30
0.0
 10
48.9532995607
 20
41.9653456835
 30
0.0
 10
48.8300314529
 20
43.3019649675
 30
0.0
 10
48.8007810292
 20
44.1833225583
 30
0.0
 10
48.8007810292
 20
44.6165531014
 30
0.0
  0
SPLINE
  5
27A
100
AcDbEntity
  8
0
100
AcDbSpline
 62
7
  6
BYLAYER
 70
0
 71
3
 72
9
 73
5
 74
0
 42
0.0000001
 43
0.0000001
 44
0.0000000001
 40
0.0
 40
0.0
 40
0.0
 40
0.0
 40
0.4883302045
 40
1.0
 40
1.0
 40
1.0
 40
1.0
 10
67.8907821441
 20
53.7901240397
 30
0.0
 10
67.8675298699
 20
54.5775815998
 30
0.0
 10
67.727545868
 20
56.1878968168
 30
0.0
 10
67.4528002673
 20
57.778893848
 30
0.0
 10
67.2893396008
 20
58.5880007988
 30
0.0
  0
SPLINE
  5
27B
100
AcDbEntity
  8
0
100
AcDbSpline
 62
7
  6
BYLAYER
 70
0
 71
3
 72
11
 73
7
 74
0
 42
0.0000001
 43
0.0000001
 44
0.0000000001
 40
0.0
 40
0.0
 40
0.0
 40
0.0
 40
0.2887226778
 40
0.5501130261
 40
0.7861436391
 40
1.0
 40
1.0
 40
1.0
 40
1.0
 10
55.1665009875
 20
37.3534387864
 30
0.0
 10
55.471021183
 20
37.3262367938
 30
0.0
 10
56.0523828112
 20
37.2859312093
 30
0.0
 10
56.8850494583
 20
37.2693176661
 30
0.0
 10
57.6381656918
 20
37.2955388483
 30
0.0
 10
58.1128058386
 20
37.3399907986
 30
0.0
 10
58.337519069
 20
37.3680288929
 30
0.0
  0
SPLINE
  5
27C
100
AcDbEntity
  8
0
100
AcDbSpline
 62
7
  6
BYLAYER
 70
0
 71
3
 72
9
 73
5
 74
0
 42
0.0000001
 43
0.0000001
 44
0.0000000001
 40
0.0
 40
0.0
 40
0.0
 40
0.0
 40
0.254188329
 40
1.0
 40
1.0
 40
1.0
 40
1.0
 10
67.2893396008
 20
58.5880007988
 30
0.0
 10
67.2542344922
 20
58.6465415564
 30
0.0
 10
67.1120947518
 20
58.8743936354
 30
0.0
 10
66.9535274825
 20
59.0920764493
 30
0.0
 10
66.8263006347
 20
59.2467551302
 30
0.0
  0
SPLINE
  5
27D
100
AcDbEntity
  8
0
100
AcDbSpline
 62
7
  6
BYLAYER
 70
0
 71
3
 72
11
 73
7
 74
0
 42
0.0000001
 43
0.0000001
 44
0.0000000001
 40
0.0
 40
0.0
 40
0.0
 40
0.0
 40
0.2477731512
 40
0.4973921748
 40
0.7482964972
 40
1.0
 40
1.0
 40
1.0
 40
1.0
 10
53.045171812
 20
55.55591622
 30
0.0
 10
53.36563992
 20
55.9545852858
 30
0.0
 10
54.0341406923
 20
56.7349898839
 30
0.0
 10
55.1075261387
 20
57.8470249259
 30
0.0
 10
56.24399134
 20
58.9062138584
 30
0.0
 10
57.0347390942
 20
59.5785331495
 30
0.0
 10
57.4368573641
 20
59.9076290288
 30
0.0
  0
SPLINE
  5
27E
100
AcDbEntity
  8
0
100
AcDbSpline
 62
7
  6
BYLAYER
 70
0
 71
3
 72
11
 73
7
 74
0
 42
0.0000001
 43
0.0000001
 44
0.0000000001
 40
0.0
 40
0.0
 40
0.0
 40
0.0
 40
0.2138609745
 40
0.4498736999
 40
0.7112735674
 40
1.0
 40
1.0
 40
1.0
 40
1.0
 10
58.3629352963
 20
60.4422971807
 30
0.0
 10
58.5876533479
 20
60.4703358766
 30
0.0
 10
59.0622822503
 20
60.5147499422
 30
0.0
 10
59.8153915121
 20
60.5410369794
 30
0.0
 10
60.648053834
 20
60.5243870411
 30
0.0
 10
61.2294292581
 20
60.4840896304
 30
0.0
 10
61.5339533778
 20
60.4568872872
 30
0.0
  0
SPLINE
  5
27F
100
AcDbEntity
  8
0
100
AcDbSpline
 62
7
  6
BYLAYER
 70
0
 71
3
 72
11
 73
7
 74
0
 42
0.0000001
 43
0.0000001
 44
0.0000000001
 40
0.0
 40
0.0
 40
0.0
 40
0.0
 40
0.2256492086
 40
0.4692584096
 40
0.7283047998
 40
1.0
 40
1.0
 40
1.0
 40
1.0
 10
63.6552825532
 20
59.2321650237
 30
0.0
 10
63.3220714774
 20
59.2619298976
 30
0.0
 10
62.6304363949
 20
59.3389181111
 30
0.0
 10
61.561868229
 20
59.4949657435
 30
0.0
 10
60.4306471043
 20
59.6912722434
 30
0.0
 10
59.658320939
 20
59.8420383907
 30
0.0
 10
59.2635970012
 20
59.9223116666
 30
0.0
  0
SPLINE
  5
280
100
AcDbEntity
  8
0
100
AcDbSpline
 62
7
  6
BYLAYER
 70
0
 71
3
 72
25
 73
21
 74
0
 42
0.0000001
 43
0.0000001
 44
0.0000000001
 40
0.0
 40
0.0
 40
0.0
 40
0.0
 40
0.0742848218
 40
0.1447446875
 40
0.2113478529
 40
0.2432764152
 40
0.2743325938
 40
0.3340087891
 40
0.390973791
 40
0.4459946849
 40
0.4999979838
 40
0.554001323
 40
0.6090228989
 40
0.6659883203
 40
0.7256638993
 40
0.7567201467
 40
0.7886510687
 40
0.8552582683
 40
0.925701334
 40
1.0
 40
1.0
 40
1.0
 40
1.0
 10
59.4108917704
 20
40.9442801509
 30
0.0
 10
59.2079179654
 20
40.8270938695
 30
0.0
 10
58.8026853122
 20
40.6149700265
 30
0.0
 10
58.1846379558
 20
40.3619828386
 30
0.0
 10
57.6715860993
 20
40.2124172946
 30
0.0
 10
57.2701807255
 20
40.1334582414
 30
0.0
 10
56.8863490046
 20
40.0824694266
 30
0.0
 10
56.4190467807
 20
40.0662064949
 30
0.0
 10
55.8787177503
 20
40.1264571192
 30
0.0
 10
55.371697231
 20
40.2667143859
 30
0.0
 10
54.9036040448
 20
40.4858674264
 30
0.0
 10
54.4797530097
 20
40.7816637242
 30
0.0
 10
54.1048089141
 20
41.150665528
 30
0.0
 10
53.7824513454
 20
41.5884668838
 30
0.0
 10
53.562878031
 20
42.0012914638
 30
0.0
 10
53.4151200311
 20
42.3592005996
 30
0.0
 10
53.2828245294
 20
42.7463381598
 30
0.0
 10
53.1558236939
 20
43.2653994459
 30
0.0
 10
53.0658463795
 20
43.9271367037
 30
0.0
 10
53.0469715712
 20
44.3841332956
 30
0.0
 10
53.0469698054
 20
44.6185505871
 30
0.0
  0
SPLINE
  5
281
100
AcDbEntity
  8
0
100
AcDbSpline
 62
7
  6
BYLAYER
 70
0
 71
3
 72
11
 73
7
 74
0
 42
0.0000001
 43
0.0000001
 44
0.0000000001
 40
0.0
 40
0.0
 40
0.0
 40
0.0
 40
0.2477731512
 40
0.4973921748
 40
0.7482964972
 40
1.0
 40
1.0
 40
1.0
 40
1.0
 10
55.1665009875
 20
54.3311939564
 30
0.0
 10
54.8460328796
 20
53.9325248906
 30
0.0
 10
54.1775321072
 20
53.1521202925
 30
0.0
 10
53.1041466608
 20
52.0400852506
 30
0.0
 10
51.9676814595
 20
50.9808963181
 30
0.0
 10
51.1769337053
 20
50.3085770269
 30
0.0
 10
50.7748154354
 20
49.9794811476
 30
0.0
  0
SPLINE
  5
282
100
AcDbEntity
  8
0
100
AcDbSpline
 62
7
  6
BYLAYER
 70
0
 71
3
 72
11
 73
7
 74
0
 42
0.0000001
 43
0.0000001
 44
0.0000000001
 40
0.0
 40
0.0
 40
0.0
 40
0.0
 40
0.2597151621
 40
0.513807829
 40
0.760959036
 40
1.0
 40
1.0
 40
1.0
 40
1.0
 10
50.3117764693
 20
48.7860586643
 30
0.0
 10
50.4049869403
 20
48.3246801467
 30
0.0
 10
50.5744936607
 20
47.4087843351
 30
0.0
 10
50.769591673
 20
46.0430382557
 30
0.0
 10
50.8928597809
 20
44.7064189717
 30
0.0
 10
50.9221102046
 20
43.8250613809
 30
0.0
 10
50.9221102046
 20
43.3918308378
 30
0.0
  0
SPLINE
  5
283
100
AcDbEntity
  8
0
100
AcDbSpline
 62
7
  6
BYLAYER
 70
0
 71
3
 72
9
 73
5
 74
0
 42
0.0000001
 43
0.0000001
 44
0.0000000001
 40
0.0
 40
0.0
 40
0.0
 40
0.0
 40
0.254188329
 40
1.0
 40
1.0
 40
1.0
 40
1.0
 10
50.3117764693
 20
38.7023397608
 30
0.0
 10
50.3468815779
 20
38.6437990031
 30
0.0
 10
50.4890213183
 20
38.4159469241
 30
0.0
 10
50.6475885877
 20
38.1982641103
 30
0.0
 10
50.7748154354
 20
38.0435854294
 30
0.0
  0
SPLINE
  5
284
100
AcDbEntity
  8
0
100
AcDbSpline
 62
7
  6
BYLAYER
 70
0
 71
3
 72
11
 73
7
 74
0
 42
0.0000001
 43
0.0000001
 44
0.0000000001
 40
0.0
 40
0.0
 40
0.0
 40
0.0
 40
0.2640505373
 40
0.518096522
 40
0.7629874112
 40
1.0
 40
1.0
 40
1.0
 40
1.0
 10
50.9221102046
 20
43.3918308378
 30
0.0
 10
50.9221102046
 20
42.9744786201
 30
0.0
 10
50.8959143428
 20
42.1552781647
 30
0.0
 10
50.7747891569
 20
40.9545041053
 30
0.0
 10
50.5808414773
 20
39.8067487532
 30
0.0
 10
50.4072270593
 20
39.0645921928
 30
0.0
 10
50.3117764693
 20
38.7023397608
 30
0.0
  0
SPLINE
  5
285
100
AcDbEntity
  8
0
100
AcDbSpline
 62
7
  6
BYLAYER
 70
0
 71
3
 72
11
 73
7
 74
0
 42
0.0000001
 43
0.0000001
 44
0.0000000001
 40
0.0
 40
0.0
 40
0.0
 40
0.0
 40
0.2269485409
 40
0.4681217078
 40
0.7254714389
 40
1.0
 40
1.0
 40
1.0
 40
1.0
 10
55.1665009875
 20
37.3534387864
 30
0.0
 10
55.4518178741
 20
37.3279521751
 30
0.0
 10
56.0458623012
 20
37.3278982315
 30
0.0
 10
56.953553042
 20
37.4696784033
 30
0.0
 10
57.8908239838
 20
37.7501582656
 30
0.0
 10
58.507997987
 20
38.0184099343
 30
0.0
 10
58.8183517413
 20
38.1725152139
 30
0.0
  0
SPLINE
  5
286
100
AcDbEntity
  8
0
100
AcDbSpline
 62
7
  6
BYLAYER
 70
0
 71
3
 72
11
 73
7
 74
0
 42
0.0000001
 43
0.0000001
 44
0.0000000001
 40
0.0
 40
0.0
 40
0.0
 40
0.0
 40
0.2138609745
 40
0.4498736999
 40
0.7112735674
 40
1.0
 40
1.0
 40
1.0
 40
1.0
 10
66.8263006347
 20
59.2467551302
 30
0.0
 10
66.6015825832
 20
59.2187164343
 30
0.0
 10
66.1269536807
 20
59.1743023687
 30
0.0
 10
65.3738444189
 20
59.1480153314
 30
0.0
 10
64.541182097
 20
59.1646652698
 30
0.0
 10
63.9598066729
 20
59.2049626805
 30
0.0
 10
63.6552825532
 20
59.2321650237
 30
0.0
  0
SPLINE
  5
287
100
AcDbEntity
  8
0
100
AcDbSpline
 62
7
  6
BYLAYER
 70
0
 71
3
 72
19
 73
15
 74
0
 42
0.0000001
 43
0.0000001
 44
0.0000000001
 40
0.0
 40
0.0
 40
0.0
 40
0.0
 40
0.151814537
 40
0.2930199882
 40
0.4239849096
 40
0.5459524373
 40
0.6042922699
 40
0.661293991
 40
0.7173721011
 40
0.7729769439
 40
0.8285792166
 40
0.8846596827
 40
0.9416738691
 40
1.0
 40
1.0
 40
1.0
 40
1.0
 10
50.9221102046
 20
43.3918308378
 30
0.0
 10
50.9221102046
 20
42.9786200634
 30
0.0
 10
50.9655760795
 20
42.180018703
 30
0.0
 10
51.1771556906
 20
41.041857295
 30
0.0
 10
51.5303675623
 20
40.024107645
 30
0.0
 10
51.9463450685
 20
39.2796296363
 30
0.0
 10
52.3440689895
 20
38.7693886468
 30
0.0
 10
52.6686700994
 20
38.4329522668
 30
0.0
 10
53.022562295
 20
38.138962618
 30
0.0
 10
53.4040975026
 20
37.888684338
 30
0.0
 10
53.8115992534
 20
37.6833719152
 30
0.0
 10
54.2431982022
 20
37.5238803112
 30
0.0
 10
54.6968075151
 20
37.4110007621
 30
0.0
 10
55.0083777776
 20
37.3675635192
 30
0.0
 10
55.1665009875
 20
37.3534387864
 30
0.0
  0
SPLINE
  5
288
100
AcDbEntity
  8
0
100
AcDbSpline
 62
7
  6
BYLAYER
 70
0
 71
3
 72
15
 73
11
 74
0
 42
0.0000001
 43
0.0000001
 44
0.0000000001
 40
0.0
 40
0.0
 40
0.0
 40
0.0
 40
0.129847411
 40
0.2611866596
 40
0.3925260486
 40
0.5223738886
 40
0.6492905064
 40
0.7719421396
 40
0.8891589506
 40
1.0
 40
1.0
 40
1.0
 40
1.0
 10
55.1665009875
 20
54.3311939564
 30
0.0
 10
54.8427410231
 20
53.9284297519
 30
0.0
 10
54.2235170806
 20
53.0920119716
 30
0.0
 10
53.3913923434
 20
51.7682799843
 30
0.0
 10
52.6610328208
 20
50.3856747774
 30
0.0
 10
52.0448717721
 20
48.9676764004
 30
0.0
 10
51.5533014623
 20
47.5382307818
 30
0.0
 10
51.1946319027
 20
46.1213561339
 30
0.0
 10
50.9749462474
 20
44.7410748787
 30
0.0
 10
50.9221102046
 20
43.8329491657
 30
0.0
 10
50.9221102046
 20
43.3918308378
 30
0.0
  0
SPLINE
  5
289
100
AcDbEntity
  8
0
100
AcDbSpline
 62
7
  6
BYLAYER
 70
0
 71
3
 72
11
 73
7
 74
0
 42
0.0000001
 43
0.0000001
 44
0.0000000001
 40
0.0
 40
0.0
 40
0.0
 40
0.0
 40
0.232065918
 40
0.4774810713
 40
0.7342754496
 40
1.0
 40
1.0
 40
1.0
 40
1.0
 10
59.4108917704
 20
58.0949134227
 30
0.0
 10
59.0288759416
 20
57.8743577976
 30
0.0
 10
58.2688444984
 20
57.3745459726
 30
0.0
 10
57.1833286957
 20
56.4941444973
 30
0.0
 10
56.1356695443
 20
55.4751554253
 30
0.0
 10
55.4829514767
 20
54.7248650201
 30
0.0
 10
55.1665009875
 20
54.3311939564
 30
0.0
  0
SPLINE
  5
28A
100
AcDbEntity
  8
0
100
AcDbSpline
 62
7
  6
BYLAYER
 70
0
 71
3
 72
11
 73
7
 74
0
 42
0.0000001
 43
0.0000001
 44
0.0000000001
 40
0.0
 40
0.0
 40
0.0
 40
0.0
 40
0.2234035249
 40
0.4632869182
 40
0.7219272534
 40
1.0
 40
1.0
 40
1.0
 40
1.0
 10
63.6552825532
 20
59.2321650237
 30
0.0
 10
63.3246303863
 20
59.261701317
 30
0.0
 10
62.6314092249
 20
59.2519702428
 30
0.0
 10
61.573559088
 20
59.0489974619
 30
0.0
 10
60.4820618482
 20
58.6631645624
 30
0.0
 10
59.7687383601
 20
58.3015150144
 30
0.0
 10
59.4108917704
 20
58.0949134227
 30
0.0
  0
SPLINE
  5
28B
100
AcDbEntity
  8
0
100
AcDbSpline
 62
7
  6
BYLAYER
 70
0
 71
3
 72
20
 73
16
 74
0
 42
0.0000001
 43
0.0000001
 44
0.0000000001
 40
0.0
 40
0.0
 40
0.0
 40
0.0
 40
0.1490086001
 40
0.2879832738
 40
0.4176087264
 40
0.4793810191
 40
0.5394114925
 40
0.5980033154
 40
0.6555036382
 40
0.7122955516
 40
0.7687853606
 40
0.8253945205
 40
0.8825477913
 40
0.9406404095
 40
1.0
 40
1.0
 40
1.0
 40
1.0
 10
67.8789363809
 20
53.8662820624
 30
0.0
 10
67.8555980366
 20
54.2377875113
 30
0.0
 10
67.7711150271
 20
54.9543125461
 30
0.0
 10
67.5153987154
 20
55.9688948487
 30
0.0
 10
67.19524437
 20
56.7339013706
 30
0.0
 10
66.8789797478
 20
57.2774111873
 30
0.0
 10
66.6174229045
 20
57.6452105628
 30
0.0
 10
66.3287104518
 20
57.978140809
 30
0.0
 10
66.0138895621
 20
58.2748935713
 30
0.0
 10
65.6741529121
 20
58.5342393556
 30
0.0
 10
65.3108571476
 20
58.7551729712
 30
0.0
 10
64.9253921705
 20
58.9367613353
 30
0.0
 10
64.5192783747
 20
59.0783489916
 30
0.0
 10
64.0942288586
 20
59.1793337529
 30
0.0
 10
63.8029804141
 20
59.21897156
 30
0.0
 10
63.6552825532
 20
59.2321650237
 30
0.0
  0
SPLINE
  5
28C
100
AcDbEntity
  8
0
100
AcDbSpline
 62
7
  6
BYLAYER
 70
0
 71
3
 72
38
 73
34
 74
0
 42
0.0000001
 43
0.0000001
 44
0.0000000001
 40
0.0
 40
0.0
 40
0.0
 40
0.0
 40
0.0309874651
 40
0.0603793648
 40
0.0881624578
 40
0.1014812549
 40
0.1144361413
 40
0.1393296818
 40
0.1630922656
 40
0.1860438828
 40
0.2085710279
 40
0.2310982065
 40
0.2540501561
 40
0.2778129901
 40
0.3027063703
 40
0.3156613397
 40
0.3289811784
 40
0.3567660747
 40
0.38615109
 40
0.417144452
 40
0.4496955238
 40
0.4837056364
 40
0.5190348712
 40
0.5555102944
 40
0.5929332269
 40
0.6310838801
 40
0.7085893399
 40
0.78609482
 40
0.8616342922
 40
0.8981095172
 40
0.9334367929
 40
0.9674540574
 40
1.0
 40
1.0
 40
1.0
 40
1.0
 10
59.4108917704
 20
55.6413236592
 30
0.0
 10
59.6138665211
 20
55.7585104867
 30
0.0
 10
60.0191010547
 20
55.9706352158
 30
0.0
 10
60.6371513089
 20
56.2236230954
 30
0.0
 10
61.1502055198
 20
56.373188605
 30
0.0
 10
61.5516126437
 20
56.4521472204
 30
0.0
 10
61.9354459323
 20
56.503135352
 30
0.0
 10
62.4027499615
 20
56.5193969637
 30
0.0
 10
62.943080816
 20
56.4591439562
 30
0.0
 10
63.4501026873
 20
56.3188835409
 30
0.0
 10
63.9181966662
 20
56.0997266316
 30
0.0
 10
64.3420478722
 20
55.8039258369
 30
0.0
 10
64.7169914745
 20
55.4349189833
 30
0.0
 10
65.0393478734
 20
54.9971121829
 30
0.0
 10
65.2589196497
 20
54.5842827577
 30
0.0
 10
65.4066761166
 20
54.226369959
 30
0.0
 10
65.5389698538
 20
53.8392271091
 30
0.0
 10
65.6659680453
 20
53.320169669
 30
0.0
 10
65.7559414785
 20
52.6583854086
 30
0.0
 10
65.7849880002
 20
51.9551711482
 30
0.0
 10
65.7529637725
 20
51.2172120356
 30
0.0
 10
65.6602047166
 20
50.451455033
 30
0.0
 10
65.5076322164
 20
49.6651598118
 30
0.0
 10
65.2967464111
 20
48.8657990658
 30
0.0
 10
65.0295245719
 20
48.0609647248
 30
0.0
 10
64.5993502078
 20
46.9854255172
 30
0.0
 10
63.9393285795
 20
45.6781176689
 30
0.0
 10
62.9822874239
 20
44.2163033551
 30
0.0
 10
62.0622471411
 20
43.1120987671
 30
0.0
 10
61.2707804282
 20
42.3266050375
 30
0.0
 10
60.6660587853
 20
41.8012821278
 30
0.0
 10
60.0492940289
 20
41.3381330998
 30
0.0
 10
59.624074893
 20
41.0673607494
 30
0.0
 10
59.4108917704
 20
40.9442801509
 30
0.0
  0
SPLINE
  5
28D
100
AcDbEntity
  8
0
100
AcDbSpline
 62
7
  6
BYLAYER
 70
0
 71
3
 72
11
 73
7
 74
0
 42
0.0000001
 43
0.0000001
 44
0.0000000001
 40
0.0
 40
0.0
 40
0.0
 40
0.0
 40
0.2458891186
 40
0.4944449149
 40
0.7458370139
 40
1.0
 40
1.0
 40
1.0
 40
1.0
 10
58.337519069
 20
59.3876435147
 30
0.0
 10
58.1220331287
 20
58.9473865257
 30
0.0
 10
57.6695248525
 20
58.0712923918
 30
0.0
 10
56.9210249834
 20
56.7858476107
 30
0.0
 10
56.0911821334
 20
55.5313478611
 30
0.0
 10
55.4839320868
 20
54.7260849197
 30
0.0
 10
55.1665009875
 20
54.3311939564
 30
0.0
  0
SPLINE
  5
28E
100
AcDbEntity
  8
0
100
AcDbSpline
 62
7
  6
BYLAYER
 70
0
 71
3
 72
24
 73
20
 74
0
 42
0.0000001
 43
0.0000001
 44
0.0000000001
 40
0.0
 40
0.0
 40
0.0
 40
0.0
 40
0.0618619895
 40
0.1265733065
 40
0.1936837466
 40
0.2626299315
 40
0.3326329348
 40
0.4028445568
 40
0.4723973184
 40
0.5404770994
 40
0.6063931485
 40
0.6696462756
 40
0.7299988218
 40
0.7875291301
 40
0.8426233782
 40
0.8959301933
 40
0.9481439587
 40
0.9740542519
 40
1.0
 40
1.0
 40
1.0
 40
1.0
 10
73.5260641855
 20
46.621406525
 30
0.0
 10
73.5260641855
 20
46.2771755541
 30
0.0
 10
73.4801177681
 20
45.5723483058
 30
0.0
 10
73.2903035622
 20
44.5095544339
 30
0.0
 10
72.9836460043
 20
43.4334457075
 30
0.0
 10
72.5677574453
 20
42.3632415427
 30
0.0
 10
72.0510521148
 20
41.3186886837
 30
0.0
 10
71.4439980392
 20
40.3199972776
 30
0.0
 10
70.7583448398
 20
39.3867229447
 30
0.0
 10
70.0067697425
 20
38.5371669586
 30
0.0
 10
69.2021881361
 20
37.7878711121
 30
0.0
 10
68.3569670503
 20
37.1535150409
 30
0.0
 10
67.4822889423
 20
36.647202497
 30
0.0
 10
66.5880377817
 20
36.2819006547
 30
0.0
 10
65.6842294662
 20
36.0717273118
 30
0.0
 10
64.785580076
 20
36.0334390951
 30
0.0
 10
64.0581126015
 20
36.1582736103
 30
0.0
 10
63.5120772708
 20
36.3544144338
 30
0.0
 10
63.2532266725
 20
36.4838215124
 30
0.0
 10
63.1281934731
 20
36.5560078307
 30
0.0
  0
SPLINE
  5
28F
100
AcDbEntity
  8
0
100
AcDbSpline
 62
7
  6
BYLAYER
 70
0
 71
3
 72
14
 73
10
 74
0
 42
0.0000001
 43
0.0000001
 44
0.0000000001
 40
0.0
 40
0.0
 40
0.0
 40
0.0
 40
0.118760083
 40
0.2377731611
 40
0.3580210047
 40
0.4799786428
 40
0.6044709416
 40
0.7322977169
 40
1.0
 40
1.0
 40
1.0
 40
1.0
 10
71.4338525458
 20
50.9421567858
 30
0.0
 10
71.6061926865
 20
50.8426584102
 30
0.0
 10
71.9353917158
 20
50.6144266952
 30
0.0
 10
72.3678028362
 20
50.1950970702
 30
0.0
 10
72.7335297914
 20
49.7098943215
 30
0.0
 10
73.0292190944
 20
49.1690247883
 30
0.0
 10
73.2553906465
 20
48.5822284509
 30
0.0
 10
73.4697067573
 20
47.7360328851
 30
0.0
 10
73.5260641855
 20
47.0699813928
 30
0.0
 10
73.5260641855
 20
46.621406525
 30
0.0
  0
SPLINE
  5
290
100
AcDbEntity
  8
0
100
AcDbSpline
 62
7
  6
BYLAYER
 70
0
 71
3
 72
15
 73
11
 74
0
 42
0.0000001
 43
0.0000001
 44
0.0000000001
 40
0.0
 40
0.0
 40
0.0
 40
0.0
 40
0.1080119849
 40
0.2180609987
 40
0.3319999941
 40
0.4513608053
 40
0.5772681615
 40
0.7104912941
 40
0.8514453981
 40
1.0
 40
1.0
 40
1.0
 40
1.0
 10
30.1315214209
 20
54.804652394
 30
0.0
 10
29.9839617326
 20
54.889844342
 30
0.0
 10
29.7002332145
 20
55.087776791
 30
0.0
 10
29.3253964856
 20
55.4567319699
 30
0.0
 10
29.0029777299
 20
55.894584987
 30
0.0
 10
28.7360620651
 20
56.3964703525
 30
0.0
 10
28.5266321363
 20
56.957231194
 30
0.0
 10
28.3763282068
 20
57.5715393434
 30
0.0
 10
28.2864404213
 20
58.2333614519
 30
0.0
 10
28.2674990042
 20
58.6903662981
 30
0.0
 10
28.2674990042
 20
58.9247077531
 30
0.0
  0
SPLINE
  5
291
100
AcDbEntity
  8
0
100
AcDbSpline
 62
7
  6
BYLAYER
 70
0
 71
3
 72
11
 73
7
 74
0
 42
0.0000001
 43
0.0000001
 44
0.0000000001
 40
0.0
 40
0.0
 40
0.0
 40
0.0
 40
0.2406841879
 40
0.4852725784
 40
0.7373555782
 40
1.0
 40
1.0
 40
1.0
 40
1.0
 10
59.814856307
 20
37.6673587044
 30
0.0
 10
59.9514373416
 20
37.5885051602
 30
0.0
 10
60.2399138107
 20
37.4511001488
 30
0.0
 10
60.7048584441
 20
37.3132291267
 30
0.0
 10
61.1991731637
 20
37.2434824495
 30
0.0
 10
61.5375869133
 20
37.2427885608
 30
0.0
 10
61.7093854005
 20
37.2529538158
 30
0.0
  0
SPLINE
  5
292
100
AcDbEntity
  8
0
100
AcDbSpline
 62
7
  6
BYLAYER
 70
0
 71
3
 72
23
 73
19
 74
0
 42
0.0000001
 43
0.0000001
 44
0.0000000001
 40
0.0
 40
0.0
 40
0.0
 40
0.0
 40
0.062379288
 40
0.1287518162
 40
0.1983484205
 40
0.2703379686
 40
0.3437270058
 40
0.4174690139
 40
0.4905064521
 40
0.5618046521
 40
0.6304126334
 40
0.6955111165
 40
0.7564675286
 40
0.8129126998
 40
0.8648219187
 40
0.9126046466
 40
0.957186127
 40
1.0
 40
1.0
 40
1.0
 40
1.0
 10
9.4826836138
 20
72.7202365578
 30
0.0
 10
9.4826836138
 20
72.9436503914
 30
0.0
 10
9.5130132126
 20
73.4050824672
 30
0.0
 10
9.6375055558
 20
74.1056834202
 30
0.0
 10
9.8400897964
 20
74.823606201
 30
0.0
 10
10.1162384312
 20
75.5433940694
 30
0.0
 10
10.4601525035
 20
76.2498782944
 30
0.0
 10
10.8644701692
 20
76.9279701036
 30
0.0
 10
11.320567336
 20
77.5632137176
 30
0.0
 10
11.8187700851
 20
78.1420400103
 30
0.0
 10
12.3484548477
 20
78.6521757599
 30
0.0
 10
12.8984777765
 20
79.0828145844
 30
0.0
 10
13.4574568809
 20
79.4247778004
 30
0.0
 10
14.0140094818
 20
79.6707363128
 30
0.0
 10
14.5570533859
 20
79.8150487942
 30
0.0
 10
15.0759540514
 20
79.8532618175
 30
0.0
 10
15.5591527945
 20
79.7823942797
 30
0.0
 10
15.8519029266
 20
79.66077898
 30
0.0
 10
15.9846919822
 20
79.5840972868
 30
0.0
  0
SPLINE
  5
293
100
AcDbEntity
  8
0
100
AcDbSpline
 62
7
  6
BYLAYER
 70
0
 71
3
 72
14
 73
10
 74
0
 42
0.0000001
 43
0.0000001
 44
0.0000000001
 40
0.0
 40
0.0
 40
0.0
 40
0.0
 40
0.2892712789
 40
0.4225363715
 40
0.5484967722
 40
0.6678939513
 40
0.7818675184
 40
0.8919527582
 40
1.0
 40
1.0
 40
1.0
 40
1.0
 10
34.6313235688
 20
69.9473634
 30
0.0
 10
35.0263724148
 20
70.1754514989
 30
0.0
 10
35.6328823355
 20
70.4641392137
 30
0.0
 10
36.4646749549
 20
70.7066673343
 30
0.0
 10
37.0550793296
 20
70.8057302658
 30
0.0
 10
37.6231769043
 20
70.8255113243
 30
0.0
 10
38.1635684382
 20
70.7652155921
 30
0.0
 10
38.6705071857
 20
70.6250927086
 30
0.0
 10
38.9837870938
 20
70.4783491806
 30
0.0
 10
39.1313456573
 20
70.3931578819
 30
0.0
  0
SPLINE
  5
294
100
AcDbEntity
  8
0
100
AcDbSpline
 62
7
  6
BYLAYER
 70
0
 71
3
 72
9
 73
5
 74
0
 42
0.0000001
 43
0.0000001
 44
0.0000000001
 40
0.0
 40
0.0
 40
0.0
 40
0.0
 40
0.2448164167
 40
1.0
 40
1.0
 40
1.0
 40
1.0
 10
14.6385835865
 20
68.4383979702
 30
0.0
 10
14.6385835865
 20
68.4924057269
 30
0.0
 10
14.6413156483
 20
68.7130059665
 30
0.0
 10
14.6546763005
 20
68.9334453435
 30
0.0
 10
14.6700919923
 20
69.0993279534
 30
0.0
  0
SPLINE
  5
295
100
AcDbEntity
  8
0
100
AcDbSpline
 62
7
  6
BYLAYER
 70
0
 71
3
 72
23
 73
19
 74
0
 42
0.0000001
 43
0.0000001
 44
0.0000000001
 40
0.0
 40
0.0
 40
0.0
 40
0.0
 40
0.0653854913
 40
0.1340448535
 40
0.2052654802
 40
0.278181599
 40
0.3518607123
 40
0.4253457909
 40
0.4976800981
 40
0.5679569406
 40
0.6353570373
 40
0.6991902186
 40
0.7589519379
 40
0.8143815444
 40
0.8655314149
 40
0.912847469
 40
0.9572275134
 40
1.0
 40
1.0
 40
1.0
 40
1.0
 10
14.6700919923
 20
69.0993279534
 30
0.0
 10
14.696859669
 20
69.387365113
 30
0.0
 10
14.7847590583
 20
69.9751239322
 30
0.0
 10
15.0058723544
 20
70.8571755493
 30
0.0
 10
15.3154997616
 20
71.7475164281
 30
0.0
 10
15.7076491019
 20
72.6289613857
 30
0.0
 10
16.1747633761
 20
73.4844816783
 30
0.0
 10
16.7077935182
 20
74.2974951065
 30
0.0
 10
17.2964422673
 20
75.0522543956
 30
0.0
 10
17.9292960973
 20
75.7341890228
 30
0.0
 10
18.594196661
 20
76.3301475684
 30
0.0
 10
19.2785076987
 20
76.8286177513
 30
0.0
 10
19.969329596
 20
77.2200276346
 30
0.0
 10
20.6539383155
 20
77.4966844898
 30
0.0
 10
21.3199423038
 20
77.6526036943
 30
0.0
 10
21.9553103042
 20
77.6832228964
 30
0.0
 10
22.5470399652
 20
77.5857934106
 30
0.0
 10
22.9062573085
 20
77.4338116423
 30
0.0
 10
23.0701405674
 20
77.3391980002
 30
0.0
  0
SPLINE
  5
296
100
AcDbEntity
  8
0
100
AcDbSpline
 62
7
  6
BYLAYER
 70
0
 71
3
 72
15
 73
11
 74
0
 42
0.0000001
 43
0.0000001
 44
0.0000000001
 40
0.0
 40
0.0
 40
0.0
 40
0.0
 40
0.1141566459
 40
0.2373254382
 40
0.3669760753
 40
0.4999982919
 40
0.6330241544
 40
0.762674658
 40
0.8858461739
 40
1.0
 40
1.0
 40
1.0
 40
1.0
 10
28.2674953919
 20
59.4256212444
 30
0.0
 10
28.2674953919
 20
59.8943924804
 30
0.0
 10
28.3533442105
 20
60.8698540292
 30
0.0
 10
28.6956391683
 20
62.3414472329
 30
0.0
 10
29.2439256174
 20
63.8320560008
 30
0.0
 10
29.9777898613
 20
65.2856388231
 30
0.0
 10
30.8696826131
 20
66.647983381
 30
0.0
 10
31.8864354648
 20
67.8681596076
 30
0.0
 10
32.9897263391
 20
68.9003897648
 30
0.0
 10
33.7915641721
 20
69.462483401
 30
0.0
 10
34.1975192387
 20
69.6968679133
 30
0.0
  0
SPLINE
  5
297
100
AcDbEntity
  8
0
100
AcDbSpline
 62
7
  6
BYLAYER
 70
0
 71
3
 72
15
 73
11
 74
0
 42
0.0000001
 43
0.0000001
 44
0.0000000001
 40
0.0
 40
0.0
 40
0.0
 40
0.0
 40
0.1080094838
 40
0.2180557906
 40
0.3319992429
 40
0.4513501097
 40
0.5772549166
 40
0.7104977273
 40
0.8514742653
 40
1.0
 40
1.0
 40
1.0
 40
1.0
 10
16.0852672115
 20
65.2407687697
 30
0.0
 10
15.9707466499
 20
65.306884171
 30
0.0
 10
15.7505923724
 20
65.460555622
 30
0.0
 10
15.4596050051
 20
65.7468296906
 30
0.0
 10
15.2094644653
 20
66.0867089171
 30
0.0
 10
15.0022177868
 20
66.4761618474
 30
0.0
 10
14.8397178327
 20
66.9114036016
 30
0.0
 10
14.7230357678
 20
67.388214485
 30
0.0
 10
14.6533132298
 20
67.9018833731
 30
0.0
 10
14.6385835865
 20
68.2565587309
 30
0.0
 10
14.6385835865
 20
68.4383979702
 30
0.0
  0
SPLINE
  5
298
100
AcDbEntity
  8
0
100
AcDbSpline
 62
7
  6
BYLAYER
 70
0
 71
3
 72
11
 73
7
 74
0
 42
0.0000001
 43
0.0000001
 44
0.0000000001
 40
0.0
 40
0.0
 40
0.0
 40
0.0
 40
0.2632054203
 40
0.515395951
 40
0.7597429663
 40
1.0
 40
1.0
 40
1.0
 40
1.0
 10
70.1443444815
 20
51.7747487337
 30
0.0
 10
70.0669858762
 20
51.9340767225
 30
0.0
 10
69.8958788196
 20
52.2371346642
 30
0.0
 10
69.5834991422
 20
52.6440936649
 30
0.0
 10
69.2243454207
 20
52.9886934015
 30
0.0
 10
68.954693963
 20
53.1750289987
 30
0.0
 10
68.8146805435
 20
53.2558641923
 30
0.0
  0
SPLINE
  5
299
100
AcDbEntity
  8
0
100
AcDbSpline
 62
7
  6
BYLAYER
 70
0
 71
3
 72
11
 73
7
 74
0
 42
0.0000001
 43
0.0000001
 44
0.0000000001
 40
0.0
 40
0.0
 40
0.0
 40
0.0
 40
0.2364018001
 40
0.4786336016
 40
0.7318476146
 40
1.0
 40
1.0
 40
1.0
 40
1.0
 10
11.6233905016
 20
68.9541404218
 30
0.0
 10
11.5104419161
 20
69.0193483136
 30
0.0
 10
11.2942676619
 20
69.1744013016
 30
0.0
 10
11.0156016394
 20
69.4696410261
 30
0.0
 10
10.7843111393
 20
69.8241027441
 30
0.0
 10
10.6669966137
 20
70.0880988826
 30
0.0
 10
10.6163059135
 20
70.2270799329
 30
0.0
  0
SPLINE
  5
29A
100
AcDbEntity
  8
0
100
AcDbSpline
 62
7
  6
BYLAYER
 70
0
 71
3
 72
9
 73
5
 74
0
 42
0.0000001
 43
0.0000001
 44
0.0000000001
 40
0.0
 40
0.0
 40
0.0
 40
0.0
 40
0.4765344765
 40
1.0
 40
1.0
 40
1.0
 40
1.0
 10
10.6163059135
 20
70.2270799329
 30
0.0
 10
10.5347652208
 20
70.4506438428
 30
0.0
 10
10.414995176
 20
70.9391150659
 30
0.0
 10
10.380716577
 20
71.4394510915
 30
0.0
 10
10.380716577
 20
71.7008573083
 30
0.0
  0
SPLINE
  5
29B
100
AcDbEntity
  8
0
100
AcDbSpline
 62
7
  6
BYLAYER
 70
0
 71
3
 72
9
 73
5
 74
0
 42
0.0000001
 43
0.0000001
 44
0.0000000001
 40
0.0
 40
0.0
 40
0.0
 40
0.0
 40
0.5235273765
 40
1.0
 40
1.0
 40
1.0
 40
1.0
 10
14.6232662867
 20
79.0492944062
 30
0.0
 10
14.8496701588
 20
79.1800124947
 30
0.0
 10
15.3000893331
 20
79.4005266342
 30
0.0
 10
15.7830055094
 20
79.5409746184
 30
0.0
 10
16.0173487483
 20
79.5821500198
 30
0.0
  0
SPLINE
  5
29C
100
AcDbEntity
  8
0
100
AcDbSpline
 62
7
  6
BYLAYER
 70
0
 71
3
 72
11
 73
7
 74
0
 42
0.0000001
 43
0.0000001
 44
0.0000000001
 40
0.0
 40
0.0
 40
0.0
 40
0.0
 40
0.2681779824
 40
0.5213796234
 40
0.7636017549
 40
1.0
 40
1.0
 40
1.0
 40
1.0
 10
16.0173487483
 20
79.5821500198
 30
0.0
 10
16.1630671533
 20
79.6077535484
 30
0.0
 10
16.4503569943
 20
79.6381819173
 30
0.0
 10
16.8729775025
 20
79.6150984522
 30
0.0
 10
17.2679784385
 20
79.5213840433
 30
0.0
 10
17.5103419761
 20
79.4117108578
 30
0.0
 10
17.6232886989
 20
79.3465040413
 30
0.0
  0
SPLINE
  5
29D
100
AcDbEntity
  8
0
100
AcDbSpline
 62
7
  6
BYLAYER
 70
0
 71
3
 72
14
 73
10
 74
0
 42
0.0000001
 43
0.0000001
 44
0.0000000001
 40
0.0
 40
0.0
 40
0.0
 40
0.0
 40
0.1080439893
 40
0.2181284696
 40
0.33210763
 40
0.4514900428
 40
0.5774361411
 40
0.7107377633
 40
1.0
 40
1.0
 40
1.0
 40
1.0
 10
10.5983048836
 20
70.2543900985
 30
0.0
 10
10.5099979068
 20
70.3053847266
 30
0.0
 10
10.3401934026
 20
70.4238477789
 30
0.0
 10
10.1158382271
 20
70.644655071
 30
0.0
 10
9.9229158861
 20
70.9067265937
 30
0.0
 10
9.7631056304
 20
71.2070440059
 30
0.0
 10
9.6377693656
 20
71.5427187156
 30
0.0
 10
9.5145740054
 20
72.04644627
 30
0.0
 10
9.4826836138
 20
72.4472268895
 30
0.0
 10
9.4826836138
 20
72.7202365578
 30
0.0
  0
SPLINE
  5
29E
100
AcDbEntity
  8
0
100
AcDbSpline
 62
7
  6
BYLAYER
 70
0
 71
3
 72
15
 73
11
 74
0
 42
0.0000001
 43
0.0000001
 44
0.0000000001
 40
0.0
 40
0.0
 40
0.0
 40
0.0
 40
0.1157252338
 40
0.2391430811
 40
0.368059176
 40
0.4998261163
 40
0.6316188995
 40
0.7606071903
 40
0.8841502757
 40
1.0
 40
1.0
 40
1.0
 40
1.0
 10
28.2797646929
 20
59.3872974542
 30
0.0
 10
28.3044541504
 20
59.860070852
 30
0.0
 10
28.4295267641
 20
60.8339853555
 30
0.0
 10
28.8074084265
 20
62.2948002533
 30
0.0
 10
29.370174947
 20
63.7652542578
 30
0.0
 10
30.1001560984
 20
65.1985124416
 30
0.0
 10
30.9740731534
 20
66.5491818479
 30
0.0
 10
31.9643280585
 20
67.7744190066
 30
0.0
 10
33.0392462704
 20
68.8352047148
 30
0.0
 10
33.819473544
 20
69.4330114333
 30
0.0
 10
34.2163150992
 20
69.6920934559
 30
0.0
  0
SPLINE
  5
29F
100
AcDbEntity
  8
0
100
AcDbSpline
 62
7
  6
BYLAYER
 70
0
 71
3
 72
15
 73
11
 74
0
 42
0.0000001
 43
0.0000001
 44
0.0000000001
 40
0.0
 40
0.0
 40
0.0
 40
0.0
 40
0.1485546019
 40
0.2895087059
 40
0.4227318385
 40
0.5486391947
 40
0.6680000059
 40
0.7819390013
 40
0.8919880151
 40
1.0
 40
1.0
 40
1.0
 40
1.0
 10
57.9508338903
 20
41.7874140635
 30
0.0
 10
57.9508338903
 20
41.5530726085
 30
0.0
 10
57.9697753074
 20
41.0960677623
 30
0.0
 10
58.0596630929
 20
40.4342456539
 30
0.0
 10
58.2099670224
 20
39.8199375044
 30
0.0
 10
58.4193969512
 20
39.2591766629
 30
0.0
 10
58.686312616
 20
38.7572912975
 30
0.0
 10
59.0087313717
 20
38.3194382804
 30
0.0
 10
59.3835681006
 20
37.9504831015
 30
0.0
 10
59.6672966187
 20
37.7525506525
 30
0.0
 10
59.814856307
 20
37.6673587044
 30
0.0
  0
SPLINE
  5
2A0
100
AcDbEntity
  8
0
100
AcDbSpline
 62
7
  6
BYLAYER
 70
0
 71
3
 72
15
 73
11
 74
0
 42
0.0000001
 43
0.0000001
 44
0.0000000001
 40
0.0
 40
0.0
 40
0.0
 40
0.0
 40
0.1485587576
 40
0.2895307378
 40
0.4227607314
 40
0.5486596525
 40
0.6680068091
 40
0.7819380027
 40
0.8919813149
 40
1.0
 40
1.0
 40
1.0
 40
1.0
 10
58.8184539108
 20
41.787416149
 30
0.0
 10
58.8184539108
 20
41.5688601005
 30
0.0
 10
58.8361521631
 20
41.1426196721
 30
0.0
 10
58.9200500135
 20
40.5253589452
 30
0.0
 10
59.0603972817
 20
39.9524625411
 30
0.0
 10
59.2559006884
 20
39.4295758189
 30
0.0
 10
59.5051478508
 20
38.9617283176
 30
0.0
 10
59.8060971035
 20
38.5536107492
 30
0.0
 10
60.1560753498
 20
38.2099336613
 30
0.0
 10
60.4208879497
 20
38.0256226309
 30
0.0
 10
60.5586253566
 20
37.946362192
 30
0.0
  0
SPLINE
  5
2A1
100
AcDbEntity
  8
0
100
AcDbSpline
 62
7
  6
BYLAYER
 70
0
 71
3
 72
24
 73
20
 74
0
 42
0.0000001
 43
0.0000001
 44
0.0000000001
 40
0.0
 40
0.0
 40
0.0
 40
0.0
 40
0.021332979
 40
0.0428963458
 40
0.0874825531
 40
0.1352735149
 40
0.1871909944
 40
0.243643676
 40
0.3046041369
 40
0.369701682
 40
0.4383052276
 40
0.509594331
 40
0.5826187752
 40
0.6563483622
 40
0.7297205343
 40
0.8016938836
 40
0.8712777076
 40
0.9376250481
 40
1.0
 40
1.0
 40
1.0
 40
1.0
 10
68.9385351266
 20
52.4759492989
 30
0.0
 10
68.835442989
 20
52.5352732564
 30
0.0
 10
68.6202384476
 20
52.6414064509
 30
0.0
 10
68.1580717072
 20
52.8006687556
 30
0.0
 10
67.5230785638
 20
52.893389733
 30
0.0
 10
66.7155379608
 20
52.8329937981
 30
0.0
 10
65.8700930347
 20
52.6078077258
 30
0.0
 10
65.0038278024
 20
52.2243737784
 30
0.0
 10
64.1338234051
 20
51.6916204116
 30
0.0
 10
63.2777996046
 20
51.0209676965
 30
0.0
 10
62.4535001123
 20
50.2266430907
 30
0.0
 10
61.6782543056
 20
49.3254797762
 30
0.0
 10
60.9684998781
 20
48.3366170466
 30
0.0
 10
60.3393526605
 20
47.28111858
 30
0.0
 10
59.8042232889
 20
46.1814649655
 30
0.0
 10
59.3745720316
 20
45.0611252561
 30
0.0
 10
59.0593676013
 20
43.9437779794
 30
0.0
 10
58.8655963924
 20
42.853358038
 30
0.0
 10
58.8184539108
 20
42.1351891145
 30
0.0
 10
58.8184539108
 20
41.787416149
 30
0.0
  0
SPLINE
  5
2A2
100
AcDbEntity
  8
0
100
AcDbSpline
 62
7
  6
BYLAYER
 70
0
 71
3
 72
24
 73
20
 74
0
 42
0.0000001
 43
0.0000001
 44
0.0000000001
 40
0.0
 40
0.0
 40
0.0
 40
0.0
 40
0.0623814819
 40
0.1287362661
 40
0.1983292959
 40
0.2703121825
 40
0.3436936495
 40
0.4174315038
 40
0.4904621424
 40
0.5617544263
 40
0.6303573787
 40
0.6954501871
 40
0.7564020225
 40
0.8128430522
 40
0.8647473768
 40
0.9125260888
 40
0.9571042049
 40
0.978666192
 40
1.0
 40
1.0
 40
1.0
 40
1.0
 10
58.8755171905
 20
41.8203614522
 30
0.0
 10
58.8755171905
 20
42.1649000158
 30
0.0
 10
58.9222343915
 20
42.8763928519
 30
0.0
 10
59.1142628918
 20
43.956675545
 30
0.0
 10
59.4266252948
 20
45.0636321642
 30
0.0
 10
59.8524022827
 20
46.1735394013
 30
0.0
 10
60.382698085
 20
47.2629226517
 30
0.0
 10
61.0061523005
 20
48.3085160809
 30
0.0
 10
61.7094679395
 20
49.2880318705
 30
0.0
 10
62.4776525532
 20
50.1805894411
 30
0.0
 10
63.2944054015
 20
50.9672172041
 30
0.0
 10
64.1425437678
 20
51.6312323639
 30
0.0
 10
65.0044751664
 20
52.158540953
 30
0.0
 10
65.8626345283
 20
52.5378340605
 30
0.0
 10
66.7000929639
 20
52.7602712212
 30
0.0
 10
67.499917793
 20
52.819373463
 30
0.0
 10
68.1287285245
 20
52.7268448301
 30
0.0
 10
68.5863077125
 20
52.5685244671
 30
0.0
 10
68.799349564
 20
52.4631136245
 30
0.0
 10
68.9013981903
 20
52.4042099308
 30
0.0
  0
SPLINE
  5
2A3
100
AcDbEntity
  8
0
100
AcDbSpline
 62
7
  6
BYLAYER
 70
0
 71
3
 72
15
 73
11
 74
0
 42
0.0000001
 43
0.0000001
 44
0.0000000001
 40
0.0
 40
0.0
 40
0.0
 40
0.0
 40
0.1485418829
 40
0.2895060687
 40
0.4227359881
 40
0.5486408896
 40
0.6679978441
 40
0.7819395188
 40
0.8919884067
 40
1.0
 40
1.0
 40
1.0
 40
1.0
 10
61.4079599601
 20
40.358288014
 30
0.0
 10
61.4079599601
 20
40.142040759
 30
0.0
 10
61.4254556948
 20
39.7202917727
 30
0.0
 10
61.5083852998
 20
39.1095085365
 30
0.0
 10
61.6471140999
 20
38.5425685436
 30
0.0
 10
61.8403629932
 20
38.0250474871
 30
0.0
 10
62.0867404274
 20
37.5619107967
 30
0.0
 10
62.384233741
 20
37.1577895275
 30
0.0
 10
62.7302084438
 20
36.8173424994
 30
0.0
 10
62.9920168184
 20
36.63462947
 30
0.0
 10
63.1282012332
 20
36.5560212687
 30
0.0
  0
SPLINE
  5
2A4
100
AcDbEntity
  8
0
100
AcDbSpline
 62
7
  6
BYLAYER
 70
0
 71
3
 72
30
 73
26
 74
0
 42
0.0000001
 43
0.0000001
 44
0.0000000001
 40
0.0
 40
0.0
 40
0.0
 40
0.0
 40
0.0603296933
 40
0.0881267853
 40
0.1143933343
 40
0.139292817
 40
0.163064147
 40
0.1860225238
 40
0.20855606
 40
0.2310901669
 40
0.2540489458
 40
0.2778195767
 40
0.3027200389
 40
0.3289905393
 40
0.356783313
 40
0.386177695
 40
0.4171793919
 40
0.4837102534
 40
0.5554963197
 40
0.6310583339
 40
0.7085875622
 40
0.7861153825
 40
0.8616783905
 40
0.9334670305
 40
1.0
 40
1.0
 40
1.0
 40
1.0
 10
63.2040111834
 20
40.3582923317
 30
0.0
 10
63.2040111834
 20
40.0016824323
 30
0.0
 10
63.2456445056
 20
39.4782008386
 30
0.0
 10
63.4065836905
 20
38.8202651565
 30
0.0
 10
63.5702778724
 20
38.3818291469
 30
0.0
 10
63.7790203063
 20
37.9895521565
 30
0.0
 10
64.0309472889
 20
37.6472102164
 30
0.0
 10
64.3241183672
 20
37.3588033637
 30
0.0
 10
64.6554142504
 20
37.1274960085
 30
0.0
 10
65.0213778218
 20
36.9562307147
 30
0.0
 10
65.4177243283
 20
36.8465109591
 30
0.0
 10
65.8401637173
 20
36.7994764499
 30
0.0
 10
66.2842944007
 20
36.8148465138
 30
0.0
 10
66.7457918891
 20
36.8923428652
 30
0.0
 10
67.22037646
 20
37.030634745
 30
0.0
 10
67.7036078617
 20
37.2284538632
 30
0.0
 10
68.3690979872
 20
37.5768626858
 30
0.0
 10
69.1922473456
 20
38.154051205
 30
0.0
 10
70.1179748604
 20
39.0200448181
 30
0.0
 10
70.970944149
 20
40.0436906363
 30
0.0
 10
71.7192106828
 20
41.1866188639
 30
0.0
 10
72.3348776711
 20
42.4061000149
 30
0.0
 10
72.7948929687
 20
43.6566591334
 30
0.0
 10
73.0820566294
 20
44.8912781521
 30
0.0
 10
73.1540935392
 20
45.7096631906
 30
0.0
 10
73.1540935392
 20
46.1029407673
 30
0.0
  0
SPLINE
  5
2A5
100
AcDbEntity
  8
0
100
AcDbSpline
 62
7
  6
BYLAYER
 70
0
 71
3
 72
30
 73
26
 74
0
 42
0.0000001
 43
0.0000001
 44
0.0000000001
 40
0.0
 40
0.0
 40
0.0
 40
0.0
 40
0.0603296933
 40
0.0881267853
 40
0.1143933343
 40
0.139292817
 40
0.163064147
 40
0.1860225238
 40
0.20855606
 40
0.2310901669
 40
0.2540489458
 40
0.2778195767
 40
0.3027200389
 40
0.3289905393
 40
0.356783313
 40
0.386177695
 40
0.4171793919
 40
0.4837102534
 40
0.5554963197
 40
0.6310583339
 40
0.7085875622
 40
0.7861153825
 40
0.8616783905
 40
0.9334670305
 40
1.0
 40
1.0
 40
1.0
 40
1.0
 10
73.1540935392
 20
46.1029407673
 30
0.0
 10
73.1540935392
 20
46.4595506667
 30
0.0
 10
73.1124602169
 20
46.9830322605
 30
0.0
 10
72.9515210321
 20
47.6409679426
 30
0.0
 10
72.7878268502
 20
48.0794039521
 30
0.0
 10
72.5790844163
 20
48.4716809425
 30
0.0
 10
72.3271574337
 20
48.8140228826
 30
0.0
 10
72.0339863554
 20
49.1024297353
 30
0.0
 10
71.7026904721
 20
49.3337370905
 30
0.0
 10
71.3367269007
 20
49.5050023844
 30
0.0
 10
70.9403803943
 20
49.6147221399
 30
0.0
 10
70.5179410053
 20
49.6617566491
 30
0.0
 10
70.0738103218
 20
49.6463865852
 30
0.0
 10
69.6123128335
 20
49.5688902338
 30
0.0
 10
69.1377282626
 20
49.430598354
 30
0.0
 10
68.6544968609
 20
49.2327792358
 30
0.0
 10
67.9890067353
 20
48.8843704132
 30
0.0
 10
67.165857377
 20
48.307181894
 30
0.0
 10
66.2401298621
 20
47.4411882809
 30
0.0
 10
65.3871605736
 20
46.4175424627
 30
0.0
 10
64.6388940397
 20
45.2746142351
 30
0.0
 10
64.0232270515
 20
44.0551330841
 30
0.0
 10
63.5632117539
 20
42.8045739656
 30
0.0
 10
63.2760480931
 20
41.5699549469
 30
0.0
 10
63.2040111834
 20
40.7515699084
 30
0.0
 10
63.2040111834
 20
40.3582923317
 30
0.0
  0
SPLINE
  5
2A6
100
AcDbEntity
  8
0
100
AcDbSpline
 62
7
  6
BYLAYER
 70
0
 71
3
 72
24
 73
20
 74
0
 42
0.0000001
 43
0.0000001
 44
0.0000000001
 40
0.0
 40
0.0
 40
0.0
 40
0.0
 40
0.0213337899
 40
0.0428957256
 40
0.0874739703
 40
0.1352529731
 40
0.1871576591
 40
0.2435990487
 40
0.3045511545
 40
0.3696439958
 40
0.4382465853
 40
0.5095382218
 40
0.5825678686
 40
0.6563050457
 40
0.7296875935
 40
0.8016708686
 40
0.8712635915
 40
0.9376183849
 40
1.0
 40
1.0
 40
1.0
 40
1.0
 10
71.4338447893
 20
50.9421433458
 30
0.0
 10
71.3317964631
 20
51.0010475559
 30
0.0
 10
71.1187552764
 20
51.1064595059
 30
0.0
 10
70.6611749112
 20
51.264778695
 30
0.0
 10
70.0323622104
 20
51.3573104361
 30
0.0
 10
69.2325321003
 20
51.2982073045
 30
0.0
 10
68.3950678844
 20
51.0757674613
 30
0.0
 10
67.5369032626
 20
50.6964706017
 30
0.0
 10
66.6749692755
 20
50.1691574974
 30
0.0
 10
65.8268324305
 20
49.5051395309
 30
0.0
 10
65.0100837752
 20
48.7185138774
 30
0.0
 10
64.2419072801
 20
47.8259626442
 30
0.0
 10
63.5385985607
 20
46.8464564819
 30
0.0
 10
62.9151453276
 20
45.8008650552
 30
0.0
 10
62.3848474016
 20
44.7114768537
 30
0.0
 10
61.9590667413
 20
43.6015630454
 30
0.0
 10
61.6467055118
 20
42.4946045381
 30
0.0
 10
61.4546775573
 20
41.4143218023
 30
0.0
 10
61.4079599601
 20
40.7028276018
 30
0.0
 10
61.4079599601
 20
40.358288014
 30
0.0
  0
SPLINE
  5
2A7
100
AcDbEntity
  8
0
100
AcDbSpline
 62
7
  6
BYLAYER
 70
0
 71
3
 72
25
 73
21
 74
0
 42
0.0000001
 43
0.0000001
 44
0.0000000001
 40
0.0
 40
0.0
 40
0.0
 40
0.0
 40
0.0213320745
 40
0.0428926379
 40
0.0648980111
 40
0.087542641
 40
0.1353176604
 40
0.1872186687
 40
0.2436564416
 40
0.3046042351
 40
0.3696917
 40
0.438288701
 40
0.5095750792
 40
0.5825994747
 40
0.6563311592
 40
0.7297078729
 40
0.8016854908
 40
0.8712747258
 40
0.9376205668
 40
1.0
 40
1.0
 40
1.0
 40
1.0
 10
68.8146805435
 20
53.2558641923
 30
0.0
 10
68.7041092605
 20
53.3197012952
 30
0.0
 10
68.4733019911
 20
53.433969354
 30
0.0
 10
68.105270245
 20
53.5611415934
 30
0.0
 10
67.7167526667
 20
53.6440232202
 30
0.0
 10
67.1649215583
 20
53.6958016563
 30
0.0
 10
66.4291584917
 20
53.6417956525
 30
0.0
 10
65.521994358
 20
53.4006601647
 30
0.0
 10
64.5920148923
 20
52.9896696042
 30
0.0
 10
63.6580749949
 20
52.4182579122
 30
0.0
 10
62.7390393272
 20
51.698754614
 30
0.0
 10
61.8540196494
 20
50.846397207
 30
0.0
 10
61.0216322799
 20
49.8792508335
 30
0.0
 10
60.2595442668
 20
48.8178705171
 30
0.0
 10
59.5839991583
 20
47.6848778807
 30
0.0
 10
59.0093778069
 20
46.50444251
 30
0.0
 10
58.5479914588
 20
45.3017598781
 30
0.0
 10
58.2095420537
 20
44.1022911917
 30
0.0
 10
58.0014402053
 20
42.9317199433
 30
0.0
 10
57.9508338903
 20
42.1607655725
 30
0.0
 10
57.9508338903
 20
41.7874140635
 30
0.0
  0
SPLINE
  5
2A8
100
AcDbEntity
  8
0
100
AcDbSpline
 62
7
  6
BYLAYER
 70
0
 71
3
 72
13
 73
9
 74
0
 42
0.0000001
 43
0.0000001
 44
0.0000000001
 40
0.0
 40
0.0
 40
0.0
 40
0.0
 40
0.1077785292
 40
0.2185584167
 40
0.3336544457
 40
0.4540932292
 40
0.7134902448
 40
1.0
 40
1.0
 40
1.0
 40
1.0
 10
24.2363022391
 20
59.040656097
 30
0.0
 10
24.1235292809
 20
59.128569667
 30
0.0
 10
23.9081442219
 20
59.3245889214
 30
0.0
 10
23.6264542488
 20
59.6678471029
 30
0.0
 10
23.3850137354
 20
60.0603190575
 30
0.0
 10
23.1122711329
 20
60.6592175752
 30
0.0
 10
22.8879865533
 20
61.5213640791
 30
0.0
 10
22.8358032787
 20
62.2473124917
 30
0.0
 10
22.8358032787
 20
62.627429262
 30
0.0
  0
SPLINE
  5
2A9
100
AcDbEntity
  8
0
100
AcDbSpline
 62
7
  6
BYLAYER
 70
0
 71
3
 72
24
 73
20
 74
0
 42
0.0000001
 43
0.0000001
 44
0.0000000001
 40
0.0
 40
0.0
 40
0.0
 40
0.0
 40
0.0616175045
 40
0.1270538362
 40
0.1956319491
 40
0.2665854878
 40
0.3390087217
 40
0.4119427712
 40
0.4844076145
 40
0.5554421512
 40
0.6241451058
 40
0.6897182348
 40
0.7515168361
 40
0.8091053434
 40
0.8623241739
 40
0.9113687158
 40
0.9568688421
 40
0.9786527529
 40
1.0
 40
1.0
 40
1.0
 40
1.0
 10
22.8358032787
 20
62.627429262
 30
0.0
 10
22.8358032787
 20
62.9598548956
 30
0.0
 10
22.8792808579
 20
63.6457412599
 30
0.0
 10
23.0585201655
 20
64.6875308129
 30
0.0
 10
23.3504886737
 20
65.7557563803
 30
0.0
 10
23.74910954
 20
66.8290213261
 30
0.0
 10
24.2466307073
 20
67.8861297038
 30
0.0
 10
24.8330764155
 20
68.9059957047
 30
0.0
 10
25.4967524895
 20
69.8683205022
 30
0.0
 10
26.2244526549
 20
70.7539413578
 30
0.0
 10
27.0017442497
 20
71.5452453278
 30
0.0
 10
27.8132980111
 20
72.2265337181
 30
0.0
 10
28.6432613165
 20
72.7843427876
 30
0.0
 10
29.4756725148
 20
73.2075831932
 30
0.0
 10
30.2949986768
 20
73.4874349993
 30
0.0
 10
31.0857450726
 20
73.6173171664
 30
0.0
 10
31.7182130809
 20
73.5956997208
 30
0.0
 10
32.1872085586
 20
73.4979462903
 30
0.0
 10
32.4084549931
 20
73.4236961329
 30
0.0
 10
32.5151850695
 20
73.38042505
 30
0.0
  0
SPLINE
  5
2AA
100
AcDbEntity
  8
0
100
AcDbSpline
 62
7
  6
BYLAYER
 70
0
 71
3
 72
13
 73
9
 74
0
 42
0.0000001
 43
0.0000001
 44
0.0000000001
 40
0.0
 40
0.0
 40
0.0
 40
0.0
 40
0.2865318926
 40
0.4197452709
 40
0.5463134664
 40
0.7814132843
 40
0.8922093632
 40
1.0
 40
1.0
 40
1.0
 40
1.0
 10
15.5366129375
 20
67.9199322119
 30
0.0
 10
15.5366129375
 20
67.6002747373
 30
0.0
 10
15.5704526813
 20
67.1303009204
 30
0.0
 10
15.6992453749
 20
66.5336504144
 30
0.0
 10
15.8700619605
 20
66.0080353733
 30
0.0
 10
16.1164368833
 20
65.5346866446
 30
0.0
 10
16.43839435
 20
65.1423235032
 30
0.0
 10
16.6195689925
 20
64.9774754121
 30
0.0
 10
16.7144108818
 20
64.9035457078
 30
0.0
  0
SPLINE
  5
2AB
100
AcDbEntity
  8
0
100
AcDbSpline
 62
7
  6
BYLAYER
 70
0
 71
3
 72
15
 73
11
 74
0
 42
0.0000001
 43
0.0000001
 44
0.0000000001
 40
0.0
 40
0.0
 40
0.0
 40
0.0
 40
0.1141539764
 40
0.2373248355
 40
0.3669742448
 40
0.4999978995
 40
0.6330234003
 40
0.7626705934
 40
0.8858486625
 40
1.0
 40
1.0
 40
1.0
 40
1.0
 10
14.1894619669
 20
78.7988079767
 30
0.0
 10
13.9287240961
 20
78.6482666023
 30
0.0
 10
13.4137193979
 20
78.2872446135
 30
0.0
 10
12.7050968298
 20
77.6242660843
 30
0.0
 10
12.0520645519
 20
76.8405749528
 30
0.0
 10
11.4792061726
 20
75.9655723031
 30
0.0
 10
11.0078784932
 20
75.0319600673
 30
0.0
 10
10.6556826169
 20
74.0745576194
 30
0.0
 10
10.4358681373
 20
73.1293694336
 30
0.0
 10
10.3807129647
 20
72.5028401468
 30
0.0
 10
10.3807129647
 20
72.2017707996
 30
0.0
  0
SPLINE
  5
2AC
100
AcDbEntity
  8
0
100
AcDbSpline
 62
7
  6
BYLAYER
 70
0
 71
3
 72
23
 73
19
 74
0
 42
0.0000001
 43
0.0000001
 44
0.0000000001
 40
0.0
 40
0.0
 40
0.0
 40
0.0
 40
0.0430592877
 40
0.0885633072
 40
0.1376122026
 40
0.1908341795
 40
0.2484262802
 40
0.3102304148
 40
0.3758088383
 40
0.4445161711
 40
0.5155560055
 40
0.588026675
 40
0.6609656888
 40
0.7333948476
 40
0.8043534699
 40
0.8729352474
 40
0.9383815205
 40
1.0
 40
1.0
 40
1.0
 40
1.0
 10
23.6767611249
 20
76.9629624007
 30
0.0
 10
23.4957164407
 20
77.0363365427
 30
0.0
 10
23.1031779278
 20
77.1410148446
 30
0.0
 10
22.4748164689
 20
77.162109008
 30
0.0
 10
21.8095832233
 20
77.0529585837
 30
0.0
 10
21.1206182384
 20
76.8176001847
 30
0.0
 10
20.4205437772
 20
76.4617023231
 30
0.0
 10
19.7225794602
 20
75.992571109
 30
0.0
 10
19.0400925651
 20
75.4196046403
 30
0.0
 10
18.3863950724
 20
74.7541511842
 30
0.0
 10
17.774400088
 20
74.0093763264
 30
0.0
 10
17.2162808924
 20
73.2000696195
 30
0.0
 10
16.7230983399
 20
72.3423798482
 30
0.0
 10
16.3046872528
 20
71.4533789742
 30
0.0
 10
15.9694480201
 20
70.5507950598
 30
0.0
 10
15.7239055895
 20
69.6524245879
 30
0.0
 10
15.5731939463
 20
68.7762989047
 30
0.0
 10
15.5366129375
 20
68.199478469
 30
0.0
 10
15.5366129375
 20
67.9199322119
 30
0.0
  0
SPLINE
  5
2AD
100
AcDbEntity
  8
0
100
AcDbSpline
 62
7
  6
BYLAYER
 70
0
 71
3
 72
15
 73
11
 74
0
 42
0.0000001
 43
0.0000001
 44
0.0000000001
 40
0.0
 40
0.0
 40
0.0
 40
0.0
 40
0.1141547724
 40
0.2373264174
 40
0.3669762574
 40
0.5000005214
 40
0.6330247127
 40
0.7626743413
 40
0.8858456518
 40
1.0
 40
1.0
 40
1.0
 40
1.0
 10
10.380716577
 20
71.7008573083
 30
0.0
 10
10.380716577
 20
72.0362281783
 30
0.0
 10
10.4421414777
 20
72.7341115106
 30
0.0
 10
10.6870163048
 20
73.7869484106
 30
0.0
 10
11.0792951507
 20
74.853393252
 30
0.0
 10
11.6043201887
 20
75.8933431281
 30
0.0
 10
12.2424159015
 20
76.868012025
 30
0.0
 10
12.9698309335
 20
77.7409670998
 30
0.0
 10
13.7591645773
 20
78.4794625332
 30
0.0
 10
14.332829757
 20
78.8816059845
 30
0.0
 10
14.6232662867
 20
79.0492944062
 30
0.0
  0
SPLINE
  5
2AE
100
AcDbEntity
  8
0
100
AcDbSpline
 62
7
  6
BYLAYER
 70
0
 71
3
 72
15
 73
11
 74
0
 42
0.0000001
 43
0.0000001
 44
0.0000000001
 40
0.0
 40
0.0
 40
0.0
 40
0.0
 40
0.1080100568
 40
0.2180564219
 40
0.3319970724
 40
0.4513539123
 40
0.5772595911
 40
0.7104913576
 40
0.8514576687
 40
1.0
 40
1.0
 40
1.0
 40
1.0
 10
60.5957622929
 20
38.0181015602
 30
0.0
 10
60.4595795306
 20
38.0967078874
 30
0.0
 10
60.1977750224
 20
38.2794153829
 30
0.0
 10
59.8518025828
 20
38.6198539553
 30
0.0
 10
59.5543145395
 20
39.0239717065
 30
0.0
 10
59.3079289117
 20
39.4871027526
 30
0.0
 10
59.1146778391
 20
40.0046267426
 30
0.0
 10
58.9759444433
 20
40.57157218
 30
0.0
 10
58.8930146028
 20
41.1823614413
 30
0.0
 10
58.8755171905
 20
41.6041137251
 30
0.0
 10
58.8755171905
 20
41.8203614522
 30
0.0
  0
ENDSEC
  0
SECTION
  2
OBJECTS
  0
DICTIONARY
  5
C
100
AcDbDictionary
280
0
281
1
  3
ACAD_GROUP
350
D
  3
ACAD_MLINESTYLE
350
17
  3
ACAD_LAYOUT
350
1A
  3
ACAD_PLOTSETTINGS
350
19
  3
ACAD_PLOTSTYLENAME
350
E
  0
DICTIONARY
  5
D
102
{ACAD_REACTORS
330
C
102
}
100
AcDbDictionary
280
0
281
1
  0
ACDBDICTIONARYWDFLT
  5
E
102
{ACAD_REACTORS
330
C
102
}
100
AcDbDictionary
281
1
  3
Normal
350
F
100
AcDbDictionaryWithDefault
340
F
  0
DICTIONARY
  5
17
102
{ACAD_REACTORS
330
C
102
}
100
AcDbDictionary
280
0
281
1
  3
Standard
350
18
  0
DICTIONARY
  5
19
102
{ACAD_REACTORS
330
C
102
}
100
AcDbDictionary
281
1
  0
DICTIONARY
  5
1A
102
{ACAD_REACTORS
330
C
102
}
100
AcDbDictionary
281
1
  3
Model
350
2AF
  3
Layout1
350
2B0
  0
ACDBPLACEHOLDER
  5
F
102
{ACAD_REACTORS
330
E
102
}
  0
MLINESTYLE
  5
18
102
{ACAD_REACTORS
330
17
102
}
100
AcDbMlineStyle
  2
STANDARD
 70
0
  3

 62
256
 51
90.0
 52
90.0
 71
2
 49
0.5
 62
256
  6
BYLAYER
 49
-0.5
 62
256
  6
BYLAYER
  0
LAYOUT
  5
2AF
102
{ACAD_REACTORS
330
1A
102
}
100
AcDbPlotSettings
  1

  2
none_device
  4

  6

 40
0.0
 41
0.0
 42
0.0
 43
0.0
 44
210.0
 45
297.0
 46
0.0
 47
0.0
 48
0.0
 49
0.0
140
0.0
141
0.0
142
1.0
143
1.0
 70
1024
 72
1
 73
0
 74
0
  7

 75
0
147
1.0
148
0.0
149
0.0
100
AcDbLayout
  1
Model
 70
0
 71
0
 10
0.0
 20
0.0
 11
210.0
 21
297.0
 12
0.0
 22
0.0
 32
0.0
 14
0.0
 24
0.0
 34
0.0
 15
0.0
 25
0.0
 35
0.0
146
0.0
 13
0.0
 23
0.0
 33
0.0
 16
1.0
 26
0.0
 36
0.0
 17
0.0
 27
1.0
 37
0.0
 76
0
330
210
345
0
346
0
  0
LAYOUT
  5
2B0
102
{ACAD_REACTORS
330
1A
102
}
100
AcDbPlotSettings
  1

  2
none_device
  4

  6

 40
0.0
 41
0.0
 42
0.0
 43
0.0
 44
210.0
 45
297.0
 46
0.0
 47
0.0
 48
0.0
 49
0.0
140
0.0
141
0.0
142
1.0
143
1.0
 70
0
 72
1
 73
0
 74
0
  7

 75
0
147
1.0
148
0.0
149
0.0
100
AcDbLayout
  1
Layout1
 70
0
 71
1
 10
0.0
 20
0.0
 11
210.0
 21
297.0
 12
0.0
 22
0.0
 32
0.0
 14
0.0
 24
0.0
 34
0.0
 15
0.0
 25
0.0
 35
0.0
146
0.0
 13
0.0
 23
0.0
 33
0.0
 16
1.0
 26
0.0
 36
0.0
 17
0.0
 27
1.0
 37
0.0
 76
0
330
211
345
0
346
0
  0
ENDSEC
  0
EOF
