999
DXF file: C:\Users\sesa63760\Dev\_Creo\CAD\MCADID0001649_3D-CAD\drw0001_1.dxf
999
Pro/ENGINEER 2019471 by Parametric Technology Corporation
  0
SECTION
  2
HEADER
  9
$ACADVER
  1
AC1024
  9
$DWGCODEPAGE
  3
ANSI_1252
  9
$EXTMAX
 10
301.9857593261
 20
427.0941453326
 30
0.0
  9
$EXTMIN
 10
0.0
 20
0.0
 30
0.0
  9
$LIMMIN
 10
0.0
 20
0.0
  9
$LIMMAX
 10
301.9857593261
 20
427.0941453326
  9
$VIEWCTR
 10
150.992879663
 20
213.5470726663
  9
$VIEWSIZE
 40
427.0941453326
  9
$CLAYER
  8
0
  9
$LTSCALE
 40
27.840210955
  9
$CELTYPE
  6
BYLAYER
  9
$DIMSCALE
 40
1.0
  9
$DIMASZ
 40
3.5950685634
  9
$DIMEXO
 40
1.0
  9
$DIMDLI
 40
19.2350548416
  9
$DIMEXE
 40
1.0
  9
$DIMCEN
 40
4.5556708835
  9
$DIMLFAC
 40
1.0
  9
$DIMBLK
  1
_FILLED
  9
$DIMALT
 70
0
  9
$DIMALTF
 40
0.0393700787
  9
$DIMTXT
 40
5.0330959888
  9
$DIMTOL
 70
1
  9
$DIMLIM
 70
0
  9
$DIMTFAC
 40
1.0
  9
$DIMTP
 40
0.01
  9
$DIMTM
 40
0.01
  9
$DIMGAP
 40
0.625
  9
$DIMDSEP
 70
46
  9
$AUNITS
 70
0
  9
$PDMODE
 70
3
  9
$PDSIZE
 40
0.3125
  9
$HANDSEED
  5
434
  9
$TILEMODE
 70
1
  9
$MEASUREMENT
 70
1
  9
$INSUNITS
 70
4
  0
ENDSEC
  0
SECTION
  2
CLASSES
  0
CLASS
  1
ACDBDICTIONARYWDFLT
  2
AcDbDictionaryWithDefault
  3
AutoCAD 2000
 90
0
 91
1
280
0
281
0
  0
CLASS
  1
ACDBPLACEHOLDER
  2
AcDbPlaceHolder
  3
AutoCAD 2000
 90
0
 91
1
280
0
281
0
  0
CLASS
  1
LAYOUT
  2
AcDbLayout
  3
AutoCAD 2000
 90
0
 91
0
280
0
281
0
  0
ENDSEC
  0
SECTION
  2
TABLES
  0
TABLE
  2
VPORT
  5
8
100
AcDbSymbolTable
 70
2
  0
VPORT
  5
1F4
100
AcDbSymbolTableRecord
100
AcDbViewportTableRecord
  2
*ACTIVE
 70
0
 10
0.0
 20
0.0
 11
1.0
 21
1.0
 12
150.992879663
 22
213.5470726663
 13
0.0
 23
0.0
 14
1.0
 24
1.0
 15
0.0
 25
0.0
 16
0.0
 26
0.0
 36
1.0
 17
0.0
 27
0.0
 37
0.0
 40
427.0941453326
 41
0.7070707071
 42
50.0
 43
0.0
 44
0.0
 50
0.0
 51
0.0
 71
0
 72
100
 73
1
 74
1
 75
0
 76
0
 77
0
 78
0
  0
ENDTAB
  0
TABLE
  2
LTYPE
  5
5
100
AcDbSymbolTable
 70
6
  0
LTYPE
  5
14
100
AcDbSymbolTableRecord
100
AcDbLinetypeTableRecord
  2
BYBLOCK
 70
0
  3

 72
65
 73
0
 40
0.0
  0
LTYPE
  5
15
100
AcDbSymbolTableRecord
100
AcDbLinetypeTableRecord
  2
BYLAYER
 70
0
  3

 72
65
 73
0
 40
0.0
  0
LTYPE
  5
16
100
AcDbSymbolTableRecord
100
AcDbLinetypeTableRecord
  2
CONTINUOUS
 70
64
  3
Solid line
 72
65
 73
0
 40
0.0
  0
LTYPE
  5
1F5
100
AcDbSymbolTableRecord
100
AcDbLinetypeTableRecord
  2
CENTER
 70
64
  3
____ _ ____ _ ____ _ ____ _ ____ _ ____ _ ____
 72
65
 73
4
 40
0.6
 49
0.375
 74
0
 49
-0.075
 74
0
 49
0.075
 74
0
 49
-0.075
 74
0
  0
LTYPE
  5
1F6
100
AcDbSymbolTableRecord
100
AcDbLinetypeTableRecord
  2
HIDDEN
 70
64
  3
- - - - - - - - - - - - - - - - - - - -
 72
65
 73
2
 40
0.2
 49
0.1
 74
0
 49
-0.1
 74
0
  0
LTYPE
  5
1F7
100
AcDbSymbolTableRecord
100
AcDbLinetypeTableRecord
  2
PHANTOM
 70
64
  3
_____ _ _ _____ _ _ _____ _ _ _____
 72
65
 73
6
 40
0.8
 49
0.45
 74
0
 49
-0.05
 74
0
 49
0.1
 74
0
 49
-0.05
 74
0
 49
0.1
 74
0
 49
-0.05
 74
0
  0
LTYPE
  5
1F8
100
AcDbSymbolTableRecord
100
AcDbLinetypeTableRecord
  2
DOT
 70
64
  3
. . . . . . . . . . . . . . . . . . . .
 72
65
 73
2
 40
0.2
 49
0.1
 74
0
 49
-0.1
 74
0
  0
LTYPE
  5
1F9
100
AcDbSymbolTableRecord
100
AcDbLinetypeTableRecord
  2
DASHED
 70
64
  3
- - - - - - - - - - - - - - - - - - - -
 72
65
 73
2
 40
0.2
 49
0.1
 74
0
 49
-0.1
 74
0
  0
ENDTAB
  0
TABLE
  2
LAYER
  5
2
100
AcDbSymbolTable
 70
36
  0
LAYER
  5
10
100
AcDbSymbolTableRecord
100
AcDbLayerTableRecord
  2
0
 70
0
 62
7
  6
CONTINUOUS
370
-3
390
F
  0
LAYER
  5
1FA
100
AcDbSymbolTableRecord
100
AcDbLayerTableRecord
  2
DEFAULT_1
 70
0
 62
7
  6
CENTER
370
-3
390
F
  0
LAYER
  5
1FB
100
AcDbSymbolTableRecord
100
AcDbLayerTableRecord
  2
DEFAULT_2
 70
0
 62
8
  6
HIDDEN
370
-3
390
F
  0
LAYER
  5
1FC
100
AcDbSymbolTableRecord
100
AcDbLayerTableRecord
  2
DEFAULT_3
 70
0
 62
7
  6
PHANTOM
370
-3
390
F
  0
LAYER
  5
1FD
100
AcDbSymbolTableRecord
100
AcDbLayerTableRecord
  2
00_COMPONENTS
 70
0
 62
7
  6
CONTINUOUS
370
-3
390
F
  0
LAYER
  5
1FE
100
AcDbSymbolTableRecord
100
AcDbLayerTableRecord
  2
01_1_DEFAULT_DATUMS
 70
0
 62
7
  6
CONTINUOUS
370
-3
390
F
  0
LAYER
  5
1FF
100
AcDbSymbolTableRecord
100
AcDbLayerTableRecord
  2
01_PLANES
 70
0
 62
7
  6
CONTINUOUS
370
-3
390
F
  0
LAYER
  5
200
100
AcDbSymbolTableRecord
100
AcDbLayerTableRecord
  2
02_COORD_SYS
 70
0
 62
7
  6
CONTINUOUS
370
-3
390
F
  0
LAYER
  5
201
100
AcDbSymbolTableRecord
100
AcDbLayerTableRecord
  2
03_AXES
 70
0
 62
7
  6
CONTINUOUS
370
-3
390
F
  0
LAYER
  5
202
100
AcDbSymbolTableRecord
100
AcDbLayerTableRecord
  2
04_POINTS
 70
0
 62
7
  6
CONTINUOUS
370
-3
390
F
  0
LAYER
  5
203
100
AcDbSymbolTableRecord
100
AcDbLayerTableRecord
  2
05_CURVES
 70
0
 62
7
  6
CONTINUOUS
370
-3
390
F
  0
LAYER
  5
204
100
AcDbSymbolTableRecord
100
AcDbLayerTableRecord
  2
06_SURFS
 70
0
 62
7
  6
CONTINUOUS
370
-3
390
F
  0
LAYER
  5
205
100
AcDbSymbolTableRecord
100
AcDbLayerTableRecord
  2
07_COSMETICS
 70
0
 62
7
  6
CONTINUOUS
370
-3
390
F
  0
LAYER
  5
206
100
AcDbSymbolTableRecord
100
AcDbLayerTableRecord
  2
10_NOTES
 70
0
 62
7
  6
CONTINUOUS
370
-3
390
F
  0
LAYER
  5
207
100
AcDbSymbolTableRecord
100
AcDbLayerTableRecord
  2
11_NOTES_PUB
 70
0
 62
7
  6
CONTINUOUS
370
-3
390
F
  0
LAYER
  5
208
100
AcDbSymbolTableRecord
100
AcDbLayerTableRecord
  2
13_REF_GTOL
 70
0
 62
7
  6
CONTINUOUS
370
-3
390
F
  0
LAYER
  5
209
100
AcDbSymbolTableRecord
100
AcDbLayerTableRecord
  2
16_MISC
 70
0
 62
7
  6
CONTINUOUS
370
-3
390
F
  0
LAYER
  5
20A
100
AcDbSymbolTableRecord
100
AcDbLayerTableRecord
  2
17_NO_PRINT
 70
0
 62
7
  6
CONTINUOUS
370
-3
390
F
  0
LAYER
  5
20B
100
AcDbSymbolTableRecord
100
AcDbLayerTableRecord
  2
18_DATUM_CAMS_JOINTS
 70
0
 62
7
  6
CONTINUOUS
370
-3
390
F
  0
LAYER
  5
20C
100
AcDbSymbolTableRecord
100
AcDbLayerTableRecord
  2
19_DATUM_FUNCTIONAL
 70
0
 62
7
  6
CONTINUOUS
370
-3
390
F
  0
LAYER
  5
20D
100
AcDbSymbolTableRecord
100
AcDbLayerTableRecord
  2
20_DATUM_KINEMATIC_SCHEME
 70
0
 62
7
  6
CONTINUOUS
370
-3
390
F
  0
ENDTAB
  0
TABLE
  2
STYLE
  5
3
100
AcDbSymbolTable
 70
1
  0
STYLE
  5
11
100
AcDbSymbolTableRecord
100
AcDbTextStyleTableRecord
  2
STANDARD
 70
0
 40
0.0
 41
0.8
 50
0.0
 71
0
 42
0.2
  3
txt
  4

  0
STYLE
  5
20E
100
AcDbSymbolTableRecord
100
AcDbTextStyleTableRecord
  2
TEXTSTYLE_1
 70
0
 40
0.0
 41
0.8
 50
0.0
 71
0
 42
0.2
  3
gdt
  4

  0
ENDTAB
  0
TABLE
  2
VIEW
  5
6
100
AcDbSymbolTable
 70
0
  0
ENDTAB
  0
TABLE
  2
UCS
  5
7
100
AcDbSymbolTable
 70
0
  0
ENDTAB
  0
TABLE
  2
APPID
  5
9
100
AcDbSymbolTable
 70
1
  0
APPID
  5
20F
100
AcDbSymbolTableRecord
100
AcDbRegAppTableRecord
  2
ACAD
 70
0
  0
ENDTAB
  0
TABLE
  2
BLOCK_RECORD
  5
1
100
AcDbSymbolTable
 70
0
  0
BLOCK_RECORD
  5
210
100
AcDbSymbolTableRecord
100
AcDbBlockTableRecord
  2
*Model_Space
  0
BLOCK_RECORD
  5
211
100
AcDbSymbolTableRecord
100
AcDbBlockTableRecord
  2
*Paper_Space
  0
BLOCK_RECORD
  5
212
100
AcDbSymbolTableRecord
100
AcDbBlockTableRecord
  2
_FILLED
  0
ENDTAB
  0
TABLE
  2
DIMSTYLE
  5
A
100
AcDbSymbolTable
 70
1
100
AcDbDimStyleTable
 71
0
  0
DIMSTYLE
105
213
100
AcDbSymbolTableRecord
100
AcDbDimStyleTableRecord
  2
STANDARD
 70
0
  3

  4

 40
1.0
 41
3.5950685634
 42
1.0
 43
0.38
 44
1.0
 45
0.0
 46
0.0
 47
0.01
 48
0.01
140
5.0330959888
141
0.09
142
0.0
143
25.4
144
1.0
145
0.0
146
1.0
147
0.625
 71
1
 72
0
 73
0
 74
0
 75
0
 76
0
 77
1
 78
8
 79
2
170
0
171
1
172
0
173
0
174
0
175
0
176
0
177
0
178
0
270
2
179
2
271
2
272
2
273
2
274
2
275
0
280
0
281
0
282
0
283
1
284
8
285
0
286
0
287
3
288
0
340
11
278
46
341
212
342
212
343
212
344
212
  0
ENDTAB
  0
ENDSEC
  0
SECTION
  2
BLOCKS
  0
BLOCK
  5
20
100
AcDbEntity
  8
0
100
AcDbBlockBegin
  2
*Model_Space
 70
0
 10
0.0
 20
0.0
 30
0.0
  3
*Model_Space
  1

  0
ENDBLK
  5
21
100
AcDbEntity
  8
0
100
AcDbBlockEnd
  0
BLOCK
  5
1C
100
AcDbEntity
  8
0
100
AcDbBlockBegin
  2
*Paper_Space
 70
0
 10
0.0
 20
0.0
 30
0.0
  3
*Paper_Space
  1

  0
ENDBLK
  5
1D
100
AcDbEntity
  8
0
100
AcDbBlockEnd
  0
BLOCK
  5
214
100
AcDbEntity
  8
0
100
AcDbBlockBegin
  2
_FILLED
 70
64
 10
0.0
 20
0.0
  3
_FILLED
  1

  0
SOLID
  5
215
100
AcDbEntity
  8
0
  6
BYBLOCK
 62
0
100
AcDbTrace
 10
0.0
 20
0.0
 11
-1.0
 21
0.25
 12
-1.0
 22
-0.25
 13
-1.0
 23
-0.25
  0
ENDBLK
  5
216
100
AcDbEntity
  8
0
  6
BYBLOCK
 62
0
100
AcDbBlockEnd
  0
ENDSEC
  0
SECTION
  2
ENTITIES
  0
LINE
  5
217
100
AcDbEntity
  8
0
100
AcDbLine
 62
7
  6
CONTINUOUS
 10
112.8206302015
 20
394.8001392187
 11
87.7891527546
 21
380.3482976758
  0
LINE
  5
218
100
AcDbEntity
  8
0
100
AcDbLine
 62
7
  6
CONTINUOUS
 10
113.8812914284
 20
394.1877760979
 11
88.849813332
 21
379.7359317466
  0
LINE
  5
219
100
AcDbEntity
  8
0
100
AcDbLine
 62
7
  6
CONTINUOUS
 10
90.2640403586
 20
378.2662617658
 11
91.3246982639
 21
378.8786292376
  0
LINE
  5
21A
100
AcDbEntity
  8
0
100
AcDbLine
 62
7
  6
CONTINUOUS
 10
115.3662300357
 20
392.7589312236
 11
116.4268826727
 21
393.3712956537
  0
LINE
  5
21B
100
AcDbEntity
  8
0
100
AcDbLine
 62
7
  6
CONTINUOUS
 10
93.7694732972
 20
371.5497755154
 11
93.0623666592
 21
371.1415297445
  0
LINE
  5
21C
100
AcDbEntity
  8
0
100
AcDbLine
 62
7
  6
CONTINUOUS
 10
98.5656057373
 20
361.6201144857
 11
97.8597985192
 21
361.2096388044
  0
LINE
  5
21D
100
AcDbEntity
  8
0
100
AcDbLine
 62
7
  6
CONTINUOUS
 10
90.4303166932
 20
368.3517548552
 11
92.9050989584
 21
369.7807545447
  0
LINE
  5
21E
100
AcDbEntity
  8
0
100
AcDbLine
 62
7
  6
CONTINUOUS
 10
111.2650050897
 20
380.021484027
 11
101.0039181429
 21
374.0972780788
  0
LINE
  5
21F
100
AcDbEntity
  8
0
100
AcDbLine
 62
7
  6
CONTINUOUS
 10
102.1221405845
 20
373.5181453091
 11
112.3256718269
 21
379.4091216542
  0
LINE
  5
220
100
AcDbEntity
  8
0
100
AcDbLine
 62
7
  6
CONTINUOUS
 10
102.4263175643
 20
372.4692489122
 11
100.305006868
 21
371.2445169213
  0
LINE
  5
221
100
AcDbEntity
  8
0
100
AcDbLine
 62
7
  6
CONTINUOUS
 10
101.7192283521
 20
368.7950408561
 11
102.7798809891
 21
369.4074052862
  0
LINE
  5
222
100
AcDbEntity
  8
0
100
AcDbLine
 62
7
  6
CONTINUOUS
 10
104.0260442114
 20
369.698471671
 11
102.9653863061
 21
369.0861041992
  0
LINE
  5
223
100
AcDbEntity
  8
0
100
AcDbLine
 62
7
  6
CONTINUOUS
 10
133.5389532637
 20
384.7165743899
 11
131.4176479898
 21
383.4918455296
  0
LINE
  5
224
100
AcDbEntity
  8
0
100
AcDbLine
 62
7
  6
CONTINUOUS
 10
134.9531729458
 20
382.2670846033
 11
132.8318676719
 21
381.042355743
  0
LINE
  5
225
100
AcDbEntity
  8
0
100
AcDbLine
 62
7
  6
CONTINUOUS
 10
99.7694458836
 20
361.1574568731
 11
99.0623389187
 21
360.7492109135
  0
LINE
  5
226
100
AcDbEntity
  8
0
100
AcDbLine
 62
7
  6
CONTINUOUS
 10
112.3256718269
 20
368.3863203409
 11
113.8812914284
 21
369.2844523755
  0
LINE
  5
227
100
AcDbEntity
  8
0
100
AcDbLine
 62
7
  6
CONTINUOUS
 10
105.8039165252
 20
363.3962706941
 11
112.3256718269
 21
367.1615853973
  0
LINE
  5
228
100
AcDbEntity
  8
0
100
AcDbLine
 62
7
  6
CONTINUOUS
 10
95.3302934383
 20
359.8646955162
 11
97.8052419897
 21
361.2934071878
  0
LINE
  5
229
100
AcDbEntity
  8
0
100
AcDbLine
 62
7
  6
CONTINUOUS
 10
93.5682202113
 20
370.2758917894
 11
92.8598321358
 21
369.869886311
  0
LINE
  5
22A
100
AcDbEntity
  8
0
100
AcDbLine
 62
7
  6
CONTINUOUS
 10
88.6173797478
 20
379.4093397155
 11
88.8529665754
 21
379.7377522617
  0
LINE
  5
22B
100
AcDbEntity
  8
0
100
AcDbLine
 62
7
  6
CONTINUOUS
 10
106.5161396597
 20
360.8715824477
 11
105.4554817544
 21
360.2592149759
  0
LINE
  5
22C
100
AcDbEntity
  8
0
100
AcDbLine
 62
7
  6
CONTINUOUS
 10
134.9486389706
 20
376.943323437
 11
132.8273336967
 21
375.7185945767
  0
LINE
  5
22D
100
AcDbEntity
  8
0
100
AcDbLine
 62
7
  6
CONTINUOUS
 10
141.3171022461
 20
380.2259595724
 11
137.78157729
 21
378.1847042113
  0
LINE
  5
22E
100
AcDbEntity
  8
0
100
AcDbLine
 62
7
  6
CONTINUOUS
 10
108.7503709139
 20
355.7549104818
 11
109.8110288192
 21
356.3672779536
  0
LINE
  5
22F
100
AcDbEntity
  8
0
100
AcDbLine
 62
7
  6
CONTINUOUS
 10
87.7891648069
 20
92.6945330976
 11
92.3854517235
 21
90.0409262196
  0
LINE
  5
230
100
AcDbEntity
  8
0
100
AcDbLine
 62
7
  6
CONTINUOUS
 10
93.1605397445
 20
89.5934391631
 11
100.3050089753
 21
85.4686721427
  0
LINE
  5
231
100
AcDbEntity
  8
0
100
AcDbLine
 62
7
  6
CONTINUOUS
 10
178.08707832
 20
40.5621893888
 11
190.6029188432
 21
33.3363273903
  0
LINE
  5
232
100
AcDbEntity
  8
0
100
AcDbLine
 62
7
  6
CONTINUOUS
 10
170.6624146199
 20
61.1779646701
 11
109.8509782573
 21
96.2866695589
  0
LINE
  5
233
100
AcDbEntity
  8
0
100
AcDbLine
 62
7
  6
CONTINUOUS
 10
102.7798814484
 20
111.4007986323
 11
176.6728583326
 21
68.7396336615
  0
LINE
  5
234
100
AcDbEntity
  8
0
100
AcDbLine
 62
7
  6
CONTINUOUS
 10
132.9772327633
 20
330.5036463316
 11
132.4784826479
 21
330.2156945371
  0
LINE
  5
235
100
AcDbEntity
  8
0
100
AcDbLine
 62
7
  6
CONTINUOUS
 10
131.4178247426
 20
328.3704071744
 11
132.9772327633
 21
329.2707264407
  0
LINE
  5
236
100
AcDbEntity
  8
0
100
AcDbLine
 62
7
  6
CONTINUOUS
 10
142.5870555383
 20
328.2952083691
 11
141.4625381117
 21
327.6459717414
  0
LINE
  5
237
100
AcDbEntity
  8
0
100
AcDbLine
 62
7
  6
CONTINUOUS
 10
141.4625381117
 20
326.4130518505
 11
142.5870555383
 21
327.0622884782
  0
LINE
  5
238
100
AcDbEntity
  8
0
100
AcDbLine
 62
7
  6
CONTINUOUS
 10
94.4359872523
 20
297.6693754343
 11
93.3753315148
 21
297.0570092142
  0
LINE
  5
239
100
AcDbEntity
  8
0
100
AcDbLine
 62
7
  6
CONTINUOUS
 10
145.7051963348
 20
325.196527288
 11
146.8297117181
 21
325.8457626718
  0
LINE
  5
23A
100
AcDbEntity
  8
0
100
AcDbLine
 62
7
  6
CONTINUOUS
 10
193.6432805334
 20
350.0161098906
 11
191.5219752595
 21
348.7913810303
  0
LINE
  5
23B
100
AcDbEntity
  8
0
100
AcDbLine
 62
7
  6
CONTINUOUS
 10
108.1538700212
 20
299.2207916732
 11
100.3120800865
 21
294.6933341175
  0
LINE
  5
23C
100
AcDbEntity
  8
0
100
AcDbLine
 62
7
  6
CONTINUOUS
 10
195.0575002155
 20
347.5666201041
 11
192.9361949416
 21
346.3418912438
  0
LINE
  5
23D
100
AcDbEntity
  8
0
100
AcDbLine
 62
7
  6
CONTINUOUS
 10
109.3913119138
 20
295.2403663053
 11
108.330656158
 21
294.6280000745
  0
LINE
  5
23E
100
AcDbEntity
  8
0
100
AcDbLine
 62
7
  6
CONTINUOUS
 10
195.0575002155
 20
342.2729663799
 11
192.9361949416
 21
341.0482375196
  0
LINE
  5
23F
100
AcDbEntity
  8
0
100
AcDbLine
 62
7
  6
CONTINUOUS
 10
201.4214316231
 20
345.5254962899
 11
197.8859045597
 21
343.4842397121
  0
LINE
  5
240
100
AcDbEntity
  8
0
100
AcDbLine
 62
7
  6
CONTINUOUS
 10
110.8055315959
 20
292.7908765188
 11
109.7448758401
 21
292.178510288
  0
LINE
  5
241
100
AcDbEntity
  8
0
100
AcDbLine
 62
7
  6
CONTINUOUS
 10
121.9423953695
 20
122.4560488981
 11
176.6728583326
 21
90.8581162142
  0
LINE
  5
242
100
AcDbEntity
  8
0
100
AcDbLine
 62
7
  6
CONTINUOUS
 10
121.9423949101
 20
123.2725515804
 11
116.5330066001
 21
126.3955927247
  0
LINE
  5
243
100
AcDbEntity
  8
0
100
AcDbLine
 62
7
  6
CONTINUOUS
 10
116.5330066001
 20
291.859807556
 11
110.8055315959
 21
288.5530680591
  0
LINE
  5
244
100
AcDbEntity
  8
0
100
AcDbLine
 62
7
  6
CONTINUOUS
 10
101.683825496
 20
283.286680023
 11
98.8554169918
 21
281.6537073592
  0
LINE
  5
245
100
AcDbEntity
  8
0
100
AcDbLine
 62
7
  6
CONTINUOUS
 10
180.2083911237
 20
327.562763725
 11
176.6728583326
 21
325.521520327
  0
LINE
  5
246
100
AcDbEntity
  8
0
100
AcDbLine
 62
7
  6
CONTINUOUS
 10
172.8236798687
 20
319.9877299231
 11
171.7630219634
 21
319.3753624513
  0
LINE
  5
247
100
AcDbEntity
  8
0
100
AcDbLine
 62
7
  6
CONTINUOUS
 10
178.6226406416
 20
322.5608851616
 11
177.9155336768
 21
322.152639202
  0
LINE
  5
248
100
AcDbEntity
  8
0
100
AcDbLine
 62
7
  6
CONTINUOUS
 10
175.2834837108
 20
319.3628643128
 11
177.7582659761
 21
320.7918640023
  0
LINE
  5
249
100
AcDbEntity
  8
0
100
AcDbLine
 62
7
  6
CONTINUOUS
 10
124.5940569442
 20
287.199329785
 11
106.9164673358
 21
276.9932295882
  0
LINE
  5
24A
100
AcDbEntity
  8
0
100
AcDbLine
 62
7
  6
CONTINUOUS
 10
178.421387229
 20
321.2870012469
 11
177.7129991535
 21
320.8809957685
  0
LINE
  5
24B
100
AcDbEntity
  8
0
100
AcDbLine
 62
7
  6
CONTINUOUS
 10
115.0126630074
 20
134.5400111703
 11
176.6728583326
 21
98.9412861518
  0
LINE
  5
24C
100
AcDbEntity
  8
0
100
AcDbLine
 62
7
  6
CONTINUOUS
 10
87.1155036324
 20
93.6334958681
 11
87.1155036324
 21
379.4093418635
  0
LINE
  5
24D
100
AcDbEntity
  8
0
100
AcDbLine
 62
7
  6
CONTINUOUS
 10
87.7891648069
 20
92.6945330976
 11
87.7891648069
 21
378.4703790929
  0
LINE
  5
24E
100
AcDbEntity
  8
0
100
AcDbLine
 62
7
  6
CONTINUOUS
 10
88.849813332
 20
379.0827449295
 11
88.849813332
 21
379.7359317466
  0
LINE
  5
24F
100
AcDbEntity
  8
0
100
AcDbLine
 62
7
  6
CONTINUOUS
 10
103.486984621
 20
272.3236033307
 11
103.8183762424
 21
273.0560392461
  0
LINE
  5
250
100
AcDbEntity
  8
0
100
AcDbLine
 62
7
  6
CONTINUOUS
 10
105.7497357414
 20
271.0172329163
 11
105.41834412
 21
270.2847970008
  0
LINE
  5
251
100
AcDbEntity
  8
0
100
AcDbLine
 62
7
  6
CONTINUOUS
 10
183.418772755
 20
312.6312239432
 11
182.7129655369
 21
312.2207482619
  0
LINE
  5
252
100
AcDbEntity
  8
0
100
AcDbLine
 62
7
  6
CONTINUOUS
 10
216.4121939141
 20
335.6460552129
 11
215.3515412771
 21
335.0336907828
  0
LINE
  5
253
100
AcDbEntity
  8
0
100
AcDbLine
 62
7
  6
CONTINUOUS
 10
191.3100095053
 20
321.1533887968
 11
190.2493516
 21
320.541021325
  0
LINE
  5
254
100
AcDbEntity
  8
0
100
AcDbLine
 62
7
  6
CONTINUOUS
 10
192.7949428443
 20
319.7245408808
 11
217.8264209407
 21
334.1763852321
  0
LINE
  5
255
100
AcDbEntity
  8
0
100
AcDbLine
 62
7
  6
CONTINUOUS
 10
193.8556100367
 20
319.1121812042
 11
218.8870889735
 21
333.5640260407
  0
LINE
  5
256
100
AcDbEntity
  8
0
100
AcDbLine
 62
7
  6
CONTINUOUS
 10
184.6226125744
 20
312.168566142
 11
183.9155059364
 21
311.7603203711
  0
LINE
  5
257
100
AcDbEntity
  8
0
100
AcDbLine
 62
7
  6
CONTINUOUS
 10
180.1834604559
 20
310.8758049737
 11
182.6584090074
 21
312.3045166454
  0
LINE
  5
258
100
AcDbEntity
  8
0
100
AcDbLine
 62
7
  6
CONTINUOUS
 10
93.3753315148
 20
166.0246985392
 11
100.3120800865
 21
162.0116913339
  0
LINE
  5
259
100
AcDbEntity
  8
0
100
AcDbLine
 62
7
  6
CONTINUOUS
 10
178.0800072104
 20
117.1133734103
 11
185.016754271
 21
113.116695381
  0
LINE
  5
25A
100
AcDbEntity
  8
0
100
AcDbLine
 62
7
  6
CONTINUOUS
 10
94.7895428313
 20
166.4329439684
 11
94.4359872523
 21
166.6370647594
  0
LINE
  5
25B
100
AcDbEntity
  8
0
100
AcDbLine
 62
7
  6
CONTINUOUS
 10
185.016754271
 20
114.7496974412
 11
184.6632179968
 21
114.9538071311
  0
LINE
  5
25C
100
AcDbEntity
  8
0
100
AcDbLine
 62
7
  6
CONTINUOUS
 10
93.7288778838
 20
167.4535851703
 11
93.3753315148
 21
167.6577005994
  0
LINE
  5
25D
100
AcDbEntity
  8
0
100
AcDbLine
 62
7
  6
CONTINUOUS
 10
100.729220221
 20
169.2090083018
 11
101.7898827689
 21
168.5966435103
  0
LINE
  5
25E
100
AcDbEntity
  8
0
100
AcDbLine
 62
7
  6
CONTINUOUS
 10
102.3555528924
 20
168.2700659379
 11
106.7396545285
 21
165.7389609393
  0
LINE
  5
25F
100
AcDbEntity
  8
0
100
AcDbLine
 62
7
  6
CONTINUOUS
 10
183.9895386286
 20
121.5480058434
 11
180.8094043932
 21
123.3840156641
  0
LINE
  5
260
100
AcDbEntity
  8
0
100
AcDbLine
 62
7
  6
CONTINUOUS
 10
108.3306581979
 20
165.2286926375
 11
101.2949158721
 21
169.2906884686
  0
LINE
  5
261
100
AcDbEntity
  8
0
100
AcDbLine
 62
7
  6
CONTINUOUS
 10
101.7192283521
 20
159.5744559543
 11
100.3120800865
 21
162.0116913339
  0
LINE
  5
262
100
AcDbEntity
  8
0
100
AcDbLine
 62
7
  6
CONTINUOUS
 10
106.7396545285
 20
165.7389609393
 11
108.1538737512
 21
163.2894780319
  0
LINE
  5
263
100
AcDbEntity
  8
0
100
AcDbLine
 62
7
  6
CONTINUOUS
 10
93.3753315148
 20
298.6900112744
 11
93.3753315148
 21
297.0570092142
  0
LINE
  5
264
100
AcDbEntity
  8
0
100
AcDbLine
 62
7
  6
CONTINUOUS
 10
93.3753315148
 20
167.6577005994
 11
93.3753315148
 21
166.0246985392
  0
LINE
  5
265
100
AcDbEntity
  8
0
100
AcDbLine
 62
7
  6
CONTINUOUS
 10
93.7288876044
 20
296.852888173
 11
93.7288876044
 21
167.4535795582
  0
LINE
  5
266
100
AcDbEntity
  8
0
100
AcDbLine
 62
7
  6
CONTINUOUS
 10
94.4359872523
 20
166.6370647594
 11
94.4359872523
 21
167.2457037072
  0
LINE
  5
267
100
AcDbEntity
  8
0
100
AcDbLine
 62
7
  6
CONTINUOUS
 10
94.4359872523
 20
297.6693754343
 11
94.4359872523
 21
298.0776553856
  0
LINE
  5
268
100
AcDbEntity
  8
0
100
AcDbLine
 62
7
  6
CONTINUOUS
 10
96.9815784966
 20
167.4535863754
 11
96.9815784966
 21
296.616156188
  0
LINE
  5
269
100
AcDbEntity
  8
0
100
AcDbLine
 62
7
  6
CONTINUOUS
 10
98.8554169918
 20
281.6537073592
 11
98.8554169918
 21
182.6119641614
  0
LINE
  5
26A
100
AcDbEntity
  8
0
100
AcDbLine
 62
7
  6
CONTINUOUS
 10
100.0815546431
 20
294.8264250044
 11
100.0815546431
 21
282.3616140366
  0
LINE
  5
26B
100
AcDbEntity
  8
0
100
AcDbLine
 62
7
  6
CONTINUOUS
 10
100.0815546431
 20
181.9040692731
 11
100.0815546431
 21
169.2433477546
  0
LINE
  5
26C
100
AcDbEntity
  8
0
100
AcDbLine
 62
7
  6
CONTINUOUS
 10
101.2949158721
 20
169.2906884686
 11
101.2949158721
 21
181.2035506887
  0
LINE
  5
26D
100
AcDbEntity
  8
0
100
AcDbLine
 62
7
  6
CONTINUOUS
 10
101.2949158721
 20
283.0621442872
 11
101.2949158721
 21
295.2607887329
  0
LINE
  5
26E
100
AcDbEntity
  8
0
100
AcDbLine
 62
7
  6
CONTINUOUS
 10
101.7192283521
 20
368.7950408561
 11
101.7192283521
 21
295.5057722795
  0
LINE
  5
26F
100
AcDbEntity
  8
0
100
AcDbLine
 62
7
  6
CONTINUOUS
 10
101.7192283521
 20
159.5744554238
 11
101.7192283521
 21
86.2851959297
  0
LINE
  5
270
100
AcDbEntity
  8
0
100
AcDbLine
 62
7
  6
CONTINUOUS
 10
101.7898827689
 20
168.5966435103
 11
101.7898827689
 21
168.4875141154
  0
LINE
  5
271
100
AcDbEntity
  8
0
100
AcDbLine
 62
7
  6
CONTINUOUS
 10
102.7798809891
 20
369.4074052862
 11
102.7798809891
 21
344.9041576661
  0
LINE
  5
272
100
AcDbEntity
  8
0
100
AcDbLine
 62
7
  6
CONTINUOUS
 10
102.7798809891
 20
111.4007988975
 11
102.7798809891
 21
86.8975603598
  0
LINE
  5
273
100
AcDbEntity
  8
0
100
AcDbLine
 62
7
  6
CONTINUOUS
 10
117.1022168904
 20
256.4469881576
 11
117.631480052
 21
256.8606891354
  0
LINE
  5
274
100
AcDbEntity
  8
0
100
AcDbLine
 62
7
  6
CONTINUOUS
 10
113.2423156476
 20
256.7355745861
 11
114.4524388638
 21
257.3784935704
  0
LINE
  5
275
100
AcDbEntity
  8
0
100
AcDbLine
 62
7
  6
CONTINUOUS
 10
148.5473322272
 20
161.2404119267
 11
149.5251677758
 21
161.4958182176
  0
LINE
  5
276
100
AcDbEntity
  8
0
100
AcDbLine
 62
7
  6
CONTINUOUS
 10
102.355548703
 20
168.2700635192
 11
101.6764145827
 21
168.5311330135
  0
LINE
  5
277
100
AcDbEntity
  8
0
100
AcDbLine
 62
7
  6
CONTINUOUS
 10
183.9895386286
 20
133.4608680635
 11
98.8554169918
 21
182.6119641614
  0
LINE
  5
278
100
AcDbEntity
  8
0
100
AcDbLine
 62
7
  6
CONTINUOUS
 10
108.1538737512
 20
341.8015516886
 11
108.1538737512
 21
299.2207938267
  0
LINE
  5
279
100
AcDbEntity
  8
0
100
AcDbLine
 62
7
  6
CONTINUOUS
 10
108.1538737512
 20
163.2894780319
 11
108.1538737512
 21
115.3117926969
  0
LINE
  5
27A
100
AcDbEntity
  8
0
100
AcDbLine
 62
7
  6
CONTINUOUS
 10
109.74487788
 20
166.0452191382
 11
109.74487788
 21
176.3316066859
  0
LINE
  5
27B
100
AcDbEntity
  8
0
100
AcDbLine
 62
7
  6
CONTINUOUS
 10
109.74487788
 20
278.6327369009
 11
109.74487788
 21
292.1785114657
  0
LINE
  5
27C
100
AcDbEntity
  8
0
100
AcDbLine
 62
7
  6
CONTINUOUS
 10
110.8055315959
 20
292.7908765188
 11
110.8055315959
 21
279.245101954
  0
LINE
  5
27D
100
AcDbEntity
  8
0
100
AcDbLine
 62
7
  6
CONTINUOUS
 10
110.8055315959
 20
175.7192518308
 11
110.8055315959
 21
166.6575841913
  0
LINE
  5
27E
100
AcDbEntity
  8
0
100
AcDbLine
 62
7
  6
CONTINUOUS
 10
112.3256718269
 20
379.4091216542
 11
112.3256718269
 21
367.1615853973
  0
LINE
  5
27F
100
AcDbEntity
  8
0
100
AcDbLine
 62
7
  6
CONTINUOUS
 10
113.8812914284
 20
394.1877760979
 11
113.8812914284
 21
369.2844523755
  0
LINE
  5
280
100
AcDbEntity
  8
0
100
AcDbLine
 62
7
  6
CONTINUOUS
 10
113.8812943408
 20
338.494898676
 11
113.8812943408
 21
290.3288499078
  0
LINE
  5
281
100
AcDbEntity
  8
0
100
AcDbLine
 62
7
  6
CONTINUOUS
 10
113.8812943408
 20
173.943499555
 11
113.8812943408
 21
134.5400086504
  0
LINE
  5
282
100
AcDbEntity
  8
0
100
AcDbLine
 62
7
  6
CONTINUOUS
 10
115.0126603564
 20
369.284455095
 11
115.0126603564
 21
394.1877788174
  0
LINE
  5
283
100
AcDbEntity
  8
0
100
AcDbLine
 62
7
  6
CONTINUOUS
 10
115.0126630074
 20
134.5400111703
 11
115.0126630074
 21
173.2903183277
  0
LINE
  5
284
100
AcDbEntity
  8
0
100
AcDbLine
 62
7
  6
CONTINUOUS
 10
115.0126630074
 20
290.9820420131
 11
115.0126630074
 21
337.8417174487
  0
LINE
  5
285
100
AcDbEntity
  8
0
100
AcDbLine
 62
7
  6
CONTINUOUS
 10
115.3662300357
 20
392.7589312236
 11
115.3662300357
 21
367.8556075011
  0
LINE
  5
286
100
AcDbEntity
  8
0
100
AcDbLine
 62
7
  6
CONTINUOUS
 10
115.960643808
 20
242.1795764169
 11
118.7890591568
 21
243.8125530324
  0
LINE
  5
287
100
AcDbEntity
  8
0
100
AcDbLine
 62
7
  6
CONTINUOUS
 10
121.9423949101
 20
122.4642154285
 11
121.9423949101
 21
123.2725515804
  0
LINE
  5
288
100
AcDbEntity
  8
0
100
AcDbLine
 62
7
  6
CONTINUOUS
 10
103.486984621
 20
186.5908495321
 11
103.8183762424
 21
187.3232854475
  0
LINE
  5
289
100
AcDbEntity
  8
0
100
AcDbLine
 62
7
  6
CONTINUOUS
 10
105.7497357414
 20
185.2844791176
 11
105.41834412
 21
184.5520432022
  0
LWPOLYLINE
  5
28A
100
AcDbEntity
  8
0
100
AcDbPolyline
 62
7
  6
CONTINUOUS
 90
5
 70
0
 10
151.3131640297
 20
177.278411201
 10
156.1675565656
 20
173.0675474485
 10
162.8063754377
 20
169.2476403365
 10
175.6193402633
 20
165.61047706
 10
177.6216210583
 20
165.9648441707
  0
LWPOLYLINE
  5
28B
100
AcDbEntity
  8
0
100
AcDbPolyline
 62
7
  6
CONTINUOUS
 90
6
 70
0
 10
120.3832818451
 20
210.9024838589
 10
125.0142356481
 20
199.579210194
 10
132.0782347424
 20
189.3305555424
 10
140.5914317456
 20
181.6183836183
 10
145.0245472576
 20
179.060204055
 10
151.2325617786
 20
177.514456496
  0
LINE
  5
28C
100
AcDbEntity
  8
0
100
AcDbLine
 62
7
  6
CONTINUOUS
 10
118.7605390076
 20
221.8655825495
 11
120.3832818451
 21
210.9024838589
  0
LINE
  5
28D
100
AcDbEntity
  8
0
100
AcDbLine
 62
7
  6
CONTINUOUS
 10
131.4178247426
 20
338.4215531703
 11
131.4178247426
 21
328.3704071744
  0
LINE
  5
28E
100
AcDbEntity
  8
0
100
AcDbLine
 62
7
  6
CONTINUOUS
 10
132.4784826479
 20
330.2156945371
 11
132.4784826479
 21
337.8091958965
  0
LINE
  5
28F
100
AcDbEntity
  8
0
100
AcDbLine
 62
7
  6
CONTINUOUS
 10
132.9772327633
 20
330.5036463316
 11
132.9772327633
 21
329.2707264407
  0
LINE
  5
290
100
AcDbEntity
  8
0
100
AcDbLine
 62
7
  6
CONTINUOUS
 10
133.6843396604
 20
329.2707289008
 11
133.6843396604
 21
330.5036487917
  0
LINE
  5
291
100
AcDbEntity
  8
0
100
AcDbLine
 62
7
  6
CONTINUOUS
 10
137.78157729
 20
372.848165381
 11
137.78157729
 21
378.1847042113
  0
LINE
  5
292
100
AcDbEntity
  8
0
100
AcDbLine
 62
7
  6
CONTINUOUS
 10
138.6341082185
 20
327.6459632317
 11
138.6341082185
 21
326.4130433408
  0
LINE
  5
293
100
AcDbEntity
  8
0
100
AcDbLine
 62
7
  6
CONTINUOUS
 10
141.4625381117
 20
327.6459717414
 11
141.4625381117
 21
326.4130518505
  0
LINE
  5
294
100
AcDbEntity
  8
0
100
AcDbLine
 62
7
  6
CONTINUOUS
 10
132.8318676719
 20
381.042355743
 11
132.8273336967
 21
375.7185945767
  0
LINE
  5
295
100
AcDbEntity
  8
0
100
AcDbLine
 62
7
  6
CONTINUOUS
 10
134.9486389706
 20
376.943323437
 11
134.9531729458
 21
382.2670846033
  0
LINE
  5
296
100
AcDbEntity
  8
0
100
AcDbLine
 62
7
  6
CONTINUOUS
 10
134.877476557
 20
186.7947004314
 11
134.1799246576
 21
180.6374293017
  0
LINE
  5
297
100
AcDbEntity
  8
0
100
AcDbLine
 62
7
  6
CONTINUOUS
 10
176.6728583326
 20
323.9350686436
 11
175.057911123
 21
320.0751427288
  0
LINE
  5
298
100
AcDbEntity
  8
0
100
AcDbLine
 62
7
  6
CONTINUOUS
 10
218.0505568223
 20
334.5029771943
 11
217.8264209407
 21
334.1763852321
  0
LINE
  5
299
100
AcDbEntity
  8
0
100
AcDbLine
 62
7
  6
CONTINUOUS
 10
152.2366280071
 20
230.6359917282
 11
161.0679029139
 21
236.4728569759
  0
LINE
  5
29A
100
AcDbEntity
  8
0
100
AcDbLine
 62
7
  6
CONTINUOUS
 10
161.2410234853
 20
236.2423199037
 11
151.7447877669
 21
229.9659612994
  0
LINE
  5
29B
100
AcDbEntity
  8
0
100
AcDbLine
 62
7
  6
CONTINUOUS
 10
108.5840781734
 20
209.6484490831
 11
122.9727537483
 21
204.5708942438
  0
LINE
  5
29C
100
AcDbEntity
  8
0
100
AcDbLine
 62
7
  6
CONTINUOUS
 10
177.8658161808
 20
166.6454054749
 11
164.6982191766
 21
181.3376063642
  0
LINE
  5
29D
100
AcDbEntity
  8
0
100
AcDbLine
 62
7
  6
CONTINUOUS
 10
179.3951847111
 20
125.8335054507
 11
180.8094043932
 21
123.3840156641
  0
LINE
  5
29E
100
AcDbEntity
  8
0
100
AcDbLine
 62
7
  6
CONTINUOUS
 10
117.1022168904
 20
256.4469881576
 11
124.6268658813
 21
236.4278225058
  0
LINE
  5
29F
100
AcDbEntity
  8
0
100
AcDbLine
 62
7
  6
CONTINUOUS
 10
173.9573026778
 20
56.6736534647
 11
175.9821883436
 21
49.4958483291
  0
LINE
  5
2A0
100
AcDbEntity
  8
0
100
AcDbLine
 62
7
  6
CONTINUOUS
 10
142.5870555383
 20
328.2952083691
 11
142.5870555383
 21
327.0622884782
  0
LINE
  5
2A1
100
AcDbEntity
  8
0
100
AcDbLine
 62
7
  6
CONTINUOUS
 10
145.7051963348
 20
325.196527288
 11
145.7052053119
 21
322.3306358869
  0
LINE
  5
2A2
100
AcDbEntity
  8
0
100
AcDbLine
 62
7
  6
CONTINUOUS
 10
149.0955674762
 20
318.1643885395
 11
149.0955674762
 21
328.2155345354
  0
LINE
  5
2A3
100
AcDbEntity
  8
0
100
AcDbLine
 62
7
  6
CONTINUOUS
 10
148.5473322272
 20
161.2404119267
 11
150.414092093
 21
177.7182491119
  0
LINE
  5
2A4
100
AcDbEntity
  8
0
100
AcDbLine
 62
7
  6
CONTINUOUS
 10
179.3951826712
 20
238.4210220356
 11
176.566774167
 21
236.7880493718
  0
LINE
  5
2A5
100
AcDbEntity
  8
0
100
AcDbLine
 62
7
  6
CONTINUOUS
 10
181.7641202505
 20
178.1211387099
 11
167.6974687436
 21
193.816490695
  0
LINE
  5
2A6
100
AcDbEntity
  8
0
100
AcDbLine
 62
7
  6
CONTINUOUS
 10
168.4429132822
 20
194.5426960495
 11
181.7198467063
 21
179.7284992756
  0
LINE
  5
2A7
100
AcDbEntity
  8
0
100
AcDbLine
 62
7
  6
CONTINUOUS
 10
109.74487788
 20
292.1785114657
 11
108.3306581979
 21
294.6280012522
  0
LINE
  5
2A8
100
AcDbEntity
  8
0
100
AcDbLine
 62
7
  6
CONTINUOUS
 10
105.4554817544
 20
360.2592149759
 11
102.9653863061
 21
369.0861041992
  0
LINE
  5
2A9
100
AcDbEntity
  8
0
100
AcDbLine
 62
7
  6
CONTINUOUS
 10
104.0260442114
 20
369.698471671
 11
106.5161396597
 21
360.8715824477
  0
LINE
  5
2AA
100
AcDbEntity
  8
0
100
AcDbLine
 62
7
  6
CONTINUOUS
 10
151.3369605048
 20
177.4884620213
 11
149.5251677758
 21
161.4958182176
  0
LINE
  5
2AB
100
AcDbEntity
  8
0
100
AcDbLine
 62
7
  6
CONTINUOUS
 10
102.9653863061
 20
87.0046650329
 11
106.5560914777
 21
95.5868806848
  0
LINE
  5
2AC
100
AcDbEntity
  8
0
100
AcDbLine
 62
7
  6
CONTINUOUS
 10
107.616749383
 20
96.1992481566
 11
104.0260442114
 21
87.6170325047
  0
LINE
  5
2AD
100
AcDbEntity
  8
0
100
AcDbLine
 62
7
  6
CONTINUOUS
 10
94.4359872523
 20
166.6370647594
 11
93.3753315148
 21
166.0246985392
  0
LINE
  5
2AE
100
AcDbEntity
  8
0
100
AcDbLine
 62
7
  6
CONTINUOUS
 10
100.0815546431
 20
169.2433477546
 11
96.9815784966
 21
167.4535863754
  0
LINE
  5
2AF
100
AcDbEntity
  8
0
100
AcDbLine
 62
7
  6
CONTINUOUS
 10
100.729220221
 20
169.2090083018
 11
95.9209117593
 21
166.4329466879
  0
LINE
  5
2B0
100
AcDbEntity
  8
0
100
AcDbLine
 62
7
  6
CONTINUOUS
 10
101.6764145827
 20
168.5311330135
 11
101.7898827689
 21
168.5966435103
  0
LINE
  5
2B1
100
AcDbEntity
  8
0
100
AcDbLine
 62
7
  6
CONTINUOUS
 10
124.2558131311
 20
235.9368915433
 11
111.4700878625
 21
240.4487884774
  0
LINE
  5
2B2
100
AcDbEntity
  8
0
100
AcDbLine
 62
7
  6
CONTINUOUS
 10
112.2553121612
 20
240.5768919809
 11
124.5036636675
 21
236.2546264506
  0
LINE
  5
2B3
100
AcDbEntity
  8
0
100
AcDbLine
 62
7
  6
CONTINUOUS
 10
124.2675904375
 20
237.3836670422
 11
115.960643808
 21
242.1795764169
  0
LINE
  5
2B4
100
AcDbEntity
  8
0
100
AcDbLine
 62
7
  6
CONTINUOUS
 10
118.7890591568
 20
243.8125530324
 11
122.6998013006
 21
241.5547360816
  0
LINE
  5
2B5
100
AcDbEntity
  8
0
100
AcDbLine
 62
7
  6
CONTINUOUS
 10
109.3913119138
 20
295.2403663053
 11
110.8055315959
 21
292.7908765188
  0
LINE
  5
2B6
100
AcDbEntity
  8
0
100
AcDbLine
 62
7
  6
CONTINUOUS
 10
151.0370757072
 20
240.0593856515
 11
147.355345554
 21
249.8545489754
  0
LINE
  5
2B7
100
AcDbEntity
  8
0
100
AcDbLine
 62
7
  6
CONTINUOUS
 10
148.3732954419
 20
248.9681095031
 11
151.5002413208
 21
240.6489377239
  0
LINE
  5
2B8
100
AcDbEntity
  8
0
100
AcDbLine
 62
7
  6
CONTINUOUS
 10
176.6728583326
 20
325.521520327
 11
176.6728583326
 21
320.1651231341
  0
LINE
  5
2B9
100
AcDbEntity
  8
0
100
AcDbLine
 62
7
  6
CONTINUOUS
 10
176.6728583326
 20
311.8508504461
 11
176.6728583326
 21
252.2322533418
  0
LINE
  5
2BA
100
AcDbEntity
  8
0
100
AcDbLine
 62
7
  6
CONTINUOUS
 10
176.6728583326
 20
116.3009354252
 11
176.6728583326
 21
49.89465804
  0
LINE
  5
2BB
100
AcDbEntity
  8
0
100
AcDbLine
 62
7
  6
CONTINUOUS
 10
179.3951847111
 20
249.035715122
 11
179.3951847111
 21
238.4210232133
  0
LINE
  5
2BC
100
AcDbEntity
  8
0
100
AcDbLine
 62
7
  6
CONTINUOUS
 10
179.3951847111
 20
136.1133595272
 11
179.3951847111
 21
125.8335054507
  0
LINE
  5
2BD
100
AcDbEntity
  8
0
100
AcDbLine
 62
7
  6
CONTINUOUS
 10
177.7335057614
 20
229.4583241061
 11
178.0648973829
 21
230.1907600215
  0
LINE
  5
2BE
100
AcDbEntity
  8
0
100
AcDbLine
 62
7
  6
CONTINUOUS
 10
179.9962568819
 20
228.1519536916
 11
179.6648652604
 21
227.4195177762
  0
LINE
  5
2BF
100
AcDbEntity
  8
0
100
AcDbLine
 62
7
  6
CONTINUOUS
 10
173.6371812167
 20
207.4149069915
 11
176.9372713192
 21
209.5960395502
  0
LINE
  5
2C0
100
AcDbEntity
  8
0
100
AcDbLine
 62
7
  6
CONTINUOUS
 10
106.7396503391
 20
165.7389585206
 11
105.6825301385
 21
165.1204685702
  0
LINE
  5
2C1
100
AcDbEntity
  8
0
100
AcDbLine
 62
7
  6
CONTINUOUS
 10
100.3120800865
 20
162.0116913339
 11
105.6860656937
 21
165.1143448505
  0
LINE
  5
2C2
100
AcDbEntity
  8
0
100
AcDbLine
 62
7
  6
CONTINUOUS
 10
110.8055315959
 20
166.6575841913
 11
108.3306581979
 21
165.2286926375
  0
LINE
  5
2C3
100
AcDbEntity
  8
0
100
AcDbLine
 62
7
  6
CONTINUOUS
 10
101.7192288115
 20
159.5744551586
 11
108.1538700212
 21
163.2894748175
  0
LWPOLYLINE
  5
2C4
100
AcDbEntity
  8
0
100
AcDbPolyline
 62
7
  6
CONTINUOUS
 90
3
 70
0
 10
177.1595692086
 20
209.1385518302
 10
181.49195082
 20
192.1199987581
 10
182.0468750848
 20
184.103311609
  0
LINE
  5
2C5
100
AcDbEntity
  8
0
100
AcDbLine
 62
7
  6
CONTINUOUS
 10
183.9895386286
 20
115.8927822622
 11
183.9895386286
 21
245.292090877
  0
LINE
  5
2C6
100
AcDbEntity
  8
0
100
AcDbLine
 62
7
  6
CONTINUOUS
 10
184.6631987304
 20
114.9538182543
 11
184.6631987304
 21
244.3531268691
  0
LINE
  5
2C7
100
AcDbEntity
  8
0
100
AcDbLine
 62
7
  6
CONTINUOUS
 10
185.016754271
 20
113.116695381
 11
185.016754271
 21
114.7496974412
  0
LINE
  5
2C8
100
AcDbEntity
  8
0
100
AcDbLine
 62
7
  6
CONTINUOUS
 10
185.016754271
 20
244.1490060559
 11
185.016754271
 21
245.7820081162
  0
LINE
  5
2C9
100
AcDbEntity
  8
0
100
AcDbLine
 62
7
  6
CONTINUOUS
 10
190.6029188432
 20
319.1121733857
 11
190.6029188432
 21
33.3363273903
  0
LINE
  5
2CA
100
AcDbEntity
  8
0
100
AcDbLine
 62
7
  6
CONTINUOUS
 10
191.3100095053
 20
321.1533887968
 11
191.3100095053
 21
319.9286640512
  0
LINE
  5
2CB
100
AcDbEntity
  8
0
100
AcDbLine
 62
7
  6
CONTINUOUS
 10
192.9361949416
 20
346.3418912438
 11
192.9361949416
 21
341.0482375196
  0
LWPOLYLINE
  5
2CC
100
AcDbEntity
  8
0
100
AcDbPolyline
 62
7
  6
CONTINUOUS
 90
3
 70
0
 10
178.8149104988
 20
169.2904905212
 10
179.1783855837
 20
171.578211535
 10
181.0080797213
 20
175.402758822
  0
LINE
  5
2CD
100
AcDbEntity
  8
0
100
AcDbLine
 62
7
  6
CONTINUOUS
 10
176.3484233465
 20
188.0934024275
 11
174.9477333566
 21
187.2847185119
  0
LINE
  5
2CE
100
AcDbEntity
  8
0
100
AcDbLine
 62
7
  6
CONTINUOUS
 10
164.7910044509
 20
181.4207633473
 11
159.8021935557
 21
178.5404892269
  0
LINE
  5
2CF
100
AcDbEntity
  8
0
100
AcDbLine
 62
7
  6
CONTINUOUS
 10
111.4700878625
 20
240.4487884774
 11
112.2553121612
 21
240.5768919809
  0
LINE
  5
2D0
100
AcDbEntity
  8
0
100
AcDbLine
 62
7
  6
CONTINUOUS
 10
98.8554169918
 20
281.6537073592
 11
183.9895386286
 21
232.5026112613
  0
LINE
  5
2D1
100
AcDbEntity
  8
0
100
AcDbLine
 62
7
  6
CONTINUOUS
 10
183.9895386286
 20
235.7685293942
 11
179.3951826712
 21
238.4210220356
  0
LINE
  5
2D2
100
AcDbEntity
  8
0
100
AcDbLine
 62
7
  6
CONTINUOUS
 10
109.7448758401
 20
278.6327357232
 11
101.683825496
 21
283.286680023
  0
LINE
  5
2D3
100
AcDbEntity
  8
0
100
AcDbLine
 62
7
  6
CONTINUOUS
 10
101.7192283521
 20
368.7950408561
 11
100.3050047606
 21
371.2445205714
  0
LINE
  5
2D4
100
AcDbEntity
  8
0
100
AcDbLine
 62
7
  6
CONTINUOUS
 10
102.9653863061
 20
369.0861041992
 11
102.7798809891
 21
369.4074052862
  0
LINE
  5
2D5
100
AcDbEntity
  8
0
100
AcDbLine
 62
7
  6
CONTINUOUS
 10
102.4263154569
 20
372.4692525623
 11
104.0260442114
 21
369.698471671
  0
LINE
  5
2D6
100
AcDbEntity
  8
0
100
AcDbLine
 62
7
  6
CONTINUOUS
 10
176.6728583326
 20
252.2322533418
 11
178.0800072104
 21
249.7950161939
  0
LINE
  5
2D7
100
AcDbEntity
  8
0
100
AcDbLine
 62
7
  6
CONTINUOUS
 10
193.8556100367
 20
33.3363352088
 11
193.8556100367
 21
319.1121812042
  0
LINE
  5
2D8
100
AcDbEntity
  8
0
100
AcDbLine
 62
7
  6
CONTINUOUS
 10
195.0575002155
 20
342.2729663799
 11
195.0575002155
 21
347.5666201041
  0
LINE
  5
2D9
100
AcDbEntity
  8
0
100
AcDbLine
 62
7
  6
CONTINUOUS
 10
197.8859045597
 20
338.1630261368
 11
197.8859045597
 21
343.4842397121
  0
LINE
  5
2DA
100
AcDbEntity
  8
0
100
AcDbLine
 62
7
  6
CONTINUOUS
 10
177.7335057614
 20
143.7255703075
 11
178.0648973829
 21
144.4580062229
  0
LINE
  5
2DB
100
AcDbEntity
  8
0
100
AcDbLine
 62
7
  6
CONTINUOUS
 10
108.1538737512
 20
131.2333005585
 11
113.8812943408
 21
134.5400086504
  0
LWPOLYLINE
  5
2DC
100
AcDbEntity
  8
0
100
AcDbPolyline
 62
7
  6
CONTINUOUS
 90
7
 70
0
 10
114.4524388638
 20
257.3784935704
 10
125.6198111685
 20
259.3360559979
 10
138.4899669572
 20
255.6392234281
 10
145.1287858293
 20
251.793456235
 10
157.9417506549
 20
240.6358168323
 10
169.0287263484
 20
225.8717775541
 10
177.1595692086
 20
209.1385518302
  0
LINE
  5
2DD
100
AcDbEntity
  8
0
100
AcDbLine
 62
7
  6
CONTINUOUS
 10
184.6632179992
 20
244.3531157445
 11
185.016754271
 21
244.1490060559
  0
LINE
  5
2DE
100
AcDbEntity
  8
0
100
AcDbLine
 62
7
  6
CONTINUOUS
 10
93.3753315148
 20
297.0570092142
 11
93.728877885
 21
296.8528937843
  0
LINE
  5
2DF
100
AcDbEntity
  8
0
100
AcDbLine
 62
7
  6
CONTINUOUS
 10
94.7895428313
 20
297.4652546434
 11
94.4359872523
 21
297.6693754343
  0
LINE
  5
2E0
100
AcDbEntity
  8
0
100
AcDbLine
 62
7
  6
CONTINUOUS
 10
185.016754271
 20
245.7820081162
 11
178.0800072104
 21
249.7950161939
  0
LINE
  5
2E1
100
AcDbEntity
  8
0
100
AcDbLine
 62
7
  6
CONTINUOUS
 10
100.3120800865
 20
294.6933341175
 11
93.3753315148
 21
298.6900112744
  0
LINE
  5
2E2
100
AcDbEntity
  8
0
100
AcDbLine
 62
7
  6
CONTINUOUS
 10
104.2647333326
 20
296.9754109622
 11
108.3306581979
 21
294.6280012522
  0
LINE
  5
2E3
100
AcDbEntity
  8
0
100
AcDbLine
 62
7
  6
CONTINUOUS
 10
105.3253870485
 20
297.5877760153
 11
109.3913119138
 21
295.2403663053
  0
LINE
  5
2E4
100
AcDbEntity
  8
0
100
AcDbLine
 62
7
  6
CONTINUOUS
 10
176.6728583326
 20
257.1322999915
 11
116.5330066001
 21
291.859807556
  0
LINE
  5
2E5
100
AcDbEntity
  8
0
100
AcDbLine
 62
7
  6
CONTINUOUS
 10
88.8498180423
 20
379.0827449295
 11
88.6173797478
 21
379.4093397155
  0
LINE
  5
2E6
100
AcDbEntity
  8
0
100
AcDbLine
 62
7
  6
CONTINUOUS
 10
215.3515412771
 20
335.0336907828
 11
215.3515412771
 21
332.7475213213
  0
LINE
  5
2E7
100
AcDbEntity
  8
0
100
AcDbLine
 62
7
  6
CONTINUOUS
 10
216.4121939141
 20
335.6460552129
 11
216.4121939141
 21
333.3598857514
  0
LINE
  5
2E8
100
AcDbEntity
  8
0
100
AcDbLine
 62
7
  6
CONTINUOUS
 10
217.8264162304
 20
334.8295720492
 11
217.8264162304
 21
334.1763852321
  0
LINE
  5
2E9
100
AcDbEntity
  8
0
100
AcDbLine
 62
7
  6
CONTINUOUS
 10
218.887085874
 20
333.5640242512
 11
218.887085874
 21
47.7881782559
  0
LINE
  5
2EA
100
AcDbEntity
  8
0
100
AcDbLine
 62
7
  6
CONTINUOUS
 10
179.9962568819
 20
142.419199893
 11
179.6648652604
 21
141.6867639776
  0
LINE
  5
2EB
100
AcDbEntity
  8
0
100
AcDbLine
 62
7
  6
CONTINUOUS
 10
116.5330066001
 20
126.3955927247
 11
108.1538737512
 21
121.5579269958
  0
LINE
  5
2EC
100
AcDbEntity
  8
0
100
AcDbLine
 62
7
  6
CONTINUOUS
 10
108.1538695618
 20
115.3117902782
 11
121.9423949101
 21
123.2725515804
  0
LINE
  5
2ED
100
AcDbEntity
  8
0
100
AcDbLine
 62
7
  6
CONTINUOUS
 10
121.9423953695
 20
122.4642151632
 11
102.7798814484
 21
111.4007986323
  0
LINE
  5
2EE
100
AcDbEntity
  8
0
100
AcDbLine
 62
7
  6
CONTINUOUS
 10
132.8318676719
 20
381.042355743
 11
131.4176437751
 21
383.4918528296
  0
LINE
  5
2EF
100
AcDbEntity
  8
0
100
AcDbLine
 62
7
  6
CONTINUOUS
 10
219.5607335062
 20
48.7271294606
 11
219.5607335062
 21
334.502975456
  0
LINE
  5
2F0
100
AcDbEntity
  8
0
100
AcDbLine
 62
7
  6
CONTINUOUS
 10
98.5656057373
 20
91.3496493916
 11
97.8597985192
 21
90.9391737103
  0
LINE
  5
2F1
100
AcDbEntity
  8
0
100
AcDbLine
 62
7
  6
CONTINUOUS
 10
93.7694732972
 20
101.2793104213
 11
93.0623666592
 21
100.8710646504
  0
LINE
  5
2F2
100
AcDbEntity
  8
0
100
AcDbLine
 62
7
  6
CONTINUOUS
 10
90.4303166932
 20
98.0812897611
 11
92.9050989584
 21
99.5102894506
  0
LINE
  5
2F3
100
AcDbEntity
  8
0
100
AcDbLine
 62
7
  6
CONTINUOUS
 10
95.3302934383
 20
89.5942304221
 11
97.8052419897
 21
91.0229420938
  0
LINE
  5
2F4
100
AcDbEntity
  8
0
100
AcDbLine
 62
7
  6
CONTINUOUS
 10
93.5682202113
 20
100.0054266953
 11
92.8598321358
 21
99.5994212169
  0
LINE
  5
2F5
100
AcDbEntity
  8
0
100
AcDbLine
 62
7
  6
CONTINUOUS
 10
133.538949049
 20
384.7165816899
 11
134.9531729458
 21
382.2670846033
  0
LINE
  5
2F6
100
AcDbEntity
  8
0
100
AcDbLine
 62
7
  6
CONTINUOUS
 10
106.5560914777
 20
95.5868806848
 11
107.616749383
 21
96.1992481566
  0
LINE
  5
2F7
100
AcDbEntity
  8
0
100
AcDbLine
 62
7
  6
CONTINUOUS
 10
99.7694458836
 20
90.886991779
 11
99.0623389187
 21
90.4787458194
  0
LINE
  5
2F8
100
AcDbEntity
  8
0
100
AcDbLine
 62
7
  6
CONTINUOUS
 10
104.0260442114
 20
87.6170325047
 11
100.3050089753
 21
85.4686721427
  0
LINE
  5
2F9
100
AcDbEntity
  8
0
100
AcDbLine
 62
7
  6
CONTINUOUS
 10
176.6728583326
 20
302.2429924302
 11
149.0955674762
 21
318.1643885395
  0
LINE
  5
2FA
100
AcDbEntity
  8
0
100
AcDbLine
 62
7
  6
CONTINUOUS
 10
131.4178247426
 20
328.3704071744
 11
102.7798814484
 21
344.9041574009
  0
LINE
  5
2FB
100
AcDbEntity
  8
0
100
AcDbLine
 62
7
  6
CONTINUOUS
 10
133.6843396604
 20
329.2707289008
 11
138.6341082185
 21
326.4130433408
  0
LINE
  5
2FC
100
AcDbEntity
  8
0
100
AcDbLine
 62
7
  6
CONTINUOUS
 10
145.7052053119
 20
322.3306358869
 11
149.0955674762
 21
320.3732547132
  0
LINE
  5
2FD
100
AcDbEntity
  8
0
100
AcDbLine
 62
7
  6
CONTINUOUS
 10
138.6341082185
 20
327.6459632317
 11
133.6843396604
 21
330.5036487917
  0
LINE
  5
2FE
100
AcDbEntity
  8
0
100
AcDbLine
 62
7
  6
CONTINUOUS
 10
149.0955674762
 20
321.6061746041
 11
145.7052053119
 21
323.5635557778
  0
LINE
  5
2FF
100
AcDbEntity
  8
0
100
AcDbLine
 62
7
  6
CONTINUOUS
 10
183.9895386286
 20
120.5252227253
 11
176.6728583326
 21
116.3009354252
  0
LINE
  5
300
100
AcDbEntity
  8
0
100
AcDbLine
 62
7
  6
CONTINUOUS
 10
149.0955674762
 20
328.2155345354
 11
131.4178247426
 21
338.4215531703
  0
LINE
  5
301
100
AcDbEntity
  8
0
100
AcDbLine
 62
7
  6
CONTINUOUS
 10
108.7503709139
 20
355.7549104818
 11
171.7630219634
 21
319.3753624513
  0
LINE
  5
302
100
AcDbEntity
  8
0
100
AcDbLine
 62
7
  6
CONTINUOUS
 10
172.8236798687
 20
319.9877299231
 11
109.8110288192
 21
356.3672779536
  0
LINE
  5
303
100
AcDbEntity
  8
0
100
AcDbLine
 62
7
  6
CONTINUOUS
 10
192.9361949416
 20
346.3418912438
 11
191.5219752595
 21
348.7913810303
  0
LINE
  5
304
100
AcDbEntity
  8
0
100
AcDbLine
 62
7
  6
CONTINUOUS
 10
193.6432805334
 20
350.0161098906
 11
195.0575002155
 21
347.5666201041
  0
LINE
  5
305
100
AcDbEntity
  8
0
100
AcDbLine
 62
7
  6
CONTINUOUS
 10
141.4625381117
 20
326.4130518505
 11
138.6341082185
 21
326.4130433408
  0
LINE
  5
306
100
AcDbEntity
  8
0
100
AcDbLine
 62
7
  6
CONTINUOUS
 10
138.6341082185
 20
327.6459632317
 11
141.4625381117
 21
327.6459717414
  0
LINE
  5
307
100
AcDbEntity
  8
0
100
AcDbLine
 62
7
  6
CONTINUOUS
 10
178.08707832
 20
326.3380353842
 11
190.6029188432
 21
319.1121733857
  0
LINE
  5
308
100
AcDbEntity
  8
0
100
AcDbLine
 62
7
  6
CONTINUOUS
 10
87.7891648069
 20
378.4703790929
 11
100.3050089753
 21
371.2445181381
  0
LINE
  5
309
100
AcDbEntity
  8
0
100
AcDbLine
 62
7
  6
CONTINUOUS
 10
88.8498180423
 20
379.0827449295
 11
90.2640403586
 21
378.2662617658
  0
LINE
  5
30A
100
AcDbEntity
  8
0
100
AcDbLine
 62
7
  6
CONTINUOUS
 10
190.2493516
 20
320.541021325
 11
191.6635739163
 21
319.7245381613
  0
LINE
  5
30B
100
AcDbEntity
  8
0
100
AcDbLine
 62
7
  6
CONTINUOUS
 10
91.3246982639
 20
378.8786292376
 11
102.4263154569
 21
372.4692525623
  0
LINE
  5
30C
100
AcDbEntity
  8
0
100
AcDbLine
 62
7
  6
CONTINUOUS
 10
180.2083932311
 20
327.5627649417
 11
191.3100095053
 21
321.1533887968
  0
LINE
  5
30D
100
AcDbEntity
  8
0
100
AcDbLine
 62
7
  6
CONTINUOUS
 10
195.7642311089
 20
321.4388500266
 11
115.3662300357
 21
367.8556075011
  0
LINE
  5
30E
100
AcDbEntity
  8
0
100
AcDbLine
 62
7
  6
CONTINUOUS
 10
115.3662300357
 20
369.0803261634
 11
115.0126603564
 21
369.284455095
  0
LINE
  5
30F
100
AcDbEntity
  8
0
100
AcDbLine
 62
7
  6
CONTINUOUS
 10
112.3256718269
 20
379.4091216542
 11
111.2650050897
 21
380.021484027
  0
LINE
  5
310
100
AcDbEntity
  8
0
100
AcDbLine
 62
7
  6
CONTINUOUS
 10
217.8264162304
 20
334.8295720492
 11
218.0505568223
 21
334.5029771943
  0
LINE
  5
311
100
AcDbEntity
  8
0
100
AcDbLine
 62
7
  6
CONTINUOUS
 10
215.3515412771
 20
335.0336907828
 11
199.3001284565
 21
344.3007686463
  0
LINE
  5
312
100
AcDbEntity
  8
0
100
AcDbLine
 62
7
  6
CONTINUOUS
 10
131.4176437751
 20
383.4918528296
 11
115.3662300357
 21
392.7589312236
  0
LINE
  5
313
100
AcDbEntity
  8
0
100
AcDbLine
 62
7
  6
CONTINUOUS
 10
139.1957969721
 20
379.0012307121
 11
191.5219752595
 21
348.7913810303
  0
LINE
  5
314
100
AcDbEntity
  8
0
100
AcDbLine
 62
7
  6
CONTINUOUS
 10
217.8264162304
 20
334.8295720492
 11
216.4121939141
 21
335.6460552129
  0
LINE
  5
315
100
AcDbEntity
  8
0
100
AcDbLine
 62
7
  6
CONTINUOUS
 10
116.4268826727
 20
393.3712956537
 11
115.0126603564
 21
394.1877788174
  0
LINE
  5
316
100
AcDbEntity
  8
0
100
AcDbLine
 62
7
  6
CONTINUOUS
 10
193.6432805334
 20
350.0161098906
 11
141.3171022461
 21
380.2259595724
  0
LINE
  5
317
100
AcDbEntity
  8
0
100
AcDbLine
 62
7
  6
CONTINUOUS
 10
218.8870688673
 20
335.4419364794
 11
201.4214295158
 21
345.5254999399
  0
LINE
  5
318
100
AcDbEntity
  8
0
100
AcDbLine
 62
7
  6
CONTINUOUS
 10
133.5389532637
 20
384.7165792566
 11
116.0733129934
 21
394.8001432476
  0
LINE
  5
319
100
AcDbEntity
  8
0
100
AcDbLine
 62
7
  6
CONTINUOUS
 10
178.6226406416
 20
52.2904200675
 11
177.9155336768
 21
51.882174108
  0
LINE
  5
31A
100
AcDbEntity
  8
0
100
AcDbLine
 62
7
  6
CONTINUOUS
 10
175.2834837108
 20
49.0923992187
 11
177.7582659761
 21
50.5213989082
  0
LINE
  5
31B
100
AcDbEntity
  8
0
100
AcDbLine
 62
7
  6
CONTINUOUS
 10
178.421387229
 20
51.0165361529
 11
177.7129991535
 21
50.6105306745
  0
LINE
  5
31C
100
AcDbEntity
  8
0
100
AcDbLine
 62
7
  6
CONTINUOUS
 10
183.418772755
 20
42.3607588492
 11
182.7129655369
 21
41.9502831679
  0
LINE
  5
31D
100
AcDbEntity
  8
0
100
AcDbLine
 62
7
  6
CONTINUOUS
 10
184.6226125744
 20
41.8981010479
 11
183.9155059364
 21
41.489855277
  0
LINE
  5
31E
100
AcDbEntity
  8
0
100
AcDbLine
 62
7
  6
CONTINUOUS
 10
180.1834604559
 20
40.6053398797
 11
182.6584090074
 21
42.0340515513
  0
LINE
  5
31F
100
AcDbEntity
  8
0
100
AcDbLine
 62
7
  6
CONTINUOUS
 10
193.8556100367
 20
33.3363352088
 11
218.887085874
 21
47.7881782559
  0
ARC
  5
320
100
AcDbEntity
  8
0
100
AcDbCircle
 62
7
  6
CONTINUOUS
 10
96.8002905053
 20
96.1102422177
 40
7.4792541143
100
AcDbArc
 50
203.7345348029
 51
207.9750021254
  0
ARC
  5
321
100
AcDbEntity
  8
0
100
AcDbCircle
 62
7
  6
CONTINUOUS
 10
93.548852595
 20
95.4300608435
 40
4.1332989998
100
AcDbArc
 50
180.0016152613
 51
180.7356747632
  0
ARC
  5
322
100
AcDbEntity
  8
0
100
AcDbCircle
 62
7
  6
CONTINUOUS
 10
94.5070832897
 20
93.4693750128
 40
3.9591180547
100
AcDbArc
 50
239.9884889475
 51
242.3990001841
  0
ARC
  5
323
100
AcDbEntity
  8
0
100
AcDbCircle
 62
7
  6
CONTINUOUS
 10
97.9604635705
 20
92.9072503383
 40
2.7095364809
100
AcDbArc
 50
267.5100019186
 51
268.794933172
  0
ARC
  5
324
100
AcDbEntity
  8
0
100
AcDbCircle
 62
7
  6
CONTINUOUS
 10
94.5524298871
 20
98.7375219838
 40
2.6382623725
100
AcDbArc
 50
149.5905693617
 51
150.6242139399
  0
ARC
  5
325
100
AcDbEntity
  8
0
100
AcDbCircle
 62
7
  6
CONTINUOUS
 10
109.8794674054
 20
95.2528805875
 40
2.4526525283
100
AcDbArc
 50
155.1462830126
 51
157.303187053
  0
ARC
  5
326
100
AcDbEntity
  8
0
100
AcDbCircle
 62
7
  6
CONTINUOUS
 10
96.8867201154
 20
92.5532060068
 40
1.7878538881
100
AcDbArc
 50
314.8847247821
 51
320.1080259666
  0
ARC
  5
327
100
AcDbEntity
  8
0
100
AcDbCircle
 62
7
  6
CONTINUOUS
 10
93.7626276341
 20
98.0644151176
 40
1.7825806924
100
AcDbArc
 50
134.5828330962
 51
136.3677338915
  0
ARC
  5
328
100
AcDbEntity
  8
0
100
AcDbCircle
 62
7
  6
CONTINUOUS
 10
93.6930550336
 20
98.1455570963
 40
1.6754845904
100
AcDbArc
 50
118.7568453264
 51
119.8174146798
  0
ARC
  5
329
100
AcDbEntity
  8
0
100
AcDbCircle
 62
7
  6
CONTINUOUS
 10
97.0174807481
 20
92.387714896
 40
1.6754221922
100
AcDbArc
 50
291.9410055445
 51
300.1777652417
  0
ARC
  5
32A
100
AcDbEntity
  8
0
100
AcDbCircle
 62
7
  6
CONTINUOUS
 10
108.1851237106
 20
95.0887000028
 40
1.6689301831
100
AcDbArc
 50
119.9857495915
 51
122.7629283422
  0
ARC
  5
32B
100
AcDbEntity
  8
0
100
AcDbCircle
 62
7
  6
CONTINUOUS
 10
132.4502150754
 20
227.5259692868
 40
11.9013340441
100
AcDbArc
 50
116.1740811417
 51
119.9788375118
  0
ARC
  5
32C
100
AcDbEntity
  8
0
100
AcDbCircle
 62
7
  6
CONTINUOUS
 10
131.5045392295
 20
227.5576086587
 40
11.4010077048
100
AcDbArc
 50
120.00953209
 51
127.6919916603
  0
ARC
  5
32D
100
AcDbEntity
  8
0
100
AcDbCircle
 62
7
  6
CONTINUOUS
 10
97.8953374813
 20
366.7470845645
 40
7.8572952878
100
AcDbArc
 50
15.6017945543
 51
16.2457955039
  0
ARC
  5
32E
100
AcDbEntity
  8
0
100
AcDbCircle
 62
7
  6
CONTINUOUS
 10
96.8002905053
 20
366.3807073118
 40
7.4792541143
100
AcDbArc
 50
203.7345348029
 51
207.9750021254
  0
ARC
  5
32F
100
AcDbEntity
  8
0
100
AcDbCircle
 62
7
  6
CONTINUOUS
 10
98.4092558033
 20
367.9308468162
 40
6.7704674921
100
AcDbArc
 50
48.9258116838
 51
52.7277480507
  0
ARC
  5
330
100
AcDbEntity
  8
0
100
AcDbCircle
 62
7
  6
CONTINUOUS
 10
98.9872498215
 20
369.0940108194
 40
5.3213221905
100
AcDbArc
 50
58.3792054893
 51
59.9930135032
  0
ARC
  5
331
100
AcDbEntity
  8
0
100
AcDbCircle
 62
7
  6
CONTINUOUS
 10
100.3495489923
 20
366.9046830669
 40
5.2233820764
100
AcDbArc
 50
0.0008792973
 51
0.5500858106
  0
ARC
  5
332
100
AcDbEntity
  8
0
100
AcDbCircle
 62
7
  6
CONTINUOUS
 10
93.5488525951
 20
365.7005259376
 40
4.1332989999
100
AcDbArc
 50
180.0016152613
 51
180.7356747632
  0
ARC
  5
333
100
AcDbEntity
  8
0
100
AcDbCircle
 62
7
  6
CONTINUOUS
 10
94.5070832896
 20
363.7398401067
 40
3.9591180545
100
AcDbArc
 50
239.9884889475
 51
242.3990001842
  0
ARC
  5
334
100
AcDbEntity
  8
0
100
AcDbCircle
 62
7
  6
CONTINUOUS
 10
138.8356417171
 20
375.0618749875
 40
2.7750005625
100
AcDbArc
 50
245.5095633699
 51
246.3294295509
  0
ARC
  5
335
100
AcDbEntity
  8
0
100
AcDbCircle
 62
7
  6
CONTINUOUS
 10
97.9604635705
 20
363.1777154331
 40
2.7095364815
100
AcDbArc
 50
267.5100019188
 51
268.7949331719
  0
ARC
  5
336
100
AcDbEntity
  8
0
100
AcDbCircle
 62
7
  6
CONTINUOUS
 10
94.5524298865
 20
369.0079870782
 40
2.6382623718
100
AcDbArc
 50
149.5905693616
 51
150.6242139401
  0
ARC
  5
337
100
AcDbEntity
  8
0
100
AcDbCircle
 62
7
  6
CONTINUOUS
 10
96.8867201154
 20
362.8236711009
 40
1.7878538881
100
AcDbArc
 50
314.8847247821
 51
320.1080259666
  0
ARC
  5
338
100
AcDbEntity
  8
0
100
AcDbCircle
 62
7
  6
CONTINUOUS
 10
93.7626276338
 20
368.334880212
 40
1.7825806919
100
AcDbArc
 50
134.5828330959
 51
136.3677338916
  0
ARC
  5
339
100
AcDbEntity
  8
0
100
AcDbCircle
 62
7
  6
CONTINUOUS
 10
93.6930550332
 20
368.416022191
 40
1.6754845896
100
AcDbArc
 50
118.7568453263
 51
119.8174146802
  0
ARC
  5
33A
100
AcDbEntity
  8
0
100
AcDbCircle
 62
7
  6
CONTINUOUS
 10
97.017480748
 20
362.6581799902
 40
1.6754221924
100
AcDbArc
 50
291.9410055444
 51
300.1777652417
  0
ARC
  5
33B
100
AcDbEntity
  8
0
100
AcDbCircle
 62
7
  6
CONTINUOUS
 10
181.6534575228
 20
47.1213516753
 40
7.4792541142
100
AcDbArc
 50
203.7345348028
 51
207.9750021255
  0
ARC
  5
33C
100
AcDbEntity
  8
0
100
AcDbCircle
 62
7
  6
CONTINUOUS
 10
178.4020196113
 20
46.4411703011
 40
4.1332989984
100
AcDbArc
 50
180.0016152612
 51
180.7356747634
  0
ARC
  5
33D
100
AcDbEntity
  8
0
100
AcDbCircle
 62
7
  6
CONTINUOUS
 10
179.3602503073
 20
44.4804844704
 40
3.9591180547
100
AcDbArc
 50
239.9884889475
 51
242.3990001841
  0
ARC
  5
33E
100
AcDbEntity
  8
0
100
AcDbCircle
 62
7
  6
CONTINUOUS
 10
182.8136305881
 20
43.9183597957
 40
2.7095364807
100
AcDbArc
 50
267.5100019185
 51
268.7949331721
  0
ARC
  5
33F
100
AcDbEntity
  8
0
100
AcDbCircle
 62
7
  6
CONTINUOUS
 10
179.4055969035
 20
49.7486314421
 40
2.6382623711
100
AcDbArc
 50
149.5905693614
 51
150.6242139402
  0
ARC
  5
340
100
AcDbEntity
  8
0
100
AcDbCircle
 62
7
  6
CONTINUOUS
 10
181.7373108737
 20
43.5666174738
 40
1.7913091261
100
AcDbArc
 50
315.2076937247
 51
320.157903337
  0
ARC
  5
341
100
AcDbEntity
  8
0
100
AcDbCircle
 62
7
  6
CONTINUOUS
 10
178.6157946517
 20
49.0755245752
 40
1.7825806923
100
AcDbArc
 50
134.5828330961
 51
136.3677338914
  0
ARC
  5
342
100
AcDbEntity
  8
0
100
AcDbCircle
 62
7
  6
CONTINUOUS
 10
178.5462220508
 20
49.1566665545
 40
1.6754845896
100
AcDbArc
 50
118.7568453261
 51
119.81741468
  0
ARC
  5
343
100
AcDbEntity
  8
0
100
AcDbCircle
 62
7
  6
CONTINUOUS
 10
181.870647766
 20
43.398824353
 40
1.6754221916
100
AcDbArc
 50
291.9410055445
 51
300.177765242
  0
ARC
  5
344
100
AcDbEntity
  8
0
100
AcDbCircle
 62
7
  6
CONTINUOUS
 10
166.0963486781
 20
239.0257282884
 40
50.2348052732
100
AcDbArc
 50
176.400481574
 51
179.6819527353
  0
ARC
  5
345
100
AcDbEntity
  8
0
100
AcDbCircle
 62
7
  6
CONTINUOUS
 10
167.9650465537
 20
240.9789256548
 40
48.8486601563
100
AcDbArc
 50
176.6209045086
 51
176.9335409995
  0
ARC
  5
346
100
AcDbEntity
  8
0
100
AcDbCircle
 62
7
  6
CONTINUOUS
 10
148.5969642164
 20
233.6044317976
 40
14.9715119292
100
AcDbArc
 50
88.9135559686
 51
90.2891197975
  0
ARC
  5
347
100
AcDbEntity
  8
0
100
AcDbCircle
 62
7
  6
CONTINUOUS
 10
181.6534575229
 20
317.3918167694
 40
7.4792541143
100
AcDbArc
 50
203.7345348029
 51
207.9750021254
  0
ARC
  5
348
100
AcDbEntity
  8
0
100
AcDbCircle
 62
7
  6
CONTINUOUS
 10
183.840416839
 20
320.1051202767
 40
5.3213221908
100
AcDbArc
 50
58.3792054894
 51
59.9930135032
  0
ARC
  5
349
100
AcDbEntity
  8
0
100
AcDbCircle
 62
7
  6
CONTINUOUS
 10
178.4020196127
 20
316.7116353952
 40
4.1332989999
100
AcDbArc
 50
180.0016152614
 51
180.7356747633
  0
ARC
  5
34A
100
AcDbEntity
  8
0
100
AcDbCircle
 62
7
  6
CONTINUOUS
 10
179.3602503073
 20
314.7509495645
 40
3.9591180547
100
AcDbArc
 50
239.9884889475
 51
242.3990001841
  0
ARC
  5
34B
100
AcDbEntity
  8
0
100
AcDbCircle
 62
7
  6
CONTINUOUS
 10
198.9478712751
 20
340.359770062
 40
2.7896989405
100
AcDbArc
 50
245.2284293729
 51
246.1860034662
  0
ARC
  5
34C
100
AcDbEntity
  8
0
100
AcDbCircle
 62
7
  6
CONTINUOUS
 10
182.8136305882
 20
314.1888248906
 40
2.7095364815
100
AcDbArc
 50
267.5100019186
 51
268.7949331718
  0
ARC
  5
34D
100
AcDbEntity
  8
0
100
AcDbCircle
 62
7
  6
CONTINUOUS
 10
179.4055969034
 20
320.0190965362
 40
2.6382623709
100
AcDbArc
 50
149.5905693614
 51
150.6242139403
  0
ARC
  5
34E
100
AcDbEntity
  8
0
100
AcDbCircle
 62
7
  6
CONTINUOUS
 10
194.8854602315
 20
341.027849141
 40
1.9493719133
100
AcDbArc
 50
179.400735519
 51
180.3253810318
  0
ARC
  5
34F
100
AcDbEntity
  8
0
100
AcDbCircle
 62
7
  6
CONTINUOUS
 10
181.739887133
 20
313.8347805585
 40
1.7878538882
100
AcDbArc
 50
314.8847247822
 51
320.1080259665
  0
ARC
  5
350
100
AcDbEntity
  8
0
100
AcDbCircle
 62
7
  6
CONTINUOUS
 10
178.6157946517
 20
319.3459896693
 40
1.7825806923
100
AcDbArc
 50
134.5828330961
 51
136.3677338915
  0
ARC
  5
351
100
AcDbEntity
  8
0
100
AcDbCircle
 62
7
  6
CONTINUOUS
 10
178.546222051
 20
319.4271316482
 40
1.67548459
100
AcDbArc
 50
118.7568453264
 51
119.81741468
  0
ARC
  5
352
100
AcDbEntity
  8
0
100
AcDbCircle
 62
7
  6
CONTINUOUS
 10
181.8706477662
 20
313.6692894468
 40
1.6754221913
100
AcDbArc
 50
291.9410055445
 51
300.1777652421
  0
SPLINE
  5
353
100
AcDbEntity
  8
0
100
AcDbSpline
 62
7
  6
CONTINUOUS
 70
0
 71
3
 72
11
 73
7
 74
0
 42
0.0000001
 43
0.0000001
 44
0.0000000001
 40
0.0
 40
0.0
 40
0.0
 40
0.0
 40
0.2738898513
 40
0.5284163296
 40
0.7675567172
 40
1.0
 40
1.0
 40
1.0
 40
1.0
 10
92.6303916177
 20
89.812182901
 30
0.0
 10
92.8541830546
 20
89.6829797776
 30
0.0
 10
93.3080679369
 20
89.4685285803
 30
0.0
 10
94.0199018961
 20
89.3028101047
 30
0.0
 10
94.7138336019
 20
89.3272279875
 30
0.0
 10
95.1403514171
 20
89.4845819055
 30
0.0
 10
95.3302826924
 20
89.5942242182
 30
0.0
  0
SPLINE
  5
354
100
AcDbEntity
  8
0
100
AcDbSpline
 62
7
  6
CONTINUOUS
 70
0
 71
3
 72
15
 73
11
 74
0
 42
0.0000001
 43
0.0000001
 44
0.0000000001
 40
0.0
 40
0.0
 40
0.0
 40
0.0
 40
0.0986057272
 40
0.204097122
 40
0.3217381094
 40
0.4524035785
 40
0.5922870545
 40
0.734822803
 40
0.8727336768
 40
1.0
 40
1.0
 40
1.0
 40
1.0
 10
90.4303064821
 20
98.0812838656
 30
0.0
 10
90.151323983
 20
97.920193894
 30
0.0
 10
89.6551944565
 20
97.4308538924
 30
0.0
 10
89.2845721502
 20
96.4223621519
 30
0.0
 10
89.2368223808
 20
95.2541554788
 30
0.0
 10
89.4774483665
 20
93.9999671373
 30
0.0
 10
89.9765406754
 20
92.7386113061
 30
0.0
 10
90.694241537
 20
91.5598828728
 30
0.0
 10
91.5762581768
 20
90.55304483
 30
0.0
 10
92.2703076231
 20
90.0200727891
 30
0.0
 10
92.6303916177
 20
89.812182901
 30
0.0
  0
SPLINE
  5
355
100
AcDbEntity
  8
0
100
AcDbSpline
 62
7
  6
CONTINUOUS
 70
0
 71
3
 72
8
 73
4
 74
0
 42
0.0000001
 43
0.0000001
 44
0.0000000001
 40
0.0
 40
0.0
 40
0.0
 40
0.0
 40
1.0
 40
1.0
 40
1.0
 40
1.0
 10
92.8599409467
 20
99.599231589
 30
0.0
 10
92.7332719446
 20
99.5266362943
 30
0.0
 10
92.6153529964
 20
99.4365098025
 30
0.0
 10
92.5113635045
 20
99.3340339591
 30
0.0
  0
SPLINE
  5
356
100
AcDbEntity
  8
0
100
AcDbSpline
 62
7
  6
CONTINUOUS
 70
0
 71
3
 72
10
 73
6
 74
0
 42
0.0000001
 43
0.0000001
 44
0.0000000001
 40
0.0
 40
0.0
 40
0.0
 40
0.0
 40
0.2297848136
 40
0.4827899726
 40
1.0
 40
1.0
 40
1.0
 40
1.0
 10
170.6624146199
 20
61.1779646701
 30
0.0
 10
171.0396862511
 20
60.9601517199
 30
0.0
 10
171.7715858737
 20
60.3940022305
 30
0.0
 10
173.019020116
 20
58.9595384247
 30
0.0
 10
173.6910784547
 20
57.6173638956
 30
0.0
 10
173.9573026778
 20
56.6736534647
 30
0.0
  0
SPLINE
  5
357
100
AcDbEntity
  8
0
100
AcDbSpline
 62
7
  6
CONTINUOUS
 70
0
 71
3
 72
9
 73
5
 74
0
 42
0.0000001
 43
0.0000001
 44
0.0000000001
 40
0.0
 40
0.0
 40
0.0
 40
0.0
 40
0.24379818
 40
1.0
 40
1.0
 40
1.0
 40
1.0
 10
93.0624298863
 20
100.8709559471
 30
0.0
 10
92.9831368275
 20
100.8251343441
 30
0.0
 10
92.6706255228
 20
100.6151821777
 30
0.0
 10
92.4209038643
 20
100.3179245857
 30
0.0
 10
92.2771123021
 20
100.0729463484
 30
0.0
  0
SPLINE
  5
358
100
AcDbEntity
  8
0
100
AcDbSpline
 62
7
  6
CONTINUOUS
 70
0
 71
3
 72
9
 73
5
 74
0
 42
0.0000001
 43
0.0000001
 44
0.0000000001
 40
0.0
 40
0.0
 40
0.0
 40
0.0
 40
0.2415172291
 40
1.0
 40
1.0
 40
1.0
 40
1.0
 10
92.2533921361
 20
100.0316833979
 30
0.0
 10
92.2269183026
 20
99.9846565759
 30
0.0
 10
92.1232250791
 20
99.78662938
 30
0.0
 10
92.0430355992
 20
99.5766105252
 30
0.0
 10
91.9942431043
 20
99.4143045196
 30
0.0
  0
SPLINE
  5
359
100
AcDbEntity
  8
0
100
AcDbSpline
 62
7
  6
CONTINUOUS
 70
0
 71
3
 72
9
 73
5
 74
0
 42
0.0000001
 43
0.0000001
 44
0.0000000001
 40
0.0
 40
0.0
 40
0.0
 40
0.0
 40
0.2444313903
 40
1.0
 40
1.0
 40
1.0
 40
1.0
 10
91.9942431043
 20
99.4143045196
 30
0.0
 10
91.9837550936
 20
99.3794166312
 30
0.0
 10
91.9430871473
 20
99.2360173863
 30
0.0
 10
91.9111655918
 20
99.0901757802
 30
0.0
 10
91.8914844609
 20
98.9792984194
 30
0.0
  0
SPLINE
  5
35A
100
AcDbEntity
  8
0
100
AcDbSpline
 62
7
  6
CONTINUOUS
 70
0
 71
3
 72
11
 73
7
 74
0
 42
0.0000001
 43
0.0000001
 44
0.0000000001
 40
0.0
 40
0.0
 40
0.0
 40
0.0
 40
0.2738898513
 40
0.5284163296
 40
0.7675567172
 40
1.0
 40
1.0
 40
1.0
 40
1.0
 10
92.6303916177
 20
360.0826479951
 30
0.0
 10
92.8541830546
 20
359.9534448717
 30
0.0
 10
93.3080679369
 20
359.7389936744
 30
0.0
 10
94.0199018961
 20
359.5732751988
 30
0.0
 10
94.7138336019
 20
359.5976930815
 30
0.0
 10
95.1403514171
 20
359.7550469995
 30
0.0
 10
95.3302826924
 20
359.8646893123
 30
0.0
  0
SPLINE
  5
35B
100
AcDbEntity
  8
0
100
AcDbSpline
 62
7
  6
CONTINUOUS
 70
0
 71
3
 72
15
 73
11
 74
0
 42
0.0000001
 43
0.0000001
 44
0.0000000001
 40
0.0
 40
0.0
 40
0.0
 40
0.0
 40
0.0986057272
 40
0.204097122
 40
0.3217381094
 40
0.4524035785
 40
0.5922870545
 40
0.734822803
 40
0.8727336768
 40
1.0
 40
1.0
 40
1.0
 40
1.0
 10
90.4303064821
 20
368.3517489597
 30
0.0
 10
90.151323983
 20
368.1906589881
 30
0.0
 10
89.6551944565
 20
367.7013189864
 30
0.0
 10
89.2845721502
 20
366.6928272459
 30
0.0
 10
89.2368223808
 20
365.5246205728
 30
0.0
 10
89.4774483665
 20
364.2704322314
 30
0.0
 10
89.9765406754
 20
363.0090764002
 30
0.0
 10
90.694241537
 20
361.8303479669
 30
0.0
 10
91.5762581768
 20
360.823509924
 30
0.0
 10
92.2703076231
 20
360.2905378831
 30
0.0
 10
92.6303916177
 20
360.0826479951
 30
0.0
  0
SPLINE
  5
35C
100
AcDbEntity
  8
0
100
AcDbSpline
 62
7
  6
CONTINUOUS
 70
0
 71
3
 72
9
 73
5
 74
0
 42
0.0000001
 43
0.0000001
 44
0.0000000001
 40
0.0
 40
0.0
 40
0.0
 40
0.0
 40
0.4999987288
 40
1.0
 40
1.0
 40
1.0
 40
1.0
 10
133.6843378074
 20
329.2707299706
 30
0.0
 10
133.579396767
 20
329.3313169729
 30
0.0
 10
133.3307869144
 20
329.37929345
 30
0.0
 10
133.0821773454
 20
329.3313158618
 30
0.0
 10
132.9772359334
 20
329.270728271
 30
0.0
  0
SPLINE
  5
35D
100
AcDbEntity
  8
0
100
AcDbSpline
 62
7
  6
CONTINUOUS
 70
0
 71
3
 72
9
 73
5
 74
0
 42
0.0000001
 43
0.0000001
 44
0.0000000001
 40
0.0
 40
0.0
 40
0.0
 40
0.0
 40
0.5484481195
 40
1.0
 40
1.0
 40
1.0
 40
1.0
 10
143.7507668039
 20
328.5506412246
 30
0.0
 10
143.4433217874
 20
328.373138821
 30
0.0
 10
142.9146950542
 20
327.9725606696
 30
0.0
 10
142.6186335933
 20
327.3528638343
 30
0.0
 10
142.5870555383
 20
327.0622884782
 30
0.0
  0
SPLINE
  5
35E
100
AcDbEntity
  8
0
100
AcDbSpline
 62
7
  6
CONTINUOUS
 70
0
 71
3
 72
8
 73
4
 74
0
 42
0.0000001
 43
0.0000001
 44
0.0000000001
 40
0.0
 40
0.0
 40
0.0
 40
0.0
 40
1.0
 40
1.0
 40
1.0
 40
1.0
 10
92.8599409467
 20
369.869696683
 30
0.0
 10
92.7332719446
 20
369.7971013884
 30
0.0
 10
92.6153529964
 20
369.7069748965
 30
0.0
 10
92.5113635045
 20
369.6044990532
 30
0.0
  0
SPLINE
  5
35F
100
AcDbEntity
  8
0
100
AcDbSpline
 62
7
  6
CONTINUOUS
 70
0
 71
3
 72
9
 73
5
 74
0
 42
0.0000001
 43
0.0000001
 44
0.0000000001
 40
0.0
 40
0.0
 40
0.0
 40
0.0
 40
0.24379818
 40
1.0
 40
1.0
 40
1.0
 40
1.0
 10
93.0624298863
 20
371.1414210412
 30
0.0
 10
92.9831368275
 20
371.0955994382
 30
0.0
 10
92.6706255228
 20
370.8856472718
 30
0.0
 10
92.4209038643
 20
370.5883896797
 30
0.0
 10
92.2771123021
 20
370.3434114425
 30
0.0
  0
SPLINE
  5
360
100
AcDbEntity
  8
0
100
AcDbSpline
 62
7
  6
CONTINUOUS
 70
0
 71
3
 72
9
 73
5
 74
0
 42
0.0000001
 43
0.0000001
 44
0.0000000001
 40
0.0
 40
0.0
 40
0.0
 40
0.0
 40
0.2415172291
 40
1.0
 40
1.0
 40
1.0
 40
1.0
 10
92.2533921361
 20
370.3021484919
 30
0.0
 10
92.2269183026
 20
370.25512167
 30
0.0
 10
92.1232250791
 20
370.0570944741
 30
0.0
 10
92.0430355992
 20
369.8470756193
 30
0.0
 10
91.9942431043
 20
369.6847696136
 30
0.0
  0
SPLINE
  5
361
100
AcDbEntity
  8
0
100
AcDbSpline
 62
7
  6
CONTINUOUS
 70
0
 71
3
 72
9
 73
5
 74
0
 42
0.0000001
 43
0.0000001
 44
0.0000000001
 40
0.0
 40
0.0
 40
0.0
 40
0.0
 40
0.2444313903
 40
1.0
 40
1.0
 40
1.0
 40
1.0
 10
91.9942431043
 20
369.6847696136
 30
0.0
 10
91.9837550936
 20
369.6498817253
 30
0.0
 10
91.9430871473
 20
369.5064824803
 30
0.0
 10
91.9111655918
 20
369.3606408743
 30
0.0
 10
91.8914844609
 20
369.2497635134
 30
0.0
  0
SPLINE
  5
362
100
AcDbEntity
  8
0
100
AcDbSpline
 62
7
  6
CONTINUOUS
 70
0
 71
3
 72
11
 73
7
 74
0
 42
0.0000001
 43
0.0000001
 44
0.0000000001
 40
0.0
 40
0.0
 40
0.0
 40
0.0
 40
0.4208364216
 40
0.5586009732
 40
0.7037823584
 40
1.0
 40
1.0
 40
1.0
 40
1.0
 10
187.441893515
 20
324.1473008686
 30
0.0
 10
188.0057633182
 20
324.2980452721
 30
0.0
 10
188.8466081977
 20
323.882985802
 30
0.0
 10
189.5412732197
 20
323.2207619103
 30
0.0
 10
190.0537702576
 20
322.5952657703
 30
0.0
 10
190.3526673425
 20
322.0536520143
 30
0.0
 10
190.5064548311
 20
321.6726873686
 30
0.0
  0
SPLINE
  5
363
100
AcDbEntity
  8
0
100
AcDbSpline
 62
7
  6
CONTINUOUS
 70
0
 71
3
 72
9
 73
5
 74
0
 42
0.0000001
 43
0.0000001
 44
0.0000000001
 40
0.0
 40
0.0
 40
0.0
 40
0.0
 40
0.259451098
 40
1.0
 40
1.0
 40
1.0
 40
1.0
 10
189.0825033427
 20
322.4883151819
 30
0.0
 10
188.9591095909
 20
322.6685236258
 30
0.0
 10
188.4588228168
 20
323.3453795731
 30
0.0
 10
187.8589113772
 20
323.9523991042
 30
0.0
 10
187.3626388245
 20
324.3296699619
 30
0.0
  0
SPLINE
  5
364
100
AcDbEntity
  8
0
100
AcDbSpline
 62
7
  6
CONTINUOUS
 70
0
 71
3
 72
9
 73
5
 74
0
 42
0.0000001
 43
0.0000001
 44
0.0000000001
 40
0.0
 40
0.0
 40
0.0
 40
0.0
 40
0.2560316611
 40
1.0
 40
1.0
 40
1.0
 40
1.0
 10
187.3626388245
 20
324.3296699619
 30
0.0
 10
187.312693415
 20
324.3676389113
 30
0.0
 10
187.1154721403
 20
324.5130744067
 30
0.0
 10
186.9095192753
 20
324.6468100674
 30
0.0
 10
186.751637638
 20
324.7379610111
 30
0.0
  0
SPLINE
  5
365
100
AcDbEntity
  8
0
100
AcDbSpline
 62
7
  6
CONTINUOUS
 70
0
 71
3
 72
9
 73
5
 74
0
 42
0.0000001
 43
0.0000001
 44
0.0000000001
 40
0.0
 40
0.0
 40
0.0
 40
0.0
 40
0.2563419778
 40
1.0
 40
1.0
 40
1.0
 40
1.0
 10
175.057911123
 20
320.0751427288
 30
0.0
 10
175.0438308868
 20
320.0414890622
 30
0.0
 10
174.9860481986
 20
319.9114292501
 30
0.0
 10
174.9165603102
 20
319.7864792397
 30
0.0
 10
174.8582246149
 20
319.6981775857
 30
0.0
  0
SPLINE
  5
366
100
AcDbEntity
  8
0
100
AcDbSpline
 62
7
  6
CONTINUOUS
 70
0
 71
3
 72
9
 73
5
 74
0
 42
0.0000001
 43
0.0000001
 44
0.0000000001
 40
0.0
 40
0.0
 40
0.0
 40
0.0
 40
0.2588842937
 40
1.0
 40
1.0
 40
1.0
 40
1.0
 10
174.8582246149
 20
319.6981775857
 30
0.0
 10
174.8188122877
 20
319.6385198812
 30
0.0
 10
174.6551423887
 20
319.4159633448
 30
0.0
 10
174.4402773163
 20
319.2300795953
 30
0.0
 10
174.2629865846
 20
319.1277809101
 30
0.0
  0
SPLINE
  5
367
100
AcDbEntity
  8
0
100
AcDbSpline
 62
7
  6
CONTINUOUS
 70
0
 71
3
 72
9
 73
5
 74
0
 42
0.0000001
 43
0.0000001
 44
0.0000000001
 40
0.0
 40
0.0
 40
0.0
 40
0.0
 40
0.5284900685
 40
1.0
 40
1.0
 40
1.0
 40
1.0
 10
186.751637638
 20
324.7379610111
 30
0.0
 10
186.3657616896
 20
324.9607415538
 30
0.0
 10
185.5772730262
 20
325.2976394618
 30
0.0
 10
184.7017181085
 20
325.31675539
 30
0.0
 10
184.3154522596
 20
325.2227986501
 30
0.0
  0
SPLINE
  5
368
100
AcDbEntity
  8
0
100
AcDbSpline
 62
7
  6
CONTINUOUS
 70
0
 71
3
 72
9
 73
5
 74
0
 42
0.0000001
 43
0.0000001
 44
0.0000000001
 40
0.0
 40
0.0
 40
0.0
 40
0.0
 40
0.2811347163
 40
1.0
 40
1.0
 40
1.0
 40
1.0
 10
172.8236959101
 20
319.9877206619
 30
0.0
 10
172.9798487021
 20
319.8975670268
 30
0.0
 10
173.5500377199
 20
319.6094772005
 30
0.0
 10
174.2158154668
 20
319.4631608546
 30
0.0
 10
174.6729550322
 20
319.5231035042
 30
0.0
  0
SPLINE
  5
369
100
AcDbEntity
  8
0
100
AcDbSpline
 62
7
  6
CONTINUOUS
 70
0
 71
3
 72
10
 73
6
 74
0
 42
0.0000001
 43
0.0000001
 44
0.0000000001
 40
0.0
 40
0.0
 40
0.0
 40
0.0
 40
0.5172099697
 40
0.7702151658
 40
1.0
 40
1.0
 40
1.0
 40
1.0
 10
106.5161396597
 20
360.8715824477
 30
0.0
 10
106.7823618556
 20
359.9278754763
 30
0.0
 10
107.4544165766
 20
358.58570516
 30
0.0
 10
108.7018461744
 20
357.1512476115
 30
0.0
 10
109.4337417078
 20
356.5850978646
 30
0.0
 10
109.8110127778
 20
356.3672872149
 30
0.0
  0
SPLINE
  5
36A
100
AcDbEntity
  8
0
100
AcDbSpline
 62
7
  6
CONTINUOUS
 70
0
 71
3
 72
13
 73
9
 74
0
 42
0.0000001
 43
0.0000001
 44
0.0000000001
 40
0.0
 40
0.0
 40
0.0
 40
0.0
 40
0.0900869814
 40
0.1948777035
 40
0.3161911299
 40
0.4511769416
 40
0.7373330964
 40
1.0
 40
1.0
 40
1.0
 40
1.0
 10
102.5887264974
 20
373.1361914111
 30
0.0
 10
102.7539323525
 20
373.1803573833
 30
0.0
 10
103.1362031827
 20
373.1870735434
 30
0.0
 10
103.7100964484
 20
372.9862122539
 30
0.0
 10
104.2861770689
 20
372.6046030527
 30
0.0
 10
105.0209196041
 20
371.8758229872
 30
0.0
 10
105.7035786751
 20
370.7494506852
 30
0.0
 10
105.9618244793
 20
369.7099410183
 30
0.0
 10
105.9618244793
 20
369.2113335329
 30
0.0
  0
SPLINE
  5
36B
100
AcDbEntity
  8
0
100
AcDbSpline
 62
7
  6
CONTINUOUS
 70
0
 71
3
 72
9
 73
5
 74
0
 42
0.0000001
 43
0.0000001
 44
0.0000000001
 40
0.0
 40
0.0
 40
0.0
 40
0.0
 40
0.2344509195
 40
1.0
 40
1.0
 40
1.0
 40
1.0
 10
149.1133099482
 20
326.3638521247
 30
0.0
 10
148.947214008
 20
326.2853581858
 30
0.0
 10
148.2178703125
 20
325.995300453
 30
0.0
 10
147.4291821545
 20
325.8674802644
 30
0.0
 10
146.8297117181
 20
325.8457626718
 30
0.0
  0
SPLINE
  5
36C
100
AcDbEntity
  8
0
100
AcDbSpline
 62
7
  6
CONTINUOUS
 70
0
 71
3
 72
9
 73
5
 74
0
 42
0.0000001
 43
0.0000001
 44
0.0000000001
 40
0.0
 40
0.0
 40
0.0
 40
0.0
 40
0.2307171554
 40
1.0
 40
1.0
 40
1.0
 40
1.0
 10
105.356151268
 20
365.3831572399
 30
0.0
 10
105.4403288673
 20
365.552221645
 30
0.0
 10
105.7328968527
 20
366.3214828
 30
0.0
 10
105.751935796
 20
367.1718572852
 30
0.0
 10
105.6769274033
 20
367.7970969116
 30
0.0
  0
SPLINE
  5
36D
100
AcDbEntity
  8
0
100
AcDbSpline
 62
7
  6
CONTINUOUS
 70
0
 71
3
 72
9
 73
5
 74
0
 42
0.0000001
 43
0.0000001
 44
0.0000000001
 40
0.0
 40
0.0
 40
0.0
 40
0.0
 40
0.2438550729
 40
1.0
 40
1.0
 40
1.0
 40
1.0
 10
105.6769274033
 20
367.7970969116
 30
0.0
 10
105.6664213881
 20
367.884670806
 30
0.0
 10
105.6158664878
 20
368.2428767309
 30
0.0
 10
105.5366769698
 20
368.5968842548
 30
0.0
 10
105.4631239947
 20
368.8603040346
 30
0.0
  0
SPLINE
  5
36E
100
AcDbEntity
  8
0
100
AcDbSpline
 62
7
  6
CONTINUOUS
 70
0
 71
3
 72
9
 73
5
 74
0
 42
0.0000001
 43
0.0000001
 44
0.0000000001
 40
0.0
 40
0.0
 40
0.0
 40
0.0
 40
0.2460711591
 40
1.0
 40
1.0
 40
1.0
 40
1.0
 10
105.4388940036
 20
368.9452302003
 30
0.0
 10
105.4095348847
 20
369.0459896021
 30
0.0
 10
105.2820852715
 20
369.4530604929
 30
0.0
 10
105.1234169612
 20
369.8502464115
 30
0.0
 10
104.9884560818
 20
370.1421039825
 30
0.0
  0
SPLINE
  5
36F
100
AcDbEntity
  8
0
100
AcDbSpline
 62
7
  6
CONTINUOUS
 70
0
 71
3
 72
9
 73
5
 74
0
 42
0.0000001
 43
0.0000001
 44
0.0000000001
 40
0.0
 40
0.0
 40
0.0
 40
0.0
 40
0.2557475618
 40
1.0
 40
1.0
 40
1.0
 40
1.0
 10
104.9884560818
 20
370.1421039825
 30
0.0
 10
104.8593996279
 20
370.4211930289
 30
0.0
 10
104.2994334725
 20
371.4851071937
 30
0.0
 10
103.5325510663
 20
372.4472444454
 30
0.0
 10
102.8576946489
 20
373.0348278015
 30
0.0
  0
SPLINE
  5
370
100
AcDbEntity
  8
0
100
AcDbSpline
 62
7
  6
CONTINUOUS
 70
0
 71
3
 72
9
 73
5
 74
0
 42
0.0000001
 43
0.0000001
 44
0.0000000001
 40
0.0
 40
0.0
 40
0.0
 40
0.0
 40
0.2560316611
 40
1.0
 40
1.0
 40
1.0
 40
1.0
 10
102.5094718068
 20
373.3185605043
 30
0.0
 10
102.4595263974
 20
373.3565294538
 30
0.0
 10
102.2623051226
 20
373.5019649491
 30
0.0
 10
102.0563522576
 20
373.6357006099
 30
0.0
 10
101.8984706204
 20
373.7268515535
 30
0.0
  0
SPLINE
  5
371
100
AcDbEntity
  8
0
100
AcDbSpline
 62
7
  6
CONTINUOUS
 70
0
 71
3
 72
9
 73
5
 74
0
 42
0.0000001
 43
0.0000001
 44
0.0000000001
 40
0.0
 40
0.0
 40
0.0
 40
0.0
 40
0.5284900685
 40
1.0
 40
1.0
 40
1.0
 40
1.0
 10
101.8984706204
 20
373.7268515535
 30
0.0
 10
101.5125946719
 20
373.9496320963
 30
0.0
 10
100.7241060086
 20
374.2865300043
 30
0.0
 10
99.8485510909
 20
374.3056459324
 30
0.0
 10
99.4622852419
 20
374.2116891925
 30
0.0
  0
SPLINE
  5
372
100
AcDbEntity
  8
0
100
AcDbSpline
 62
7
  6
CONTINUOUS
 70
0
 71
3
 72
10
 73
6
 74
0
 42
0.0000001
 43
0.0000001
 44
0.0000000001
 40
0.0
 40
0.0
 40
0.0
 40
0.0
 40
0.2236793155
 40
0.4590168339
 40
1.0
 40
1.0
 40
1.0
 40
1.0
 10
179.6178481685
 20
166.1891549395
 30
0.0
 10
179.4561708115
 20
166.3695196009
 30
0.0
 10
179.16940093
 20
166.7826797853
 30
0.0
 10
178.7743400867
 20
167.7991417931
 30
0.0
 10
178.7236042921
 20
168.6599736982
 30
0.0
 10
178.7553588116
 20
169.2449397275
 30
0.0
  0
SPLINE
  5
373
100
AcDbEntity
  8
0
100
AcDbSpline
 62
7
  6
CONTINUOUS
 70
0
 71
3
 72
11
 73
7
 74
0
 42
0.0000001
 43
0.0000001
 44
0.0000000001
 40
0.0
 40
0.0
 40
0.0
 40
0.0
 40
0.2181742656
 40
0.4534287601
 40
0.7130893749
 40
1.0
 40
1.0
 40
1.0
 40
1.0
 10
124.5337756474
 20
236.5793286593
 30
0.0
 10
123.594134408
 20
235.8534675638
 30
0.0
 10
121.8714333926
 20
234.0287484157
 30
0.0
 10
120.0585185554
 20
230.5541718793
 30
0.0
 10
118.9758884869
 20
226.40954042
 30
0.0
 10
118.7605390076
 20
223.4270101804
 30
0.0
 10
118.7605390076
 20
221.8655825495
 30
0.0
  0
SPLINE
  5
374
100
AcDbEntity
  8
0
100
AcDbSpline
 62
7
  6
CONTINUOUS
 70
0
 71
3
 72
11
 73
7
 74
0
 42
0.0000001
 43
0.0000001
 44
0.0000000001
 40
0.0
 40
0.0
 40
0.0
 40
0.0
 40
0.2889746993
 40
0.5483604828
 40
0.7817317727
 40
1.0
 40
1.0
 40
1.0
 40
1.0
 10
137.78157729
 20
372.848165381
 30
0.0
 10
137.7800940477
 20
372.6737863718
 30
0.0
 10
137.7506763777
 20
372.3420192729
 30
0.0
 10
137.6129219582
 20
371.8865062146
 30
0.0
 10
137.383868812
 20
371.5168111226
 30
0.0
 10
137.1701231108
 20
371.3382810909
 30
0.0
 10
137.0560489202
 20
371.272430122
 30
0.0
  0
SPLINE
  5
375
100
AcDbEntity
  8
0
100
AcDbSpline
 62
7
  6
CONTINUOUS
 70
0
 71
3
 72
11
 73
7
 74
0
 42
0.0000001
 43
0.0000001
 44
0.0000000001
 40
0.0
 40
0.0
 40
0.0
 40
0.0
 40
0.2895454191
 40
0.5491364854
 40
0.7822774464
 40
1.0
 40
1.0
 40
1.0
 40
1.0
 10
197.8859045597
 20
338.1590661589
 30
0.0
 10
197.8859045597
 20
337.9818248943
 30
0.0
 10
197.8588404553
 20
337.6445613498
 30
0.0
 10
197.7224978178
 20
337.1810964745
 30
0.0
 10
197.4924909363
 20
336.8049386861
 30
0.0
 10
197.2763485746
 20
336.6235649877
 30
0.0
 10
197.1609293306
 20
336.5569252212
 30
0.0
  0
SPLINE
  5
376
100
AcDbEntity
  8
0
100
AcDbSpline
 62
7
  6
CONTINUOUS
 70
0
 71
3
 72
11
 73
7
 74
0
 42
0.0000001
 43
0.0000001
 44
0.0000000001
 40
0.0
 40
0.0
 40
0.0
 40
0.0
 40
0.2404830587
 40
0.506684766
 40
0.7692370469
 40
1.0
 40
1.0
 40
1.0
 40
1.0
 10
195.0573498399
 20
342.2415503854
 30
0.0
 10
195.0573498399
 20
341.8082716094
 30
0.0
 10
195.2300530643
 20
340.8949933861
 30
0.0
 10
195.8217612763
 20
339.629154762
 30
0.0
 10
196.6739261349
 20
338.5441957839
 30
0.0
 10
197.4014667747
 20
338.0009561592
 30
0.0
 10
197.7789829437
 20
337.826763894
 30
0.0
  0
SPLINE
  5
377
100
AcDbEntity
  8
0
100
AcDbSpline
 62
7
  6
CONTINUOUS
 70
0
 71
3
 72
11
 73
7
 74
0
 42
0.0000001
 43
0.0000001
 44
0.0000000001
 40
0.0
 40
0.0
 40
0.0
 40
0.0
 40
0.2410543703
 40
0.5074454001
 40
0.7697703368
 40
1.0
 40
1.0
 40
1.0
 40
1.0
 10
134.9486389706
 20
376.943323437
 30
0.0
 10
134.9509721389
 20
376.5089418121
 30
0.0
 10
135.1276006269
 20
375.5950049915
 30
0.0
 10
135.7238911579
 20
374.3299686256
 30
0.0
 10
136.5789728307
 20
373.2483101815
 30
0.0
 10
137.3077296921
 20
372.7085148552
 30
0.0
 10
137.6852892289
 20
372.5365399058
 30
0.0
  0
SPLINE
  5
378
100
AcDbEntity
  8
0
100
AcDbSpline
 62
7
  6
CONTINUOUS
 70
0
 71
3
 72
9
 73
5
 74
0
 42
0.0000001
 43
0.0000001
 44
0.0000000001
 40
0.0
 40
0.0
 40
0.0
 40
0.0
 40
0.5005855181
 40
1.0
 40
1.0
 40
1.0
 40
1.0
 10
192.7898839254
 20
319.72162013
 30
0.0
 10
192.6224790175
 20
319.6249694383
 30
0.0
 10
192.226127897
 20
319.5492610201
 30
0.0
 10
191.8298424848
 20
319.6268350136
 30
0.0
 10
191.6635739163
 20
319.7245381613
 30
0.0
  0
SPLINE
  5
379
100
AcDbEntity
  8
0
100
AcDbSpline
 62
7
  6
CONTINUOUS
 70
0
 71
3
 72
9
 73
5
 74
0
 42
0.0000001
 43
0.0000001
 44
0.0000000001
 40
0.0
 40
0.0
 40
0.0
 40
0.0
 40
0.2438453169
 40
1.0
 40
1.0
 40
1.0
 40
1.0
 10
119.8050646907
 20
249.0316105475
 30
0.0
 10
119.730330073
 20
248.614755361
 30
0.0
 10
119.4512052523
 20
246.9003994211
 30
0.0
 10
119.2787265927
 20
245.1691489687
 30
0.0
 10
119.2013146994
 20
243.8581711652
 30
0.0
  0
SPLINE
  5
37A
100
AcDbEntity
  8
0
100
AcDbSpline
 62
7
  6
CONTINUOUS
 70
0
 71
3
 72
13
 73
9
 74
0
 42
0.0000001
 43
0.0000001
 44
0.0000000001
 40
0.0
 40
0.0
 40
0.0
 40
0.0
 40
0.0871398081
 40
0.1868484731
 40
0.3045123423
 40
0.4386460221
 40
0.7300494215
 40
1.0
 40
1.0
 40
1.0
 40
1.0
 10
178.0648972237
 20
144.4580064987
 30
0.0
 10
178.1448376427
 20
144.5040989334
 30
0.0
 10
178.3456057399
 20
144.5556700776
 30
0.0
 10
178.6687512076
 20
144.490920168
 30
0.0
 10
178.9989960773
 20
144.3106845389
 30
0.0
 10
179.4321719926
 20
143.9265234177
 30
0.0
 10
179.839057476
 20
143.2975653633
 30
0.0
 10
179.9962568819
 20
142.705063954
 30
0.0
 10
179.9962568819
 20
142.419199893
 30
0.0
  0
SPLINE
  5
37B
100
AcDbEntity
  8
0
100
AcDbSpline
 62
7
  6
CONTINUOUS
 70
0
 71
3
 72
11
 73
7
 74
0
 42
0.0000001
 43
0.0000001
 44
0.0000000001
 40
0.0
 40
0.0
 40
0.0
 40
0.0
 40
0.2372524156
 40
0.4999996414
 40
0.7627470637
 40
1.0
 40
1.0
 40
1.0
 40
1.0
 10
193.8556100367
 20
33.3363352088
 30
0.0
 10
193.6247036569
 20
33.2030221441
 30
0.0
 10
193.0877663692
 20
33.0084553479
 30
0.0
 10
192.2292665249
 20
32.9154335873
 30
0.0
 10
191.3707656832
 20
33.0084516144
 30
0.0
 10
190.8338266911
 20
33.2030156981
 30
0.0
 10
190.6029188432
 20
33.3363273903
 30
0.0
  0
SPLINE
  5
37C
100
AcDbEntity
  8
0
100
AcDbSpline
 62
7
  6
CONTINUOUS
 70
0
 71
3
 72
13
 73
9
 74
0
 42
0.0000001
 43
0.0000001
 44
0.0000000001
 40
0.0
 40
0.0
 40
0.0
 40
0.0
 40
0.0871398081
 40
0.1868484731
 40
0.3045123423
 40
0.4386460221
 40
0.7300494215
 40
1.0
 40
1.0
 40
1.0
 40
1.0
 10
103.8183760833
 20
273.0560395219
 30
0.0
 10
103.8983165022
 20
273.1021319567
 30
0.0
 10
104.0990845995
 20
273.1537031008
 30
0.0
 10
104.4222300672
 20
273.0889531912
 30
0.0
 10
104.7524749369
 20
272.9087175621
 30
0.0
 10
105.1856508522
 20
272.5245564409
 30
0.0
 10
105.5925363356
 20
271.8955983866
 30
0.0
 10
105.7497357414
 20
271.3030969772
 30
0.0
 10
105.7497357414
 20
271.0172329163
 30
0.0
  0
SPLINE
  5
37D
100
AcDbEntity
  8
0
100
AcDbSpline
 62
7
  6
CONTINUOUS
 70
0
 71
3
 72
9
 73
5
 74
0
 42
0.0000001
 43
0.0000001
 44
0.0000000001
 40
0.0
 40
0.0
 40
0.0
 40
0.0
 40
0.5508366127
 40
1.0
 40
1.0
 40
1.0
 40
1.0
 10
87.7891648069
 20
92.6945330976
 30
0.0
 10
87.5989276779
 20
92.8043642718
 30
0.0
 10
87.2720406795
 20
93.0545592107
 30
0.0
 10
87.1156322835
 20
93.4543759238
 30
0.0
 10
87.1156323242
 20
93.6334958673
 30
0.0
  0
SPLINE
  5
37E
100
AcDbEntity
  8
0
100
AcDbSpline
 62
7
  6
CONTINUOUS
 70
0
 71
3
 72
13
 73
9
 74
0
 42
0.0000001
 43
0.0000001
 44
0.0000000001
 40
0.0
 40
0.0
 40
0.0
 40
0.0
 40
0.0871398081
 40
0.1868484731
 40
0.3045123423
 40
0.4386460221
 40
0.7300494215
 40
1.0
 40
1.0
 40
1.0
 40
1.0
 10
178.0648972237
 20
230.1907602973
 30
0.0
 10
178.1448376427
 20
230.2368527321
 30
0.0
 10
178.3456057399
 20
230.2884238762
 30
0.0
 10
178.6687512076
 20
230.2236739666
 30
0.0
 10
178.9989960773
 20
230.0434383375
 30
0.0
 10
179.4321719926
 20
229.6592772163
 30
0.0
 10
179.839057476
 20
229.0303191619
 30
0.0
 10
179.9962568819
 20
228.4378177526
 30
0.0
 10
179.9962568819
 20
228.1519536916
 30
0.0
  0
SPLINE
  5
37F
100
AcDbEntity
  8
0
100
AcDbSpline
 62
7
  6
CONTINUOUS
 70
0
 71
3
 72
13
 73
9
 74
0
 42
0.0000001
 43
0.0000001
 44
0.0000000001
 40
0.0
 40
0.0
 40
0.0
 40
0.0
 40
0.0871398081
 40
0.1868484731
 40
0.3045123423
 40
0.4386460221
 40
0.7300494215
 40
1.0
 40
1.0
 40
1.0
 40
1.0
 10
103.8183760833
 20
187.3232857233
 30
0.0
 10
103.8983165022
 20
187.3693781581
 30
0.0
 10
104.0990845995
 20
187.4209493022
 30
0.0
 10
104.4222300672
 20
187.3561993926
 30
0.0
 10
104.7524749369
 20
187.1759637635
 30
0.0
 10
105.1856508522
 20
186.7918026423
 30
0.0
 10
105.5925363356
 20
186.162844588
 30
0.0
 10
105.7497357414
 20
185.5703431786
 30
0.0
 10
105.7497357414
 20
185.2844791176
 30
0.0
  0
SPLINE
  5
380
100
AcDbEntity
  8
0
100
AcDbSpline
 62
7
  6
CONTINUOUS
 70
0
 71
3
 72
9
 73
5
 74
0
 42
0.0000001
 43
0.0000001
 44
0.0000000001
 40
0.0
 40
0.0
 40
0.0
 40
0.0
 40
0.2600498648
 40
1.0
 40
1.0
 40
1.0
 40
1.0
 10
177.4835586353
 20
40.8232923586
 30
0.0
 10
177.5643086603
 20
40.7766723646
 30
0.0
 10
177.8800150613
 20
40.6068454658
 30
0.0
 10
178.2183940759
 20
40.4767628031
 30
0.0
 10
178.4761148392
 20
40.4137550177
 30
0.0
  0
SPLINE
  5
381
100
AcDbEntity
  8
0
100
AcDbSpline
 62
7
  6
CONTINUOUS
 70
0
 71
3
 72
9
 73
5
 74
0
 42
0.0000001
 43
0.0000001
 44
0.0000000001
 40
0.0
 40
0.0
 40
0.0
 40
0.0
 40
0.5130990918
 40
1.0
 40
1.0
 40
1.0
 40
1.0
 10
178.4761148392
 20
40.4137550177
 30
0.0
 10
178.7669624056
 20
40.342648364
 30
0.0
 10
179.3606425679
 20
40.2841974217
 30
0.0
 10
179.9373813298
 20
40.4632848939
 30
0.0
 10
180.1834497101
 20
40.6053336758
 30
0.0
  0
SPLINE
  5
382
100
AcDbEntity
  8
0
100
AcDbSpline
 62
7
  6
CONTINUOUS
 70
0
 71
3
 72
15
 73
11
 74
0
 42
0.0000001
 43
0.0000001
 44
0.0000000001
 40
0.0
 40
0.0
 40
0.0
 40
0.0
 40
0.0986057272
 40
0.204097122
 40
0.3217381094
 40
0.4524035785
 40
0.5922870545
 40
0.734822803
 40
0.8727336768
 40
1.0
 40
1.0
 40
1.0
 40
1.0
 10
175.2834734997
 20
49.0923933232
 30
0.0
 10
175.0044910007
 20
48.9313033516
 30
0.0
 10
174.5083614741
 20
48.4419633499
 30
0.0
 10
174.1377391679
 20
47.4334716094
 30
0.0
 10
174.0899893984
 20
46.2652649363
 30
0.0
 10
174.3306153841
 20
45.0110765949
 30
0.0
 10
174.829707693
 20
43.7497207637
 30
0.0
 10
175.5474085546
 20
42.5709923304
 30
0.0
 10
176.4294251944
 20
41.5641542875
 30
0.0
 10
177.1234746408
 20
41.0311822466
 30
0.0
 10
177.4835586353
 20
40.8232923586
 30
0.0
  0
SPLINE
  5
383
100
AcDbEntity
  8
0
100
AcDbSpline
 62
7
  6
CONTINUOUS
 70
0
 71
3
 72
8
 73
4
 74
0
 42
0.0000001
 43
0.0000001
 44
0.0000000001
 40
0.0
 40
0.0
 40
0.0
 40
0.0
 40
1.0
 40
1.0
 40
1.0
 40
1.0
 10
177.7131079643
 20
50.6103410466
 30
0.0
 10
177.5864389622
 20
50.5377457519
 30
0.0
 10
177.4685200141
 20
50.44761926
 30
0.0
 10
177.3645305221
 20
50.3451434167
 30
0.0
  0
SPLINE
  5
384
100
AcDbEntity
  8
0
100
AcDbSpline
 62
7
  6
CONTINUOUS
 70
0
 71
3
 72
9
 73
5
 74
0
 42
0.0000001
 43
0.0000001
 44
0.0000000001
 40
0.0
 40
0.0
 40
0.0
 40
0.0
 40
0.24379818
 40
1.0
 40
1.0
 40
1.0
 40
1.0
 10
177.9155969039
 20
51.8820654047
 30
0.0
 10
177.8363038452
 20
51.8362438017
 30
0.0
 10
177.5237925404
 20
51.6262916353
 30
0.0
 10
177.2740708819
 20
51.3290340432
 30
0.0
 10
177.1302793198
 20
51.084055806
 30
0.0
  0
SPLINE
  5
385
100
AcDbEntity
  8
0
100
AcDbSpline
 62
7
  6
CONTINUOUS
 70
0
 71
3
 72
9
 73
5
 74
0
 42
0.0000001
 43
0.0000001
 44
0.0000000001
 40
0.0
 40
0.0
 40
0.0
 40
0.0
 40
0.2415172291
 40
1.0
 40
1.0
 40
1.0
 40
1.0
 10
177.1065591538
 20
51.0427928554
 30
0.0
 10
177.0800853202
 20
50.9957660335
 30
0.0
 10
176.9763920968
 20
50.7977388376
 30
0.0
 10
176.8962026168
 20
50.5877199828
 30
0.0
 10
176.8474101219
 20
50.4254139771
 30
0.0
  0
SPLINE
  5
386
100
AcDbEntity
  8
0
100
AcDbSpline
 62
7
  6
CONTINUOUS
 70
0
 71
3
 72
9
 73
5
 74
0
 42
0.0000001
 43
0.0000001
 44
0.0000000001
 40
0.0
 40
0.0
 40
0.0
 40
0.0
 40
0.2444313903
 40
1.0
 40
1.0
 40
1.0
 40
1.0
 10
176.8474101219
 20
50.4254139771
 30
0.0
 10
176.8369221113
 20
50.3905260888
 30
0.0
 10
176.7962541649
 20
50.2471268438
 30
0.0
 10
176.7643326095
 20
50.1012852378
 30
0.0
 10
176.7446514785
 20
49.9904078769
 30
0.0
  0
SPLINE
  5
387
100
AcDbEntity
  8
0
100
AcDbSpline
 62
7
  6
CONTINUOUS
 70
0
 71
3
 72
11
 73
7
 74
0
 42
0.0000001
 43
0.0000001
 44
0.0000000001
 40
0.0
 40
0.0
 40
0.0
 40
0.0
 40
0.2738898513
 40
0.5284163296
 40
0.7675567172
 40
1.0
 40
1.0
 40
1.0
 40
1.0
 10
177.4835586353
 20
311.0937574526
 30
0.0
 10
177.7073500722
 20
310.9645543293
 30
0.0
 10
178.1612349545
 20
310.750103132
 30
0.0
 10
178.8730689138
 20
310.5843846563
 30
0.0
 10
179.5670006196
 20
310.6088025391
 30
0.0
 10
179.9935184347
 20
310.7661564571
 30
0.0
 10
180.1834497101
 20
310.8757987699
 30
0.0
  0
SPLINE
  5
388
100
AcDbEntity
  8
0
100
AcDbSpline
 62
7
  6
CONTINUOUS
 70
0
 71
3
 72
15
 73
11
 74
0
 42
0.0000001
 43
0.0000001
 44
0.0000000001
 40
0.0
 40
0.0
 40
0.0
 40
0.0
 40
0.0986057272
 40
0.204097122
 40
0.3217381094
 40
0.4524035785
 40
0.5922870545
 40
0.734822803
 40
0.8727336768
 40
1.0
 40
1.0
 40
1.0
 40
1.0
 10
175.2834734997
 20
319.3628584172
 30
0.0
 10
175.0044910007
 20
319.2017684456
 30
0.0
 10
174.5083614741
 20
318.712428444
 30
0.0
 10
174.1377391679
 20
317.7039367035
 30
0.0
 10
174.0899893984
 20
316.5357300304
 30
0.0
 10
174.3306153841
 20
315.2815416889
 30
0.0
 10
174.829707693
 20
314.0201858577
 30
0.0
 10
175.5474085546
 20
312.8414574244
 30
0.0
 10
176.4294251944
 20
311.8346193816
 30
0.0
 10
177.1234746408
 20
311.3016473407
 30
0.0
 10
177.4835586353
 20
311.0937574526
 30
0.0
  0
SPLINE
  5
389
100
AcDbEntity
  8
0
100
AcDbSpline
 62
7
  6
CONTINUOUS
 70
0
 71
3
 72
8
 73
4
 74
0
 42
0.0000001
 43
0.0000001
 44
0.0000000001
 40
0.0
 40
0.0
 40
0.0
 40
0.0
 40
1.0
 40
1.0
 40
1.0
 40
1.0
 10
177.7131079643
 20
320.8808061406
 30
0.0
 10
177.5864389622
 20
320.8082108459
 30
0.0
 10
177.4685200141
 20
320.7180843541
 30
0.0
 10
177.3645305221
 20
320.6156085108
 30
0.0
  0
SPLINE
  5
38A
100
AcDbEntity
  8
0
100
AcDbSpline
 62
7
  6
CONTINUOUS
 70
0
 71
3
 72
9
 73
5
 74
0
 42
0.0000001
 43
0.0000001
 44
0.0000000001
 40
0.0
 40
0.0
 40
0.0
 40
0.0
 40
0.24379818
 40
1.0
 40
1.0
 40
1.0
 40
1.0
 10
177.9155969039
 20
322.1525304987
 30
0.0
 10
177.8363038452
 20
322.1067088958
 30
0.0
 10
177.5237925404
 20
321.8967567293
 30
0.0
 10
177.2740708819
 20
321.5994991373
 30
0.0
 10
177.1302793198
 20
321.3545209001
 30
0.0
  0
SPLINE
  5
38B
100
AcDbEntity
  8
0
100
AcDbSpline
 62
7
  6
CONTINUOUS
 70
0
 71
3
 72
9
 73
5
 74
0
 42
0.0000001
 43
0.0000001
 44
0.0000000001
 40
0.0
 40
0.0
 40
0.0
 40
0.0
 40
0.2415172291
 40
1.0
 40
1.0
 40
1.0
 40
1.0
 10
177.1065591538
 20
321.3132579495
 30
0.0
 10
177.0800853202
 20
321.2662311276
 30
0.0
 10
176.9763920968
 20
321.0682039316
 30
0.0
 10
176.8962026168
 20
320.8581850769
 30
0.0
 10
176.8474101219
 20
320.6958790712
 30
0.0
  0
SPLINE
  5
38C
100
AcDbEntity
  8
0
100
AcDbSpline
 62
7
  6
CONTINUOUS
 70
0
 71
3
 72
9
 73
5
 74
0
 42
0.0000001
 43
0.0000001
 44
0.0000000001
 40
0.0
 40
0.0
 40
0.0
 40
0.0
 40
0.2444313903
 40
1.0
 40
1.0
 40
1.0
 40
1.0
 10
176.8474101219
 20
320.6958790712
 30
0.0
 10
176.8369221113
 20
320.6609911829
 30
0.0
 10
176.7962541649
 20
320.5175919379
 30
0.0
 10
176.7643326095
 20
320.3717503319
 30
0.0
 10
176.7446514785
 20
320.260872971
 30
0.0
  0
SPLINE
  5
38D
100
AcDbEntity
  8
0
100
AcDbSpline
 62
7
  6
CONTINUOUS
 70
0
 71
3
 72
9
 73
5
 74
0
 42
0.0000001
 43
0.0000001
 44
0.0000000001
 40
0.0
 40
0.0
 40
0.0
 40
0.0
 40
0.4999994563
 40
1.0
 40
1.0
 40
1.0
 40
1.0
 10
95.9209117593
 20
166.4329466879
 30
0.0
 10
95.7530086052
 20
166.3360087633
 30
0.0
 10
95.355227849
 20
166.2593447976
 30
0.0
 10
94.9574470496
 20
166.3360070438
 30
0.0
 10
94.7895428313
 20
166.4329439684
 30
0.0
  0
SPLINE
  5
38E
100
AcDbEntity
  8
0
100
AcDbSpline
 62
7
  6
CONTINUOUS
 70
0
 71
3
 72
9
 73
5
 74
0
 42
0.0000001
 43
0.0000001
 44
0.0000000001
 40
0.0
 40
0.0
 40
0.0
 40
0.0
 40
0.4491631404
 40
1.0
 40
1.0
 40
1.0
 40
1.0
 10
219.5606048247
 20
334.5029754551
 30
0.0
 10
219.5606047583
 20
334.6820954395
 30
0.0
 10
219.4041951718
 20
335.0819123371
 30
0.0
 10
219.0773067008
 20
335.3321059863
 30
0.0
 10
218.8870688673
 20
335.4419364794
 30
0.0
  0
SPLINE
  5
38F
100
AcDbEntity
  8
0
100
AcDbSpline
 62
7
  6
CONTINUOUS
 70
0
 71
3
 72
9
 73
5
 74
0
 42
0.0000001
 43
0.0000001
 44
0.0000000001
 40
0.0
 40
0.0
 40
0.0
 40
0.0
 40
0.4491641731
 40
1.0
 40
1.0
 40
1.0
 40
1.0
 10
219.5606048247
 20
48.7271294615
 30
0.0
 10
219.5606047956
 20
48.5480124628
 30
0.0
 10
219.4042008721
 20
48.148203018
 30
0.0
 10
219.0773218472
 20
47.898009972
 30
0.0
 10
218.8870889735
 20
47.7881800453
 30
0.0
  0
SPLINE
  5
390
100
AcDbEntity
  8
0
100
AcDbSpline
 62
7
  6
CONTINUOUS
 70
0
 71
3
 72
9
 73
5
 74
0
 42
0.0000001
 43
0.0000001
 44
0.0000000001
 40
0.0
 40
0.0
 40
0.0
 40
0.0
 40
0.5221343592
 40
1.0
 40
1.0
 40
1.0
 40
1.0
 10
147.7116028722
 20
329.132500308
 30
0.0
 10
147.0154126225
 20
329.2512055159
 30
0.0
 10
145.6427638305
 20
329.2660740885
 30
0.0
 10
144.3105318208
 20
328.8738197786
 30
0.0
 10
143.7507668039
 20
328.5506412246
 30
0.0
  0
SPLINE
  5
391
100
AcDbEntity
  8
0
100
AcDbSpline
 62
7
  6
CONTINUOUS
 70
0
 71
3
 72
11
 73
7
 74
0
 42
0.0000001
 43
0.0000001
 44
0.0000000001
 40
0.0
 40
0.0
 40
0.0
 40
0.0
 40
0.2372526662
 40
0.5000000199
 40
0.7627472739
 40
1.0
 40
1.0
 40
1.0
 40
1.0
 10
96.9815784966
 20
167.4535863754
 30
0.0
 10
96.750670912
 20
167.3202732772
 30
0.0
 10
96.2137312924
 20
167.1257067851
 30
0.0
 10
95.3552285077
 20
167.0326864266
 30
0.0
 10
94.4967255557
 20
167.1257070697
 30
0.0
 10
93.9597862373
 20
167.3202732692
 30
0.0
 10
93.7288778838
 20
167.4535851703
 30
0.0
  0
SPLINE
  5
392
100
AcDbEntity
  8
0
100
AcDbSpline
 62
7
  6
CONTINUOUS
 70
0
 71
3
 72
8
 73
4
 74
0
 42
0.0000001
 43
0.0000001
 44
0.0000000001
 40
0.0
 40
0.0
 40
0.0
 40
0.0
 40
1.0
 40
1.0
 40
1.0
 40
1.0
 10
100.1544199073
 20
169.2916576072
 30
0.0
 10
100.1291823503
 20
169.2770867838
 30
0.0
 10
100.1047180737
 20
169.2610310421
 30
0.0
 10
100.0815546431
 20
169.2433477546
 30
0.0
  0
SPLINE
  5
393
100
AcDbEntity
  8
0
100
AcDbSpline
 62
7
  6
CONTINUOUS
 70
0
 71
3
 72
9
 73
5
 74
0
 42
0.0000001
 43
0.0000001
 44
0.0000000001
 40
0.0
 40
0.0
 40
0.0
 40
0.0
 40
0.2284472754
 40
1.0
 40
1.0
 40
1.0
 40
1.0
 10
101.2949158721
 20
169.2906884686
 30
0.0
 10
101.2530498781
 20
169.3150023917
 30
0.0
 10
101.0596384221
 20
169.4036033235
 30
0.0
 10
100.842029646
 20
169.4324120318
 30
0.0
 10
100.6786037686
 20
169.4270807558
 30
0.0
  0
SPLINE
  5
394
100
AcDbEntity
  8
0
100
AcDbSpline
 62
7
  6
CONTINUOUS
 70
0
 71
3
 72
9
 73
5
 74
0
 42
0.0000001
 43
0.0000001
 44
0.0000000001
 40
0.0
 40
0.0
 40
0.0
 40
0.0
 40
0.267308977
 40
1.0
 40
1.0
 40
1.0
 40
1.0
 10
100.6786037686
 20
169.4270807558
 30
0.0
 10
100.6301428986
 20
169.4254998662
 30
0.0
 10
100.4496521907
 20
169.4101328692
 30
0.0
 10
100.2695160523
 20
169.3581080008
 30
0.0
 10
100.1544199073
 20
169.2916576072
 30
0.0
  0
SPLINE
  5
395
100
AcDbEntity
  8
0
100
AcDbSpline
 62
7
  6
CONTINUOUS
 70
0
 71
3
 72
9
 73
5
 74
0
 42
0.0000001
 43
0.0000001
 44
0.0000000001
 40
0.0
 40
0.0
 40
0.0
 40
0.0
 40
0.2427488214
 40
1.0
 40
1.0
 40
1.0
 40
1.0
 10
107.9643548386
 20
96.772776798
 30
0.0
 10
107.9338018221
 20
96.7371241059
 30
0.0
 10
107.8134498074
 20
96.5855624902
 30
0.0
 10
107.7155485811
 20
96.416634234
 30
0.0
 10
107.6539701674
 20
96.2837377396
 30
0.0
  0
SPLINE
  5
396
100
AcDbEntity
  8
0
100
AcDbSpline
 62
7
  6
CONTINUOUS
 70
0
 71
3
 72
11
 73
7
 74
0
 42
0.0000001
 43
0.0000001
 44
0.0000000001
 40
0.0
 40
0.0
 40
0.0
 40
0.0
 40
0.2177187703
 40
0.4508507547
 40
0.7103871529
 40
1.0
 40
1.0
 40
1.0
 40
1.0
 10
107.3510181238
 20
96.5342434391
 30
0.0
 10
107.5159204718
 20
96.6293938638
 30
0.0
 10
107.8947320029
 20
96.7670800923
 30
0.0
 10
108.5242833757
 20
96.7829556316
 30
0.0
 10
109.1951042117
 20
96.6208088885
 30
0.0
 10
109.6316526392
 20
96.413294472
 30
0.0
 10
109.8509772369
 20
96.286670148
 30
0.0
  0
SPLINE
  5
397
100
AcDbEntity
  8
0
100
AcDbSpline
 62
7
  6
CONTINUOUS
 70
0
 71
3
 72
8
 73
4
 74
0
 42
0.0000001
 43
0.0000001
 44
0.0000000001
 40
0.0
 40
0.0
 40
0.0
 40
0.0
 40
1.0
 40
1.0
 40
1.0
 40
1.0
 10
95.6427741579
 20
297.3608467806
 30
0.0
 10
95.5486767675
 20
297.3399074724
 30
0.0
 10
95.4516273036
 20
297.3299872573
 30
0.0
 10
95.3552282708
 20
297.3299870256
 30
0.0
  0
SPLINE
  5
398
100
AcDbEntity
  8
0
100
AcDbSpline
 62
7
  6
CONTINUOUS
 70
0
 71
3
 72
9
 73
5
 74
0
 42
0.0000001
 43
0.0000001
 44
0.0000000001
 40
0.0
 40
0.0
 40
0.0
 40
0.0
 40
0.267040317
 40
1.0
 40
1.0
 40
1.0
 40
1.0
 10
95.3552282708
 20
297.3299870256
 30
0.0
 10
95.3031562595
 20
297.3299869004
 30
0.0
 10
95.1087749118
 20
297.3410289443
 30
0.0
 10
94.9133201788
 20
297.3937936907
 30
0.0
 10
94.7895428313
 20
297.4652546434
 30
0.0
  0
SPLINE
  5
399
100
AcDbEntity
  8
0
100
AcDbSpline
 62
7
  6
CONTINUOUS
 70
0
 71
3
 72
13
 73
9
 74
0
 42
0.0000001
 43
0.0000001
 44
0.0000000001
 40
0.0
 40
0.0
 40
0.0
 40
0.0
 40
0.2894099071
 40
0.548290188
 40
0.6677446312
 40
0.7817691878
 40
0.8919022829
 40
1.0
 40
1.0
 40
1.0
 40
1.0
 10
182.0468750848
 20
184.103311609
 30
0.0
 10
182.0468750848
 20
181.2141371425
 30
0.0
 10
181.6120095042
 20
175.7240205065
 30
0.0
 10
179.7036690967
 20
169.2656901841
 30
0.0
 10
177.3889951446
 20
164.9126159503
 30
0.0
 10
175.3468576393
 20
162.1395111059
 30
0.0
 10
172.9728792805
 20
159.802876422
 30
0.0
 10
171.1759688376
 20
158.5492282863
 30
0.0
 10
170.2414417835
 20
158.0096010726
 30
0.0
  0
SPLINE
  5
39A
100
AcDbEntity
  8
0
100
AcDbSpline
 62
7
  6
CONTINUOUS
 70
0
 71
3
 72
9
 73
5
 74
0
 42
0.0000001
 43
0.0000001
 44
0.0000000001
 40
0.0
 40
0.0
 40
0.0
 40
0.0
 40
0.2635290892
 40
1.0
 40
1.0
 40
1.0
 40
1.0
 10
96.8639245874
 20
90.4014180688
 30
0.0
 10
96.9468127855
 20
90.3719978055
 30
0.0
 10
97.2646537434
 20
90.2703832724
 30
0.0
 10
97.5971774239
 20
90.2109406519
 30
0.0
 10
97.8427477948
 20
90.2002721453
 30
0.0
  0
SPLINE
  5
39B
100
AcDbEntity
  8
0
100
AcDbSpline
 62
7
  6
CONTINUOUS
 70
0
 71
3
 72
9
 73
5
 74
0
 42
0.0000001
 43
0.0000001
 44
0.0000000001
 40
0.0
 40
0.0
 40
0.0
 40
0.0
 40
0.5129253785
 40
1.0
 40
1.0
 40
1.0
 40
1.0
 10
97.9034797606
 20
90.1983131322
 30
0.0
 10
98.1092241848
 20
90.1939940255
 30
0.0
 10
98.5136716878
 20
90.2319125059
 30
0.0
 10
98.8930771201
 20
90.3810786279
 30
0.0
 10
99.0622756916
 20
90.4788545227
 30
0.0
  0
SPLINE
  5
39C
100
AcDbEntity
  8
0
100
AcDbSpline
 62
7
  6
CONTINUOUS
 70
0
 71
3
 72
9
 73
5
 74
0
 42
0.0000001
 43
0.0000001
 44
0.0000000001
 40
0.0
 40
0.0
 40
0.0
 40
0.0
 40
0.5392977826
 40
1.0
 40
1.0
 40
1.0
 40
1.0
 10
184.458684181
 20
246.0956906093
 30
0.0
 10
184.3218200436
 20
245.9916930372
 30
0.0
 10
184.089636703
 20
245.7602261866
 30
0.0
 10
183.98966725
 20
245.4389329398
 30
0.0
 10
183.9896672762
 20
245.2920908779
 30
0.0
  0
SPLINE
  5
39D
100
AcDbEntity
  8
0
100
AcDbSpline
 62
7
  6
CONTINUOUS
 70
0
 71
3
 72
9
 73
5
 74
0
 42
0.0000001
 43
0.0000001
 44
0.0000000001
 40
0.0
 40
0.0
 40
0.0
 40
0.0
 40
0.5508372186
 40
1.0
 40
1.0
 40
1.0
 40
1.0
 10
184.6632179968
 20
114.9538071311
 30
0.0
 10
184.4729770188
 20
115.0636399811
 30
0.0
 10
184.1460825983
 20
115.3138361837
 30
0.0
 10
183.9896672126
 20
115.7136593553
 30
0.0
 10
183.9896672762
 20
115.8927822614
 30
0.0
  0
SPLINE
  5
39E
100
AcDbEntity
  8
0
100
AcDbSpline
 62
7
  6
CONTINUOUS
 70
0
 71
3
 72
9
 73
5
 74
0
 42
0.0000001
 43
0.0000001
 44
0.0000000001
 40
0.0
 40
0.0
 40
0.0
 40
0.0
 40
0.2635290892
 40
1.0
 40
1.0
 40
1.0
 40
1.0
 10
96.8639245874
 20
360.6718831629
 30
0.0
 10
96.9468127855
 20
360.6424628996
 30
0.0
 10
97.2646537434
 20
360.5408483664
 30
0.0
 10
97.5971774239
 20
360.481405746
 30
0.0
 10
97.8427477948
 20
360.4707372394
 30
0.0
  0
SPLINE
  5
39F
100
AcDbEntity
  8
0
100
AcDbSpline
 62
7
  6
CONTINUOUS
 70
0
 71
3
 72
9
 73
5
 74
0
 42
0.0000001
 43
0.0000001
 44
0.0000000001
 40
0.0
 40
0.0
 40
0.0
 40
0.0
 40
0.5129253785
 40
1.0
 40
1.0
 40
1.0
 40
1.0
 10
97.9034797606
 20
360.4687782263
 30
0.0
 10
98.1092241848
 20
360.4644591196
 30
0.0
 10
98.5136716878
 20
360.5023775999
 30
0.0
 10
98.8930771201
 20
360.651543722
 30
0.0
 10
99.0622756916
 20
360.7493196168
 30
0.0
  0
SPLINE
  5
3A0
100
AcDbEntity
  8
0
100
AcDbSpline
 62
7
  6
CONTINUOUS
 70
0
 71
3
 72
9
 73
5
 74
0
 42
0.0000001
 43
0.0000001
 44
0.0000000001
 40
0.0
 40
0.0
 40
0.0
 40
0.0
 40
0.5444922204
 40
1.0
 40
1.0
 40
1.0
 40
1.0
 10
105.9618244793
 20
369.2113335329
 30
0.0
 10
105.9618244793
 20
368.971254501
 30
0.0
 10
105.9094174254
 20
368.5255453075
 30
0.0
 10
105.6819199663
 20
368.125388441
 30
0.0
 10
105.5371362438
 20
367.9861911313
 30
0.0
  0
SPLINE
  5
3A1
100
AcDbEntity
  8
0
100
AcDbSpline
 62
7
  6
CONTINUOUS
 70
0
 71
3
 72
10
 73
6
 74
0
 42
0.0000001
 43
0.0000001
 44
0.0000000001
 40
0.0
 40
0.0
 40
0.0
 40
0.0
 40
0.5550161662
 40
0.7924712135
 40
1.0
 40
1.0
 40
1.0
 40
1.0
 10
129.2449563323
 20
258.2234671536
 30
0.0
 10
127.1229125921
 20
257.7849489734
 30
0.0
 10
124.0693321701
 20
257.253374397
 30
0.0
 10
120.1803154492
 20
256.892078704
 30
0.0
 10
118.44154777
 20
256.8445479243
 30
0.0
 10
117.631480052
 20
256.8606891354
 30
0.0
  0
SPLINE
  5
3A2
100
AcDbEntity
  8
0
100
AcDbSpline
 62
7
  6
CONTINUOUS
 70
0
 71
3
 72
11
 73
7
 74
0
 42
0.0000001
 43
0.0000001
 44
0.0000000001
 40
0.0
 40
0.0
 40
0.0
 40
0.0
 40
0.2845256904
 40
0.5446880595
 40
0.7812583035
 40
1.0
 40
1.0
 40
1.0
 40
1.0
 10
148.5473322272
 20
161.2404119267
 30
0.0
 10
146.5036842823
 20
162.4478515154
 30
0.0
 10
142.7647458487
 20
165.0798307542
 30
0.0
 10
138.2329484568
 20
169.8325974136
 30
0.0
 10
135.2081283456
 20
175.0532244245
 30
0.0
 10
134.3051699439
 20
178.8168527299
 30
0.0
 10
134.1799246576
 20
180.6374293017
 30
0.0
  0
SPLINE
  5
3A3
100
AcDbEntity
  8
0
100
AcDbSpline
 62
7
  6
CONTINUOUS
 70
0
 71
3
 72
9
 73
5
 74
0
 42
0.0000001
 43
0.0000001
 44
0.0000000001
 40
0.0
 40
0.0
 40
0.0
 40
0.0
 40
0.5148367236
 40
1.0
 40
1.0
 40
1.0
 40
1.0
 10
181.2750849048
 20
193.493555729
 30
0.0
 10
180.7056914198
 20
192.3604623325
 30
0.0
 10
179.3271292899
 20
190.2775498697
 30
0.0
 10
177.3833526859
 20
188.6908987377
 30
0.0
 10
176.3483758273
 20
188.093485479
 30
0.0
  0
SPLINE
  5
3A4
100
AcDbEntity
  8
0
100
AcDbSpline
 62
7
  6
CONTINUOUS
 70
0
 71
3
 72
10
 73
6
 74
0
 42
0.0000001
 43
0.0000001
 44
0.0000000001
 40
0.0
 40
0.0
 40
0.0
 40
0.0
 40
0.5183934876
 40
0.7617818784
 40
1.0
 40
1.0
 40
1.0
 40
1.0
 10
151.3461499365
 20
177.1039051015
 30
0.0
 10
152.8379127961
 20
176.8975766522
 30
0.0
 10
155.0979690555
 20
176.8801846181
 30
0.0
 10
157.9232040547
 20
177.605647387
 30
0.0
 10
159.2027910409
 20
178.1946096593
 30
0.0
 10
159.8021464978
 20
178.5405713404
 30
0.0
  0
SPLINE
  5
3A5
100
AcDbEntity
  8
0
100
AcDbSpline
 62
7
  6
CONTINUOUS
 70
0
 71
3
 72
11
 73
7
 74
0
 42
0.0000001
 43
0.0000001
 44
0.0000000001
 40
0.0
 40
0.0
 40
0.0
 40
0.0
 40
0.2328831216
 40
0.4804558024
 40
0.7380910356
 40
1.0
 40
1.0
 40
1.0
 40
1.0
 10
108.5840781734
 20
209.6484490831
 30
0.0
 10
107.9840890646
 20
212.011315394
 30
0.0
 10
107.2352252668
 20
217.0179728324
 30
0.0
 10
107.3857523424
 20
224.7731291539
 30
0.0
 10
108.7536349218
 20
232.7145503339
 30
0.0
 10
110.4399860566
 20
237.907961276
 30
0.0
 10
111.4700878625
 20
240.4487884774
 30
0.0
  0
SPLINE
  5
3A6
100
AcDbEntity
  8
0
100
AcDbSpline
 62
7
  6
CONTINUOUS
 70
0
 71
3
 72
9
 73
5
 74
0
 42
0.0000001
 43
0.0000001
 44
0.0000000001
 40
0.0
 40
0.0
 40
0.0
 40
0.0
 40
0.5508359904
 40
1.0
 40
1.0
 40
1.0
 40
1.0
 10
87.7891527546
 20
380.3482976758
 30
0.0
 10
87.5989187062
 20
380.2384666523
 30
0.0
 10
87.2720371697
 20
379.9882723701
 30
0.0
 10
87.1156322695
 20
379.5884600215
 30
0.0
 10
87.1156323242
 20
379.4093418644
 30
0.0
  0
SPLINE
  5
3A7
100
AcDbEntity
  8
0
100
AcDbSpline
 62
7
  6
CONTINUOUS
 70
0
 71
3
 72
11
 73
7
 74
0
 42
0.0000001
 43
0.0000001
 44
0.0000000001
 40
0.0
 40
0.0
 40
0.0
 40
0.0
 40
0.2372529312
 40
0.5000004385
 40
0.7627477088
 40
1.0
 40
1.0
 40
1.0
 40
1.0
 10
116.0733129934
 20
394.8001432476
 30
0.0
 10
115.8424061654
 20
394.933455427
 30
0.0
 10
115.3054686687
 20
395.1280202621
 30
0.0
 10
114.4469698084
 20
395.2210390562
 30
0.0
 10
113.5884719122
 20
395.128018059
 30
0.0
 10
113.0515359111
 20
394.9334518966
 30
0.0
 10
112.8206302015
 20
394.8001392187
 30
0.0
  0
SPLINE
  5
3A8
100
AcDbEntity
  8
0
100
AcDbSpline
 62
7
  6
CONTINUOUS
 70
0
 71
3
 72
8
 73
4
 74
0
 42
0.0000001
 43
0.0000001
 44
0.0000000001
 40
0.0
 40
0.0
 40
0.0
 40
0.0
 40
1.0
 40
1.0
 40
1.0
 40
1.0
 10
195.0573498399
 20
342.2415503854
 30
0.0
 10
195.0573498399
 20
342.252007297
 30
0.0
 10
195.0572902529
 20
342.2624672852
 30
0.0
 10
195.0575753542
 20
342.2729203094
 30
0.0
  0
SPLINE
  5
3A9
100
AcDbEntity
  8
0
100
AcDbSpline
 62
7
  6
CONTINUOUS
 70
0
 71
3
 72
9
 73
5
 74
0
 42
0.0000001
 43
0.0000001
 44
0.0000000001
 40
0.0
 40
0.0
 40
0.0
 40
0.0
 40
0.2635290892
 40
1.0
 40
1.0
 40
1.0
 40
1.0
 10
181.717091605
 20
311.6829926205
 30
0.0
 10
181.7999798031
 20
311.6535723571
 30
0.0
 10
182.117820761
 20
311.551957824
 30
0.0
 10
182.4503444415
 20
311.4925152035
 30
0.0
 10
182.6959148125
 20
311.481846697
 30
0.0
  0
SPLINE
  5
3AA
100
AcDbEntity
  8
0
100
AcDbSpline
 62
7
  6
CONTINUOUS
 70
0
 71
3
 72
9
 73
5
 74
0
 42
0.0000001
 43
0.0000001
 44
0.0000000001
 40
0.0
 40
0.0
 40
0.0
 40
0.0
 40
0.5129253785
 40
1.0
 40
1.0
 40
1.0
 40
1.0
 10
182.7566467783
 20
311.4798876839
 30
0.0
 10
182.9623912024
 20
311.4755685771
 30
0.0
 10
183.3668387054
 20
311.5134870575
 30
0.0
 10
183.7462441378
 20
311.6626531795
 30
0.0
 10
183.9154427093
 20
311.7604290743
 30
0.0
  0
SPLINE
  5
3AB
100
AcDbEntity
  8
0
100
AcDbSpline
 62
7
  6
CONTINUOUS
 70
0
 71
3
 72
9
 73
5
 74
0
 42
0.0000001
 43
0.0000001
 44
0.0000000001
 40
0.0
 40
0.0
 40
0.0
 40
0.0
 40
0.2635290892
 40
1.0
 40
1.0
 40
1.0
 40
1.0
 10
181.717091605
 20
41.4125275264
 30
0.0
 10
181.7999798031
 20
41.3831072631
 30
0.0
 10
182.117820761
 20
41.2814927299
 30
0.0
 10
182.4503444415
 20
41.2220501095
 30
0.0
 10
182.6959148125
 20
41.2113816029
 30
0.0
  0
SPLINE
  5
3AC
100
AcDbEntity
  8
0
100
AcDbSpline
 62
7
  6
CONTINUOUS
 70
0
 71
3
 72
9
 73
5
 74
0
 42
0.0000001
 43
0.0000001
 44
0.0000000001
 40
0.0
 40
0.0
 40
0.0
 40
0.0
 40
0.5129253785
 40
1.0
 40
1.0
 40
1.0
 40
1.0
 10
182.7566467783
 20
41.2094225898
 30
0.0
 10
182.9623912024
 20
41.2051034831
 30
0.0
 10
183.3668387054
 20
41.2430219634
 30
0.0
 10
183.7462441378
 20
41.3921880855
 30
0.0
 10
183.9154427093
 20
41.4899639803
 30
0.0
  0
SPLINE
  5
3AD
100
AcDbEntity
  8
0
100
AcDbSpline
 62
7
  6
CONTINUOUS
 70
0
 71
3
 72
9
 73
5
 74
0
 42
0.0000001
 43
0.0000001
 44
0.0000000001
 40
0.0
 40
0.0
 40
0.0
 40
0.0
 40
0.4754768136
 40
1.0
 40
1.0
 40
1.0
 40
1.0
 10
93.728877885
 20
296.8528937843
 30
0.0
 10
94.0091348373
 20
296.6910911188
 30
0.0
 10
94.6705589997
 20
296.4764367935
 30
0.0
 10
95.3584412651
 20
296.4478675797
 30
0.0
 10
95.7139636832
 20
296.480227408
 30
0.0
  0
SPLINE
  5
3AE
100
AcDbEntity
  8
0
100
AcDbSpline
 62
7
  6
CONTINUOUS
 70
0
 71
3
 72
9
 73
5
 74
0
 42
0.0000001
 43
0.0000001
 44
0.0000000001
 40
0.0
 40
0.0
 40
0.0
 40
0.0
 40
0.2557705361
 40
1.0
 40
1.0
 40
1.0
 40
1.0
 10
95.7139636832
 20
296.480227408
 30
0.0
 10
95.7734064021
 20
296.485637914
 30
0.0
 10
96.0052657255
 20
296.512188336
 30
0.0
 10
96.2348650184
 20
296.5601351563
 30
0.0
 10
96.4014394331
 20
296.6093008135
 30
0.0
  0
SPLINE
  5
3AF
100
AcDbEntity
  8
0
100
AcDbSpline
 62
7
  6
CONTINUOUS
 70
0
 71
3
 72
9
 73
5
 74
0
 42
0.0000001
 43
0.0000001
 44
0.0000000001
 40
0.0
 40
0.0
 40
0.0
 40
0.0
 40
0.2562900267
 40
1.0
 40
1.0
 40
1.0
 40
1.0
 10
96.4014394331
 20
296.6093008135
 30
0.0
 10
96.4323458356
 20
296.6184230644
 30
0.0
 10
96.5523802444
 20
296.6558605855
 30
0.0
 10
96.6701435351
 20
296.7007087162
 30
0.0
 10
96.7556433719
 20
296.7385758868
 30
0.0
  0
SPLINE
  5
3B0
100
AcDbEntity
  8
0
100
AcDbSpline
 62
7
  6
CONTINUOUS
 70
0
 71
3
 72
9
 73
5
 74
0
 42
0.0000001
 43
0.0000001
 44
0.0000000001
 40
0.0
 40
0.0
 40
0.0
 40
0.0
 40
0.5508359907
 40
1.0
 40
1.0
 40
1.0
 40
1.0
 10
218.8870889735
 20
333.5640260407
 30
0.0
 10
219.077321904
 20
333.6738560001
 30
0.0
 10
219.4042008752
 20
333.9240490725
 30
0.0
 10
219.560604891
 20
334.3238585214
 30
0.0
 10
219.5606048247
 20
334.5029754551
 30
0.0
  0
SPLINE
  5
3B1
100
AcDbEntity
  8
0
100
AcDbSpline
 62
7
  6
CONTINUOUS
 70
0
 71
3
 72
11
 73
7
 74
0
 42
0.0000001
 43
0.0000001
 44
0.0000000001
 40
0.0
 40
0.0
 40
0.0
 40
0.0
 40
0.2372531816
 40
0.5000006935
 40
0.7627478297
 40
1.0
 40
1.0
 40
1.0
 40
1.0
 10
190.6029188432
 20
319.1121733857
 30
0.0
 10
190.8338269299
 20
318.9788615556
 30
0.0
 10
191.3707663293
 20
318.7842974255
 30
0.0
 10
192.2292674682
 20
318.6912795826
 30
0.0
 10
193.0877670153
 20
318.7843015275
 30
0.0
 10
193.6247038956
 20
318.9788682772
 30
0.0
 10
193.8556100367
 20
319.1121812042
 30
0.0
  0
SPLINE
  5
3B2
100
AcDbEntity
  8
0
100
AcDbSpline
 62
7
  6
CONTINUOUS
 70
0
 71
3
 72
11
 73
7
 74
0
 42
0.0000001
 43
0.0000001
 44
0.0000000001
 40
0.0
 40
0.0
 40
0.0
 40
0.0
 40
0.2177180461
 40
0.4509171606
 40
0.7105300503
 40
1.0
 40
1.0
 40
1.0
 40
1.0
 10
97.8596895316
 20
90.9393627678
 30
0.0
 10
98.0239470664
 20
91.0348778742
 30
0.0
 10
98.331376526
 20
91.2943285222
 30
0.0
 10
98.6584281541
 20
91.8311576106
 30
0.0
 10
98.8522942623
 20
92.4920465131
 30
0.0
 10
98.8907993581
 20
92.9728308075
 30
0.0
 10
98.8907993581
 20
93.225460709
 30
0.0
  0
SPLINE
  5
3B3
100
AcDbEntity
  8
0
100
AcDbSpline
 62
7
  6
CONTINUOUS
 70
0
 71
3
 72
21
 73
17
 74
0
 42
0.0000001
 43
0.0000001
 44
0.0000000001
 40
0.0
 40
0.0
 40
0.0
 40
0.0
 40
0.0428270063
 40
0.0874218879
 40
0.1352183631
 40
0.1871420494
 40
0.2436040944
 40
0.3045781028
 40
0.3696937054
 40
0.4383203829
 40
0.5825514995
 40
0.7295894814
 40
0.8015972312
 40
0.8712185198
 40
0.9375910556
 40
1.0
 40
1.0
 40
1.0
 40
1.0
 10
170.2414417835
 20
158.0096010726
 30
0.0
 10
168.8361923287
 20
157.1981629825
 30
0.0
 10
165.7383472586
 20
155.9108107403
 30
0.0
 10
160.6248684275
 20
155.1613809097
 30
0.0
 10
155.1338034283
 20
155.5656246062
 30
0.0
 10
149.387102835
 20
157.092479409
 30
0.0
 10
143.4975570042
 20
159.695385566
 30
0.0
 10
137.5825359165
 20
163.3141973468
 30
0.0
 10
131.7616200313
 20
167.8710608928
 30
0.0
 10
124.1654385195
 20
175.1885237504
 30
0.0
 10
115.7262351362
 20
185.9962996628
 30
0.0
 10
109.1413844206
 20
198.1617535924
 30
0.0
 10
105.218360426
 20
208.3847718929
 30
0.0
 10
103.074951199
 20
215.9817651957
 30
0.0
 10
101.7568175411
 20
223.3953487238
 30
0.0
 10
101.436366418
 20
228.2781038431
 30
0.0
 10
101.436366418
 20
230.6427576244
 30
0.0
  0
SPLINE
  5
3B4
100
AcDbEntity
  8
0
100
AcDbSpline
 62
7
  6
CONTINUOUS
 70
0
 71
3
 72
13
 73
9
 74
0
 42
0.0000001
 43
0.0000001
 44
0.0000000001
 40
0.0
 40
0.0
 40
0.0
 40
0.0
 40
0.0871398081
 40
0.1868484731
 40
0.3045123423
 40
0.4386460221
 40
0.7300494215
 40
1.0
 40
1.0
 40
1.0
 40
1.0
 10
179.6648654196
 20
141.6867637018
 30
0.0
 10
179.5849250006
 20
141.6406712671
 30
0.0
 10
179.3841569034
 20
141.5891001229
 30
0.0
 10
179.0610114357
 20
141.6538500325
 30
0.0
 10
178.730766566
 20
141.8340856616
 30
0.0
 10
178.2975906507
 20
142.2182467828
 30
0.0
 10
177.8907051673
 20
142.8472048372
 30
0.0
 10
177.7335057614
 20
143.4397062465
 30
0.0
 10
177.7335057614
 20
143.7255703075
 30
0.0
  0
SPLINE
  5
3B5
100
AcDbEntity
  8
0
100
AcDbSpline
 62
7
  6
CONTINUOUS
 70
0
 71
3
 72
10
 73
6
 74
0
 42
0.0000001
 43
0.0000001
 44
0.0000000001
 40
0.0
 40
0.0
 40
0.0
 40
0.0
 40
0.2297848342
 40
0.4827900303
 40
1.0
 40
1.0
 40
1.0
 40
1.0
 10
108.7503548725
 20
355.7549197431
 30
0.0
 10
108.3730838025
 20
355.9727303928
 30
0.0
 10
107.6411882691
 20
356.5388801397
 30
0.0
 10
106.3937586713
 20
357.9733376882
 30
0.0
 10
105.7217039503
 20
359.3155080045
 30
0.0
 10
105.4554817544
 20
360.2592149759
 30
0.0
  0
SPLINE
  5
3B6
100
AcDbEntity
  8
0
100
AcDbSpline
 62
7
  6
CONTINUOUS
 70
0
 71
3
 72
15
 73
11
 74
0
 42
0.0000001
 43
0.0000001
 44
0.0000000001
 40
0.0
 40
0.0
 40
0.0
 40
0.0
 40
0.0869302794
 40
0.1864000509
 40
0.3037880511
 40
0.4376004534
 40
0.5820992879
 40
0.7294176426
 40
0.8711704121
 40
1.0
 40
1.0
 40
1.0
 40
1.0
 10
93.7695271175
 20
101.2792175857
 30
0.0
 10
94.0691534423
 20
101.4523664252
 30
0.0
 10
94.8222003321
 20
101.6457381175
 30
0.0
 10
96.0341251219
 20
101.403071144
 30
0.0
 10
97.272332602
 20
100.7267511421
 30
0.0
 10
98.4596164558
 20
99.6754373603
 30
0.0
 10
99.5078109736
 20
98.3336249545
 30
0.0
 10
100.3331397223
 20
96.8082980651
 30
0.0
 10
100.8686253672
 20
95.2249466976
 30
0.0
 10
101.0121179451
 20
94.1465616014
 30
0.0
 10
101.0121179451
 20
93.6337072931
 30
0.0
  0
SPLINE
  5
3B7
100
AcDbEntity
  8
0
100
AcDbSpline
 62
7
  6
CONTINUOUS
 70
0
 71
3
 72
13
 73
9
 74
0
 42
0.0000001
 43
0.0000001
 44
0.0000000001
 40
0.0
 40
0.0
 40
0.0
 40
0.0
 40
0.0871398081
 40
0.1868484731
 40
0.3045123423
 40
0.4386460221
 40
0.7300494215
 40
1.0
 40
1.0
 40
1.0
 40
1.0
 10
105.4183442791
 20
270.2847967251
 30
0.0
 10
105.3384038602
 20
270.2387042903
 30
0.0
 10
105.1376357629
 20
270.1871331461
 30
0.0
 10
104.8144902953
 20
270.2518830558
 30
0.0
 10
104.4842454255
 20
270.4321186849
 30
0.0
 10
104.0510695102
 20
270.816279806
 30
0.0
 10
103.6441840269
 20
271.4452378604
 30
0.0
 10
103.486984621
 20
272.0377392698
 30
0.0
 10
103.486984621
 20
272.3236033307
 30
0.0
  0
SPLINE
  5
3B8
100
AcDbEntity
  8
0
100
AcDbSpline
 62
7
  6
CONTINUOUS
 70
0
 71
3
 72
11
 73
7
 74
0
 42
0.0000001
 43
0.0000001
 44
0.0000000001
 40
0.0
 40
0.0
 40
0.0
 40
0.0
 40
0.2896413857
 40
0.5491107521
 40
0.7822355866
 40
1.0
 40
1.0
 40
1.0
 40
1.0
 10
101.0121179451
 20
363.9041723872
 30
0.0
 10
101.0121179451
 20
363.6002291343
 30
0.0
 10
100.9659184522
 20
363.0220571186
 30
0.0
 10
100.7319102096
 20
362.227667347
 30
0.0
 10
100.337724198
 20
361.5829070698
 30
0.0
 10
99.967248425
 20
361.2718874572
 30
0.0
 10
99.7693923901
 20
361.1575498974
 30
0.0
  0
SPLINE
  5
3B9
100
AcDbEntity
  8
0
100
AcDbSpline
 62
7
  6
CONTINUOUS
 70
0
 71
3
 72
13
 73
9
 74
0
 42
0.0000001
 43
0.0000001
 44
0.0000000001
 40
0.0
 40
0.0
 40
0.0
 40
0.0
 40
0.0871398081
 40
0.1868484731
 40
0.3045123423
 40
0.4386460221
 40
0.7300494215
 40
1.0
 40
1.0
 40
1.0
 40
1.0
 10
179.6648654196
 20
227.4195175004
 30
0.0
 10
179.5849250006
 20
227.3734250657
 30
0.0
 10
179.3841569034
 20
227.3218539215
 30
0.0
 10
179.0610114357
 20
227.3866038311
 30
0.0
 10
178.730766566
 20
227.5668394602
 30
0.0
 10
178.2975906507
 20
227.9510005814
 30
0.0
 10
177.8907051673
 20
228.5799586358
 30
0.0
 10
177.7335057614
 20
229.1724600451
 30
0.0
 10
177.7335057614
 20
229.4583241061
 30
0.0
  0
SPLINE
  5
3BA
100
AcDbEntity
  8
0
100
AcDbSpline
 62
7
  6
CONTINUOUS
 70
0
 71
3
 72
11
 73
7
 74
0
 42
0.0000001
 43
0.0000001
 44
0.0000000001
 40
0.0
 40
0.0
 40
0.0
 40
0.0
 40
0.2896413857
 40
0.5491107521
 40
0.7822355866
 40
1.0
 40
1.0
 40
1.0
 40
1.0
 10
101.0121179451
 20
93.6337072931
 30
0.0
 10
101.0121179451
 20
93.3297640403
 30
0.0
 10
100.9659184522
 20
92.7515920245
 30
0.0
 10
100.7319102096
 20
91.957202253
 30
0.0
 10
100.337724198
 20
91.3124419758
 30
0.0
 10
99.967248425
 20
91.0014223631
 30
0.0
 10
99.7693923901
 20
90.8870848033
 30
0.0
  0
SPLINE
  5
3BB
100
AcDbEntity
  8
0
100
AcDbSpline
 62
7
  6
CONTINUOUS
 70
0
 71
3
 72
9
 73
5
 74
0
 42
0.0000001
 43
0.0000001
 44
0.0000000001
 40
0.0
 40
0.0
 40
0.0
 40
0.0
 40
0.2617087631
 40
1.0
 40
1.0
 40
1.0
 40
1.0
 10
92.5268354573
 20
97.2262950975
 30
0.0
 10
92.4666084474
 20
97.2610663913
 30
0.0
 10
92.2331744399
 20
97.3879869624
 30
0.0
 10
91.9859629147
 20
97.4906222477
 30
0.0
 10
91.7980347012
 20
97.5469416161
 30
0.0
  0
SPLINE
  5
3BC
100
AcDbEntity
  8
0
100
AcDbSpline
 62
7
  6
CONTINUOUS
 70
0
 71
3
 72
12
 73
8
 74
0
 42
0.0000001
 43
0.0000001
 44
0.0000000001
 40
0.0
 40
0.0
 40
0.0
 40
0.0
 40
0.2506035327
 40
0.363658844
 40
0.4749739549
 40
0.7134088806
 40
1.0
 40
1.0
 40
1.0
 40
1.0
 10
91.7980347012
 20
97.5469416161
 30
0.0
 10
91.4934505827
 20
97.6382210725
 30
0.0
 10
91.0134797679
 20
97.6973865879
 30
0.0
 10
90.4295122172
 20
97.5210484937
 30
0.0
 10
89.9322359657
 20
97.192527091
 30
0.0
 10
89.4967476161
 20
96.4684404651
 30
0.0
 10
89.4155535968
 20
95.7935732865
 30
0.0
 10
89.4155535968
 20
95.4299443191
 30
0.0
  0
SPLINE
  5
3BD
100
AcDbEntity
  8
0
100
AcDbSpline
 62
7
  6
CONTINUOUS
 70
0
 71
3
 72
9
 73
5
 74
0
 42
0.0000001
 43
0.0000001
 44
0.0000000001
 40
0.0
 40
0.0
 40
0.0
 40
0.0
 40
0.2317160865
 40
1.0
 40
1.0
 40
1.0
 40
1.0
 10
89.4158943071
 20
95.3769909623
 30
0.0
 10
89.4182184553
 20
95.1955952693
 30
0.0
 10
89.4787473066
 20
94.4135849019
 30
0.0
 10
89.7116845771
 20
93.650528493
 30
0.0
 10
89.9536305476
 20
93.0998453118
 30
0.0
  0
SPLINE
  5
3BE
100
AcDbEntity
  8
0
100
AcDbSpline
 62
7
  6
CONTINUOUS
 70
0
 71
3
 72
9
 73
5
 74
0
 42
0.0000001
 43
0.0000001
 44
0.0000000001
 40
0.0
 40
0.0
 40
0.0
 40
0.0
 40
0.5253544891
 40
1.0
 40
1.0
 40
1.0
 40
1.0
 10
90.1949697551
 20
92.6018266361
 30
0.0
 10
90.4819415683
 20
92.0612122393
 30
0.0
 10
91.1505806324
 20
91.0934548947
 30
0.0
 10
92.0479368076
 20
90.3175619843
 30
0.0
 10
92.5268354573
 20
90.0410759749
 30
0.0
  0
SPLINE
  5
3BF
100
AcDbEntity
  8
0
100
AcDbSpline
 62
7
  6
CONTINUOUS
 70
0
 71
3
 72
11
 73
7
 74
0
 42
0.0000001
 43
0.0000001
 44
0.0000000001
 40
0.0
 40
0.0
 40
0.0
 40
0.0
 40
0.290328086
 40
0.545863446
 40
0.7761594018
 40
1.0
 40
1.0
 40
1.0
 40
1.0
 10
92.6727783676
 20
89.9608224304
 30
0.0
 10
92.8905426716
 20
89.8470328738
 30
0.0
 10
93.3221277245
 20
89.6702553583
 30
0.0
 10
93.9827106603
 20
89.5829661884
 30
0.0
 10
94.5839101536
 20
89.7083562905
 30
0.0
 10
94.9097232738
 20
89.9333736401
 30
0.0
 10
95.0430327452
 20
90.0679613414
 30
0.0
  0
SPLINE
  5
3C0
100
AcDbEntity
  8
0
100
AcDbSpline
 62
7
  6
CONTINUOUS
 70
0
 71
3
 72
9
 73
5
 74
0
 42
0.0000001
 43
0.0000001
 44
0.0000000001
 40
0.0
 40
0.0
 40
0.0
 40
0.0
 40
0.4562611328
 40
1.0
 40
1.0
 40
1.0
 40
1.0
 10
95.0430327452
 20
90.0679613414
 30
0.0
 10
95.2466093221
 20
90.2734899002
 30
0.0
 10
95.5640086227
 20
90.8523135075
 30
0.0
 10
95.6381173178
 20
91.4926787331
 30
0.0
 10
95.6381173178
 20
91.8374267533
 30
0.0
  0
SPLINE
  5
3C1
100
AcDbEntity
  8
0
100
AcDbSpline
 62
7
  6
CONTINUOUS
 70
0
 71
3
 72
11
 73
7
 74
0
 42
0.0000001
 43
0.0000001
 44
0.0000000001
 40
0.0
 40
0.0
 40
0.0
 40
0.0
 40
0.2372539654
 40
0.5000012591
 40
0.7627478695
 40
1.0
 40
1.0
 40
1.0
 40
1.0
 10
95.6381173178
 20
91.8374267533
 30
0.0
 10
95.6381173178
 20
92.3475004866
 30
0.0
 10
95.4468746062
 20
93.423181473
 30
0.0
 10
94.7798094826
 20
94.9344767344
 30
0.0
 10
93.8045179264
 20
96.2678118531
 30
0.0
 10
92.9685713501
 20
96.9712645305
 30
0.0
 10
92.5268354573
 20
97.2262950975
 30
0.0
  0
SPLINE
  5
3C2
100
AcDbEntity
  8
0
100
AcDbSpline
 62
7
  6
CONTINUOUS
 70
0
 71
3
 72
13
 73
9
 74
0
 42
0.0000001
 43
0.0000001
 44
0.0000000001
 40
0.0
 40
0.0
 40
0.0
 40
0.0
 40
0.0871398081
 40
0.1868484731
 40
0.3045123423
 40
0.4386460221
 40
0.7300494215
 40
1.0
 40
1.0
 40
1.0
 40
1.0
 10
105.4183442791
 20
184.5520429265
 30
0.0
 10
105.3384038602
 20
184.5059504917
 30
0.0
 10
105.1376357629
 20
184.4543793475
 30
0.0
 10
104.8144902953
 20
184.5191292572
 30
0.0
 10
104.4842454255
 20
184.6993648863
 30
0.0
 10
104.0510695102
 20
185.0835260074
 30
0.0
 10
103.6441840269
 20
185.7124840618
 30
0.0
 10
103.486984621
 20
186.3049854712
 30
0.0
 10
103.486984621
 20
186.5908495321
 30
0.0
  0
SPLINE
  5
3C3
100
AcDbEntity
  8
0
100
AcDbSpline
 62
7
  6
CONTINUOUS
 70
0
 71
3
 72
11
 73
7
 74
0
 42
0.0000001
 43
0.0000001
 44
0.0000000001
 40
0.0
 40
0.0
 40
0.0
 40
0.0
 40
0.2372480941
 40
0.5000010917
 40
0.7627534955
 40
1.0
 40
1.0
 40
1.0
 40
1.0
 10
96.345224099
 20
91.837428453
 30
0.0
 10
96.345224099
 20
92.4054521722
 30
0.0
 10
96.1322717836
 20
93.603373179
 30
0.0
 10
95.3894117179
 20
95.2864324659
 30
0.0
 10
94.3032651888
 20
96.7712897945
 30
0.0
 10
93.3723098328
 20
97.5546632452
 30
0.0
 10
92.8803873759
 20
97.838668383
 30
0.0
  0
SPLINE
  5
3C4
100
AcDbEntity
  8
0
100
AcDbSpline
 62
7
  6
CONTINUOUS
 70
0
 71
3
 72
11
 73
7
 74
0
 42
0.0000001
 43
0.0000001
 44
0.0000000001
 40
0.0
 40
0.0
 40
0.0
 40
0.0
 40
0.2895359456
 40
0.5491067338
 40
0.7822490569
 40
1.0
 40
1.0
 40
1.0
 40
1.0
 10
92.8803873759
 20
97.838668383
 30
0.0
 10
92.66549926
 20
97.9627312879
 30
0.0
 10
92.237668763
 20
98.1660022707
 30
0.0
 10
91.5803364135
 20
98.325102046
 30
0.0
 10
90.9632411835
 20
98.3096114831
 30
0.0
 10
90.5920420997
 20
98.1744100355
 30
0.0
 10
90.4304371043
 20
98.0810964201
 30
0.0
  0
SPLINE
  5
3C5
100
AcDbEntity
  8
0
100
AcDbSpline
 62
7
  6
CONTINUOUS
 70
0
 71
3
 72
9
 73
5
 74
0
 42
0.0000001
 43
0.0000001
 44
0.0000000001
 40
0.0
 40
0.0
 40
0.0
 40
0.0
 40
0.2827702618
 40
1.0
 40
1.0
 40
1.0
 40
1.0
 10
98.8202070933
 20
93.2662162501
 30
0.0
 10
98.8202070933
 20
93.0812253669
 30
0.0
 10
98.7825105144
 20
92.4311708738
 30
0.0
 10
98.5595478483
 20
91.7664574465
 30
0.0
 10
98.2584599472
 20
91.4065799304
 30
0.0
  0
SPLINE
  5
3C6
100
AcDbEntity
  8
0
100
AcDbSpline
 62
7
  6
CONTINUOUS
 70
0
 71
3
 72
8
 73
4
 74
0
 42
0.0000001
 43
0.0000001
 44
0.0000000001
 40
0.0
 40
0.0
 40
0.0
 40
0.0
 40
1.0
 40
1.0
 40
1.0
 40
1.0
 10
98.1483776747
 20
91.2864614673
 30
0.0
 10
98.0461536449
 20
91.1847472016
 30
0.0
 10
97.9300262465
 20
91.095223294
 30
0.0
 10
97.8051345024
 20
91.0231289365
 30
0.0
  0
SPLINE
  5
3C7
100
AcDbEntity
  8
0
100
AcDbSpline
 62
7
  6
CONTINUOUS
 70
0
 71
3
 72
11
 73
7
 74
0
 42
0.0000001
 43
0.0000001
 44
0.0000000001
 40
0.0
 40
0.0
 40
0.0
 40
0.0
 40
0.2177499957
 40
0.4508919044
 40
0.7104630441
 40
1.0
 40
1.0
 40
1.0
 40
1.0
 10
180.1833526897
 20
40.6055405213
 30
0.0
 10
180.3449713048
 20
40.6988389883
 30
0.0
 10
180.6476666489
 20
40.9527119597
 30
0.0
 10
180.9696351891
 20
41.4794021432
 30
0.0
 10
181.1605170877
 20
42.1282384617
 30
0.0
 10
181.1983911166
 20
42.6004003329
 30
0.0
 10
181.1983911166
 20
42.8485379106
 30
0.0
  0
SPLINE
  5
3C8
100
AcDbEntity
  8
0
100
AcDbSpline
 62
7
  6
CONTINUOUS
 70
0
 71
3
 72
11
 73
7
 74
0
 42
0.0000001
 43
0.0000001
 44
0.0000000001
 40
0.0
 40
0.0
 40
0.0
 40
0.0
 40
0.2177499957
 40
0.4508919044
 40
0.7104630441
 40
1.0
 40
1.0
 40
1.0
 40
1.0
 10
95.3301856721
 20
359.8648961578
 30
0.0
 10
95.4918042871
 20
359.9581946248
 30
0.0
 10
95.7944996312
 20
360.2120675962
 30
0.0
 10
96.1164681714
 20
360.7387577797
 30
0.0
 10
96.3073500701
 20
361.3875940982
 30
0.0
 10
96.345224099
 20
361.8597559694
 30
0.0
 10
96.345224099
 20
362.1078935471
 30
0.0
  0
SPLINE
  5
3C9
100
AcDbEntity
  8
0
100
AcDbSpline
 62
7
  6
CONTINUOUS
 70
0
 71
3
 72
9
 73
5
 74
0
 42
0.0000001
 43
0.0000001
 44
0.0000000001
 40
0.0
 40
0.0
 40
0.0
 40
0.0
 40
0.2461761779
 40
1.0
 40
1.0
 40
1.0
 40
1.0
 10
177.7583666263
 20
50.5212243428
 30
0.0
 10
177.8084603954
 20
50.5501509134
 30
0.0
 10
178.0180394589
 20
50.6569941488
 30
0.0
 10
178.2502544732
 20
50.7175580016
 30
0.0
 10
178.4262281147
 20
50.7377764354
 30
0.0
  0
SPLINE
  5
3CA
100
AcDbEntity
  8
0
100
AcDbSpline
 62
7
  6
CONTINUOUS
 70
0
 71
3
 72
13
 73
9
 74
0
 42
0.0000001
 43
0.0000001
 44
0.0000000001
 40
0.0
 40
0.0
 40
0.0
 40
0.0
 40
0.1985103854
 40
0.3218128926
 40
0.4571201564
 40
0.7402158451
 40
0.8760455484
 40
1.0
 40
1.0
 40
1.0
 40
1.0
 10
178.4262281147
 20
50.7377764354
 30
0.0
 10
179.019737793
 20
50.8059675349
 30
0.0
 10
180.0160000076
 20
50.4726299409
 30
0.0
 10
181.118388035
 20
49.6583828202
 30
0.0
 10
182.2476302501
 20
48.4690097126
 30
0.0
 10
183.1004726979
 20
47.000326663
 30
0.0
 10
183.5801442304
 20
45.433313848
 30
0.0
 10
183.6733741109
 20
44.6503648983
 30
0.0
 10
183.6733741109
 20
44.2773257077
 30
0.0
  0
SPLINE
  5
3CB
100
AcDbEntity
  8
0
100
AcDbSpline
 62
7
  6
CONTINUOUS
 70
0
 71
3
 72
11
 73
7
 74
0
 42
0.0000001
 43
0.0000001
 44
0.0000000001
 40
0.0
 40
0.0
 40
0.0
 40
0.0
 40
0.2177180461
 40
0.4509171606
 40
0.7105300503
 40
1.0
 40
1.0
 40
1.0
 40
1.0
 10
182.7128565492
 20
41.9504722253
 30
0.0
 10
182.877114084
 20
42.0459873318
 30
0.0
 10
183.1845435436
 20
42.3054379798
 30
0.0
 10
183.5115951717
 20
42.8422670682
 30
0.0
 10
183.7054612799
 20
43.5031559707
 30
0.0
 10
183.7439663758
 20
43.983940265
 30
0.0
 10
183.7439663758
 20
44.2365701666
 30
0.0
  0
SPLINE
  5
3CC
100
AcDbEntity
  8
0
100
AcDbSpline
 62
7
  6
CONTINUOUS
 70
0
 71
3
 72
9
 73
5
 74
0
 42
0.0000001
 43
0.0000001
 44
0.0000000001
 40
0.0
 40
0.0
 40
0.0
 40
0.0
 40
0.4586735467
 40
1.0
 40
1.0
 40
1.0
 40
1.0
 10
184.3263045872
 20
325.2091655023
 30
0.0
 10
184.666573989
 20
325.2744825907
 30
0.0
 10
185.4460170271
 20
325.2256492112
 30
0.0
 10
186.1475047447
 20
324.9176513808
 30
0.0
 10
186.5016398508
 20
324.7131960073
 30
0.0
  0
SPLINE
  5
3CD
100
AcDbEntity
  8
0
100
AcDbSpline
 62
7
  6
CONTINUOUS
 70
0
 71
3
 72
13
 73
9
 74
0
 42
0.0000001
 43
0.0000001
 44
0.0000000001
 40
0.0
 40
0.0
 40
0.0
 40
0.0
 40
0.2894099071
 40
0.548290188
 40
0.6677446312
 40
0.7817691878
 40
0.8919022829
 40
1.0
 40
1.0
 40
1.0
 40
1.0
 10
101.436366418
 20
230.6427576244
 30
0.0
 10
101.436366418
 20
233.5319320909
 30
0.0
 10
101.8712319986
 20
239.0220487269
 30
0.0
 10
103.7795724061
 20
245.4803790493
 30
0.0
 10
106.0942463582
 20
249.8334532831
 30
0.0
 10
108.1363838635
 20
252.6065581275
 30
0.0
 10
110.5103622224
 20
254.9431928114
 30
0.0
 10
112.3072726653
 20
256.1968409471
 30
0.0
 10
113.2417997193
 20
256.7364681608
 30
0.0
  0
SPLINE
  5
3CE
100
AcDbEntity
  8
0
100
AcDbSpline
 62
7
  6
CONTINUOUS
 70
0
 71
3
 72
15
 73
11
 74
0
 42
0.0000001
 43
0.0000001
 44
0.0000000001
 40
0.0
 40
0.0
 40
0.0
 40
0.0
 40
0.1285595545
 40
0.2700128372
 40
0.4170385419
 40
0.5614128145
 40
0.6953294325
 40
0.8130474709
 40
0.9129216152
 40
1.0
 40
1.0
 40
1.0
 40
1.0
 10
98.8907993581
 20
93.225460709
 30
0.0
 10
98.8907993581
 20
93.6504125829
 30
0.0
 10
98.7724716226
 20
94.5439421811
 30
0.0
 10
98.3308444424
 20
95.8566084753
 30
0.0
 10
97.6493864802
 20
97.1224494276
 30
0.0
 10
96.7833069266
 20
98.2385019806
 30
0.0
 10
95.8008688243
 20
99.1165931395
 30
0.0
 10
94.7746572238
 20
99.68679152
 30
0.0
 10
93.7688383287
 20
99.9011180599
 30
0.0
 10
93.1393275661
 20
99.7528793141
 30
0.0
 10
92.8869902692
 20
99.6144029725
 30
0.0
  0
SPLINE
  5
3CF
100
AcDbEntity
  8
0
100
AcDbSpline
 62
7
  6
CONTINUOUS
 70
0
 71
3
 72
15
 73
11
 74
0
 42
0.0000001
 43
0.0000001
 44
0.0000000001
 40
0.0
 40
0.0
 40
0.0
 40
0.0
 40
0.0869472959
 40
0.186470978
 40
0.3039061374
 40
0.4377289809
 40
0.5822072921
 40
0.7294751244
 40
0.8712123341
 40
1.0
 40
1.0
 40
1.0
 40
1.0
 10
178.4214896226
 20
51.016358138
 30
0.0
 10
178.6714723618
 20
51.1596445434
 30
0.0
 10
179.2988738486
 20
51.3189777503
 30
0.0
 10
180.3076894835
 20
51.1150209717
 30
0.0
 10
181.3381334198
 20
50.5508169456
 30
0.0
 10
182.32602831
 20
49.6749394867
 30
0.0
 10
183.197917823
 20
48.5576806634
 30
0.0
 10
183.8845713266
 20
47.2880269679
 30
0.0
 10
184.329831951
 20
45.9701629779
 30
0.0
 10
184.449241417
 20
45.0726572026
 30
0.0
 10
184.449241417
 20
44.6458657238
 30
0.0
  0
SPLINE
  5
3D0
100
AcDbEntity
  8
0
100
AcDbSpline
 62
7
  6
CONTINUOUS
 70
0
 71
3
 72
11
 73
7
 74
0
 42
0.0000001
 43
0.0000001
 44
0.0000000001
 40
0.0
 40
0.0
 40
0.0
 40
0.0
 40
0.2894836687
 40
0.5490925387
 40
0.7822836059
 40
1.0
 40
1.0
 40
1.0
 40
1.0
 10
99.5960743994
 20
93.6347562662
 30
0.0
 10
99.5960743994
 20
93.3822442225
 30
0.0
 10
99.5575921973
 20
92.9016972419
 30
0.0
 10
99.3638134479
 20
92.2411509899
 30
0.0
 10
99.0369379398
 20
91.7046054389
 30
0.0
 10
98.7296693056
 20
91.4453020474
 30
0.0
 10
98.5655028851
 20
91.3498273647
 30
0.0
  0
SPLINE
  5
3D1
100
AcDbEntity
  8
0
100
AcDbSpline
 62
7
  6
CONTINUOUS
 70
0
 71
3
 72
11
 73
7
 74
0
 42
0.0000001
 43
0.0000001
 44
0.0000000001
 40
0.0
 40
0.0
 40
0.0
 40
0.0
 40
0.2177660095
 40
0.4508968553
 40
0.7103699668
 40
1.0
 40
1.0
 40
1.0
 40
1.0
 10
183.9154427093
 20
41.4899639803
 30
0.0
 10
184.1133004183
 20
41.60430132
 30
0.0
 10
184.4837993913
 20
41.9153059606
 30
0.0
 10
184.8779737251
 20
42.5600911232
 30
0.0
 10
185.1119779742
 20
43.3544760429
 30
0.0
 10
185.1581775358
 20
43.9326396308
 30
0.0
 10
185.1581775358
 20
44.2365705243
 30
0.0
  0
SPLINE
  5
3D2
100
AcDbEntity
  8
0
100
AcDbSpline
 62
7
  6
CONTINUOUS
 70
0
 71
3
 72
15
 73
11
 74
0
 42
0.0000001
 43
0.0000001
 44
0.0000000001
 40
0.0
 40
0.0
 40
0.0
 40
0.0
 40
0.0869472959
 40
0.186470978
 40
0.3039061374
 40
0.4377289809
 40
0.5822072921
 40
0.7294751244
 40
0.8712123341
 40
1.0
 40
1.0
 40
1.0
 40
1.0
 10
93.568322605
 20
100.0052486804
 30
0.0
 10
93.8183053442
 20
100.1485350858
 30
0.0
 10
94.445706831
 20
100.3078682927
 30
0.0
 10
95.4545224659
 20
100.1039115141
 30
0.0
 10
96.4849664022
 20
99.539707488
 30
0.0
 10
97.4728612924
 20
98.6638300291
 30
0.0
 10
98.3447508053
 20
97.5465712059
 30
0.0
 10
99.0314043089
 20
96.2769175103
 30
0.0
 10
99.4766649334
 20
94.9590535204
 30
0.0
 10
99.5960743994
 20
94.061547745
 30
0.0
 10
99.5960743994
 20
93.6347562662
 30
0.0
  0
SPLINE
  5
3D3
100
AcDbEntity
  8
0
100
AcDbSpline
 62
7
  6
CONTINUOUS
 70
0
 71
3
 72
15
 73
11
 74
0
 42
0.0000001
 43
0.0000001
 44
0.0000000001
 40
0.0
 40
0.0
 40
0.0
 40
0.0
 40
0.1288285297
 40
0.2705731043
 40
0.4178848725
 40
0.5623830488
 40
0.6962002801
 40
0.8135916328
 40
0.9130641676
 40
1.0
 40
1.0
 40
1.0
 40
1.0
 10
100.3050105182
 20
93.2254610667
 30
0.0
 10
100.3050105182
 20
93.7383104538
 30
0.0
 10
100.1615276339
 20
94.8166578815
 30
0.0
 10
99.6260702062
 20
96.3999483205
 30
0.0
 10
98.8008002704
 20
97.9252334466
 30
0.0
 10
97.7526341602
 20
99.2670524265
 30
0.0
 10
96.5653537411
 20
100.3184123919
 30
0.0
 10
95.3271235861
 20
100.9947776574
 30
0.0
 10
94.1151604568
 20
101.2374859246
 30
0.0
 10
93.362075716
 20
101.0441142597
 30
0.0
 10
93.0624298863
 20
100.8709559471
 30
0.0
  0
SPLINE
  5
3D4
100
AcDbEntity
  8
0
100
AcDbSpline
 62
7
  6
CONTINUOUS
 70
0
 71
3
 72
15
 73
11
 74
0
 42
0.0000001
 43
0.0000001
 44
0.0000000001
 40
0.0
 40
0.0
 40
0.0
 40
0.0
 40
0.0869302643
 40
0.1864000227
 40
0.303788016
 40
0.4376004181
 40
0.5820992582
 40
0.7294176223
 40
0.8711704027
 40
1.0
 40
1.0
 40
1.0
 40
1.0
 10
178.6226947886
 20
52.2903274206
 30
0.0
 10
178.9223210431
 20
52.4634762195
 30
0.0
 10
179.6753678031
 20
52.6568478249
 30
0.0
 10
180.8872923455
 20
52.4141806756
 30
0.0
 10
182.1254995446
 20
51.7378605109
 30
0.0
 10
183.3127831273
 20
50.6865465809
 30
0.0
 10
184.3609774066
 20
49.3447340487
 30
0.0
 10
185.1863059677
 20
47.8194070642
 30
0.0
 10
185.7217914905
 20
46.2360556417
 30
0.0
 10
185.8652840385
 20
45.1576705314
 30
0.0
 10
185.8652840385
 20
44.6448162171
 30
0.0
  0
SPLINE
  5
3D5
100
AcDbEntity
  8
0
100
AcDbSpline
 62
7
  6
CONTINUOUS
 70
0
 71
3
 72
9
 73
5
 74
0
 42
0.0000001
 43
0.0000001
 44
0.0000000001
 40
0.0
 40
0.0
 40
0.0
 40
0.0
 40
0.2617087631
 40
1.0
 40
1.0
 40
1.0
 40
1.0
 10
92.5268354573
 20
367.4967601916
 30
0.0
 10
92.4666084474
 20
367.5315314854
 30
0.0
 10
92.2331744399
 20
367.6584520564
 30
0.0
 10
91.9859629147
 20
367.7610873417
 30
0.0
 10
91.7980347012
 20
367.8174067102
 30
0.0
  0
SPLINE
  5
3D6
100
AcDbEntity
  8
0
100
AcDbSpline
 62
7
  6
CONTINUOUS
 70
0
 71
3
 72
12
 73
8
 74
0
 42
0.0000001
 43
0.0000001
 44
0.0000000001
 40
0.0
 40
0.0
 40
0.0
 40
0.0
 40
0.2506035327
 40
0.363658844
 40
0.4749739549
 40
0.7134088806
 40
1.0
 40
1.0
 40
1.0
 40
1.0
 10
91.7980347012
 20
367.8174067102
 30
0.0
 10
91.4934505827
 20
367.9086861666
 30
0.0
 10
91.0134797679
 20
367.9678516819
 30
0.0
 10
90.4295122172
 20
367.7915135877
 30
0.0
 10
89.9322359657
 20
367.4629921851
 30
0.0
 10
89.4967476161
 20
366.7389055592
 30
0.0
 10
89.4155535968
 20
366.0640383806
 30
0.0
 10
89.4155535968
 20
365.7004094132
 30
0.0
  0
SPLINE
  5
3D7
100
AcDbEntity
  8
0
100
AcDbSpline
 62
7
  6
CONTINUOUS
 70
0
 71
3
 72
9
 73
5
 74
0
 42
0.0000001
 43
0.0000001
 44
0.0000000001
 40
0.0
 40
0.0
 40
0.0
 40
0.0
 40
0.2317160865
 40
1.0
 40
1.0
 40
1.0
 40
1.0
 10
89.4158943071
 20
365.6474560564
 30
0.0
 10
89.4182184553
 20
365.4660603634
 30
0.0
 10
89.4787473066
 20
364.684049996
 30
0.0
 10
89.7116845771
 20
363.9209935871
 30
0.0
 10
89.9536305476
 20
363.3703104059
 30
0.0
  0
SPLINE
  5
3D8
100
AcDbEntity
  8
0
100
AcDbSpline
 62
7
  6
CONTINUOUS
 70
0
 71
3
 72
9
 73
5
 74
0
 42
0.0000001
 43
0.0000001
 44
0.0000000001
 40
0.0
 40
0.0
 40
0.0
 40
0.0
 40
0.5253544891
 40
1.0
 40
1.0
 40
1.0
 40
1.0
 10
90.1949697551
 20
362.8722917301
 30
0.0
 10
90.4819415683
 20
362.3316773334
 30
0.0
 10
91.1505806324
 20
361.3639199888
 30
0.0
 10
92.0479368076
 20
360.5880270784
 30
0.0
 10
92.5268354573
 20
360.311541069
 30
0.0
  0
SPLINE
  5
3D9
100
AcDbEntity
  8
0
100
AcDbSpline
 62
7
  6
CONTINUOUS
 70
0
 71
3
 72
11
 73
7
 74
0
 42
0.0000001
 43
0.0000001
 44
0.0000000001
 40
0.0
 40
0.0
 40
0.0
 40
0.0
 40
0.290328086
 40
0.545863446
 40
0.7761594018
 40
1.0
 40
1.0
 40
1.0
 40
1.0
 10
92.6727783676
 20
360.2312875245
 30
0.0
 10
92.8905426716
 20
360.1174979678
 30
0.0
 10
93.3221277245
 20
359.9407204523
 30
0.0
 10
93.9827106603
 20
359.8534312825
 30
0.0
 10
94.5839101536
 20
359.9788213845
 30
0.0
 10
94.9097232738
 20
360.2038387341
 30
0.0
 10
95.0430327452
 20
360.3384264354
 30
0.0
  0
SPLINE
  5
3DA
100
AcDbEntity
  8
0
100
AcDbSpline
 62
7
  6
CONTINUOUS
 70
0
 71
3
 72
9
 73
5
 74
0
 42
0.0000001
 43
0.0000001
 44
0.0000000001
 40
0.0
 40
0.0
 40
0.0
 40
0.0
 40
0.4562611328
 40
1.0
 40
1.0
 40
1.0
 40
1.0
 10
95.0430327452
 20
360.3384264354
 30
0.0
 10
95.2466093221
 20
360.5439549942
 30
0.0
 10
95.5640086227
 20
361.1227786016
 30
0.0
 10
95.6381173178
 20
361.7631438271
 30
0.0
 10
95.6381173178
 20
362.1078918474
 30
0.0
  0
SPLINE
  5
3DB
100
AcDbEntity
  8
0
100
AcDbSpline
 62
7
  6
CONTINUOUS
 70
0
 71
3
 72
11
 73
7
 74
0
 42
0.0000001
 43
0.0000001
 44
0.0000000001
 40
0.0
 40
0.0
 40
0.0
 40
0.0
 40
0.2372539654
 40
0.5000012591
 40
0.7627478695
 40
1.0
 40
1.0
 40
1.0
 40
1.0
 10
95.6381173178
 20
362.1078918474
 30
0.0
 10
95.6381173178
 20
362.6179655807
 30
0.0
 10
95.4468746062
 20
363.693646567
 30
0.0
 10
94.7798094826
 20
365.2049418285
 30
0.0
 10
93.8045179264
 20
366.5382769472
 30
0.0
 10
92.9685713501
 20
367.2417296246
 30
0.0
 10
92.5268354573
 20
367.4967601916
 30
0.0
  0
SPLINE
  5
3DC
100
AcDbEntity
  8
0
100
AcDbSpline
 62
7
  6
CONTINUOUS
 70
0
 71
3
 72
11
 73
7
 74
0
 42
0.0000001
 43
0.0000001
 44
0.0000000001
 40
0.0
 40
0.0
 40
0.0
 40
0.0
 40
0.2372480941
 40
0.5000010917
 40
0.7627534955
 40
1.0
 40
1.0
 40
1.0
 40
1.0
 10
96.345224099
 20
362.1078935471
 30
0.0
 10
96.345224099
 20
362.6759172663
 30
0.0
 10
96.1322717836
 20
363.8738382731
 30
0.0
 10
95.3894117179
 20
365.5568975599
 30
0.0
 10
94.3032651888
 20
367.0417548886
 30
0.0
 10
93.3723098328
 20
367.8251283393
 30
0.0
 10
92.8803873759
 20
368.1091334771
 30
0.0
  0
SPLINE
  5
3DD
100
AcDbEntity
  8
0
100
AcDbSpline
 62
7
  6
CONTINUOUS
 70
0
 71
3
 72
11
 73
7
 74
0
 42
0.0000001
 43
0.0000001
 44
0.0000000001
 40
0.0
 40
0.0
 40
0.0
 40
0.0
 40
0.2895359456
 40
0.5491067338
 40
0.7822490569
 40
1.0
 40
1.0
 40
1.0
 40
1.0
 10
92.8803873759
 20
368.1091334771
 30
0.0
 10
92.66549926
 20
368.233196382
 30
0.0
 10
92.237668763
 20
368.4364673647
 30
0.0
 10
91.5803364135
 20
368.5955671401
 30
0.0
 10
90.9632411835
 20
368.5800765771
 30
0.0
 10
90.5920420997
 20
368.4448751296
 30
0.0
 10
90.4304371043
 20
368.3515615141
 30
0.0
  0
SPLINE
  5
3DE
100
AcDbEntity
  8
0
100
AcDbSpline
 62
7
  6
CONTINUOUS
 70
0
 71
3
 72
11
 73
7
 74
0
 42
0.0000001
 43
0.0000001
 44
0.0000000001
 40
0.0
 40
0.0
 40
0.0
 40
0.0
 40
0.2177499957
 40
0.4508919044
 40
0.7104630441
 40
1.0
 40
1.0
 40
1.0
 40
1.0
 10
180.1833526897
 20
310.8760056153
 30
0.0
 10
180.3449713048
 20
310.9693040823
 30
0.0
 10
180.6476666489
 20
311.2231770538
 30
0.0
 10
180.9696351891
 20
311.7498672373
 30
0.0
 10
181.1605170877
 20
312.3987035558
 30
0.0
 10
181.1983911166
 20
312.870865427
 30
0.0
 10
181.1983911166
 20
313.1190030046
 30
0.0
  0
SPLINE
  5
3DF
100
AcDbEntity
  8
0
100
AcDbSpline
 62
7
  6
CONTINUOUS
 70
0
 71
3
 72
11
 73
7
 74
0
 42
0.0000001
 43
0.0000001
 44
0.0000000001
 40
0.0
 40
0.0
 40
0.0
 40
0.0
 40
0.2177660095
 40
0.4508968553
 40
0.7103699668
 40
1.0
 40
1.0
 40
1.0
 40
1.0
 10
99.0622756916
 20
90.4788545227
 30
0.0
 10
99.2601334007
 20
90.5931918624
 30
0.0
 10
99.6306323737
 20
90.9041965031
 30
0.0
 10
100.0248067074
 20
91.5489816657
 30
0.0
 10
100.2588109566
 20
92.3433665853
 30
0.0
 10
100.3050105182
 20
92.9215301732
 30
0.0
 10
100.3050105182
 20
93.2254610667
 30
0.0
  0
SPLINE
  5
3E0
100
AcDbEntity
  8
0
100
AcDbSpline
 62
7
  6
CONTINUOUS
 70
0
 71
3
 72
9
 73
5
 74
0
 42
0.0000001
 43
0.0000001
 44
0.0000000001
 40
0.0
 40
0.0
 40
0.0
 40
0.0
 40
0.2827702618
 40
1.0
 40
1.0
 40
1.0
 40
1.0
 10
98.8202070933
 20
363.5366813442
 30
0.0
 10
98.8202070933
 20
363.351690461
 30
0.0
 10
98.7825105144
 20
362.7016359679
 30
0.0
 10
98.5595478483
 20
362.0369225406
 30
0.0
 10
98.2584599472
 20
361.6770450245
 30
0.0
  0
SPLINE
  5
3E1
100
AcDbEntity
  8
0
100
AcDbSpline
 62
7
  6
CONTINUOUS
 70
0
 71
3
 72
8
 73
4
 74
0
 42
0.0000001
 43
0.0000001
 44
0.0000000001
 40
0.0
 40
0.0
 40
0.0
 40
0.0
 40
1.0
 40
1.0
 40
1.0
 40
1.0
 10
98.1483776747
 20
361.5569265614
 30
0.0
 10
98.0461536449
 20
361.4552122956
 30
0.0
 10
97.9300262465
 20
361.3656883881
 30
0.0
 10
97.8051345024
 20
361.2935940306
 30
0.0
  0
SPLINE
  5
3E2
100
AcDbEntity
  8
0
100
AcDbSpline
 62
7
  6
CONTINUOUS
 70
0
 71
3
 72
9
 73
5
 74
0
 42
0.0000001
 43
0.0000001
 44
0.0000000001
 40
0.0
 40
0.0
 40
0.0
 40
0.0
 40
0.2461761779
 40
1.0
 40
1.0
 40
1.0
 40
1.0
 10
92.9051996087
 20
369.7805799793
 30
0.0
 10
92.9552933778
 20
369.8095065499
 30
0.0
 10
93.1648724412
 20
369.9163497853
 30
0.0
 10
93.3970874555
 20
369.9769136381
 30
0.0
 10
93.5730610971
 20
369.9971320719
 30
0.0
  0
SPLINE
  5
3E3
100
AcDbEntity
  8
0
100
AcDbSpline
 62
7
  6
CONTINUOUS
 70
0
 71
3
 72
13
 73
9
 74
0
 42
0.0000001
 43
0.0000001
 44
0.0000000001
 40
0.0
 40
0.0
 40
0.0
 40
0.0
 40
0.1985103854
 40
0.3218128926
 40
0.4571201564
 40
0.7402158451
 40
0.8760455484
 40
1.0
 40
1.0
 40
1.0
 40
1.0
 10
93.5730610971
 20
369.9971320719
 30
0.0
 10
94.1665707753
 20
370.0653231714
 30
0.0
 10
95.1628329899
 20
369.7319855774
 30
0.0
 10
96.2652210174
 20
368.9177384567
 30
0.0
 10
97.3944632324
 20
367.7283653491
 30
0.0
 10
98.2473056803
 20
366.2596822995
 30
0.0
 10
98.7269772127
 20
364.6926694845
 30
0.0
 10
98.8202070933
 20
363.9097205348
 30
0.0
 10
98.8202070933
 20
363.5366813442
 30
0.0
  0
SPLINE
  5
3E4
100
AcDbEntity
  8
0
100
AcDbSpline
 62
7
  6
CONTINUOUS
 70
0
 71
3
 72
15
 73
11
 74
0
 42
0.0000001
 43
0.0000001
 44
0.0000000001
 40
0.0
 40
0.0
 40
0.0
 40
0.0
 40
0.1285595545
 40
0.2700128372
 40
0.4170385419
 40
0.5614128145
 40
0.6953294325
 40
0.8130474709
 40
0.9129216152
 40
1.0
 40
1.0
 40
1.0
 40
1.0
 10
98.8907993581
 20
363.4959258031
 30
0.0
 10
98.8907993581
 20
363.9208776769
 30
0.0
 10
98.7724716226
 20
364.8144072752
 30
0.0
 10
98.3308444424
 20
366.1270735694
 30
0.0
 10
97.6493864802
 20
367.3929145217
 30
0.0
 10
96.7833069266
 20
368.5089670747
 30
0.0
 10
95.8008688243
 20
369.3870582336
 30
0.0
 10
94.7746572238
 20
369.9572566141
 30
0.0
 10
93.7688383287
 20
370.171583154
 30
0.0
 10
93.1393275661
 20
370.0233444082
 30
0.0
 10
92.8869902692
 20
369.8848680666
 30
0.0
  0
SPLINE
  5
3E5
100
AcDbEntity
  8
0
100
AcDbSpline
 62
7
  6
CONTINUOUS
 70
0
 71
3
 72
11
 73
7
 74
0
 42
0.0000001
 43
0.0000001
 44
0.0000000001
 40
0.0
 40
0.0
 40
0.0
 40
0.0
 40
0.2894836687
 40
0.5490925387
 40
0.7822836059
 40
1.0
 40
1.0
 40
1.0
 40
1.0
 10
99.5960743994
 20
363.9052213603
 30
0.0
 10
99.5960743994
 20
363.6527093166
 30
0.0
 10
99.5575921973
 20
363.1721623359
 30
0.0
 10
99.3638134479
 20
362.511616084
 30
0.0
 10
99.0369379398
 20
361.9750705329
 30
0.0
 10
98.7296693056
 20
361.7157671414
 30
0.0
 10
98.5655028851
 20
361.6202924588
 30
0.0
  0
SPLINE
  5
3E6
100
AcDbEntity
  8
0
100
AcDbSpline
 62
7
  6
CONTINUOUS
 70
0
 71
3
 72
9
 73
5
 74
0
 42
0.0000001
 43
0.0000001
 44
0.0000000001
 40
0.0
 40
0.0
 40
0.0
 40
0.0
 40
0.2325733059
 40
1.0
 40
1.0
 40
1.0
 40
1.0
 10
143.7507668039
 20
329.7835611154
 30
0.0
 10
143.8722552402
 20
329.8537020782
 30
0.0
 10
144.4115712491
 20
330.1257284574
 30
0.0
 10
145.0013305977
 20
330.2903690127
 30
0.0
 10
145.4577800494
 20
330.3673359592
 30
0.0
  0
SPLINE
  5
3E7
100
AcDbEntity
  8
0
100
AcDbSpline
 62
7
  6
CONTINUOUS
 70
0
 71
3
 72
9
 73
5
 74
0
 42
0.0000001
 43
0.0000001
 44
0.0000000001
 40
0.0
 40
0.0
 40
0.0
 40
0.0
 40
0.2375085674
 40
1.0
 40
1.0
 40
1.0
 40
1.0
 10
142.5870555383
 20
328.2952083691
 30
0.0
 10
142.5951188352
 20
328.3694053189
 30
0.0
 10
142.6550768104
 20
328.6791113451
 30
0.0
 10
142.8181548404
 20
328.9630232657
 30
0.0
 10
142.9710624371
 20
329.1474916855
 30
0.0
  0
SPLINE
  5
3E8
100
AcDbEntity
  8
0
100
AcDbSpline
 62
7
  6
CONTINUOUS
 70
0
 71
3
 72
8
 73
4
 74
0
 42
0.0000001
 43
0.0000001
 44
0.0000000001
 40
0.0
 40
0.0
 40
0.0
 40
0.0
 40
1.0
 40
1.0
 40
1.0
 40
1.0
 10
142.9710624371
 20
329.1474916855
 30
0.0
 10
143.030228412
 20
329.2188697865
 30
0.0
 10
143.0941128213
 20
329.2865138498
 30
0.0
 10
143.1613589883
 20
329.3503370347
 30
0.0
  0
SPLINE
  5
3E9
100
AcDbEntity
  8
0
100
AcDbSpline
 62
7
  6
CONTINUOUS
 70
0
 71
3
 72
9
 73
5
 74
0
 42
0.0000001
 43
0.0000001
 44
0.0000000001
 40
0.0
 40
0.0
 40
0.0
 40
0.0
 40
0.2381039326
 40
1.0
 40
1.0
 40
1.0
 40
1.0
 10
143.1613589883
 20
329.3503370347
 30
0.0
 10
143.2035255552
 20
329.3903572279
 30
0.0
 10
143.3863875495
 20
329.5523336251
 30
0.0
 10
143.5896668716
 20
329.6905505813
 30
0.0
 10
143.7507668039
 20
329.7835611154
 30
0.0
  0
SPLINE
  5
3EA
100
AcDbEntity
  8
0
100
AcDbSpline
 62
7
  6
CONTINUOUS
 70
0
 71
3
 72
15
 73
11
 74
0
 42
0.0000001
 43
0.0000001
 44
0.0000000001
 40
0.0
 40
0.0
 40
0.0
 40
0.0
 40
0.1288285297
 40
0.2705731043
 40
0.4178848725
 40
0.5623830488
 40
0.6962002801
 40
0.8135916328
 40
0.9130641676
 40
1.0
 40
1.0
 40
1.0
 40
1.0
 10
100.3050105182
 20
363.4959261608
 30
0.0
 10
100.3050105182
 20
364.0087755479
 30
0.0
 10
100.1615276339
 20
365.0871229756
 30
0.0
 10
99.6260702062
 20
366.6704134146
 30
0.0
 10
98.8008002704
 20
368.1956985407
 30
0.0
 10
97.7526341603
 20
369.5375175206
 30
0.0
 10
96.5653537411
 20
370.5888774859
 30
0.0
 10
95.3271235861
 20
371.2652427514
 30
0.0
 10
94.1151604568
 20
371.5079510187
 30
0.0
 10
93.362075716
 20
371.3145793538
 30
0.0
 10
93.0624298863
 20
371.1414210412
 30
0.0
  0
SPLINE
  5
3EB
100
AcDbEntity
  8
0
100
AcDbSpline
 62
7
  6
CONTINUOUS
 70
0
 71
3
 72
9
 73
5
 74
0
 42
0.0000001
 43
0.0000001
 44
0.0000000001
 40
0.0
 40
0.0
 40
0.0
 40
0.0
 40
0.4999975353
 40
1.0
 40
1.0
 40
1.0
 40
1.0
 10
132.9772359334
 20
330.5036481618
 30
0.0
 10
133.0821765613
 20
330.5642353
 30
0.0
 10
133.330785828
 20
330.6122133409
 30
0.0
 10
133.5793959829
 20
330.5642373165
 30
0.0
 10
133.6843378074
 20
330.5036498615
 30
0.0
  0
SPLINE
  5
3EC
100
AcDbEntity
  8
0
100
AcDbSpline
 62
7
  6
CONTINUOUS
 70
0
 71
3
 72
9
 73
5
 74
0
 42
0.0000001
 43
0.0000001
 44
0.0000000001
 40
0.0
 40
0.0
 40
0.0
 40
0.0
 40
0.2461761779
 40
1.0
 40
1.0
 40
1.0
 40
1.0
 10
177.7583666263
 20
320.7916894368
 30
0.0
 10
177.8084603954
 20
320.8206160075
 30
0.0
 10
178.0180394589
 20
320.9274592429
 30
0.0
 10
178.2502544732
 20
320.9880230957
 30
0.0
 10
178.4262281147
 20
321.0082415295
 30
0.0
  0
SPLINE
  5
3ED
100
AcDbEntity
  8
0
100
AcDbSpline
 62
7
  6
CONTINUOUS
 70
0
 71
3
 72
13
 73
9
 74
0
 42
0.0000001
 43
0.0000001
 44
0.0000000001
 40
0.0
 40
0.0
 40
0.0
 40
0.0
 40
0.1985103854
 40
0.3218128926
 40
0.4571201564
 40
0.7402158451
 40
0.8760455484
 40
1.0
 40
1.0
 40
1.0
 40
1.0
 10
178.4262281147
 20
321.0082415295
 30
0.0
 10
179.019737793
 20
321.076432629
 30
0.0
 10
180.0160000076
 20
320.743095035
 30
0.0
 10
181.118388035
 20
319.9288479143
 30
0.0
 10
182.2476302501
 20
318.7394748066
 30
0.0
 10
183.1004726979
 20
317.270791757
 30
0.0
 10
183.5801442304
 20
315.703778942
 30
0.0
 10
183.6733741109
 20
314.9208299924
 30
0.0
 10
183.6733741109
 20
314.5477908017
 30
0.0
  0
SPLINE
  5
3EE
100
AcDbEntity
  8
0
100
AcDbSpline
 62
7
  6
CONTINUOUS
 70
0
 71
3
 72
11
 73
7
 74
0
 42
0.0000001
 43
0.0000001
 44
0.0000000001
 40
0.0
 40
0.0
 40
0.0
 40
0.0
 40
0.2177499957
 40
0.4508919044
 40
0.7104630441
 40
1.0
 40
1.0
 40
1.0
 40
1.0
 10
95.3301856721
 20
89.5944310637
 30
0.0
 10
95.4918042871
 20
89.6877295307
 30
0.0
 10
95.7944996312
 20
89.9416025021
 30
0.0
 10
96.1164681714
 20
90.4682926857
 30
0.0
 10
96.3073500701
 20
91.1171290041
 30
0.0
 10
96.345224099
 20
91.5892908754
 30
0.0
 10
96.345224099
 20
91.837428453
 30
0.0
  0
SPLINE
  5
3EF
100
AcDbEntity
  8
0
100
AcDbSpline
 62
7
  6
CONTINUOUS
 70
0
 71
3
 72
11
 73
7
 74
0
 42
0.0000001
 43
0.0000001
 44
0.0000000001
 40
0.0
 40
0.0
 40
0.0
 40
0.0
 40
0.2896414072
 40
0.549110782
 40
0.7822356091
 40
1.0
 40
1.0
 40
1.0
 40
1.0
 10
185.8652840385
 20
314.9152813111
 30
0.0
 10
185.8652840385
 20
314.6113380622
 30
0.0
 10
185.8190845584
 20
314.033166066
 30
0.0
 10
185.5850763736
 20
313.2387763298
 30
0.0
 10
185.1908904562
 20
312.5940160992
 30
0.0
 10
184.8204147514
 20
312.2829965157
 30
0.0
 10
184.6225587542
 20
312.1686589776
 30
0.0
  0
SPLINE
  5
3F0
100
AcDbEntity
  8
0
100
AcDbSpline
 62
7
  6
CONTINUOUS
 70
0
 71
3
 72
11
 73
7
 74
0
 42
0.0000001
 43
0.0000001
 44
0.0000000001
 40
0.0
 40
0.0
 40
0.0
 40
0.0
 40
0.2896414072
 40
0.549110782
 40
0.7822356091
 40
1.0
 40
1.0
 40
1.0
 40
1.0
 10
185.8652840385
 20
44.6448162171
 30
0.0
 10
185.8652840385
 20
44.3408729682
 30
0.0
 10
185.8190845584
 20
43.7627009719
 30
0.0
 10
185.5850763736
 20
42.9683112358
 30
0.0
 10
185.1908904562
 20
42.3235510051
 30
0.0
 10
184.8204147514
 20
42.0125314216
 30
0.0
 10
184.6225587542
 20
41.8981938836
 30
0.0
  0
SPLINE
  5
3F1
100
AcDbEntity
  8
0
100
AcDbSpline
 62
7
  6
CONTINUOUS
 70
0
 71
3
 72
9
 73
5
 74
0
 42
0.0000001
 43
0.0000001
 44
0.0000000001
 40
0.0
 40
0.0
 40
0.0
 40
0.0
 40
0.5009349845
 40
1.0
 40
1.0
 40
1.0
 40
1.0
 10
115.0126603564
 20
369.284455095
 30
0.0
 10
114.8421028316
 20
369.3800662474
 30
0.0
 10
114.4413551052
 20
369.4562787033
 30
0.0
 10
114.0430701357
 20
369.3750073791
 30
0.0
 10
113.8731499719
 20
369.2797519314
 30
0.0
  0
SPLINE
  5
3F2
100
AcDbEntity
  8
0
100
AcDbSpline
 62
7
  6
CONTINUOUS
 70
0
 71
3
 72
9
 73
5
 74
0
 42
0.0000001
 43
0.0000001
 44
0.0000000001
 40
0.0
 40
0.0
 40
0.0
 40
0.0
 40
0.2330718286
 40
1.0
 40
1.0
 40
1.0
 40
1.0
 10
186.6303594091
 20
324.636421449
 30
0.0
 10
186.8139451102
 20
324.5234199008
 30
0.0
 10
187.5729776756
 20
323.992360301
 30
0.0
 10
188.2180564883
 20
323.3080586783
 30
0.0
 10
188.6443231879
 20
322.7410616474
 30
0.0
  0
SPLINE
  5
3F3
100
AcDbEntity
  8
0
100
AcDbSpline
 62
7
  6
CONTINUOUS
 70
0
 71
3
 72
11
 73
7
 74
0
 42
0.0000001
 43
0.0000001
 44
0.0000000001
 40
0.0
 40
0.0
 40
0.0
 40
0.0
 40
0.2177180461
 40
0.4509171606
 40
0.7105300503
 40
1.0
 40
1.0
 40
1.0
 40
1.0
 10
182.7128565492
 20
312.2209373194
 30
0.0
 10
182.877114084
 20
312.3164524259
 30
0.0
 10
183.1845435436
 20
312.5759030738
 30
0.0
 10
183.5115951717
 20
313.1127321622
 30
0.0
 10
183.7054612799
 20
313.7736210648
 30
0.0
 10
183.7439663758
 20
314.2544053591
 30
0.0
 10
183.7439663758
 20
314.5070352606
 30
0.0
  0
SPLINE
  5
3F4
100
AcDbEntity
  8
0
100
AcDbSpline
 62
7
  6
CONTINUOUS
 70
0
 71
3
 72
9
 73
5
 74
0
 42
0.0000001
 43
0.0000001
 44
0.0000000001
 40
0.0
 40
0.0
 40
0.0
 40
0.0
 40
0.2698812227
 40
1.0
 40
1.0
 40
1.0
 40
1.0
 10
105.5729310681
 20
366.9047632283
 30
0.0
 10
105.5729310681
 20
366.7685041213
 30
0.0
 10
105.5531302525
 20
366.2644355694
 30
0.0
 10
105.4490085452
 20
365.759071473
 30
0.0
 10
105.3071214329
 20
365.4188459004
 30
0.0
  0
SPLINE
  5
3F5
100
AcDbEntity
  8
0
100
AcDbSpline
 62
7
  6
CONTINUOUS
 70
0
 71
3
 72
9
 73
5
 74
0
 42
0.0000001
 43
0.0000001
 44
0.0000000001
 40
0.0
 40
0.0
 40
0.0
 40
0.0
 40
0.2401384468
 40
1.0
 40
1.0
 40
1.0
 40
1.0
 10
101.7771923914
 20
373.6253119914
 30
0.0
 10
101.8590421615
 20
373.5749314298
 30
0.0
 10
102.1943302822
 20
373.3561582806
 30
0.0
 10
102.5076469378
 20
373.1043670645
 30
0.0
 10
102.7326738402
 20
372.8997824508
 30
0.0
  0
SPLINE
  5
3F6
100
AcDbEntity
  8
0
100
AcDbSpline
 62
7
  6
CONTINUOUS
 70
0
 71
3
 72
9
 73
5
 74
0
 42
0.0000001
 43
0.0000001
 44
0.0000000001
 40
0.0
 40
0.0
 40
0.0
 40
0.0
 40
0.2411255444
 40
1.0
 40
1.0
 40
1.0
 40
1.0
 10
102.7326738402
 20
372.8997824508
 30
0.0
 10
102.9390380659
 20
372.7121651263
 30
0.0
 10
103.7507087667
 20
371.886354234
 30
0.0
 10
104.3953528792
 20
370.9003648876
 30
0.0
 10
104.7731700131
 20
370.1080725352
 30
0.0
  0
SPLINE
  5
3F7
100
AcDbEntity
  8
0
100
AcDbSpline
 62
7
  6
CONTINUOUS
 70
0
 71
3
 72
9
 73
5
 74
0
 42
0.0000001
 43
0.0000001
 44
0.0000000001
 40
0.0
 40
0.0
 40
0.0
 40
0.0
 40
0.5239769698
 40
1.0
 40
1.0
 40
1.0
 40
1.0
 10
104.7731700131
 20
370.1080725352
 30
0.0
 10
105.0191203418
 20
369.5923083015
 30
0.0
 10
105.4017731423
 20
368.5638578603
 30
0.0
 10
105.5677144655
 20
367.4739181305
 30
0.0
 10
105.5726903366
 20
366.9548309879
 30
0.0
  0
SPLINE
  5
3F8
100
AcDbEntity
  8
0
100
AcDbSpline
 62
7
  6
CONTINUOUS
 70
0
 71
3
 72
11
 73
7
 74
0
 42
0.0000001
 43
0.0000001
 44
0.0000000001
 40
0.0
 40
0.0
 40
0.0
 40
0.0
 40
0.2177180461
 40
0.4509171606
 40
0.7105300503
 40
1.0
 40
1.0
 40
1.0
 40
1.0
 10
97.8596895316
 20
361.2098278618
 30
0.0
 10
98.0239470664
 20
361.3053429683
 30
0.0
 10
98.331376526
 20
361.5647936163
 30
0.0
 10
98.6584281541
 20
362.1016227047
 30
0.0
 10
98.8522942623
 20
362.7625116072
 30
0.0
 10
98.8907993581
 20
363.2432959015
 30
0.0
 10
98.8907993581
 20
363.4959258031
 30
0.0
  0
SPLINE
  5
3F9
100
AcDbEntity
  8
0
100
AcDbSpline
 62
7
  6
CONTINUOUS
 70
0
 71
3
 72
15
 73
11
 74
0
 42
0.0000001
 43
0.0000001
 44
0.0000000001
 40
0.0
 40
0.0
 40
0.0
 40
0.0
 40
0.0869472959
 40
0.186470978
 40
0.3039061374
 40
0.4377289809
 40
0.5822072921
 40
0.7294751244
 40
0.8712123341
 40
1.0
 40
1.0
 40
1.0
 40
1.0
 10
178.4214896226
 20
321.286823232
 30
0.0
 10
178.6714723618
 20
321.4301096374
 30
0.0
 10
179.2988738486
 20
321.5894428443
 30
0.0
 10
180.3076894835
 20
321.3854860657
 30
0.0
 10
181.3381334198
 20
320.8212820396
 30
0.0
 10
182.32602831
 20
319.9454045808
 30
0.0
 10
183.197917823
 20
318.8281457575
 30
0.0
 10
183.8845713266
 20
317.558492062
 30
0.0
 10
184.329831951
 20
316.240628072
 30
0.0
 10
184.449241417
 20
315.3431222967
 30
0.0
 10
184.449241417
 20
314.9163308178
 30
0.0
  0
SPLINE
  5
3FA
100
AcDbEntity
  8
0
100
AcDbSpline
 62
7
  6
CONTINUOUS
 70
0
 71
3
 72
9
 73
5
 74
0
 42
0.0000001
 43
0.0000001
 44
0.0000000001
 40
0.0
 40
0.0
 40
0.0
 40
0.0
 40
0.4586735467
 40
1.0
 40
1.0
 40
1.0
 40
1.0
 10
99.4731375696
 20
374.1980560447
 30
0.0
 10
99.8134069714
 20
374.2633731331
 30
0.0
 10
100.5928500095
 20
374.2145397537
 30
0.0
 10
101.2943377271
 20
373.9065419232
 30
0.0
 10
101.6484728332
 20
373.7020865498
 30
0.0
  0
SPLINE
  5
3FB
100
AcDbEntity
  8
0
100
AcDbSpline
 62
7
  6
CONTINUOUS
 70
0
 71
3
 72
11
 73
7
 74
0
 42
0.0000001
 43
0.0000001
 44
0.0000000001
 40
0.0
 40
0.0
 40
0.0
 40
0.0
 40
0.2177660095
 40
0.4508968553
 40
0.7103699668
 40
1.0
 40
1.0
 40
1.0
 40
1.0
 10
183.9154427093
 20
311.7604290743
 30
0.0
 10
184.1133004183
 20
311.874766414
 30
0.0
 10
184.4837993913
 20
312.1857710547
 30
0.0
 10
184.8779737251
 20
312.8305562173
 30
0.0
 10
185.1119779742
 20
313.624941137
 30
0.0
 10
185.1581775358
 20
314.2031047248
 30
0.0
 10
185.1581775358
 20
314.5070356183
 30
0.0
  0
SPLINE
  5
3FC
100
AcDbEntity
  8
0
100
AcDbSpline
 62
7
  6
CONTINUOUS
 70
0
 71
3
 72
9
 73
5
 74
0
 42
0.0000001
 43
0.0000001
 44
0.0000000001
 40
0.0
 40
0.0
 40
0.0
 40
0.0
 40
0.5180432859
 40
1.0
 40
1.0
 40
1.0
 40
1.0
 10
106.5560914777
 20
95.5868806848
 30
0.0
 10
106.6343244591
 20
95.7738673999
 30
0.0
 10
106.8300415579
 20
96.119131882
 30
0.0
 10
107.123383874
 20
96.3900822343
 30
0.0
 10
107.2819583907
 20
96.4921316403
 30
0.0
  0
SPLINE
  5
3FD
100
AcDbEntity
  8
0
100
AcDbSpline
 62
7
  6
CONTINUOUS
 70
0
 71
3
 72
15
 73
11
 74
0
 42
0.0000001
 43
0.0000001
 44
0.0000000001
 40
0.0
 40
0.0
 40
0.0
 40
0.0
 40
0.0869302643
 40
0.1864000227
 40
0.303788016
 40
0.4376004181
 40
0.5820992582
 40
0.7294176223
 40
0.8711704027
 40
1.0
 40
1.0
 40
1.0
 40
1.0
 10
178.6226947886
 20
322.5607925146
 30
0.0
 10
178.9223210431
 20
322.7339413136
 30
0.0
 10
179.6753678031
 20
322.927312919
 30
0.0
 10
180.8872923455
 20
322.6846457697
 30
0.0
 10
182.1254995446
 20
322.008325605
 30
0.0
 10
183.3127831273
 20
320.9570116749
 30
0.0
 10
184.3609774066
 20
319.6151991428
 30
0.0
 10
185.1863059677
 20
318.0898721583
 30
0.0
 10
185.7217914905
 20
316.5065207357
 30
0.0
 10
185.8652840385
 20
315.4281356255
 30
0.0
 10
185.8652840385
 20
314.9152813111
 30
0.0
  0
SPLINE
  5
3FE
100
AcDbEntity
  8
0
100
AcDbSpline
 62
7
  6
CONTINUOUS
 70
0
 71
3
 72
9
 73
5
 74
0
 42
0.0000001
 43
0.0000001
 44
0.0000000001
 40
0.0
 40
0.0
 40
0.0
 40
0.0
 40
0.4491635512
 40
1.0
 40
1.0
 40
1.0
 40
1.0
 10
87.1156323242
 20
379.4093418644
 30
0.0
 10
87.115632379
 20
379.2302218558
 30
0.0
 10
87.2720406826
 20
378.8304051469
 30
0.0
 10
87.5989277347
 20
378.5802102343
 30
0.0
 10
87.7891648069
 20
378.4703790929
 30
0.0
  0
SPLINE
  5
3FF
100
AcDbEntity
  8
0
100
AcDbSpline
 62
7
  6
CONTINUOUS
 70
0
 71
3
 72
10
 73
6
 74
0
 42
0.0000001
 43
0.0000001
 44
0.0000000001
 40
0.0
 40
0.0
 40
0.0
 40
0.0
 40
0.2071082047
 40
0.4446057896
 40
1.0
 40
1.0
 40
1.0
 40
1.0
 10
117.1022168904
 20
256.4469881576
 30
0.0
 10
117.9901892629
 20
256.4376263152
 30
0.0
 10
119.8975781676
 20
256.5088220476
 30
0.0
 10
124.1643248518
 20
256.9497030123
 30
0.0
 10
127.5134020693
 20
257.5689278193
 30
0.0
 10
129.8402433882
 20
258.0756351073
 30
0.0
  0
SPLINE
  5
400
100
AcDbEntity
  8
0
100
AcDbSpline
 62
7
  6
CONTINUOUS
 70
0
 71
3
 72
9
 73
5
 74
0
 42
0.0000001
 43
0.0000001
 44
0.0000000001
 40
0.0
 40
0.0
 40
0.0
 40
0.0
 40
0.5000004006
 40
1.0
 40
1.0
 40
1.0
 40
1.0
 10
115.0126630074
 20
134.5400111703
 30
0.0
 10
114.8447593356
 20
134.6369486324
 30
0.0
 10
114.4469787131
 20
134.7136112806
 30
0.0
 10
114.0491981226
 20
134.6369473654
 30
0.0
 10
113.8812952348
 20
134.5400091666
 30
0.0
  0
SPLINE
  5
401
100
AcDbEntity
  8
0
100
AcDbSpline
 62
7
  6
CONTINUOUS
 70
0
 71
3
 72
15
 73
11
 74
0
 42
0.0000001
 43
0.0000001
 44
0.0000000001
 40
0.0
 40
0.0
 40
0.0
 40
0.0
 40
0.0869274369
 40
0.186392416
 40
0.3037799002
 40
0.4375872801
 40
0.5820828588
 40
0.7293903543
 40
0.8711738768
 40
1.0
 40
1.0
 40
1.0
 40
1.0
 10
197.1609293306
 20
336.5569252212
 30
0.0
 10
196.9861132634
 20
336.4559914299
 30
0.0
 10
196.5469191292
 20
336.3430593647
 30
0.0
 10
195.8399475314
 20
336.4846789961
 30
0.0
 10
195.117683204
 20
336.8791543863
 30
0.0
 10
194.4250773866
 20
337.4923879123
 30
0.0
 10
193.8136858354
 20
338.2750979626
 30
0.0
 10
193.3321175835
 20
339.1648575218
 30
0.0
 10
193.0198110374
 20
340.0885483398
 30
0.0
 10
192.936044566
 20
340.7176627515
 30
0.0
 10
192.936044566
 20
341.0168215251
 30
0.0
  0
SPLINE
  5
402
100
AcDbEntity
  8
0
100
AcDbSpline
 62
7
  6
CONTINUOUS
 70
0
 71
3
 72
15
 73
11
 74
0
 42
0.0000001
 43
0.0000001
 44
0.0000000001
 40
0.0
 40
0.0
 40
0.0
 40
0.0
 40
0.0869175716
 40
0.1863098947
 40
0.3035638125
 40
0.4372277998
 40
0.5816317521
 40
0.7289479436
 40
0.8708720833
 40
1.0
 40
1.0
 40
1.0
 40
1.0
 10
137.0560489202
 20
371.272430122
 30
0.0
 10
136.8815272717
 20
371.1716849877
 30
0.0
 10
136.4434305605
 20
371.0586397246
 30
0.0
 10
135.7379059169
 20
371.1987854368
 30
0.0
 10
135.0168349456
 20
371.5909455035
 30
0.0
 10
134.324850509
 20
372.201309921
 30
0.0
 10
133.713173796
 20
372.9810709023
 30
0.0
 10
133.2302131347
 20
373.8683334668
 30
0.0
 10
132.9153101245
 20
374.7905475821
 30
0.0
 10
132.828941687
 20
375.419224201
 30
0.0
 10
132.8273336967
 20
375.7185945767
 30
0.0
  0
SPLINE
  5
403
100
AcDbEntity
  8
0
100
AcDbSpline
 62
7
  6
CONTINUOUS
 70
0
 71
3
 72
11
 73
7
 74
0
 42
0.0000001
 43
0.0000001
 44
0.0000000001
 40
0.0
 40
0.0
 40
0.0
 40
0.0
 40
0.2177187583
 40
0.4508507356
 40
0.7103870592
 40
1.0
 40
1.0
 40
1.0
 40
1.0
 10
174.2629865846
 20
319.1277809101
 30
0.0
 10
174.0980849497
 20
319.0326308688
 30
0.0
 10
173.7192749741
 20
318.8949451913
 30
0.0
 10
173.0897263771
 20
318.8790703374
 30
0.0
 10
172.4189081401
 20
319.0412150274
 30
0.0
 10
171.9823612872
 20
319.2487285495
 30
0.0
 10
171.7630380048
 20
319.37535319
 30
0.0
  0
SPLINE
  5
404
100
AcDbEntity
  8
0
100
AcDbSpline
 62
7
  6
CONTINUOUS
 70
0
 71
3
 72
15
 73
11
 74
0
 42
0.0000001
 43
0.0000001
 44
0.0000000001
 40
0.0
 40
0.0
 40
0.0
 40
0.0
 40
0.0869472959
 40
0.186470978
 40
0.3039061374
 40
0.4377289809
 40
0.5822072921
 40
0.7294751244
 40
0.8712123341
 40
1.0
 40
1.0
 40
1.0
 40
1.0
 10
93.568322605
 20
370.2757137745
 30
0.0
 10
93.8183053442
 20
370.4190001799
 30
0.0
 10
94.445706831
 20
370.5783333868
 30
0.0
 10
95.4545224659
 20
370.3743766082
 30
0.0
 10
96.4849664022
 20
369.8101725821
 30
0.0
 10
97.4728612924
 20
368.9342951232
 30
0.0
 10
98.3447508053
 20
367.8170362999
 30
0.0
 10
99.0314043089
 20
366.5473826044
 30
0.0
 10
99.4766649334
 20
365.2295186144
 30
0.0
 10
99.5960743994
 20
364.3320128391
 30
0.0
 10
99.5960743994
 20
363.9052213603
 30
0.0
  0
SPLINE
  5
405
100
AcDbEntity
  8
0
100
AcDbSpline
 62
7
  6
CONTINUOUS
 70
0
 71
3
 72
8
 73
4
 74
0
 42
0.0000001
 43
0.0000001
 44
0.0000000001
 40
0.0
 40
0.0
 40
0.0
 40
0.0
 40
1.0
 40
1.0
 40
1.0
 40
1.0
 10
152.2366280071
 20
230.6359917282
 30
0.0
 10
152.0728003333
 20
230.4125608945
 30
0.0
 10
151.9088530028
 20
230.1892177495
 30
0.0
 10
151.7447877669
 20
229.9659612994
 30
0.0
  0
SPLINE
  5
406
100
AcDbEntity
  8
0
100
AcDbSpline
 62
7
  6
CONTINUOUS
 70
0
 71
3
 72
11
 73
7
 74
0
 42
0.0000001
 43
0.0000001
 44
0.0000000001
 40
0.0
 40
0.0
 40
0.0
 40
0.0
 40
0.2598626755
 40
0.5282200875
 40
0.7796541656
 40
1.0
 40
1.0
 40
1.0
 40
1.0
 10
151.7451316775
 20
229.9661886006
 30
0.0
 10
153.5122294842
 20
227.888815598
 30
0.0
 10
157.0944331764
 20
223.657857381
 30
0.0
 10
162.5575193361
 20
217.5627869134
 30
0.0
 10
168.0362511282
 20
212.0506559841
 30
0.0
 10
171.794397479
 20
208.812070776
 30
0.0
 10
173.6371804184
 20
207.4149064639
 30
0.0
  0
SPLINE
  5
407
100
AcDbEntity
  8
0
100
AcDbSpline
 62
7
  6
CONTINUOUS
 70
0
 71
3
 72
11
 73
7
 74
0
 42
0.0000001
 43
0.0000001
 44
0.0000000001
 40
0.0
 40
0.0
 40
0.0
 40
0.0
 40
0.3208940549
 40
0.5943947485
 40
0.8195913437
 40
1.0
 40
1.0
 40
1.0
 40
1.0
 10
181.4864847317
 20
177.6636609402
 30
0.0
 10
180.8846612826
 20
176.6596546097
 30
0.0
 10
179.8348511714
 20
174.7592397962
 30
0.0
 10
178.6571135715
 20
172.0028826129
 30
0.0
 10
178.0105135132
 20
169.6026957847
 30
0.0
 10
177.9395292588
 20
168.1007595409
 30
0.0
 10
178.0326834556
 20
167.4492874473
 30
0.0
  0
SPLINE
  5
408
100
AcDbEntity
  8
0
100
AcDbSpline
 62
7
  6
CONTINUOUS
 70
0
 71
3
 72
9
 73
5
 74
0
 42
0.0000001
 43
0.0000001
 44
0.0000000001
 40
0.0
 40
0.0
 40
0.0
 40
0.0
 40
0.4491629451
 40
1.0
 40
1.0
 40
1.0
 40
1.0
 10
183.9896672762
 20
245.2920908779
 30
0.0
 10
183.9896673081
 20
245.1129679064
 30
0.0
 10
184.1460826022
 20
244.7131447381
 30
0.0
 10
184.4729770775
 20
244.4629485619
 30
0.0
 10
184.6632179992
 20
244.3531157445
 30
0.0
  0
SPLINE
  5
409
100
AcDbEntity
  8
0
100
AcDbSpline
 62
7
  6
CONTINUOUS
 70
0
 71
3
 72
11
 73
7
 74
0
 42
0.0000001
 43
0.0000001
 44
0.0000000001
 40
0.0
 40
0.0
 40
0.0
 40
0.0
 40
0.2177672429
 40
0.4509490507
 40
0.7101922996
 40
1.0
 40
1.0
 40
1.0
 40
1.0
 10
159.8021464978
 20
178.5405713404
 30
0.0
 10
160.923685999
 20
179.1879495979
 30
0.0
 10
163.0227065174
 20
180.9518306436
 30
0.0
 10
165.2553863476
 20
184.6045802737
 30
0.0
 10
166.5837823263
 20
189.1055820186
 30
0.0
 10
166.8440003176
 20
192.3818458983
 30
0.0
 10
166.8440003176
 20
194.1052112421
 30
0.0
  0
SPLINE
  5
40A
100
AcDbEntity
  8
0
100
AcDbSpline
 62
7
  6
CONTINUOUS
 70
0
 71
3
 72
12
 73
8
 74
0
 42
0.0000001
 43
0.0000001
 44
0.0000000001
 40
0.0
 40
0.0
 40
0.0
 40
0.0
 40
0.3501907292
 40
0.6406050924
 40
0.8587763154
 40
0.9389641855
 40
1.0
 40
1.0
 40
1.0
 40
1.0
 10
167.6974652517
 20
193.8164945912
 30
0.0
 10
167.5478331348
 20
192.425709069
 30
0.0
 10
167.2135850502
 20
189.8872660691
 30
0.0
 10
166.5870766841
 20
186.513478233
 30
0.0
 10
166.0211425064
 20
184.2278629506
 30
0.0
 10
165.5749740018
 20
182.8629171451
 30
0.0
 10
165.3662697295
 20
182.3379774006
 30
0.0
 10
165.2632800045
 20
182.1169952668
 30
0.0
  0
SPLINE
  5
40B
100
AcDbEntity
  8
0
100
AcDbSpline
 62
7
  6
CONTINUOUS
 70
0
 71
3
 72
10
 73
6
 74
0
 42
0.0000001
 43
0.0000001
 44
0.0000000001
 40
0.0
 40
0.0
 40
0.0
 40
0.0
 40
0.631039931
 40
0.8452897847
 40
1.0
 40
1.0
 40
1.0
 40
1.0
 10
165.2632800045
 20
182.1169952668
 30
0.0
 10
165.1878055621
 20
181.9550518949
 30
0.0
 10
165.0788146892
 20
181.7398172551
 30
0.0
 10
164.9077438068
 20
181.5138675906
 30
0.0
 10
164.8289385549
 20
181.4426711412
 30
0.0
 10
164.7910053932
 20
181.4207665663
 30
0.0
  0
SPLINE
  5
40C
100
AcDbEntity
  8
0
100
AcDbSpline
 62
7
  6
CONTINUOUS
 70
0
 71
3
 72
11
 73
7
 74
0
 42
0.0000001
 43
0.0000001
 44
0.0000000001
 40
0.0
 40
0.0
 40
0.0
 40
0.0
 40
0.2177660095
 40
0.4508968553
 40
0.7103699668
 40
1.0
 40
1.0
 40
1.0
 40
1.0
 10
99.0622756916
 20
360.7493196168
 30
0.0
 10
99.2601334007
 20
360.8636569565
 30
0.0
 10
99.6306323737
 20
361.1746615971
 30
0.0
 10
100.0248067074
 20
361.8194467597
 30
0.0
 10
100.2588109566
 20
362.6138316794
 30
0.0
 10
100.3050105182
 20
363.1919952673
 30
0.0
 10
100.3050105182
 20
363.4959261608
 30
0.0
  0
SPLINE
  5
40D
100
AcDbEntity
  8
0
100
AcDbSpline
 62
7
  6
CONTINUOUS
 70
0
 71
3
 72
18
 73
14
 74
0
 42
0.0000001
 43
0.0000001
 44
0.0000000001
 40
0.0
 40
0.0
 40
0.0
 40
0.0
 40
0.1286505169
 40
0.2702019267
 40
0.4173173453
 40
0.56162667
 40
0.6952629988
 40
0.7562692536
 40
0.8127607208
 40
0.8647114767
 40
0.9125329873
 40
0.9571510538
 40
1.0
 40
1.0
 40
1.0
 40
1.0
 10
166.8440003176
 20
194.1052112421
 30
0.0
 10
166.8440003176
 20
197.011284404
 30
0.0
 10
166.0308569881
 20
203.1218435973
 30
0.0
 10
162.9970340628
 20
212.0937227942
 30
0.0
 10
158.3196489682
 20
220.7378354291
 30
0.0
 10
152.382326906
 20
228.3393110008
 30
0.0
 10
146.6048335206
 20
233.4563539938
 30
0.0
 10
141.7549177453
 20
236.4248081577
 30
0.0
 10
138.2416240399
 20
237.97726964
 30
0.0
 10
134.8138446091
 20
238.8880440535
 30
0.0
 10
131.5385074432
 20
239.1291906887
 30
0.0
 10
128.4883282057
 20
238.6822860597
 30
0.0
 10
126.6406740556
 20
237.9140975534
 30
0.0
 10
125.8023928274
 20
237.4302224512
 30
0.0
  0
SPLINE
  5
40E
100
AcDbEntity
  8
0
100
AcDbSpline
 62
7
  6
CONTINUOUS
 70
0
 71
3
 72
15
 73
11
 74
0
 42
0.0000001
 43
0.0000001
 44
0.0000000001
 40
0.0
 40
0.0
 40
0.0
 40
0.0
 40
0.0869302794
 40
0.1864000509
 40
0.3037880511
 40
0.4376004534
 40
0.5820992879
 40
0.7294176426
 40
0.8711704121
 40
1.0
 40
1.0
 40
1.0
 40
1.0
 10
93.7695271175
 20
371.5496826798
 30
0.0
 10
94.0691534423
 20
371.7228315193
 30
0.0
 10
94.8222003321
 20
371.9162032116
 30
0.0
 10
96.0341251219
 20
371.6735362381
 30
0.0
 10
97.272332602
 20
370.9972162362
 30
0.0
 10
98.4596164558
 20
369.9459024544
 30
0.0
 10
99.5078109736
 20
368.6040900485
 30
0.0
 10
100.3331397223
 20
367.0787631592
 30
0.0
 10
100.8686253672
 20
365.4954117916
 30
0.0
 10
101.0121179451
 20
364.4170266955
 30
0.0
 10
101.0121179451
 20
363.9041723872
 30
0.0
  0
SPLINE
  5
40F
100
AcDbEntity
  8
0
100
AcDbSpline
 62
7
  6
CONTINUOUS
 70
0
 71
3
 72
9
 73
5
 74
0
 42
0.0000001
 43
0.0000001
 44
0.0000000001
 40
0.0
 40
0.0
 40
0.0
 40
0.0
 40
0.4990650155
 40
1.0
 40
1.0
 40
1.0
 40
1.0
 10
113.8731499719
 20
394.1830756539
 30
0.0
 10
114.0430701357
 20
394.2783311015
 30
0.0
 10
114.4413551052
 20
394.3596024258
 30
0.0
 10
114.8421028316
 20
394.2833899699
 30
0.0
 10
115.0126603564
 20
394.1877788174
 30
0.0
  0
SPLINE
  5
410
100
AcDbEntity
  8
0
100
AcDbSpline
 62
7
  6
CONTINUOUS
 70
0
 71
3
 72
9
 73
5
 74
0
 42
0.0000001
 43
0.0000001
 44
0.0000000001
 40
0.0
 40
0.0
 40
0.0
 40
0.0
 40
0.2461761779
 40
1.0
 40
1.0
 40
1.0
 40
1.0
 10
92.9051996087
 20
99.5101148852
 30
0.0
 10
92.9552933778
 20
99.5390414558
 30
0.0
 10
93.1648724412
 20
99.6458846913
 30
0.0
 10
93.3970874555
 20
99.7064485441
 30
0.0
 10
93.5730610971
 20
99.7266669778
 30
0.0
  0
SPLINE
  5
411
100
AcDbEntity
  8
0
100
AcDbSpline
 62
7
  6
CONTINUOUS
 70
0
 71
3
 72
13
 73
9
 74
0
 42
0.0000001
 43
0.0000001
 44
0.0000000001
 40
0.0
 40
0.0
 40
0.0
 40
0.0
 40
0.1985103854
 40
0.3218128926
 40
0.4571201564
 40
0.7402158451
 40
0.8760455484
 40
1.0
 40
1.0
 40
1.0
 40
1.0
 10
93.5730610971
 20
99.7266669778
 30
0.0
 10
94.1665707753
 20
99.7948580774
 30
0.0
 10
95.1628329899
 20
99.4615204834
 30
0.0
 10
96.2652210174
 20
98.6472733626
 30
0.0
 10
97.3944632324
 20
97.457900255
 30
0.0
 10
98.2473056803
 20
95.9892172054
 30
0.0
 10
98.7269772127
 20
94.4222043904
 30
0.0
 10
98.8202070933
 20
93.6392554408
 30
0.0
 10
98.8202070933
 20
93.2662162501
 30
0.0
  0
SPLINE
  5
412
100
AcDbEntity
  8
0
100
AcDbSpline
 62
7
  6
CONTINUOUS
 70
0
 71
3
 72
13
 73
9
 74
0
 42
0.0000001
 43
0.0000001
 44
0.0000000001
 40
0.0
 40
0.0
 40
0.0
 40
0.0
 40
0.0936805069
 40
0.1987855184
 40
0.3147872987
 40
0.4402690637
 40
0.7121320531
 40
1.0
 40
1.0
 40
1.0
 40
1.0
 10
127.2005376356
 20
238.2069167545
 30
0.0
 10
127.8766462867
 20
238.54017504
 30
0.0
 10
129.3731974173
 20
239.1235072396
 30
0.0
 10
131.8328195318
 20
239.7454930189
 30
0.0
 10
134.591620983
 20
240.1746951746
 30
0.0
 10
138.7104585647
 20
240.5171662366
 30
0.0
 10
144.2317476807
 20
240.52071018
 30
0.0
 10
148.7280260116
 20
240.2420754385
 30
0.0
 10
151.0370767204
 20
240.0593829558
 30
0.0
  0
SPLINE
  5
413
100
AcDbEntity
  8
0
100
AcDbSpline
 62
7
  6
CONTINUOUS
 70
0
 71
3
 72
15
 73
11
 74
0
 42
0.0000001
 43
0.0000001
 44
0.0000000001
 40
0.0
 40
0.0
 40
0.0
 40
0.0
 40
0.1288285297
 40
0.2705731043
 40
0.4178848725
 40
0.5623830488
 40
0.6962002801
 40
0.8135916328
 40
0.9130641676
 40
1.0
 40
1.0
 40
1.0
 40
1.0
 10
185.1581775358
 20
314.5070356183
 30
0.0
 10
185.1581775358
 20
315.0198850054
 30
0.0
 10
185.0146946515
 20
316.0982324332
 30
0.0
 10
184.4792372239
 20
317.6815228721
 30
0.0
 10
183.6539672881
 20
319.2068079983
 30
0.0
 10
182.6058011779
 20
320.5486269781
 30
0.0
 10
181.4185207587
 20
321.5999869435
 30
0.0
 10
180.1802906038
 20
322.276352209
 30
0.0
 10
178.9683274745
 20
322.5190604762
 30
0.0
 10
178.2152427337
 20
322.3256888113
 30
0.0
 10
177.9155969039
 20
322.1525304987
 30
0.0
  0
SPLINE
  5
414
100
AcDbEntity
  8
0
100
AcDbSpline
 62
7
  6
CONTINUOUS
 70
0
 71
3
 72
11
 73
7
 74
0
 42
0.0000001
 43
0.0000001
 44
0.0000000001
 40
0.0
 40
0.0
 40
0.0
 40
0.0
 40
0.2894836687
 40
0.5490925387
 40
0.7822836059
 40
1.0
 40
1.0
 40
1.0
 40
1.0
 10
184.449241417
 20
314.9163308178
 30
0.0
 10
184.449241417
 20
314.6638187742
 30
0.0
 10
184.410759215
 20
314.1832717935
 30
0.0
 10
184.2169804655
 20
313.5227255416
 30
0.0
 10
183.8901049575
 20
312.9861799905
 30
0.0
 10
183.5828363232
 20
312.726876599
 30
0.0
 10
183.4186699028
 20
312.6314019163
 30
0.0
  0
SPLINE
  5
415
100
AcDbEntity
  8
0
100
AcDbSpline
 62
7
  6
CONTINUOUS
 70
0
 71
3
 72
15
 73
11
 74
0
 42
0.0000001
 43
0.0000001
 44
0.0000000001
 40
0.0
 40
0.0
 40
0.0
 40
0.0
 40
0.1285595545
 40
0.2700128372
 40
0.4170385419
 40
0.5614128145
 40
0.6953294325
 40
0.8130474709
 40
0.9129216152
 40
1.0
 40
1.0
 40
1.0
 40
1.0
 10
183.7439663758
 20
314.5070352606
 30
0.0
 10
183.7439663758
 20
314.9319871345
 30
0.0
 10
183.6256386402
 20
315.8255167327
 30
0.0
 10
183.1840114601
 20
317.1381830269
 30
0.0
 10
182.5025534979
 20
318.4040239792
 30
0.0
 10
181.6364739443
 20
319.5200765322
 30
0.0
 10
180.6540358419
 20
320.3981676911
 30
0.0
 10
179.6278242415
 20
320.9683660716
 30
0.0
 10
178.6220053464
 20
321.1826926116
 30
0.0
 10
177.9924945837
 20
321.0344538658
 30
0.0
 10
177.7401572869
 20
320.8959775242
 30
0.0
  0
SPLINE
  5
416
100
AcDbEntity
  8
0
100
AcDbSpline
 62
7
  6
CONTINUOUS
 70
0
 71
3
 72
9
 73
5
 74
0
 42
0.0000001
 43
0.0000001
 44
0.0000000001
 40
0.0
 40
0.0
 40
0.0
 40
0.0
 40
0.2827702618
 40
1.0
 40
1.0
 40
1.0
 40
1.0
 10
183.6733741109
 20
314.5477908017
 30
0.0
 10
183.6733741109
 20
314.3627999185
 30
0.0
 10
183.635677532
 20
313.7127454254
 30
0.0
 10
183.412714866
 20
313.0480319981
 30
0.0
 10
183.1116269648
 20
312.6881544821
 30
0.0
  0
SPLINE
  5
417
100
AcDbEntity
  8
0
100
AcDbSpline
 62
7
  6
CONTINUOUS
 70
0
 71
3
 72
8
 73
4
 74
0
 42
0.0000001
 43
0.0000001
 44
0.0000000001
 40
0.0
 40
0.0
 40
0.0
 40
0.0
 40
1.0
 40
1.0
 40
1.0
 40
1.0
 10
183.0015446923
 20
312.568036019
 30
0.0
 10
182.8993206626
 20
312.4663217532
 30
0.0
 10
182.7831932641
 20
312.3767978456
 30
0.0
 10
182.6583015201
 20
312.3047034882
 30
0.0
  0
SPLINE
  5
418
100
AcDbEntity
  8
0
100
AcDbSpline
 62
7
  6
CONTINUOUS
 70
0
 71
3
 72
9
 73
5
 74
0
 42
0.0000001
 43
0.0000001
 44
0.0000000001
 40
0.0
 40
0.0
 40
0.0
 40
0.0
 40
0.2617087631
 40
1.0
 40
1.0
 40
1.0
 40
1.0
 10
177.380002475
 20
48.2374045551
 30
0.0
 10
177.319775465
 20
48.2721758489
 30
0.0
 10
177.0863414576
 20
48.3990964199
 30
0.0
 10
176.8391299324
 20
48.5017317052
 30
0.0
 10
176.6512017188
 20
48.5580510737
 30
0.0
  0
SPLINE
  5
419
100
AcDbEntity
  8
0
100
AcDbSpline
 62
7
  6
CONTINUOUS
 70
0
 71
3
 72
12
 73
8
 74
0
 42
0.0000001
 43
0.0000001
 44
0.0000000001
 40
0.0
 40
0.0
 40
0.0
 40
0.0
 40
0.2506035327
 40
0.363658844
 40
0.4749739549
 40
0.7134088806
 40
1.0
 40
1.0
 40
1.0
 40
1.0
 10
176.6512017188
 20
48.5580510737
 30
0.0
 10
176.3466176004
 20
48.6493305301
 30
0.0
 10
175.8666467856
 20
48.7084960454
 30
0.0
 10
175.2826792348
 20
48.5321579512
 30
0.0
 10
174.7854029834
 20
48.2036365486
 30
0.0
 10
174.3499146337
 20
47.4795499227
 30
0.0
 10
174.2687206145
 20
46.8046827441
 30
0.0
 10
174.2687206145
 20
46.4410537767
 30
0.0
  0
SPLINE
  5
41A
100
AcDbEntity
  8
0
100
AcDbSpline
 62
7
  6
CONTINUOUS
 70
0
 71
3
 72
11
 73
7
 74
0
 42
0.0000001
 43
0.0000001
 44
0.0000000001
 40
0.0
 40
0.0
 40
0.0
 40
0.0
 40
0.2895359456
 40
0.5491067338
 40
0.7822490569
 40
1.0
 40
1.0
 40
1.0
 40
1.0
 10
177.7335543936
 20
319.1202429347
 30
0.0
 10
177.5186662777
 20
319.2443058395
 30
0.0
 10
177.0908357806
 20
319.4475768223
 30
0.0
 10
176.4335034312
 20
319.6066765976
 30
0.0
 10
175.8164082012
 20
319.5911860347
 30
0.0
 10
175.4452091174
 20
319.4559845871
 30
0.0
 10
175.283604122
 20
319.3626709717
 30
0.0
  0
SPLINE
  5
41B
100
AcDbEntity
  8
0
100
AcDbSpline
 62
7
  6
CONTINUOUS
 70
0
 71
3
 72
11
 73
7
 74
0
 42
0.0000001
 43
0.0000001
 44
0.0000000001
 40
0.0
 40
0.0
 40
0.0
 40
0.0
 40
0.2372480941
 40
0.5000010917
 40
0.7627534955
 40
1.0
 40
1.0
 40
1.0
 40
1.0
 10
181.1983911166
 20
313.1190030046
 30
0.0
 10
181.1983911166
 20
313.6870267238
 30
0.0
 10
180.9854388013
 20
314.8849477306
 30
0.0
 10
180.2425787355
 20
316.5680070175
 30
0.0
 10
179.1564322065
 20
318.0528643462
 30
0.0
 10
178.2254768504
 20
318.8362377968
 30
0.0
 10
177.7335543936
 20
319.1202429347
 30
0.0
  0
SPLINE
  5
41C
100
AcDbEntity
  8
0
100
AcDbSpline
 62
7
  6
CONTINUOUS
 70
0
 71
3
 72
9
 73
5
 74
0
 42
0.0000001
 43
0.0000001
 44
0.0000000001
 40
0.0
 40
0.0
 40
0.0
 40
0.0
 40
0.2317160865
 40
1.0
 40
1.0
 40
1.0
 40
1.0
 10
174.2690613247
 20
46.3881004199
 30
0.0
 10
174.271385473
 20
46.2067047269
 30
0.0
 10
174.3319143242
 20
45.4246943595
 30
0.0
 10
174.5648515948
 20
44.6616379506
 30
0.0
 10
174.8067975653
 20
44.1109547694
 30
0.0
  0
SPLINE
  5
41D
100
AcDbEntity
  8
0
100
AcDbSpline
 62
7
  6
CONTINUOUS
 70
0
 71
3
 72
9
 73
5
 74
0
 42
0.0000001
 43
0.0000001
 44
0.0000000001
 40
0.0
 40
0.0
 40
0.0
 40
0.0
 40
0.5253544891
 40
1.0
 40
1.0
 40
1.0
 40
1.0
 10
175.0481367727
 20
43.6129360936
 30
0.0
 10
175.335108586
 20
43.0723216969
 30
0.0
 10
176.0037476501
 20
42.1045643523
 30
0.0
 10
176.9011038252
 20
41.3286714419
 30
0.0
 10
177.380002475
 20
41.0521854325
 30
0.0
  0
SPLINE
  5
41E
100
AcDbEntity
  8
0
100
AcDbSpline
 62
7
  6
CONTINUOUS
 70
0
 71
3
 72
11
 73
7
 74
0
 42
0.0000001
 43
0.0000001
 44
0.0000000001
 40
0.0
 40
0.0
 40
0.0
 40
0.0
 40
0.2372539654
 40
0.5000012591
 40
0.7627478695
 40
1.0
 40
1.0
 40
1.0
 40
1.0
 10
180.4912843355
 20
313.119001305
 30
0.0
 10
180.4912843355
 20
313.6290750382
 30
0.0
 10
180.3000416238
 20
314.7047560246
 30
0.0
 10
179.6329765003
 20
316.216051286
 30
0.0
 10
178.657684944
 20
317.5493864047
 30
0.0
 10
177.8217383677
 20
318.2528390821
 30
0.0
 10
177.380002475
 20
318.5078696492
 30
0.0
  0
SPLINE
  5
41F
100
AcDbEntity
  8
0
100
AcDbSpline
 62
7
  6
CONTINUOUS
 70
0
 71
3
 72
11
 73
7
 74
0
 42
0.0000001
 43
0.0000001
 44
0.0000000001
 40
0.0
 40
0.0
 40
0.0
 40
0.0
 40
0.290328086
 40
0.545863446
 40
0.7761594018
 40
1.0
 40
1.0
 40
1.0
 40
1.0
 10
177.5259453852
 20
311.242396982
 30
0.0
 10
177.7437096892
 20
311.1286074254
 30
0.0
 10
178.1752947421
 20
310.9518299099
 30
0.0
 10
178.835877678
 20
310.86454074
 30
0.0
 10
179.4370771712
 20
310.9899308421
 30
0.0
 10
179.7628902914
 20
311.2149481917
 30
0.0
 10
179.8961997628
 20
311.349535893
 30
0.0
  0
SPLINE
  5
420
100
AcDbEntity
  8
0
100
AcDbSpline
 62
7
  6
CONTINUOUS
 70
0
 71
3
 72
9
 73
5
 74
0
 42
0.0000001
 43
0.0000001
 44
0.0000000001
 40
0.0
 40
0.0
 40
0.0
 40
0.0
 40
0.4562611328
 40
1.0
 40
1.0
 40
1.0
 40
1.0
 10
179.8961997628
 20
311.349535893
 30
0.0
 10
180.0997763397
 20
311.5550644518
 30
0.0
 10
180.4171756404
 20
312.1338880592
 30
0.0
 10
180.4912843355
 20
312.7742532847
 30
0.0
 10
180.4912843355
 20
313.119001305
 30
0.0
  0
SPLINE
  5
421
100
AcDbEntity
  8
0
100
AcDbSpline
 62
7
  6
CONTINUOUS
 70
0
 71
3
 72
9
 73
5
 74
0
 42
0.0000001
 43
0.0000001
 44
0.0000000001
 40
0.0
 40
0.0
 40
0.0
 40
0.0
 40
0.2317160865
 40
1.0
 40
1.0
 40
1.0
 40
1.0
 10
174.2690613247
 20
316.658565514
 30
0.0
 10
174.271385473
 20
316.4771698209
 30
0.0
 10
174.3319143242
 20
315.6951594536
 30
0.0
 10
174.5648515948
 20
314.9321030447
 30
0.0
 10
174.8067975653
 20
314.3814198635
 30
0.0
  0
SPLINE
  5
422
100
AcDbEntity
  8
0
100
AcDbSpline
 62
7
  6
CONTINUOUS
 70
0
 71
3
 72
9
 73
5
 74
0
 42
0.0000001
 43
0.0000001
 44
0.0000000001
 40
0.0
 40
0.0
 40
0.0
 40
0.0
 40
0.5253544891
 40
1.0
 40
1.0
 40
1.0
 40
1.0
 10
175.0481367727
 20
313.8834011877
 30
0.0
 10
175.335108586
 20
313.3427867909
 30
0.0
 10
176.0037476501
 20
312.3750294463
 30
0.0
 10
176.9011038252
 20
311.5991365359
 30
0.0
 10
177.380002475
 20
311.3226505265
 30
0.0
  0
SPLINE
  5
423
100
AcDbEntity
  8
0
100
AcDbSpline
 62
7
  6
CONTINUOUS
 70
0
 71
3
 72
9
 73
5
 74
0
 42
0.0000001
 43
0.0000001
 44
0.0000000001
 40
0.0
 40
0.0
 40
0.0
 40
0.0
 40
0.2617087631
 40
1.0
 40
1.0
 40
1.0
 40
1.0
 10
177.380002475
 20
318.5078696492
 30
0.0
 10
177.319775465
 20
318.5426409429
 30
0.0
 10
177.0863414576
 20
318.669561514
 30
0.0
 10
176.8391299324
 20
318.7721967993
 30
0.0
 10
176.6512017188
 20
318.8285161677
 30
0.0
  0
SPLINE
  5
424
100
AcDbEntity
  8
0
100
AcDbSpline
 62
7
  6
CONTINUOUS
 70
0
 71
3
 72
12
 73
8
 74
0
 42
0.0000001
 43
0.0000001
 44
0.0000000001
 40
0.0
 40
0.0
 40
0.0
 40
0.0
 40
0.2506035327
 40
0.363658844
 40
0.4749739549
 40
0.7134088806
 40
1.0
 40
1.0
 40
1.0
 40
1.0
 10
176.6512017188
 20
318.8285161677
 30
0.0
 10
176.3466176004
 20
318.9197956241
 30
0.0
 10
175.8666467856
 20
318.9789611395
 30
0.0
 10
175.2826792348
 20
318.8026230453
 30
0.0
 10
174.7854029833
 20
318.4741016426
 30
0.0
 10
174.3499146337
 20
317.7500150168
 30
0.0
 10
174.2687206145
 20
317.0751478382
 30
0.0
 10
174.2687206145
 20
316.7115188707
 30
0.0
  0
SPLINE
  5
425
100
AcDbEntity
  8
0
100
AcDbSpline
 62
7
  6
CONTINUOUS
 70
0
 71
3
 72
15
 73
11
 74
0
 42
0.0000001
 43
0.0000001
 44
0.0000000001
 40
0.0
 40
0.0
 40
0.0
 40
0.0
 40
0.1288285297
 40
0.2705731043
 40
0.4178848725
 40
0.5623830488
 40
0.6962002801
 40
0.8135916328
 40
0.9130641676
 40
1.0
 40
1.0
 40
1.0
 40
1.0
 10
185.1581775358
 20
44.2365705243
 30
0.0
 10
185.1581775358
 20
44.7494199114
 30
0.0
 10
185.0146946515
 20
45.8277673391
 30
0.0
 10
184.4792372239
 20
47.4110577781
 30
0.0
 10
183.6539672881
 20
48.9363429042
 30
0.0
 10
182.6058011779
 20
50.2781618841
 30
0.0
 10
181.4185207587
 20
51.3295218494
 30
0.0
 10
180.1802906038
 20
52.0058871149
 30
0.0
 10
178.9683274745
 20
52.2485953822
 30
0.0
 10
178.2152427337
 20
52.0552237173
 30
0.0
 10
177.9155969039
 20
51.8820654047
 30
0.0
  0
SPLINE
  5
426
100
AcDbEntity
  8
0
100
AcDbSpline
 62
7
  6
CONTINUOUS
 70
0
 71
3
 72
9
 73
5
 74
0
 42
0.0000001
 43
0.0000001
 44
0.0000000001
 40
0.0
 40
0.0
 40
0.0
 40
0.0
 40
0.2611520688
 40
1.0
 40
1.0
 40
1.0
 40
1.0
 10
177.5259453852
 20
40.971931888
 30
0.0
 10
177.5813793398
 20
40.9429656846
 30
0.0
 10
177.7962788432
 20
40.8372783786
 30
0.0
 10
178.0221901992
 20
40.7530638053
 30
0.0
 10
178.1932255348
 20
40.7076827869
 30
0.0
  0
SPLINE
  5
427
100
AcDbEntity
  8
0
100
AcDbSpline
 62
7
  6
CONTINUOUS
 70
0
 71
3
 72
10
 73
6
 74
0
 42
0.0000001
 43
0.0000001
 44
0.0000000001
 40
0.0
 40
0.0
 40
0.0
 40
0.0
 40
0.5239517465
 40
0.7624705615
 40
1.0
 40
1.0
 40
1.0
 40
1.0
 10
178.1932255348
 20
40.7076827869
 30
0.0
 10
178.5001987198
 20
40.6262332099
 30
0.0
 10
178.9852124997
 20
40.5870959516
 30
0.0
 10
179.5612572428
 20
40.7991368249
 30
0.0
 10
179.7948780072
 20
40.9767775257
 30
0.0
 10
179.8961997628
 20
41.0790707989
 30
0.0
  0
SPLINE
  5
428
100
AcDbEntity
  8
0
100
AcDbSpline
 62
7
  6
CONTINUOUS
 70
0
 71
3
 72
9
 73
5
 74
0
 42
0.0000001
 43
0.0000001
 44
0.0000000001
 40
0.0
 40
0.0
 40
0.0
 40
0.0
 40
0.4562611328
 40
1.0
 40
1.0
 40
1.0
 40
1.0
 10
179.8961997628
 20
41.0790707989
 30
0.0
 10
180.0997763397
 20
41.2845993577
 30
0.0
 10
180.4171756404
 20
41.8634229651
 30
0.0
 10
180.4912843355
 20
42.5037881906
 30
0.0
 10
180.4912843355
 20
42.8485362109
 30
0.0
  0
SPLINE
  5
429
100
AcDbEntity
  8
0
100
AcDbSpline
 62
7
  6
CONTINUOUS
 70
0
 71
3
 72
11
 73
7
 74
0
 42
0.0000001
 43
0.0000001
 44
0.0000000001
 40
0.0
 40
0.0
 40
0.0
 40
0.0
 40
0.2894836687
 40
0.5490925387
 40
0.7822836059
 40
1.0
 40
1.0
 40
1.0
 40
1.0
 10
184.449241417
 20
44.6458657238
 30
0.0
 10
184.449241417
 20
44.3933536801
 30
0.0
 10
184.410759215
 20
43.9128066994
 30
0.0
 10
184.2169804655
 20
43.2522604475
 30
0.0
 10
183.8901049575
 20
42.7157148964
 30
0.0
 10
183.5828363232
 20
42.456411505
 30
0.0
 10
183.4186699028
 20
42.3609368223
 30
0.0
  0
SPLINE
  5
42A
100
AcDbEntity
  8
0
100
AcDbSpline
 62
7
  6
CONTINUOUS
 70
0
 71
3
 72
15
 73
11
 74
0
 42
0.0000001
 43
0.0000001
 44
0.0000000001
 40
0.0
 40
0.0
 40
0.0
 40
0.0
 40
0.1285595545
 40
0.2700128372
 40
0.4170385419
 40
0.5614128145
 40
0.6953294325
 40
0.8130474709
 40
0.9129216152
 40
1.0
 40
1.0
 40
1.0
 40
1.0
 10
183.7439663758
 20
44.2365701666
 30
0.0
 10
183.7439663758
 20
44.6615220405
 30
0.0
 10
183.6256386402
 20
45.5550516387
 30
0.0
 10
183.1840114601
 20
46.8677179329
 30
0.0
 10
182.5025534979
 20
48.1335588852
 30
0.0
 10
181.6364739443
 20
49.2496114382
 30
0.0
 10
180.6540358419
 20
50.1277025971
 30
0.0
 10
179.6278242415
 20
50.6979009776
 30
0.0
 10
178.6220053464
 20
50.9122275175
 30
0.0
 10
177.9924945837
 20
50.7639887717
 30
0.0
 10
177.7401572869
 20
50.6255124301
 30
0.0
  0
SPLINE
  5
42B
100
AcDbEntity
  8
0
100
AcDbSpline
 62
7
  6
CONTINUOUS
 70
0
 71
3
 72
11
 73
7
 74
0
 42
0.0000001
 43
0.0000001
 44
0.0000000001
 40
0.0
 40
0.0
 40
0.0
 40
0.0
 40
0.2372539654
 40
0.5000012591
 40
0.7627478695
 40
1.0
 40
1.0
 40
1.0
 40
1.0
 10
180.4912843355
 20
42.8485362109
 30
0.0
 10
180.4912843355
 20
43.3586099442
 30
0.0
 10
180.3000416238
 20
44.4342909305
 30
0.0
 10
179.6329765003
 20
45.945586192
 30
0.0
 10
178.657684944
 20
47.2789213107
 30
0.0
 10
177.8217383677
 20
47.9823739881
 30
0.0
 10
177.380002475
 20
48.2374045551
 30
0.0
  0
SPLINE
  5
42C
100
AcDbEntity
  8
0
100
AcDbSpline
 62
7
  6
CONTINUOUS
 70
0
 71
3
 72
9
 73
5
 74
0
 42
0.0000001
 43
0.0000001
 44
0.0000000001
 40
0.0
 40
0.0
 40
0.0
 40
0.0
 40
0.2827433365
 40
1.0
 40
1.0
 40
1.0
 40
1.0
 10
183.6733741109
 20
44.2773257077
 30
0.0
 10
183.6733741109
 20
44.0925036285
 30
0.0
 10
183.6357425997
 20
43.4429674839
 30
0.0
 10
183.4132270351
 20
42.7788428058
 30
0.0
 10
183.1127013282
 20
42.4189722835
 30
0.0
  0
SPLINE
  5
42D
100
AcDbEntity
  8
0
100
AcDbSpline
 62
7
  6
CONTINUOUS
 70
0
 71
3
 72
8
 73
4
 74
0
 42
0.0000001
 43
0.0000001
 44
0.0000000001
 40
0.0
 40
0.0
 40
0.0
 40
0.0
 40
1.0
 40
1.0
 40
1.0
 40
1.0
 10
183.0085408898
 20
42.3045704734
 30
0.0
 10
182.9045903076
 20
42.1999558367
 30
0.0
 10
182.7860325633
 20
42.1079584817
 30
0.0
 10
182.6583107811
 20
42.0342218415
 30
0.0
  0
SPLINE
  5
42E
100
AcDbEntity
  8
0
100
AcDbSpline
 62
7
  6
CONTINUOUS
 70
0
 71
3
 72
11
 73
7
 74
0
 42
0.0000001
 43
0.0000001
 44
0.0000000001
 40
0.0
 40
0.0
 40
0.0
 40
0.0
 40
0.2372480941
 40
0.5000010917
 40
0.7627534955
 40
1.0
 40
1.0
 40
1.0
 40
1.0
 10
181.1983911166
 20
42.8485379106
 30
0.0
 10
181.1983911166
 20
43.4165616298
 30
0.0
 10
180.9854388013
 20
44.6144826366
 30
0.0
 10
180.2425787355
 20
46.2975419234
 30
0.0
 10
179.1564322065
 20
47.7823992521
 30
0.0
 10
178.2254768504
 20
48.5657727028
 30
0.0
 10
177.7335543936
 20
48.8497778406
 30
0.0
  0
SPLINE
  5
42F
100
AcDbEntity
  8
0
100
AcDbSpline
 62
7
  6
CONTINUOUS
 70
0
 71
3
 72
11
 73
7
 74
0
 42
0.0000001
 43
0.0000001
 44
0.0000000001
 40
0.0
 40
0.0
 40
0.0
 40
0.0
 40
0.2895359456
 40
0.5491067338
 40
0.7822490569
 40
1.0
 40
1.0
 40
1.0
 40
1.0
 10
177.7335543936
 20
48.8497778406
 30
0.0
 10
177.5186662777
 20
48.9738407455
 30
0.0
 10
177.0908357806
 20
49.1771117282
 30
0.0
 10
176.4335034312
 20
49.3362115036
 30
0.0
 10
175.8164082012
 20
49.3207209406
 30
0.0
 10
175.4452091174
 20
49.1855194931
 30
0.0
 10
175.283604122
 20
49.0922058776
 30
0.0
  0
ELLIPSE
  5
430
100
AcDbEntity
  8
0
100
AcDbEllipse
 62
7
  6
CONTINUOUS
 10
187.5464527423
 20
233.8183088398
 30
0.0
 11
49.9015934437
 21
46.4145391693
 31
0.0
 40
0.4575255959
 41
1.8955010028
 42
1.9069907621
  0
ELLIPSE
  5
431
100
AcDbEntity
  8
0
100
AcDbEllipse
 62
7
  6
CONTINUOUS
 10
114.3228980423
 20
191.5429221728
 30
0.0
 11
84.8258873358
 21
61.1771937091
 31
0.0
 40
0.3105796236
 41
-1.1300205539
 42
-1.1191093867
  0
ENDSEC
  0
SECTION
  2
OBJECTS
  0
DICTIONARY
  5
C
100
AcDbDictionary
280
0
281
1
  3
ACAD_GROUP
350
D
  3
ACAD_MLINESTYLE
350
17
  3
ACAD_LAYOUT
350
1A
  3
ACAD_PLOTSETTINGS
350
19
  3
ACAD_PLOTSTYLENAME
350
E
  0
DICTIONARY
  5
D
102
{ACAD_REACTORS
330
C
102
}
100
AcDbDictionary
280
0
281
1
  0
ACDBDICTIONARYWDFLT
  5
E
102
{ACAD_REACTORS
330
C
102
}
100
AcDbDictionary
281
1
  3
Normal
350
F
100
AcDbDictionaryWithDefault
340
F
  0
DICTIONARY
  5
17
102
{ACAD_REACTORS
330
C
102
}
100
AcDbDictionary
280
0
281
1
  3
Standard
350
18
  0
DICTIONARY
  5
19
102
{ACAD_REACTORS
330
C
102
}
100
AcDbDictionary
281
1
  0
DICTIONARY
  5
1A
102
{ACAD_REACTORS
330
C
102
}
100
AcDbDictionary
281
1
  3
Model
350
432
  3
Layout1
350
433
  0
ACDBPLACEHOLDER
  5
F
102
{ACAD_REACTORS
330
E
102
}
  0
MLINESTYLE
  5
18
102
{ACAD_REACTORS
330
17
102
}
100
AcDbMlineStyle
  2
STANDARD
 70
0
  3

 62
256
 51
90.0
 52
90.0
 71
2
 49
0.5
 62
256
  6
BYLAYER
 49
-0.5
 62
256
  6
BYLAYER
  0
LAYOUT
  5
432
102
{ACAD_REACTORS
330
1A
102
}
100
AcDbPlotSettings
  1

  2
none_device
  4

  6

 40
0.0
 41
0.0
 42
0.0
 43
0.0
 44
210.0
 45
297.0
 46
0.0
 47
0.0
 48
0.0
 49
0.0
140
0.0
141
0.0
142
1.0
143
1.0
 70
1024
 72
1
 73
0
 74
0
  7

 75
0
147
1.0
148
0.0
149
0.0
100
AcDbLayout
  1
Model
 70
0
 71
0
 10
0.0
 20
0.0
 11
210.0
 21
297.0
 12
0.0
 22
0.0
 32
0.0
 14
0.0
 24
0.0
 34
0.0
 15
0.0
 25
0.0
 35
0.0
146
0.0
 13
0.0
 23
0.0
 33
0.0
 16
1.0
 26
0.0
 36
0.0
 17
0.0
 27
1.0
 37
0.0
 76
0
330
210
345
0
346
0
  0
LAYOUT
  5
433
102
{ACAD_REACTORS
330
1A
102
}
100
AcDbPlotSettings
  1

  2
none_device
  4

  6

 40
0.0
 41
0.0
 42
0.0
 43
0.0
 44
210.0
 45
297.0
 46
0.0
 47
0.0
 48
0.0
 49
0.0
140
0.0
141
0.0
142
1.0
143
1.0
 70
0
 72
1
 73
0
 74
0
  7

 75
0
147
1.0
148
0.0
149
0.0
100
AcDbLayout
  1
Layout1
 70
0
 71
1
 10
0.0
 20
0.0
 11
210.0
 21
297.0
 12
0.0
 22
0.0
 32
0.0
 14
0.0
 24
0.0
 34
0.0
 15
0.0
 25
0.0
 35
0.0
146
0.0
 13
0.0
 23
0.0
 33
0.0
 16
1.0
 26
0.0
 36
0.0
 17
0.0
 27
1.0
 37
0.0
 76
0
330
211
345
0
346
0
  0
ENDSEC
  0
EOF
