999
DXF file: Y:\001_SCHNEIDER_PARIS\maxime fuentes - génération CAD 2D\TRAVAIL\9001KYG1Y_2D-Views\9001KYG1Y_2D-right.dxf
999
Pro/ENGINEER 2018260 by Parametric Technology Corporation
  0
SECTION
  2
HEADER
  9
$ACADVER
  1
AC1027
  9
$DWGCODEPAGE
  3
ANSI_1252
  9
$EXTMAX
 10
558.8
 20
431.8
 30
0.0
  9
$EXTMIN
 10
0.0
 20
0.0
 30
0.0
  9
$LIMMIN
 10
0.0
 20
0.0
  9
$LIMMAX
 10
558.8
 20
431.8
  9
$VIEWCTR
 10
279.4
 20
215.9
  9
$VIEWSIZE
 40
431.8
  9
$CLAYER
  8
0
  9
$LTSCALE
 40
30.734
  9
$CELTYPE
  6
BYLAYER
  9
$DIMSCALE
 40
1.0
  9
$DIMASZ
 40
0.1875
  9
$DIMEXO
 40
0.0625
  9
$DIMDLI
 40
21.2344
  9
$DIMEXE
 40
0.125
  9
$DIMCEN
 40
5.0292
  9
$DIMLFAC
 40
1.0
  9
$DIMBLK
  1
_CLOSED
  9
$DIMALT
 70
0
  9
$DIMALTF
 40
0.0393700787
  9
$DIMTXT
 40
0.15625
  9
$DIMTOL
 70
0
  9
$DIMLIM
 70
0
  9
$DIMTFAC
 40
1.0
  9
$DIMGAP
 40
0.625
  9
$DIMDSEP
 70
46
  9
$AUNITS
 70
0
  9
$PDMODE
 70
3
  9
$PDSIZE
 40
0.3125
  9
$HANDSEED
  5
297
  9
$TILEMODE
 70
1
  9
$MEASUREMENT
 70
1
  9
$INSUNITS
 70
4
  0
ENDSEC
  0
SECTION
  2
CLASSES
  0
CLASS
  1
ACDBDICTIONARYWDFLT
  2
AcDbDictionaryWithDefault
  3
AutoCAD 2000
 90
0
 91
1
280
0
281
0
  0
CLASS
  1
ACDBPLACEHOLDER
  2
AcDbPlaceHolder
  3
AutoCAD 2000
 90
0
 91
1
280
0
281
0
  0
CLASS
  1
LAYOUT
  2
AcDbLayout
  3
AutoCAD 2000
 90
0
 91
0
280
0
281
0
  0
ENDSEC
  0
SECTION
  2
TABLES
  0
TABLE
  2
VPORT
  5
8
100
AcDbSymbolTable
 70
2
  0
VPORT
  5
1F4
100
AcDbSymbolTableRecord
100
AcDbViewportTableRecord
  2
*ACTIVE
 70
0
 10
0.0
 20
0.0
 11
1.0
 21
1.0
 12
279.4
 22
215.9
 13
0.0
 23
0.0
 14
1.0
 24
1.0
 15
0.0
 25
0.0
 16
0.0
 26
0.0
 36
1.0
 17
0.0
 27
0.0
 37
0.0
 40
431.8
 41
1.2941176471
 42
50.0
 43
0.0
 44
0.0
 50
0.0
 51
0.0
 71
0
 72
100
 73
1
 74
1
 75
0
 76
0
 77
0
 78
0
  0
ENDTAB
  0
TABLE
  2
LTYPE
  5
5
100
AcDbSymbolTable
 70
6
  0
LTYPE
  5
14
100
AcDbSymbolTableRecord
100
AcDbLinetypeTableRecord
  2
BYBLOCK
 70
0
  3

 72
65
 73
0
 40
0.0
  0
LTYPE
  5
15
100
AcDbSymbolTableRecord
100
AcDbLinetypeTableRecord
  2
BYLAYER
 70
0
  3

 72
65
 73
0
 40
0.0
  0
LTYPE
  5
16
100
AcDbSymbolTableRecord
100
AcDbLinetypeTableRecord
  2
CONTINUOUS
 70
64
  3
Solid line
 72
65
 73
0
 40
0.0
  0
LTYPE
  5
1F5
100
AcDbSymbolTableRecord
100
AcDbLinetypeTableRecord
  2
CENTER
 70
64
  3
____ _ ____ _ ____ _ ____ _ ____ _ ____ _ ____
 72
65
 73
4
 40
0.6
 49
0.375
 74
0
 49
-0.075
 74
0
 49
0.075
 74
0
 49
-0.075
 74
0
  0
LTYPE
  5
1F6
100
AcDbSymbolTableRecord
100
AcDbLinetypeTableRecord
  2
HIDDEN
 70
64
  3
- - - - - - - - - - - - - - - - - - - -
 72
65
 73
2
 40
0.2
 49
0.1
 74
0
 49
-0.1
 74
0
  0
LTYPE
  5
1F7
100
AcDbSymbolTableRecord
100
AcDbLinetypeTableRecord
  2
PHANTOM
 70
64
  3
_____ _ _ _____ _ _ _____ _ _ _____
 72
65
 73
6
 40
0.8
 49
0.45
 74
0
 49
-0.05
 74
0
 49
0.1
 74
0
 49
-0.05
 74
0
 49
0.1
 74
0
 49
-0.05
 74
0
  0
LTYPE
  5
1F8
100
AcDbSymbolTableRecord
100
AcDbLinetypeTableRecord
  2
DOT
 70
64
  3
. . . . . . . . . . . . . . . . . . . .
 72
65
 73
2
 40
0.2
 49
0.1
 74
0
 49
-0.1
 74
0
  0
LTYPE
  5
1F9
100
AcDbSymbolTableRecord
100
AcDbLinetypeTableRecord
  2
DASHED
 70
64
  3
- - - - - - - - - - - - - - - - - - - -
 72
65
 73
2
 40
0.2
 49
0.1
 74
0
 49
-0.1
 74
0
  0
ENDTAB
  0
TABLE
  2
LAYER
  5
2
100
AcDbSymbolTable
 70
36
  0
LAYER
  5
10
100
AcDbSymbolTableRecord
100
AcDbLayerTableRecord
  2
0
 70
0
 62
7
  6
CONTINUOUS
370
-3
390
F
  0
LAYER
  5
1FA
100
AcDbSymbolTableRecord
100
AcDbLayerTableRecord
  2
DEFAULT_1
 70
0
 62
7
  6
CENTER
370
-3
390
F
  0
LAYER
  5
1FB
100
AcDbSymbolTableRecord
100
AcDbLayerTableRecord
  2
DEFAULT_2
 70
0
 62
8
  6
HIDDEN
370
-3
390
F
  0
LAYER
  5
1FC
100
AcDbSymbolTableRecord
100
AcDbLayerTableRecord
  2
DEFAULT_3
 70
0
 62
7
  6
PHANTOM
370
-3
390
F
  0
LAYER
  5
1FD
100
AcDbSymbolTableRecord
100
AcDbLayerTableRecord
  2
01_ALL_DTM_PLN
 70
0
 62
7
  6
CONTINUOUS
370
-3
390
F
  0
LAYER
  5
1FE
100
AcDbSymbolTableRecord
100
AcDbLayerTableRecord
  2
01__ASM_ALL_DTM_PLN
 70
0
 62
7
  6
CONTINUOUS
370
-3
390
F
  0
LAYER
  5
1FF
100
AcDbSymbolTableRecord
100
AcDbLayerTableRecord
  2
01__ASM_DEF_DTM_PLN
 70
0
 62
7
  6
CONTINUOUS
370
-3
390
F
  0
LAYER
  5
200
100
AcDbSymbolTableRecord
100
AcDbLayerTableRecord
  2
01___PRT_ALL_DTM_PLN
 70
0
 62
7
  6
CONTINUOUS
370
-3
390
F
  0
LAYER
  5
201
100
AcDbSymbolTableRecord
100
AcDbLayerTableRecord
  2
01___PRT_DEF_DTM_PLN
 70
0
 62
7
  6
CONTINUOUS
370
-3
390
F
  0
LAYER
  5
202
100
AcDbSymbolTableRecord
100
AcDbLayerTableRecord
  2
02_ALL_AXES
 70
0
 62
7
  6
CONTINUOUS
370
-3
390
F
  0
LAYER
  5
203
100
AcDbSymbolTableRecord
100
AcDbLayerTableRecord
  2
02__ASM_ALL_AXES
 70
0
 62
7
  6
CONTINUOUS
370
-3
390
F
  0
LAYER
  5
204
100
AcDbSymbolTableRecord
100
AcDbLayerTableRecord
  2
02___PRT_ALL_AXES
 70
0
 62
7
  6
CONTINUOUS
370
-3
390
F
  0
LAYER
  5
205
100
AcDbSymbolTableRecord
100
AcDbLayerTableRecord
  2
03_ALL_CURVES
 70
0
 62
7
  6
CONTINUOUS
370
-3
390
F
  0
LAYER
  5
206
100
AcDbSymbolTableRecord
100
AcDbLayerTableRecord
  2
03__ASM_ALL_CURVES
 70
0
 62
7
  6
CONTINUOUS
370
-3
390
F
  0
LAYER
  5
207
100
AcDbSymbolTableRecord
100
AcDbLayerTableRecord
  2
03___PRT_ALL_CURVES
 70
0
 62
7
  6
CONTINUOUS
370
-3
390
F
  0
LAYER
  5
208
100
AcDbSymbolTableRecord
100
AcDbLayerTableRecord
  2
04_ALL_DTM_PNT
 70
0
 62
7
  6
CONTINUOUS
370
-3
390
F
  0
LAYER
  5
209
100
AcDbSymbolTableRecord
100
AcDbLayerTableRecord
  2
04__ASM_ALL_DTM_PNT
 70
0
 62
7
  6
CONTINUOUS
370
-3
390
F
  0
LAYER
  5
20A
100
AcDbSymbolTableRecord
100
AcDbLayerTableRecord
  2
04___PRT_ALL_DTM_PNT
 70
0
 62
7
  6
CONTINUOUS
370
-3
390
F
  0
LAYER
  5
20B
100
AcDbSymbolTableRecord
100
AcDbLayerTableRecord
  2
05_ALL_DTM_CSYS
 70
0
 62
7
  6
CONTINUOUS
370
-3
390
F
  0
LAYER
  5
20C
100
AcDbSymbolTableRecord
100
AcDbLayerTableRecord
  2
05__ASM_ALL_DTM_CSYS
 70
0
 62
7
  6
CONTINUOUS
370
-3
390
F
  0
LAYER
  5
20D
100
AcDbSymbolTableRecord
100
AcDbLayerTableRecord
  2
05__ASM_DEF_DTM_CSYS
 70
0
 62
7
  6
CONTINUOUS
370
-3
390
F
  0
LAYER
  5
20E
100
AcDbSymbolTableRecord
100
AcDbLayerTableRecord
  2
05___PRT_ALL_DTM_CSYS
 70
0
 62
7
  6
CONTINUOUS
370
-3
390
F
  0
LAYER
  5
20F
100
AcDbSymbolTableRecord
100
AcDbLayerTableRecord
  2
05___PRT_DEF_DTM_CSYS
 70
0
 62
7
  6
CONTINUOUS
370
-3
390
F
  0
LAYER
  5
210
100
AcDbSymbolTableRecord
100
AcDbLayerTableRecord
  2
06_ALL_SURFS
 70
0
 62
7
  6
CONTINUOUS
370
-3
390
F
  0
LAYER
  5
211
100
AcDbSymbolTableRecord
100
AcDbLayerTableRecord
  2
06__ASM_ALL_SURFS
 70
0
 62
7
  6
CONTINUOUS
370
-3
390
F
  0
LAYER
  5
212
100
AcDbSymbolTableRecord
100
AcDbLayerTableRecord
  2
06___PRT_ALL_SURFS
 70
0
 62
7
  6
CONTINUOUS
370
-3
390
F
  0
LAYER
  5
213
100
AcDbSymbolTableRecord
100
AcDbLayerTableRecord
  2
07__ASM_ALL_SKELETONS
 70
0
 62
7
  6
CONTINUOUS
370
-3
390
F
  0
ENDTAB
  0
TABLE
  2
STYLE
  5
3
100
AcDbSymbolTable
 70
1
  0
STYLE
  5
11
100
AcDbSymbolTableRecord
100
AcDbTextStyleTableRecord
  2
STANDARD
 70
0
 40
0.0
 41
0.8
 50
0.0
 71
0
 42
0.2
  3
txt
  4

  0
STYLE
  5
214
100
AcDbSymbolTableRecord
100
AcDbTextStyleTableRecord
  2
TEXTSTYLE_1
 70
0
 40
0.0
 41
0.8
 50
0.0
 71
0
 42
0.2
  3
gdt
  4

  0
ENDTAB
  0
TABLE
  2
VIEW
  5
6
100
AcDbSymbolTable
 70
0
  0
ENDTAB
  0
TABLE
  2
UCS
  5
7
100
AcDbSymbolTable
 70
0
  0
ENDTAB
  0
TABLE
  2
APPID
  5
9
100
AcDbSymbolTable
 70
1
  0
APPID
  5
215
100
AcDbSymbolTableRecord
100
AcDbRegAppTableRecord
  2
ACAD
 70
0
  0
ENDTAB
  0
TABLE
  2
BLOCK_RECORD
  5
1
100
AcDbSymbolTable
 70
0
  0
BLOCK_RECORD
  5
216
100
AcDbSymbolTableRecord
100
AcDbBlockTableRecord
  2
*Model_Space
  0
BLOCK_RECORD
  5
217
100
AcDbSymbolTableRecord
100
AcDbBlockTableRecord
  2
*Paper_Space
  0
BLOCK_RECORD
  5
218
100
AcDbSymbolTableRecord
100
AcDbBlockTableRecord
  2
_CLOSED
  0
ENDTAB
  0
TABLE
  2
DIMSTYLE
  5
A
100
AcDbSymbolTable
 70
1
100
AcDbDimStyleTable
 71
0
  0
DIMSTYLE
105
219
100
AcDbSymbolTableRecord
100
AcDbDimStyleTableRecord
  2
STANDARD
 70
0
  3

  4

 40
1.0
 41
0.1875
 42
0.0625
 43
0.38
 44
0.125
 45
0.0
 46
0.0
 47
0.01
 48
0.01
140
0.15625
141
0.09
142
0.0
143
25.4
144
1.0
145
0.0
146
1.0
147
0.625
 71
0.0
 72
0.0
 73
1
 74
1
 75
0
 76
0
 77
0
 78
8
 79
2
170
0
171
1
172
0
173
0
174
0
175
0
176
0
177
0
178
0
270
2
179
2
271
2
272
2
273
2
274
2
275
0
280
0
281
0
282
0
283
1
284
8
285
0
286
0
287
3
288
0
340
11
278
46
341
218
342
218
343
218
344
218
  0
ENDTAB
  0
ENDSEC
  0
SECTION
  2
BLOCKS
  0
BLOCK
  5
20
100
AcDbEntity
  8
0
100
AcDbBlockBegin
  2
*Model_Space
 70
0
 10
0.0
 20
0.0
 30
0.0
  3
*Model_Space
  1

  0
ENDBLK
  5
21
100
AcDbEntity
  8
0
100
AcDbBlockEnd
  0
BLOCK
  5
1C
100
AcDbEntity
  8
0
100
AcDbBlockBegin
  2
*Paper_Space
 70
0
 10
0.0
 20
0.0
 30
0.0
  3
*Paper_Space
  1

  0
ENDBLK
  5
1D
100
AcDbEntity
  8
0
100
AcDbBlockEnd
  0
BLOCK
  5
21A
100
AcDbEntity
  8
0
100
AcDbBlockBegin
  2
_CLOSED
 70
64
 10
0.0
 20
0.0
  3
_CLOSED
  1

  0
LINE
  5
21B
100
AcDbEntity
  8
0
  6
BYBLOCK
 62
0
100
AcDbLine
 10
0.0
 20
0.0
 11
-1.0
 21
0.1666666667
  0
LINE
  5
21C
100
AcDbEntity
  8
0
  6
BYBLOCK
 62
0
100
AcDbLine
 10
-1.0
 20
0.1666666667
 11
-1.0
 21
-0.1666666667
  0
LINE
  5
21D
100
AcDbEntity
  8
0
  6
BYBLOCK
 62
0
100
AcDbLine
 10
-1.0
 20
-0.1666666667
 11
0.0
 21
0.0
  0
LINE
  5
21E
100
AcDbEntity
  8
0
  6
BYBLOCK
 62
0
100
AcDbLine
 10
-1.0
 20
0.0
 11
0.0
 21
0.0
  0
ENDBLK
  5
21F
100
AcDbEntity
  8
0
  6
BYBLOCK
 62
0
100
AcDbBlockEnd
  0
ENDSEC
  0
SECTION
  2
ENTITIES
  0
LINE
  5
220
100
AcDbEntity
  8
0
100
AcDbLine
 62
7
  6
CONTINUOUS
 10
146.0955415614
 20
183.8850116677
 11
146.0955415614
 21
272.7850116677
  0
LINE
  5
221
100
AcDbEntity
  8
0
100
AcDbLine
 62
7
  6
CONTINUOUS
 10
152.4455415614
 20
279.1350116677
 11
152.4455415614
 21
177.5350116677
  0
LINE
  5
222
100
AcDbEntity
  8
0
100
AcDbLine
 62
7
  6
CONTINUOUS
 10
206.4703413201
 20
177.5350116596
 11
227.6055291549
 21
178.2730686822
  0
LINE
  5
223
100
AcDbEntity
  8
0
100
AcDbLine
 62
7
  6
CONTINUOUS
 10
206.470341561
 20
177.5350116677
 11
152.4455415614
 21
177.5350116677
  0
LINE
  5
224
100
AcDbEntity
  8
0
100
AcDbLine
 62
7
  6
CONTINUOUS
 10
229.6097415614
 20
179.1479116682
 11
229.0763415614
 21
179.1479116682
  0
LINE
  5
225
100
AcDbEntity
  8
0
100
AcDbLine
 62
7
  6
CONTINUOUS
 10
230.7146554302
 20
179.2495116686
 11
229.6097415614
 21
179.2495116686
  0
LINE
  5
226
100
AcDbEntity
  8
0
100
AcDbLine
 62
7
  6
CONTINUOUS
 10
227.6055225796
 20
184.6192003919
 11
206.4703418136
 21
183.8812077264
  0
LINE
  5
227
100
AcDbEntity
  8
0
100
AcDbLine
 62
7
  6
CONTINUOUS
 10
233.5036147446
 20
184.4498945303
 11
232.2640415614
 21
184.4229729108
  0
LINE
  5
228
100
AcDbEntity
  8
0
100
AcDbLine
 62
7
  6
CONTINUOUS
 10
146.0955415614
 20
183.8850116677
 11
206.470341561
 21
183.8850116677
  0
LINE
  5
229
100
AcDbEntity
  8
0
100
AcDbLine
 62
7
  6
CONTINUOUS
 10
230.7146554302
 20
188.5205116686
 11
229.6097415614
 21
188.5205116686
  0
LINE
  5
22A
100
AcDbEntity
  8
0
100
AcDbLine
 62
7
  6
CONTINUOUS
 10
229.6097415614
 20
188.6221116691
 11
229.0763415614
 21
188.6221116691
  0
LINE
  5
22B
100
AcDbEntity
  8
0
100
AcDbLine
 62
7
  6
CONTINUOUS
 10
227.6055053948
 20
184.6193071649
 11
229.0763415614
 21
184.619012454
  0
LINE
  5
22C
100
AcDbEntity
  8
0
100
AcDbLine
 62
7
  6
CONTINUOUS
 10
230.5471546066
 20
193.3230387141
 11
233.508552704
 21
193.4232492652
  0
LINE
  5
22D
100
AcDbEntity
  8
0
100
AcDbLine
 62
7
  6
CONTINUOUS
 10
236.6697375745
 20
197.8811488128
 11
267.6979824333
 21
198.4227488414
  0
LINE
  5
22E
100
AcDbEntity
  8
0
100
AcDbLine
 62
7
  6
CONTINUOUS
 10
267.6983049909
 20
198.6767415775
 11
236.6697425725
 21
198.135286936
  0
LINE
  5
22F
100
AcDbEntity
  8
0
100
AcDbLine
 62
7
  6
CONTINUOUS
 10
235.1723415614
 20
197.8811485547
 11
236.6697375454
 21
197.8811485547
  0
LINE
  5
230
100
AcDbEntity
  8
0
100
AcDbLine
 62
7
  6
CONTINUOUS
 10
278.9155699126
 20
209.916266759
 11
279.1651415614
 21
209.9162673095
  0
LINE
  5
231
100
AcDbEntity
  8
0
100
AcDbLine
 62
7
  6
CONTINUOUS
 10
204.8955415614
 20
279.1350116677
 11
204.8955415614
 21
177.5350116677
  0
LINE
  5
232
100
AcDbEntity
  8
0
100
AcDbLine
 62
7
  6
CONTINUOUS
 10
206.4703415614
 20
177.5350116677
 11
206.4703415614
 21
279.1350116677
  0
LINE
  5
233
100
AcDbEntity
  8
0
100
AcDbLine
 62
7
  6
CONTINUOUS
 10
279.1651415614
 20
228.3350116681
 11
235.1723415614
 21
228.3350116667
  0
LINE
  5
234
100
AcDbEntity
  8
0
100
AcDbLine
 62
7
  6
CONTINUOUS
 10
227.6055291497
 20
272.0508229626
 11
227.6055225796
 21
184.6192003919
  0
LINE
  5
235
100
AcDbEntity
  8
0
100
AcDbLine
 62
7
  6
CONTINUOUS
 10
229.0763415614
 20
277.5221052795
 11
229.0763415614
 21
263.1461539069
  0
LINE
  5
236
100
AcDbEntity
  8
0
100
AcDbLine
 62
7
  6
CONTINUOUS
 10
229.0763415614
 20
193.5238499809
 11
229.0763415614
 21
179.1479180566
  0
LINE
  5
237
100
AcDbEntity
  8
0
100
AcDbLine
 62
7
  6
CONTINUOUS
 10
229.6097415614
 20
179.1479180566
 11
229.6097415614
 21
188.6221052806
  0
LINE
  5
238
100
AcDbEntity
  8
0
100
AcDbLine
 62
7
  6
CONTINUOUS
 10
229.6097415614
 20
268.0479180555
 11
229.6097415614
 21
277.5221052795
  0
LINE
  5
239
100
AcDbEntity
  8
0
100
AcDbLine
 62
7
  6
CONTINUOUS
 10
230.5471546071
 20
268.1495116675
 11
230.5471546071
 21
263.3469838987
  0
LINE
  5
23A
100
AcDbEntity
  8
0
100
AcDbLine
 62
7
  6
CONTINUOUS
 10
230.5471546066
 20
193.3230387141
 11
230.5471546066
 21
188.5205116686
  0
LINE
  5
23B
100
AcDbEntity
  8
0
100
AcDbLine
 62
7
  6
CONTINUOUS
 10
230.7146554302
 20
179.2495116686
 11
230.7146554302
 21
188.5205116686
  0
LINE
  5
23C
100
AcDbEntity
  8
0
100
AcDbLine
 62
7
  6
CONTINUOUS
 10
230.7146554302
 20
268.1495116675
 11
230.7146554302
 21
277.4205116675
  0
LINE
  5
23D
100
AcDbEntity
  8
0
100
AcDbLine
 62
7
  6
CONTINUOUS
 10
232.2640415614
 20
180.7990897909
 11
232.2640415614
 21
186.9709335464
  0
LINE
  5
23E
100
AcDbEntity
  8
0
100
AcDbLine
 62
7
  6
CONTINUOUS
 10
232.2640415614
 20
269.6990897898
 11
232.2640415614
 21
275.8709335453
  0
LINE
  5
23F
100
AcDbEntity
  8
0
100
AcDbLine
 62
7
  6
CONTINUOUS
 10
233.701528452
 20
185.8030594861
 11
233.701528452
 21
193.2611660115
  0
LINE
  5
240
100
AcDbEntity
  8
0
100
AcDbLine
 62
7
  6
CONTINUOUS
 10
233.7015284323
 20
263.4088569864
 11
233.7015284323
 21
270.866893265
  0
LINE
  5
241
100
AcDbEntity
  8
0
100
AcDbLine
 62
7
  6
CONTINUOUS
 10
235.1723415614
 20
186.1087329117
 11
235.1723415614
 21
270.5612894448
  0
LINE
  5
242
100
AcDbEntity
  8
0
100
AcDbLine
 62
7
  6
CONTINUOUS
 10
236.6697425725
 20
198.135286936
 11
236.6697443575
 21
264.1287505918
  0
LINE
  5
243
100
AcDbEntity
  8
0
100
AcDbLine
 62
7
  6
CONTINUOUS
 10
235.1723415614
 20
264.1287505918
 11
236.6697443575
 21
264.1287505918
  0
LINE
  5
244
100
AcDbEntity
  8
0
100
AcDbLine
 62
7
  6
CONTINUOUS
 10
278.9155744727
 20
263.3913678778
 11
236.6697443575
 21
264.1287715854
  0
LINE
  5
245
100
AcDbEntity
  8
0
100
AcDbLine
 62
7
  6
CONTINUOUS
 10
233.5085526711
 20
263.2467740719
 11
230.5471546071
 21
263.3469838987
  0
LINE
  5
246
100
AcDbEntity
  8
0
100
AcDbLine
 62
7
  6
CONTINUOUS
 10
229.0763415614
 20
272.051015262
 11
227.6055261758
 21
272.0507208905
  0
LINE
  5
247
100
AcDbEntity
  8
0
100
AcDbLine
 62
7
  6
CONTINUOUS
 10
229.6097415614
 20
268.0479116671
 11
229.0763415614
 21
268.0479116671
  0
LINE
  5
248
100
AcDbEntity
  8
0
100
AcDbLine
 62
7
  6
CONTINUOUS
 10
230.7146554302
 20
268.1495116675
 11
229.6097415614
 21
268.1495116675
  0
LINE
  5
249
100
AcDbEntity
  8
0
100
AcDbLine
 62
7
  6
CONTINUOUS
 10
206.470341561
 20
272.7850116677
 11
146.0955415614
 21
272.7850116677
  0
LINE
  5
24A
100
AcDbEntity
  8
0
100
AcDbLine
 62
7
  6
CONTINUOUS
 10
232.2640415614
 20
272.2470442679
 11
233.5036147778
 21
272.2201288012
  0
LINE
  5
24B
100
AcDbEntity
  8
0
100
AcDbLine
 62
7
  6
CONTINUOUS
 10
206.4703414383
 20
272.7889112656
 11
227.6055291497
 21
272.0508229626
  0
LINE
  5
24C
100
AcDbEntity
  8
0
100
AcDbLine
 62
7
  6
CONTINUOUS
 10
230.7146554302
 20
277.4205116675
 11
229.6097415614
 21
277.4205116675
  0
LINE
  5
24D
100
AcDbEntity
  8
0
100
AcDbLine
 62
7
  6
CONTINUOUS
 10
229.6097415614
 20
277.522111668
 11
229.0763415614
 21
277.522111668
  0
LINE
  5
24E
100
AcDbEntity
  8
0
100
AcDbLine
 62
7
  6
CONTINUOUS
 10
227.6055226336
 20
278.3969548813
 11
206.4703418086
 21
279.1350116591
  0
LINE
  5
24F
100
AcDbEntity
  8
0
100
AcDbLine
 62
7
  6
CONTINUOUS
 10
152.4455415614
 20
279.1350116677
 11
206.470341561
 21
279.1350116677
  0
LINE
  5
250
100
AcDbEntity
  8
0
100
AcDbLine
 62
7
  6
CONTINUOUS
 10
278.5429900887
 20
209.0191150339
 11
268.5742136893
 21
199.0488733638
  0
LINE
  5
251
100
AcDbEntity
  8
0
100
AcDbLine
 62
7
  6
CONTINUOUS
 10
268.7490159112
 20
198.8688860179
 11
278.7187722966
 21
208.8386424033
  0
LINE
  5
252
100
AcDbEntity
  8
0
100
AcDbLine
 62
7
  6
CONTINUOUS
 10
278.9155653513
 20
209.9163423475
 11
278.9155744744
 21
263.3913678778
  0
LINE
  5
253
100
AcDbEntity
  8
0
100
AcDbLine
 62
7
  6
CONTINUOUS
 10
279.1651415614
 20
209.9162731539
 11
279.1651415614
 21
263.1374064801
  0
ARC
  5
254
100
AcDbEntity
  8
0
100
AcDbCircle
 62
7
  6
CONTINUOUS
 10
152.4455415614
 20
183.8850116677
 40
6.35
100
AcDbArc
 50
180.0
 51
270.0
  0
ARC
  5
255
100
AcDbEntity
  8
0
100
AcDbCircle
 62
7
  6
CONTINUOUS
 10
152.4455415614
 20
272.7850116677
 40
6.35
100
AcDbArc
 50
90.0
 51
180.0
  0
ARC
  5
256
100
AcDbEntity
  8
0
100
AcDbCircle
 62
7
  6
CONTINUOUS
 10
227.3319383657
 20
186.1086385448
 40
7.8403448274
100
AcDbArc
 50
271.9998472459
 51
360.0
  0
ARC
  5
257
100
AcDbEntity
  8
0
100
AcDbCircle
 62
7
  6
CONTINUOUS
 10
227.1209084337
 20
183.9781410548
 40
5.7643671338
100
AcDbArc
 50
295.3371698599
 51
304.3616194465
  0
ARC
  5
258
100
AcDbEntity
  8
0
100
AcDbCircle
 62
7
  6
CONTINUOUS
 10
227.4298777495
 20
183.0424287503
 40
4.77243538
100
AcDbArc
 50
272.1091332905
 51
276.9216677834
  0
ARC
  5
259
100
AcDbEntity
  8
0
100
AcDbCircle
 62
7
  6
CONTINUOUS
 10
228.9548914
 20
185.8062630799
 40
4.746643009
100
AcDbArc
 50
343.3961179813
 51
359.9613178047
  0
ARC
  5
25A
100
AcDbEntity
  8
0
100
AcDbCircle
 62
7
  6
CONTINUOUS
 10
227.6740000717
 20
181.4540152698
 40
3.1353512472
100
AcDbArc
 50
300.9538212471
 51
304.8346394377
  0
ARC
  5
25B
100
AcDbEntity
  8
0
100
AcDbCircle
 62
7
  6
CONTINUOUS
 10
227.9651110849
 20
181.0895381311
 40
2.6680251162
100
AcDbArc
 50
313.5126655784
 51
316.1556158536
  0
ARC
  5
25C
100
AcDbEntity
  8
0
100
AcDbCircle
 62
7
  6
CONTINUOUS
 10
230.7146554302
 20
186.9711255374
 40
1.5493861312
100
AcDbArc
 50
0.0
 51
90.0
  0
ARC
  5
25D
100
AcDbEntity
  8
0
100
AcDbCircle
 62
7
  6
CONTINUOUS
 10
230.7146554302
 20
180.7988977998
 40
1.5493861312
100
AcDbArc
 50
270.0
 51
360.0
  0
ARC
  5
25E
100
AcDbEntity
  8
0
100
AcDbCircle
 62
7
  6
CONTINUOUS
 10
277.6411415614
 20
209.9162731371
 40
1.524
100
AcDbArc
 50
315.0000000168
 51
360.0
  0
ARC
  5
25F
100
AcDbEntity
  8
0
100
AcDbCircle
 62
7
  6
CONTINUOUS
 10
267.6713851564
 20
199.9465167321
 40
1.524
100
AcDbArc
 50
271.0
 51
315.0000005409
  0
ARC
  5
260
100
AcDbEntity
  8
0
100
AcDbCircle
 62
7
  6
CONTINUOUS
 10
227.5523389012
 20
179.7961731608
 40
1.5239979735
100
AcDbArc
 50
271.9999746324
 51
359.9987636759
  0
ARC
  5
261
100
AcDbEntity
  8
0
100
AcDbCircle
 62
7
  6
CONTINUOUS
 10
230.5992910564
 20
191.8009007473
 40
1.5229997581
100
AcDbArc
 50
91.961734744
 51
179.9664532545
  0
ARC
  5
262
100
AcDbEntity
  8
0
100
AcDbCircle
 62
7
  6
CONTINUOUS
 10
267.675778769
 20
199.9466679539
 40
1.2701261481
100
AcDbArc
 50
271.0162180507
 51
315.0204251298
  0
ARC
  5
263
100
AcDbEntity
  8
0
100
AcDbCircle
 62
7
  6
CONTINUOUS
 10
227.3319009636
 20
270.5612902673
 40
7.8404405978
100
AcDbArc
 50
59.3446892976
 51
88.0001644275
  0
ARC
  5
264
100
AcDbEntity
  8
0
100
AcDbCircle
 62
7
  6
CONTINUOUS
 10
227.3319009636
 20
270.5612902673
 40
7.8404405978
100
AcDbArc
 50
359.9999970036
 51
54.4392363103
  0
ARC
  5
265
100
AcDbEntity
  8
0
100
AcDbCircle
 62
7
  6
CONTINUOUS
 10
227.4286417914
 20
273.4361210666
 40
4.9639862318
100
AcDbArc
 50
83.3632405747
 51
87.9636446836
  0
ARC
  5
266
100
AcDbEntity
  8
0
100
AcDbCircle
 62
7
  6
CONTINUOUS
 10
228.9310064997
 20
270.8602758894
 40
4.7706562112
100
AcDbArc
 50
0.079483634
 51
16.5620090263
  0
ARC
  5
267
100
AcDbEntity
  8
0
100
AcDbCircle
 62
7
  6
CONTINUOUS
 10
227.9589686158
 20
275.5719794862
 40
2.6782632064
100
AcDbArc
 50
43.8739305534
 51
46.3515300337
  0
ARC
  5
268
100
AcDbEntity
  8
0
100
AcDbCircle
 62
7
  6
CONTINUOUS
 10
230.7146554302
 20
275.8711255363
 40
1.5493861312
100
AcDbArc
 50
0.0
 51
90.0
  0
ARC
  5
269
100
AcDbEntity
  8
0
100
AcDbCircle
 62
7
  6
CONTINUOUS
 10
230.7146554302
 20
269.6988977987
 40
1.5493861312
100
AcDbArc
 50
270.0
 51
360.0
  0
ARC
  5
26A
100
AcDbEntity
  8
0
100
AcDbCircle
 62
7
  6
CONTINUOUS
 10
227.5523453904
 20
276.8738617935
 40
1.5239979734
100
AcDbArc
 50
0.0007995355
 51
88.0010294168
  0
ARC
  5
26B
100
AcDbEntity
  8
0
100
AcDbCircle
 62
7
  6
CONTINUOUS
 10
230.5992910563
 20
264.8691226172
 40
1.5229997613
100
AcDbArc
 50
180.0335478568
 51
268.0382653182
  0
ARC
  5
26C
100
AcDbEntity
  8
0
100
AcDbCircle
 62
7
  6
CONTINUOUS
 10
278.9111415614
 20
263.1374065633
 40
0.254
100
AcDbArc
 50
359.9999812322
 51
88.9999996018
  0
SPLINE
  5
26D
100
AcDbEntity
  8
0
100
AcDbSpline
 62
7
  6
CONTINUOUS
 70
0
 71
3
 72
8
 73
4
 74
0
 42
0.0000001
 43
0.0000001
 44
0.0000000001
 40
0.0
 40
0.0
 40
0.0
 40
0.0
 40
1.0
 40
1.0
 40
1.0
 40
1.0
 10
236.6697425431
 20
198.135286936
 30
0.0
 10
236.6358284809
 20
198.1078807418
 30
0.0
 10
236.5927037273
 20
198.0942013013
 30
0.0
 10
236.5526416131
 20
198.076988222
 30
0.0
  0
SPLINE
  5
26E
100
AcDbEntity
  8
0
100
AcDbSpline
 62
7
  6
CONTINUOUS
 70
0
 71
3
 72
8
 73
4
 74
0
 42
0.0000001
 43
0.0000001
 44
0.0000000001
 40
0.0
 40
0.0
 40
0.0
 40
0.0
 40
1.0
 40
1.0
 40
1.0
 40
1.0
 10
236.5526416131
 20
198.076988222
 30
0.0
 10
236.4126112117
 20
198.0168227901
 30
0.0
 10
236.272729583
 20
197.9551282353
 30
0.0
 10
236.1394801951
 20
197.8811485547
 30
0.0
  0
SPLINE
  5
26F
100
AcDbEntity
  8
0
100
AcDbSpline
 62
7
  6
CONTINUOUS
 70
0
 71
3
 72
12
 73
8
 74
0
 42
0.0000001
 43
0.0000001
 44
0.0000000001
 40
0.0
 40
0.0
 40
0.0
 40
0.0
 40
0.0264711661
 40
0.084630017
 40
0.2980984086
 40
0.6196667328
 40
1.0
 40
1.0
 40
1.0
 40
1.0
 10
236.669721991
 20
197.8811550964
 30
0.0
 10
236.6674566275
 20
197.8811152157
 30
0.0
 10
236.6630981676
 20
197.8893461199
 30
0.0
 10
236.659783882
 20
197.91262983
 30
0.0
 10
236.657673837
 20
197.9653551126
 30
0.0
 10
236.6614196028
 20
198.0426676926
 30
0.0
 10
236.6663487199
 20
198.1028348204
 30
0.0
 10
236.6697324094
 20
198.1352118941
 30
0.0
  0
SPLINE
  5
270
100
AcDbEntity
  8
0
100
AcDbSpline
 62
7
  6
CONTINUOUS
 70
0
 71
3
 72
9
 73
5
 74
0
 42
0.0000001
 43
0.0000001
 44
0.0000000001
 40
0.0
 40
0.0
 40
0.0
 40
0.0
 40
0.5000566607
 40
1.0
 40
1.0
 40
1.0
 40
1.0
 10
278.9155653513
 20
209.9163423475
 30
0.0
 10
278.9149318732
 20
209.7511920961
 30
0.0
 10
278.850924677
 20
209.4172322647
 30
0.0
 10
278.6596437607
 20
209.135967792
 30
0.0
 10
278.5429900887
 20
209.0191150339
 30
0.0
  0
SPLINE
  5
271
100
AcDbEntity
  8
0
100
AcDbSpline
 62
7
  6
CONTINUOUS
 70
0
 71
3
 72
14
 73
10
 74
0
 42
0.0000001
 43
0.0000001
 44
0.0000000001
 40
0.0
 40
0.0
 40
0.0
 40
0.0
 40
0.0195198621
 40
0.0762999552
 40
0.1683224927
 40
0.2924230178
 40
0.4437843766
 40
0.617255213
 40
1.0
 40
1.0
 40
1.0
 40
1.0
 10
278.7187743265
 20
208.8386444333
 30
0.0
 10
278.7199336213
 20
208.8398037281
 30
0.0
 10
278.7108970646
 20
208.845249227
 30
0.0
 10
278.7057833513
 20
208.8550032158
 30
0.0
 10
278.6874384675
 20
208.8718799106
 30
0.0
 10
278.6669761471
 20
208.89388272
 30
0.0
 10
278.6402027667
 20
208.9208577592
 30
0.0
 10
278.5986130076
 20
208.9631328269
 30
0.0
 10
278.5655952827
 20
208.9962574529
 30
0.0
 10
278.5428689449
 20
209.0189939412
 30
0.0
  0
SPLINE
  5
272
100
AcDbEntity
  8
0
100
AcDbSpline
 62
7
  6
CONTINUOUS
 70
0
 71
3
 72
14
 73
10
 74
0
 42
0.0000001
 43
0.0000001
 44
0.0000000001
 40
0.0
 40
0.0
 40
0.0
 40
0.0
 40
0.0197059931
 40
0.0766433762
 40
0.1688453037
 40
0.2931227214
 40
0.4445833091
 40
0.6180027431
 40
1.0
 40
1.0
 40
1.0
 40
1.0
 10
267.6979868223
 20
198.4227489179
 30
0.0
 10
267.6996559816
 20
198.4227780532
 30
0.0
 10
267.6974544632
 20
198.4330353829
 30
0.0
 10
267.7004296969
 20
198.4437913816
 30
0.0
 10
267.699342973
 20
198.4688979838
 30
0.0
 10
267.7000118828
 20
198.4992527998
 30
0.0
 10
267.6996679301
 20
198.5375977645
 30
0.0
 10
267.699252582
 20
198.5973554622
 30
0.0
 10
267.6985519183
 20
198.6444551321
 30
0.0
 10
267.6979906674
 20
198.6768115572
 30
0.0
  0
SPLINE
  5
273
100
AcDbEntity
  8
0
100
AcDbSpline
 62
7
  6
CONTINUOUS
 70
0
 71
3
 72
14
 73
10
 74
0
 42
0.0000001
 43
0.0000001
 44
0.0000000001
 40
0.0
 40
0.0
 40
0.0
 40
0.0
 40
0.3829273176
 40
0.5563075249
 40
0.7076441863
 40
0.8317493246
 40
0.9237427484
 40
0.9804942498
 40
1.0
 40
1.0
 40
1.0
 40
1.0
 10
268.5738336826
 20
199.0484933013
 30
0.0
 10
268.5964804607
 20
199.0258426236
 30
0.0
 10
268.629371118
 20
198.9928519843
 30
0.0
 10
268.6707955841
 20
198.9507485701
 30
0.0
 10
268.6974535029
 20
198.9238921092
 30
0.0
 10
268.7178257614
 20
198.9019801647
 30
0.0
 10
268.7360898195
 20
198.8851737152
 30
0.0
 10
268.7411668964
 20
198.8754521847
 30
0.0
 10
268.7501660504
 20
198.8700362201
 30
0.0
 10
268.7490123892
 20
198.868882496
 30
0.0
  0
SPLINE
  5
274
100
AcDbEntity
  8
0
100
AcDbSpline
 62
7
  6
CONTINUOUS
 70
0
 71
3
 72
17
 73
13
 74
0
 42
0.0000001
 43
0.0000001
 44
0.0000000001
 40
0.0
 40
0.0
 40
0.0
 40
0.0
 40
0.1840679735
 40
0.3701746105
 40
0.5480286868
 40
0.7062373644
 40
0.8343449949
 40
0.9267142848
 40
0.9583254021
 40
0.9805032565
 40
0.993937709
 40
1.0
 40
1.0
 40
1.0
 40
1.0
 10
233.5036150217
 20
272.2201294343
 30
0.0
 10
233.5902409111
 20
272.2421220705
 30
0.0
 10
233.7646428661
 20
272.2855973682
 30
0.0
 10
234.0234178972
 20
272.3476273707
 30
0.0
 10
234.270601454
 20
272.4039681634
 30
0.0
 10
234.491057539
 20
272.4511754831
 30
0.0
 10
234.6714108553
 20
272.4861088795
 30
0.0
 10
234.7926121664
 20
272.5059246277
 30
0.0
 10
234.8626464155
 20
272.5140471083
 30
0.0
 10
234.8960829296
 20
272.5155018124
 30
0.0
 10
234.9148535965
 20
272.5151450711
 30
0.0
 10
234.9259247614
 20
272.511412968
 30
0.0
 10
234.9266553959
 20
272.5085615468
 30
0.0
  0
SPLINE
  5
275
100
AcDbEntity
  8
0
100
AcDbSpline
 62
7
  6
CONTINUOUS
 70
0
 71
3
 72
11
 73
7
 74
0
 42
0.0000001
 43
0.0000001
 44
0.0000000001
 40
0.0
 40
0.0
 40
0.0
 40
0.0
 40
0.2210530704
 40
0.4353010987
 40
0.6855376214
 40
1.0
 40
1.0
 40
1.0
 40
1.0
 10
233.7016416215
 20
263.4088610992
 30
0.0
 10
233.701637825
 20
263.3884735676
 30
0.0
 10
233.6945630919
 20
263.347309493
 30
0.0
 10
233.6535515271
 20
263.2961455464
 30
0.0
 10
233.58845792
 20
263.2626918083
 30
0.0
 10
233.5373264605
 20
263.2511720991
 30
0.0
 10
233.5086588203
 20
263.2467770231
 30
0.0
  0
SPLINE
  5
276
100
AcDbEntity
  8
0
100
AcDbSpline
 62
7
  6
CONTINUOUS
 70
0
 71
3
 72
14
 73
10
 74
0
 42
0.0000001
 43
0.0000001
 44
0.0000000001
 40
0.0
 40
0.0
 40
0.0
 40
0.0
 40
0.3536841846
 40
0.5248559659
 40
0.6783516879
 40
0.8046302023
 40
0.8991483561
 40
0.9612294741
 40
1.0
 40
1.0
 40
1.0
 40
1.0
 10
233.701528715
 20
270.8668932856
 30
0.0
 10
233.883760309
 20
270.8656165014
 30
0.0
 10
234.1543390716
 20
270.8544981605
 30
0.0
 10
234.5019436096
 20
270.816811012
 30
0.0
 10
234.7313730557
 20
270.7792225513
 30
0.0
 10
234.9190821697
 20
270.733602379
 30
0.0
 10
235.0559521391
 20
270.6822198502
 30
0.0
 10
235.1434360588
 20
270.6307588492
 30
0.0
 10
235.1723238521
 20
270.5812658514
 30
0.0
 10
235.1723230347
 20
270.5612893061
 30
0.0
  0
SPLINE
  5
277
100
AcDbEntity
  8
0
100
AcDbSpline
 62
7
  6
CONTINUOUS
 70
0
 71
3
 72
11
 73
7
 74
0
 42
0.0000001
 43
0.0000001
 44
0.0000000001
 40
0.0
 40
0.0
 40
0.0
 40
0.0
 40
0.2427132975
 40
0.5031160201
 40
0.7615686635
 40
1.0
 40
1.0
 40
1.0
 40
1.0
 10
233.7015287167
 20
263.408865234
 30
0.0
 10
233.8877828211
 20
263.4024845132
 30
0.0
 10
234.2749470983
 20
263.3183827939
 30
0.0
 10
234.7722514259
 20
262.9828475086
 30
0.0
 10
235.0992020839
 20
262.4832690282
 30
0.0
 10
235.1723243848
 20
262.0980729276
 30
0.0
 10
235.1723228431
 20
261.914997392
 30
0.0
  0
SPLINE
  5
278
100
AcDbEntity
  8
0
100
AcDbSpline
 62
7
  6
CONTINUOUS
 70
0
 71
3
 72
11
 73
7
 74
0
 42
0.0000001
 43
0.0000001
 44
0.0000000001
 40
0.0
 40
0.0
 40
0.0
 40
0.0
 40
0.237074044
 40
0.4953196414
 40
0.7564773512
 40
1.0
 40
1.0
 40
1.0
 40
1.0
 10
233.5085535403
 20
263.2467263274
 30
0.0
 10
233.6886007329
 20
263.2379315748
 30
0.0
 10
234.064719342
 20
263.1468939973
 30
0.0
 10
234.543145876
 20
262.8015615432
 30
0.0
 10
234.8574781197
 20
262.2971478518
 30
0.0
 10
234.9307566215
 20
261.9109097141
 30
0.0
 10
234.9327710204
 20
261.725755541
 30
0.0
  0
SPLINE
  5
279
100
AcDbEntity
  8
0
100
AcDbSpline
 62
7
  6
CONTINUOUS
 70
0
 71
3
 72
17
 73
13
 74
0
 42
0.0000001
 43
0.0000001
 44
0.0000000001
 40
0.0
 40
0.0
 40
0.0
 40
0.0
 40
0.0195876606
 40
0.0485406618
 40
0.085724998
 40
0.1304215801
 40
0.2394288071
 40
0.3696670433
 40
0.5153916097
 40
0.6714135804
 40
0.8339937601
 40
1.0
 40
1.0
 40
1.0
 40
1.0
 10
233.5085477548
 20
263.2466340903
 30
0.0
 10
233.4550841876
 20
263.2308597432
 30
0.0
 10
233.332652883
 20
263.1627023572
 30
0.0
 10
233.1353327557
 20
263.0200453296
 30
0.0
 10
232.895870285
 20
262.8139239667
 30
0.0
 10
232.4996122668
 20
262.4424833232
 30
0.0
 10
231.9316970337
 20
261.8672053039
 30
0.0
 10
231.1825099992
 20
261.0678885669
 30
0.0
 10
230.3556670724
 20
260.158116496
 30
0.0
 10
229.4698963084
 20
259.1776017103
 30
0.0
 10
228.5485408769
 20
258.1514520486
 30
0.0
 10
227.9237958854
 20
257.4556805521
 30
0.0
 10
227.6055175996
 20
257.1065724139
 30
0.0
  0
SPLINE
  5
27A
100
AcDbEntity
  8
0
100
AcDbSpline
 62
7
  6
CONTINUOUS
 70
0
 71
3
 72
15
 73
11
 74
0
 42
0.0000001
 43
0.0000001
 44
0.0000000001
 40
0.0
 40
0.0
 40
0.0
 40
0.0
 40
0.279126599
 40
0.4156948984
 40
0.5486272768
 40
0.676299976
 40
0.7961782684
 40
0.9051236255
 40
0.9546269141
 40
1.0
 40
1.0
 40
1.0
 40
1.0
 10
227.6055175996
 20
257.1065724139
 30
0.0
 10
227.9368910408
 20
257.5238921346
 30
0.0
 10
228.4214435343
 20
258.1525381405
 30
0.0
 10
229.0463229723
 20
258.9931407317
 30
0.0
 10
229.4831485551
 20
259.613092718
 30
0.0
 10
229.8766239831
 20
260.224004433
 30
0.0
 10
230.2066613782
 20
260.8202496918
 30
0.0
 10
230.4079268601
 20
261.3139669083
 30
0.0
 10
230.5160589025
 20
261.6879039272
 30
0.0
 10
230.5346407666
 20
261.8708154628
 30
0.0
 10
230.5274807194
 20
261.9571411583
 30
0.0
  0
SPLINE
  5
27B
100
AcDbEntity
  8
0
100
AcDbSpline
 62
7
  6
CONTINUOUS
 70
0
 71
3
 72
13
 73
9
 74
0
 42
0.0000001
 43
0.0000001
 44
0.0000000001
 40
0.0
 40
0.0
 40
0.0
 40
0.0
 40
0.4028079013
 40
0.7084946003
 40
0.8222097033
 40
0.9089669647
 40
0.9683566312
 40
1.0
 40
1.0
 40
1.0
 40
1.0
 10
230.5276241065
 20
261.9588404508
 30
0.0
 10
230.5280828029
 20
262.1452643124
 30
0.0
 10
230.529408087
 20
262.473155653
 30
0.0
 10
230.5325736054
 20
262.8536928265
 30
0.0
 10
230.536499925
 20
263.0878940629
 30
0.0
 10
230.5391717806
 20
263.2081762107
 30
0.0
 10
230.5427154941
 20
263.2903044015
 30
0.0
 10
230.5448326831
 20
263.3324996609
 30
0.0
 10
230.5471928536
 20
263.3469531661
 30
0.0
  0
SPLINE
  5
27C
100
AcDbEntity
  8
0
100
AcDbSpline
 62
7
  6
CONTINUOUS
 70
0
 71
3
 72
11
 73
7
 74
0
 42
0.0000001
 43
0.0000001
 44
0.0000000001
 40
0.0
 40
0.0
 40
0.0
 40
0.0
 40
0.213198572
 40
0.4604488845
 40
0.7323181988
 40
1.0
 40
1.0
 40
1.0
 40
1.0
 10
229.0763433134
 20
263.1461537157
 30
0.0
 10
229.0763432989
 20
263.0002380954
 30
0.0
 10
229.1551653909
 20
262.6813676664
 30
0.0
 10
229.4896547542
 20
262.2878144508
 30
0.0
 10
229.9751642595
 20
262.0314436662
 30
0.0
 10
230.344508292
 20
261.9656836836
 30
0.0
 10
230.5275857109
 20
261.9588588088
 30
0.0
  0
SPLINE
  5
27D
100
AcDbEntity
  8
0
100
AcDbSpline
 62
7
  6
CONTINUOUS
 70
0
 71
3
 72
12
 73
8
 74
0
 42
0.0000001
 43
0.0000001
 44
0.0000000001
 40
0.0
 40
0.0
 40
0.0
 40
0.0
 40
0.1068677709
 40
0.2232579973
 40
0.4726139269
 40
0.7338772138
 40
1.0
 40
1.0
 40
1.0
 40
1.0
 10
229.0763433134
 20
263.1461527375
 30
0.0
 10
229.0763448365
 20
262.9241133417
 30
0.0
 10
229.0394888477
 20
262.4603116895
 30
0.0
 10
228.8749442995
 20
261.4917834835
 30
0.0
 10
228.5590953423
 20
260.2264794139
 30
0.0
 10
228.1026117043
 20
258.6785958044
 30
0.0
 10
227.7727678581
 20
257.6335944048
 30
0.0
 10
227.6055261855
 20
257.1065696984
 30
0.0
  0
SPLINE
  5
27E
100
AcDbEntity
  8
0
100
AcDbSpline
 62
7
  6
CONTINUOUS
 70
0
 71
3
 72
12
 73
8
 74
0
 42
0.0000001
 43
0.0000001
 44
0.0000000001
 40
0.0
 40
0.0
 40
0.0
 40
0.0
 40
0.2661226835
 40
0.5273859529
 40
0.7767419439
 40
0.8931322513
 40
1.0
 40
1.0
 40
1.0
 40
1.0
 10
227.6055054976
 20
199.5635188286
 30
0.0
 10
227.7727490059
 20
199.0364885669
 30
0.0
 10
228.1025968412
 20
197.9914760865
 30
0.0
 10
228.5590866195
 20
196.4435759763
 30
0.0
 10
228.8749406303
 20
195.1782581528
 30
0.0
 10
229.0394879291
 20
194.2097192398
 30
0.0
 10
229.0763447884
 20
193.7459123977
 30
0.0
 10
229.0763432891
 20
193.523870613
 30
0.0
  0
SPLINE
  5
27F
100
AcDbEntity
  8
0
100
AcDbSpline
 62
7
  6
CONTINUOUS
 70
0
 71
3
 72
13
 73
9
 74
0
 42
0.0000001
 43
0.0000001
 44
0.0000000001
 40
0.0
 40
0.0
 40
0.0
 40
0.0
 40
0.0316368539
 40
0.0910219115
 40
0.1777764703
 40
0.2914907589
 40
0.5971814406
 40
1.0
 40
1.0
 40
1.0
 40
1.0
 10
230.5471569802
 20
193.3230620423
 30
0.0
 10
230.5447961715
 20
193.3375124595
 30
0.0
 10
230.5426795574
 20
193.3797029488
 30
0.0
 10
230.5391352025
 20
193.461824986
 30
0.0
 10
230.5364634756
 20
193.582104019
 30
0.0
 10
230.5325367766
 20
193.8163065564
 30
0.0
 10
230.5293712135
 20
194.1968519893
 30
0.0
 10
230.5280458424
 20
194.5247516747
 30
0.0
 10
230.527587132
 20
194.7111813667
 30
0.0
  0
SPLINE
  5
280
100
AcDbEntity
  8
0
100
AcDbSpline
 62
7
  6
CONTINUOUS
 70
0
 71
3
 72
15
 73
11
 74
0
 42
0.0000001
 43
0.0000001
 44
0.0000000001
 40
0.0
 40
0.0
 40
0.0
 40
0.0
 40
0.0453775654
 40
0.0948577677
 40
0.2037874191
 40
0.3236833231
 40
0.4513667674
 40
0.5842948783
 40
0.7208672835
 40
1.0
 40
1.0
 40
1.0
 40
1.0
 10
230.5274804102
 20
194.7128821358
 30
0.0
 10
230.5337239403
 20
194.7992840109
 30
0.0
 10
230.5147574073
 20
194.9818992619
 30
0.0
 10
230.4077344345
 20
195.3560999425
 30
0.0
 10
230.2076142285
 20
195.8502900878
 30
0.0
 10
229.8760952392
 20
196.4457720145
 30
0.0
 10
229.4824846487
 20
197.0565561703
 30
0.0
 10
229.0461339328
 20
197.6768400576
 30
0.0
 10
228.4215125262
 20
198.5175954215
 30
0.0
 10
227.9369890991
 20
199.1462541421
 30
0.0
 10
227.6054826067
 20
199.5634555273
 30
0.0
  0
SPLINE
  5
281
100
AcDbEntity
  8
0
100
AcDbSpline
 62
7
  6
CONTINUOUS
 70
0
 71
3
 72
11
 73
7
 74
0
 42
0.0000001
 43
0.0000001
 44
0.0000000001
 40
0.0
 40
0.0
 40
0.0
 40
0.0
 40
0.2136347809
 40
0.4611167019
 40
0.73284344
 40
1.0
 40
1.0
 40
1.0
 40
1.0
 10
229.0763485762
 20
193.523856442
 30
0.0
 10
229.0763431005
 20
193.6700716778
 30
0.0
 10
229.1554502239
 20
193.9894198682
 30
0.0
 10
229.490574814
 20
194.3829308704
 30
0.0
 10
229.9759852564
 20
194.6387880481
 30
0.0
 10
230.3448676102
 20
194.7043648384
 30
0.0
 10
230.5275871465
 20
194.7111760195
 30
0.0
  0
SPLINE
  5
282
100
AcDbEntity
  8
0
100
AcDbSpline
 62
7
  6
CONTINUOUS
 70
0
 71
3
 72
24
 73
20
 74
0
 42
0.0000001
 43
0.0000001
 44
0.0000000001
 40
0.0
 40
0.0
 40
0.0
 40
0.0
 40
0.195035886
 40
0.3826213196
 40
0.5554608739
 40
0.6342780649
 40
0.7069760497
 40
0.7728723764
 40
0.8313172528
 40
0.8817658324
 40
0.9237195042
 40
0.9413819558
 40
0.9567826665
 40
0.9698832769
 40
0.9806463737
 40
0.989047747
 40
0.9950747523
 40
0.9987185327
 40
1.0
 40
1.0
 40
1.0
 40
1.0
 10
227.6055244073
 20
184.619200268
 30
0.0
 10
227.6089757056
 20
184.20658845
 30
0.0
 10
227.6150939964
 20
183.397121119
 30
0.0
 10
227.622005517
 20
182.2219841779
 30
0.0
 10
227.6257287693
 20
181.2927112944
 30
0.0
 10
227.6272484138
 20
180.6064941651
 30
0.0
 10
227.6276382177
 20
180.1465288922
 30
0.0
 10
227.6273191181
 20
179.7296649442
 30
0.0
 10
227.626296555
 20
179.3598712261
 30
0.0
 10
227.6245846586
 20
179.0407429665
 30
0.0
 10
227.6225306051
 20
178.8078783281
 30
0.0
 10
227.6204383546
 20
178.6492081551
 30
0.0
 10
227.6188387791
 20
178.5514958286
 30
0.0
 10
227.6169856865
 20
178.4686204065
 30
0.0
 10
227.6152952014
 20
178.3998967059
 30
0.0
 10
227.6126984726
 20
178.3478966247
 30
0.0
 10
227.6118978011
 20
178.3068530221
 30
0.0
 10
227.6075662187
 20
178.2888524706
 30
0.0
 10
227.6082406334
 20
178.2731322261
 30
0.0
 10
227.6055302503
 20
178.2730687205
 30
0.0
  0
SPLINE
  5
283
100
AcDbEntity
  8
0
100
AcDbSpline
 62
7
  6
CONTINUOUS
 70
0
 71
3
 72
17
 73
13
 74
0
 42
0.0000001
 43
0.0000001
 44
0.0000000001
 40
0.0
 40
0.0
 40
0.0
 40
0.0
 40
0.0241737531
 40
0.056621479
 40
0.0968935888
 40
0.1441639145
 40
0.2562151496
 40
0.386646011
 40
0.5298882165
 40
0.6818765911
 40
0.8392545265
 40
1.0
 40
1.0
 40
1.0
 40
1.0
 10
234.9332393424
 20
194.9440882814
 30
0.0
 10
234.8640403295
 20
194.9542895652
 30
0.0
 10
234.7060976037
 20
195.0023959159
 30
0.0
 10
234.4488161911
 20
195.1136523229
 30
0.0
 10
234.1396749529
 20
195.2722968551
 30
0.0
 10
233.6366529183
 20
195.5560848262
 30
0.0
 10
232.9227152677
 20
195.9961429282
 30
0.0
 10
231.9865694802
 20
196.6038365492
 30
0.0
 10
230.9616102484
 20
197.2868483124
 30
0.0
 10
229.8766379682
 20
198.0203009703
 30
0.0
 10
228.751689639
 20
198.7850444043
 30
0.0
 10
227.9904611353
 20
199.3025739949
 30
0.0
 10
227.6055059543
 20
199.5636186113
 30
0.0
  0
SPLINE
  5
284
100
AcDbEntity
  8
0
100
AcDbSpline
 62
7
  6
CONTINUOUS
 70
0
 71
3
 72
17
 73
13
 74
0
 42
0.0000001
 43
0.0000001
 44
0.0000000001
 40
0.0
 40
0.0
 40
0.0
 40
0.0
 40
0.1607775827
 40
0.3181902512
 40
0.4702056607
 40
0.6134649194
 40
0.7439007922
 40
0.8559389999
 40
0.9031939211
 40
0.9434431624
 40
0.9758609359
 40
1.0
 40
1.0
 40
1.0
 40
1.0
 10
227.6055062093
 20
257.106279042
 30
0.0
 10
227.9905782552
 20
257.3673984937
 30
0.0
 10
228.7520429562
 20
257.8850859422
 30
0.0
 10
229.877325328
 20
258.6500595072
 30
0.0
 10
230.9625945303
 20
259.3837104719
 30
0.0
 10
231.987777739
 20
260.0668613139
 30
0.0
 10
232.9240492925
 20
260.674610736
 30
0.0
 10
233.6380210978
 20
261.1146437038
 30
0.0
 10
234.1409954659
 20
261.3983291882
 30
0.0
 10
234.4500246927
 20
261.5568386197
 30
0.0
 10
234.7071379135
 20
261.6679105365
 30
0.0
 10
234.8649601831
 20
261.7158574319
 30
0.0
 10
234.9340808967
 20
261.7259483211
 30
0.0
  0
SPLINE
  5
285
100
AcDbEntity
  8
0
100
AcDbSpline
 62
7
  6
CONTINUOUS
 70
0
 71
3
 72
11
 73
7
 74
0
 42
0.0000001
 43
0.0000001
 44
0.0000000001
 40
0.0
 40
0.0
 40
0.0
 40
0.0
 40
0.3218118284
 40
0.5753864899
 40
0.787181866
 40
1.0
 40
1.0
 40
1.0
 40
1.0
 10
234.9341117836
 20
261.7263192325
 30
0.0
 10
234.9694658747
 20
261.731543123
 30
0.0
 10
235.0323300442
 20
261.744879488
 30
0.0
 10
235.1123092314
 20
261.7836836049
 30
0.0
 10
235.1632965489
 20
261.8429291172
 30
0.0
 10
235.1723385993
 20
261.8913644438
 30
0.0
 10
235.1723415614
 20
261.9149983885
 30
0.0
  0
SPLINE
  5
286
100
AcDbEntity
  8
0
100
AcDbSpline
 62
7
  6
CONTINUOUS
 70
0
 71
3
 72
11
 73
7
 74
0
 42
0.0000001
 43
0.0000001
 44
0.0000000001
 40
0.0
 40
0.0
 40
0.0
 40
0.0
 40
0.2127245122
 40
0.4244637286
 40
0.6780603941
 40
1.0
 40
1.0
 40
1.0
 40
1.0
 10
235.1723415614
 20
194.7550583857
 30
0.0
 10
235.1723388408
 20
194.7787465072
 30
0.0
 10
235.163256554
 20
194.8272953798
 30
0.0
 10
235.1121007435
 20
194.886671878
 30
0.0
 10
235.0317987503
 20
194.9254184628
 30
0.0
 10
234.9687374347
 20
194.9386922269
 30
0.0
 10
234.9332726067
 20
194.943932325
 30
0.0
  0
SPLINE
  5
287
100
AcDbEntity
  8
0
100
AcDbSpline
 62
7
  6
CONTINUOUS
 70
0
 71
3
 72
24
 73
20
 74
0
 42
0.0000001
 43
0.0000001
 44
0.0000000001
 40
0.0
 40
0.0
 40
0.0
 40
0.0
 40
0.0012813364
 40
0.0049249254
 40
0.0109517054
 40
0.0193528484
 40
0.0301157389
 40
0.0432161842
 40
0.0586167637
 40
0.0762791088
 40
0.1182326075
 40
0.1686810625
 40
0.227125867
 40
0.2930221902
 40
0.365720233
 40
0.444537534
 40
0.6173774697
 40
0.804963436
 40
1.0
 40
1.0
 40
1.0
 40
1.0
 10
227.605524469
 20
278.3969548175
 30
0.0
 10
227.6082345831
 20
278.3968919304
 30
0.0
 10
227.6075606153
 20
278.3811714957
 30
0.0
 10
227.6118921943
 20
278.3631732101
 30
0.0
 10
227.612693475
 20
278.3221304612
 30
0.0
 10
227.6152907018
 20
278.2701322251
 30
0.0
 10
227.6169816967
 20
278.201409854
 30
0.0
 10
227.6188351697
 20
278.1185357467
 30
0.0
 10
227.620435079
 20
278.0208244958
 30
0.0
 10
227.6225277549
 20
277.8621555836
 30
0.0
 10
227.624582366
 20
277.6292923579
 30
0.0
 10
227.6262950493
 20
277.310165649
 30
0.0
 10
227.6273184194
 20
276.9403732392
 30
0.0
 10
227.6276382915
 20
276.5235103249
 30
0.0
 10
227.6272492584
 20
276.0635458023
 30
0.0
 10
227.6257307423
 20
275.3773291483
 30
0.0
 10
227.6220085984
 20
274.4480563142
 30
0.0
 10
227.6150983881
 20
273.2729188068
 30
0.0
 10
227.608981789
 20
272.4634508349
 30
0.0
 10
227.6055300938
 20
272.050838572
 30
0.0
  0
SPLINE
  5
288
100
AcDbEntity
  8
0
100
AcDbSpline
 62
7
  6
CONTINUOUS
 70
0
 71
3
 72
17
 73
13
 74
0
 42
0.0000001
 43
0.0000001
 44
0.0000000001
 40
0.0
 40
0.0
 40
0.0
 40
0.0
 40
0.0197152946
 40
0.048212318
 40
0.0852137664
 40
0.1299734693
 40
0.2393240958
 40
0.3696851425
 40
0.5152240652
 40
0.6711825186
 40
0.8338963812
 40
1.0
 40
1.0
 40
1.0
 40
1.0
 10
233.5085508429
 20
193.4232979126
 30
0.0
 10
233.4543353068
 20
193.4377866562
 30
0.0
 10
233.3312693781
 20
193.5033910847
 30
0.0
 10
233.1353721452
 20
193.645675072
 30
0.0
 10
232.8964962864
 20
193.8500122833
 30
0.0
 10
232.4995486197
 20
194.2218988156
 30
0.0
 10
231.9332208823
 20
194.8011215702
 30
0.0
 10
231.1835179728
 20
195.6013349549
 30
0.0
 10
230.3553077859
 20
196.509764507
 30
0.0
 10
229.4690240625
 20
197.4897850574
 30
0.0
 10
228.5491530626
 20
198.5183239829
 30
0.0
 10
227.9244424122
 20
199.2153175168
 30
0.0
 10
227.6050490658
 20
199.5639284349
 30
0.0
  0
SPLINE
  5
289
100
AcDbEntity
  8
0
100
AcDbSpline
 62
7
  6
CONTINUOUS
 70
0
 71
3
 72
11
 73
7
 74
0
 42
0.0000001
 43
0.0000001
 44
0.0000000001
 40
0.0
 40
0.0
 40
0.0
 40
0.0
 40
0.23660714
 40
0.4946614535
 40
0.7559962114
 40
1.0
 40
1.0
 40
1.0
 40
1.0
 10
233.5085527394
 20
193.4232413422
 30
0.0
 10
233.6882332034
 20
193.4320156996
 30
0.0
 10
234.0638199332
 20
193.5227651502
 30
0.0
 10
234.5422129166
 20
193.8673996328
 30
0.0
 10
234.8571930319
 20
194.3718117931
 30
0.0
 10
234.9307448724
 20
194.7585314878
 30
0.0
 10
234.9327855857
 20
194.9440385793
 30
0.0
  0
SPLINE
  5
28A
100
AcDbEntity
  8
0
100
AcDbSpline
 62
7
  6
CONTINUOUS
 70
0
 71
3
 72
11
 73
7
 74
0
 42
0.0000001
 43
0.0000001
 44
0.0000000001
 40
0.0
 40
0.0
 40
0.0
 40
0.0
 40
0.2384313785
 40
0.4968840156
 40
0.7572867218
 40
1.0
 40
1.0
 40
1.0
 40
1.0
 10
235.1723235107
 20
194.7550239006
 30
0.0
 10
235.172324684
 20
194.5719484514
 30
0.0
 10
235.099201995
 20
194.1867526945
 30
0.0
 10
234.772250954
 20
193.6871749047
 30
0.0
 10
234.27494672
 20
193.3516402915
 30
0.0
 10
233.8877826969
 20
193.2675388387
 30
0.0
 10
233.7015287263
 20
193.2611581741
 30
0.0
  0
SPLINE
  5
28B
100
AcDbEntity
  8
0
100
AcDbSpline
 62
7
  6
CONTINUOUS
 70
0
 71
3
 72
11
 73
7
 74
0
 42
0.0000001
 43
0.0000001
 44
0.0000000001
 40
0.0
 40
0.0
 40
0.0
 40
0.0
 40
0.3144556784
 40
0.5646939708
 40
0.7789445406
 40
1.0
 40
1.0
 40
1.0
 40
1.0
 10
233.5086728748
 20
193.4232474333
 30
0.0
 10
233.5373397716
 20
193.4188518073
 30
0.0
 10
233.588470452
 20
193.4073312751
 30
0.0
 10
233.6535637627
 20
193.3738782131
 30
0.0
 10
233.6945772546
 20
193.3227151
 30
0.0
 10
233.7016523991
 20
193.2815504011
 30
0.0
 10
233.7016559403
 20
193.2611626726
 30
0.0
  0
SPLINE
  5
28C
100
AcDbEntity
  8
0
100
AcDbSpline
 62
7
  6
CONTINUOUS
 70
0
 71
3
 72
9
 73
5
 74
0
 42
0.0000001
 43
0.0000001
 44
0.0000000001
 40
0.0
 40
0.0
 40
0.0
 40
0.0
 40
0.5052681667
 40
1.0
 40
1.0
 40
1.0
 40
1.0
 10
229.8075913648
 20
277.5099391696
 30
0.0
 10
229.5137244808
 20
277.7903628567
 30
0.0
 10
228.8055613872
 20
278.2183322659
 30
0.0
 10
228.0029374321
 20
278.382113024
 30
0.0
 10
227.605483014
 20
278.3967980094
 30
0.0
  0
SPLINE
  5
28D
100
AcDbEntity
  8
0
100
AcDbSpline
 62
7
  6
CONTINUOUS
 70
0
 71
3
 72
9
 73
5
 74
0
 42
0.0000001
 43
0.0000001
 44
0.0000000001
 40
0.0
 40
0.0
 40
0.0
 40
0.0
 40
0.2614884052
 40
1.0
 40
1.0
 40
1.0
 40
1.0
 10
233.5036130841
 20
272.2201260914
 30
0.0
 10
233.4486468919
 20
272.5150842948
 30
0.0
 10
233.1880982054
 20
273.6327072257
 30
0.0
 10
232.7288376899
 20
274.707145564
 30
0.0
 10
232.2788866501
 20
275.4251965633
 30
0.0
  0
SPLINE
  5
28E
100
AcDbEntity
  8
0
100
AcDbSpline
 62
7
  6
CONTINUOUS
 70
0
 71
3
 72
9
 73
5
 74
0
 42
0.0000001
 43
0.0000001
 44
0.0000000001
 40
0.0
 40
0.0
 40
0.0
 40
0.0
 40
0.5128539111
 40
1.0
 40
1.0
 40
1.0
 40
1.0
 10
230.3830792091
 20
277.4486420186
 30
0.0
 10
230.0214441903
 20
277.6984176035
 30
0.0
 10
229.258443385
 20
278.1083607469
 30
0.0
 10
228.4170254217
 20
278.3185413285
 30
0.0
 10
228.0023517598
 20
278.3668427361
 30
0.0
  0
SPLINE
  5
28F
100
AcDbEntity
  8
0
100
AcDbSpline
 62
7
  6
CONTINUOUS
 70
0
 71
3
 72
14
 73
10
 74
0
 42
0.0000001
 43
0.0000001
 44
0.0000000001
 40
0.0
 40
0.0
 40
0.0
 40
0.0
 40
0.3536834225
 40
0.5248550347
 40
0.6783507756
 40
0.8046294839
 40
0.8991479445
 40
0.9612293826
 40
1.0
 40
1.0
 40
1.0
 40
1.0
 10
233.7015286343
 20
185.8031287257
 30
0.0
 10
233.8837605371
 20
185.8044055225
 30
0.0
 10
234.1543398589
 20
185.8155238829
 30
0.0
 10
234.5019452791
 20
185.8532109733
 30
0.0
 10
234.7313756668
 20
185.8907993983
 30
0.0
 10
234.9190858042
 20
185.9364195227
 30
0.0
 10
235.0559568862
 20
185.9878020186
 30
0.0
 10
235.1434415994
 20
186.0392629164
 30
0.0
 10
235.1723303787
 20
186.0887557769
 30
0.0
 10
235.1723298854
 20
186.1087324463
 30
0.0
  0
SPLINE
  5
290
100
AcDbEntity
  8
0
100
AcDbSpline
 62
7
  6
CONTINUOUS
 70
0
 71
3
 72
17
 73
13
 74
0
 42
0.0000001
 43
0.0000001
 44
0.0000000001
 40
0.0
 40
0.0
 40
0.0
 40
0.0
 40
0.1845096285
 40
0.3709193574
 40
0.5488816976
 40
0.7070135811
 40
0.8349001795
 40
0.927003328
 40
0.9584987918
 40
0.9805854424
 40
0.9939603832
 40
1.0
 40
1.0
 40
1.0
 40
1.0
 10
233.5036156193
 20
184.4499082806
 30
0.0
 10
233.5904484883
 20
184.4278628616
 30
0.0
 10
233.7652000459
 20
184.3843019244
 30
0.0
 10
234.024376825
 20
184.3221818019
 30
0.0
 10
234.2717191145
 20
184.2658167367
 30
0.0
 10
234.4920859782
 20
184.2186438511
 30
0.0
 10
234.6721734352
 20
184.1837806389
 30
0.0
 10
234.7930850794
 20
184.164032477
 30
0.0
 10
234.8628970192
 20
184.1559539315
 30
0.0
 10
234.8961968311
 20
184.1545185487
 30
0.0
 10
234.9148976426
 20
184.1548833513
 30
0.0
 10
234.92590949
 20
184.1586135134
 30
0.0
 10
234.9266390575
 20
184.1614538139
 30
0.0
  0
SPLINE
  5
291
100
AcDbEntity
  8
0
100
AcDbSpline
 62
7
  6
CONTINUOUS
 70
0
 71
3
 72
10
 73
6
 74
0
 42
0.0000001
 43
0.0000001
 44
0.0000000001
 40
0.0
 40
0.0
 40
0.0
 40
0.0
 40
0.2609534652
 40
0.5164860114
 40
1.0
 40
1.0
 40
1.0
 40
1.0
 10
233.5036098823
 20
184.4499029268
 30
0.0
 10
233.4515443181
 20
184.1548486303
 30
0.0
 10
233.314517297
 20
183.5764772883
 30
0.0
 10
232.9497711813
 20
182.4872232874
 30
0.0
 10
232.5749643378
 20
181.7183145519
 30
0.0
 10
232.2798319365
 20
181.2481201142
 30
0.0
  0
SPLINE
  5
292
100
AcDbEntity
  8
0
100
AcDbSpline
 62
7
  6
CONTINUOUS
 70
0
 71
3
 72
9
 73
5
 74
0
 42
0.0000001
 43
0.0000001
 44
0.0000000001
 40
0.0
 40
0.0
 40
0.0
 40
0.0
 40
0.2556145461
 40
1.0
 40
1.0
 40
1.0
 40
1.0
 10
229.5877364036
 20
178.7682765441
 30
0.0
 10
229.4603544398
 20
178.7081658855
 30
0.0
 10
228.9533516982
 20
178.4920538885
 30
0.0
 10
228.4122119327
 20
178.3541739027
 30
0.0
 10
228.0050147486
 20
178.3047756511
 30
0.0
  0
SPLINE
  5
293
100
AcDbEntity
  8
0
100
AcDbSpline
 62
7
  6
CONTINUOUS
 70
0
 71
3
 72
9
 73
5
 74
0
 42
0.0000001
 43
0.0000001
 44
0.0000000001
 40
0.0
 40
0.0
 40
0.0
 40
0.0
 40
0.7464221119
 40
1.0
 40
1.0
 40
1.0
 40
1.0
 10
227.605517723
 20
178.2732265051
 30
0.0
 10
228.0436668555
 20
178.289415826
 30
0.0
 10
228.6348860731
 20
178.4211707826
 30
0.0
 10
229.1589466118
 20
178.6885378259
 30
0.0
 10
229.2866587535
 20
178.7651940748
 30
0.0
  0
SPLINE
  5
294
100
AcDbEntity
  8
0
100
AcDbSpline
 62
7
  6
CONTINUOUS
 70
0
 71
3
 72
8
 73
4
 74
0
 42
0.0000001
 43
0.0000001
 44
0.0000000001
 40
0.0
 40
0.0
 40
0.0
 40
0.0
 40
1.0
 40
1.0
 40
1.0
 40
1.0
 10
229.4649437671
 20
178.8805063573
 30
0.0
 10
229.5837991219
 20
178.9632830447
 30
0.0
 10
229.6970644597
 20
179.0548823444
 30
0.0
 10
229.8020861503
 20
179.1546271178
 30
0.0
  0
ENDSEC
  0
SECTION
  2
OBJECTS
  0
DICTIONARY
  5
C
100
AcDbDictionary
280
0
281
1
  3
ACAD_GROUP
350
D
  3
ACAD_MLINESTYLE
350
17
  3
ACAD_LAYOUT
350
1A
  3
ACAD_PLOTSETTINGS
350
19
  3
ACAD_PLOTSTYLENAME
350
E
  0
DICTIONARY
  5
D
102
{ACAD_REACTORS
330
C
102
}
100
AcDbDictionary
280
0
281
1
  0
ACDBDICTIONARYWDFLT
  5
E
102
{ACAD_REACTORS
330
C
102
}
100
AcDbDictionary
281
1
  3
Normal
350
F
100
AcDbDictionaryWithDefault
340
F
  0
DICTIONARY
  5
17
102
{ACAD_REACTORS
330
C
102
}
100
AcDbDictionary
280
0
281
1
  3
Standard
350
18
  0
DICTIONARY
  5
19
102
{ACAD_REACTORS
330
C
102
}
100
AcDbDictionary
281
1
  0
DICTIONARY
  5
1A
102
{ACAD_REACTORS
330
C
102
}
100
AcDbDictionary
281
1
  3
Model
350
295
  3
Layout1
350
296
  0
ACDBPLACEHOLDER
  5
F
102
{ACAD_REACTORS
330
E
102
}
  0
MLINESTYLE
  5
18
102
{ACAD_REACTORS
330
17
102
}
100
AcDbMlineStyle
  2
STANDARD
 70
0
  3

 62
256
 51
90.0
 52
90.0
 71
2
 49
0.5
 62
256
  6
BYLAYER
 49
-0.5
 62
256
  6
BYLAYER
  0
LAYOUT
  5
295
102
{ACAD_REACTORS
330
1A
102
}
100
AcDbPlotSettings
  1

  2
none_device
  4
ANSI_C_(22.00_x_17.00_Inches)
  6

 40
0.0
 41
0.0
 42
0.0
 43
0.0
 44
558.8
 45
431.8
 46
0.0
 47
0.0
 48
0.0
 49
0.0
140
0.0
141
0.0
142
1.0
143
1.0
 70
1024
 72
1
 73
0
 74
0
  7

 75
0
147
1.0
148
0.0
149
0.0
100
AcDbLayout
  1
Model
 70
0
 71
0
 10
0.0
 20
0.0
 11
558.8
 21
431.8
 12
0.0
 22
0.0
 32
0.0
 14
0.0
 24
0.0
 34
0.0
 15
0.0
 25
0.0
 35
0.0
146
0.0
 13
0.0
 23
0.0
 33
0.0
 16
1.0
 26
0.0
 36
0.0
 17
0.0
 27
1.0
 37
0.0
 76
0
330
216
345
0
346
0
  0
LAYOUT
  5
296
102
{ACAD_REACTORS
330
1A
102
}
100
AcDbPlotSettings
  1

  2
none_device
  4
ANSI_C_(22.00_x_17.00_Inches)
  6

 40
0.0
 41
0.0
 42
0.0
 43
0.0
 44
558.8
 45
431.8
 46
0.0
 47
0.0
 48
0.0
 49
0.0
140
0.0
141
0.0
142
1.0
143
1.0
 70
0
 72
1
 73
0
 74
0
  7

 75
0
147
1.0
148
0.0
149
0.0
100
AcDbLayout
  1
Layout1
 70
0
 71
1
 10
0.0
 20
0.0
 11
558.8
 21
431.8
 12
0.0
 22
0.0
 32
0.0
 14
0.0
 24
0.0
 34
0.0
 15
0.0
 25
0.0
 35
0.0
146
0.0
 13
0.0
 23
0.0
 33
0.0
 16
1.0
 26
0.0
 36
0.0
 17
0.0
 27
1.0
 37
0.0
 76
0
330
217
345
0
346
0
  0
ENDSEC
  0
EOF
