  0
SECTION
  2
HEADER
  9
$ACADVER
  1
AC1012
  9
$DWGCODEPAGE
  3
ANSI_1252
  9
$INSBASE
 10
0.0
 20
0.0
 30
0.0
  9
$EXTMIN
 10
-2.676452611894873
 20
2.652923608027542
 30
-0.0015258207003583
  9
$EXTMAX
 10
4.509521503594612
 20
8.197586079590937
 30
0.0000000349246037
  9
$LIMMIN
 10
0.0
 20
0.0
  9
$LIMMAX
 10
12.0
 20
9.0
  9
$ORTHOMODE
 70
     0
  9
$REGENMODE
 70
     1
  9
$FILLMODE
 70
     1
  9
$QTEXTMODE
 70
     0
  9
$MIRRTEXT
 70
     1
  9
$DRAGMODE
 70
     2
  9
$LTSCALE
 40
1.0
  9
$OSMODE
 70
    33
  9
$ATTMODE
 70
     1
  9
$TEXTSIZE
 40
0.2
  9
$TRACEWID
 40
0.05
  9
$TEXTSTYLE
  7
STANDARD
  9
$CLAYER
  8
0
  9
$CELTYPE
  6
BYLAYER
  9
$CECOLOR
 62
   256
  9
$CELTSCALE
 40
1.0
  9
$DELOBJ
 70
     1
  9
$DISPSILH
 70
     0
  9
$DIMSCALE
 40
1.0
  9
$DIMASZ
 40
0.18
  9
$DIMEXO
 40
0.0625
  9
$DIMDLI
 40
0.38
  9
$DIMRND
 40
0.0
  9
$DIMDLE
 40
0.0
  9
$DIMEXE
 40
0.18
  9
$DIMTP
 40
0.0
  9
$DIMTM
 40
0.0
  9
$DIMTXT
 40
0.18
  9
$DIMCEN
 40
0.09
  9
$DIMTSZ
 40
0.0
  9
$DIMTOL
 70
     0
  9
$DIMLIM
 70
     0
  9
$DIMTIH
 70
     1
  9
$DIMTOH
 70
     1
  9
$DIMSE1
 70
     0
  9
$DIMSE2
 70
     0
  9
$DIMTAD
 70
     0
  9
$DIMZIN
 70
     0
  9
$DIMBLK
  1

  9
$DIMASO
 70
     1
  9
$DIMSHO
 70
     1
  9
$DIMPOST
  1

  9
$DIMAPOST
  1

  9
$DIMALT
 70
     0
  9
$DIMALTD
 70
     2
  9
$DIMALTF
 40
25.4
  9
$DIMLFAC
 40
1.0
  9
$DIMTOFL
 70
     0
  9
$DIMTVP
 40
0.0
  9
$DIMTIX
 70
     0
  9
$DIMSOXD
 70
     0
  9
$DIMSAH
 70
     0
  9
$DIMBLK1
  1

  9
$DIMBLK2
  1

  9
$DIMSTYLE
  2
STANDARD
  9
$DIMCLRD
 70
     0
  9
$DIMCLRE
 70
     0
  9
$DIMCLRT
 70
     0
  9
$DIMTFAC
 40
1.0
  9
$DIMGAP
 40
0.09
  9
$DIMJUST
 70
     0
  9
$DIMSD1
 70
     0
  9
$DIMSD2
 70
     0
  9
$DIMTOLJ
 70
     1
  9
$DIMTZIN
 70
     0
  9
$DIMALTZ
 70
     0
  9
$DIMALTTZ
 70
     0
  9
$DIMFIT
 70
     5
  9
$DIMUPT
 70
     0
  9
$DIMUNIT
 70
     2
  9
$DIMDEC
 70
     4
  9
$DIMTDEC
 70
     4
  9
$DIMALTU
 70
     2
  9
$DIMALTTD
 70
     2
  9
$DIMTXSTY
  7
STANDARD
  9
$DIMAUNIT
 70
     0
  9
$LUNITS
 70
     2
  9
$LUPREC
 70
     4
  9
$SKETCHINC
 40
0.1
  9
$FILLETRAD
 40
0.0
  9
$AUNITS
 70
     0
  9
$AUPREC
 70
     0
  9
$MENU
  1
acad
  9
$ELEVATION
 40
0.0
  9
$PELEVATION
 40
0.0
  9
$THICKNESS
 40
0.0
  9
$LIMCHECK
 70
     0
  9
$BLIPMODE
 70
     0
  9
$CHAMFERA
 40
0.0
  9
$CHAMFERB
 40
0.0
  9
$CHAMFERC
 40
0.0
  9
$CHAMFERD
 40
0.0
  9
$SKPOLY
 70
     0
  9
$TDCREATE
 40
2452570.440370370
  9
$TDUPDATE
 40
2452578.310692986
  9
$TDINDWG
 40
0.0011530671
  9
$TDUSRTIMER
 40
0.0011530671
  9
$USRTIMER
 70
     1
  9
$ANGBASE
 50
0.0
  9
$ANGDIR
 70
     0
  9
$PDMODE
 70
     0
  9
$PDSIZE
 40
0.0
  9
$PLINEWID
 40
0.0
  9
$COORDS
 70
     0
  9
$SPLFRAME
 70
     0
  9
$SPLINETYPE
 70
     6
  9
$SPLINESEGS
 70
     8
  9
$ATTDIA
 70
     0
  9
$ATTREQ
 70
     1
  9
$HANDLING
 70
  4097
  9
$HANDSEED
  5
4F1E
  9
$SURFTAB1
 70
     6
  9
$SURFTAB2
 70
     6
  9
$SURFTYPE
 70
     6
  9
$SURFU
 70
     6
  9
$SURFV
 70
     6
  9
$UCSNAME
  2

  9
$UCSORG
 10
0.0
 20
0.0
 30
0.0
  9
$UCSXDIR
 10
1.0
 20
0.0
 30
0.0
  9
$UCSYDIR
 10
0.0
 20
1.0
 30
0.0
  9
$PUCSNAME
  2

  9
$PUCSORG
 10
0.0
 20
0.0
 30
0.0
  9
$PUCSXDIR
 10
1.0
 20
0.0
 30
0.0
  9
$PUCSYDIR
 10
0.0
 20
1.0
 30
0.0
  9
$USERI1
 70
     0
  9
$USERI2
 70
     0
  9
$USERI3
 70
     0
  9
$USERI4
 70
     0
  9
$USERI5
 70
     0
  9
$USERR1
 40
0.0
  9
$USERR2
 40
0.0
  9
$USERR3
 40
0.0
  9
$USERR4
 40
0.0
  9
$USERR5
 40
0.0
  9
$WORLDVIEW
 70
     1
  9
$SHADEDGE
 70
     3
  9
$SHADEDIF
 70
    70
  9
$TILEMODE
 70
     1
  9
$MAXACTVP
 70
    16
  9
$PINSBASE
 10
0.0
 20
0.0
 30
0.0
  9
$PLIMCHECK
 70
     0
  9
$PEXTMIN
 10
1.000000000000000E+20
 20
1.000000000000000E+20
 30
1.000000000000000E+20
  9
$PEXTMAX
 10
-1.000000000000000E+20
 20
-1.000000000000000E+20
 30
-1.000000000000000E+20
  9
$PLIMMIN
 10
0.0
 20
0.0
  9
$PLIMMAX
 10
12.0
 20
9.0
  9
$UNITMODE
 70
     0
  9
$VISRETAIN
 70
     0
  9
$PLINEGEN
 70
     0
  9
$PSLTSCALE
 70
     1
  9
$TREEDEPTH
 70
  3020
  9
$PICKSTYLE
 70
     1
  9
$CMLSTYLE
  2
STANDARD
  9
$CMLJUST
 70
     0
  9
$CMLSCALE
 40
1.0
  9
$SAVEIMAGES
 70
     1
  0
ENDSEC
  0
SECTION
  2
CLASSES
  0
CLASS
  1
ACDBDICTIONARYWDFLT
  2
AcDbDictionaryWithDefault
  3
AutoCAD 2000
 90
    32768
280
     0
281
     0
  0
CLASS
  1
ACDBPLACEHOLDER
  2
AcDbPlaceHolder
  3
AutoCAD 2000
 90
    32768
280
     0
281
     0
  0
CLASS
  1
LAYOUT
  2
AcDbLayout
  3
AutoCAD 2000
 90
    32768
280
     0
281
     0
  0
CLASS
  1
LONG_TRANSACTION
  2
AcDbLongTransaction
  3
AutoCAD 2000
 90
    32768
280
     0
281
     0
  0
CLASS
  1
LWPOLYLINE
  2
AcDbPolyline
  3
AutoCAD 2000
 90
    32768
280
     0
281
     1
  0
CLASS
  1
HATCH
  2
AcDbHatch
  3
AutoCAD 2000
 90
    32768
280
     0
281
     1
  0
CLASS
  1
XRECORD
  2
AcDbXrecord
  3
AutoCAD 2000
 90
    32768
280
     0
281
     0
  0
ENDSEC
  0
SECTION
  2
TABLES
  0
TABLE
  2
VPORT
  5
8
330
0
100
AcDbSymbolTable
 70
     4
  0
VPORT
  5
4F19
330
8
100
AcDbSymbolTableRecord
100
AcDbViewportTableRecord
  2
*ACTIVE
 70
     0
 10
0.0
 20
0.0
 11
1.0
 21
1.0
 12
0.9165344458498697
 22
5.42525484380924
 13
0.0
 23
0.0
 14
1.0
 24
1.0
 15
0.0
 25
0.0
 16
0.0
 26
0.0
 36
1.0
 17
0.0
 27
0.0
 37
0.0
 40
5.58849379544927
 41
1.62928759894459
 42
50.0
 43
0.0
 44
0.0
 50
0.0
 51
0.0
 71
     0
 72
   100
 73
     1
 74
     1
 75
     0
 76
     0
 77
     0
 78
     0
  0
ENDTAB
  0
TABLE
  2
LTYPE
  5
5
330
0
100
AcDbSymbolTable
 70
    25
  0
LTYPE
  5
13
330
5
100
AcDbSymbolTableRecord
100
AcDbLinetypeTableRecord
  2
BYBLOCK
 70
     0
  3

 72
    65
 73
     0
 40
0.0
  0
LTYPE
  5
14
330
5
100
AcDbSymbolTableRecord
100
AcDbLinetypeTableRecord
  2
BYLAYER
 70
     0
  3

 72
    65
 73
     0
 40
0.0
  0
LTYPE
  5
15
330
5
100
AcDbSymbolTableRecord
100
AcDbLinetypeTableRecord
  2
CONTINUOUS
 70
     0
  3
Solid line
 72
    65
 73
     0
 40
0.0
  0
LTYPE
  5
22
330
5
100
AcDbSymbolTableRecord
100
AcDbLinetypeTableRecord
  2
BORDER
 70
     0
  3
__ __ . __ __ . __ __ . __ __ . __ __ . __ __ .
 72
    65
 73
     6
 40
1.75
 49
0.5
 74
     0
 49
-0.25
 74
     0
 49
0.5
 74
     0
 49
-0.25
 74
     0
 49
0.5
 74
     0
 49
-0.25
 74
     0
  0
LTYPE
  5
23
330
5
100
AcDbSymbolTableRecord
100
AcDbLinetypeTableRecord
  2
BORDER2
 70
     0
  3
__.__.__.__.__.__.__.__.__.__.__.__.__.__.__.__
 72
    65
 73
     6
 40
0.875
 49
0.25
 74
     0
 49
-0.125
 74
     0
 49
0.25
 74
     0
 49
-0.125
 74
     0
 49
0.25
 74
     0
 49
-0.125
 74
     0
  0
LTYPE
  5
24
330
5
100
AcDbSymbolTableRecord
100
AcDbLinetypeTableRecord
  2
BORDERX2
 70
     0
  3
____  ____  .  ____  ____  .  
 72
    65
 73
     6
 40
3.5
 49
1.0
 74
     0
 49
-0.5
 74
     0
 49
1.0
 74
     0
 49
-0.5
 74
     0
 49
1.0
 74
     0
 49
-0.5
 74
     0
  0
LTYPE
  5
25
330
5
100
AcDbSymbolTableRecord
100
AcDbLinetypeTableRecord
  2
CENTER
 70
     0
  3
____ _ ____ _ ____ _ ____ _ ____ _ ____ _ ____
 72
    65
 73
     4
 40
2.0
 49
1.25
 74
     0
 49
-0.25
 74
     0
 49
0.25
 74
     0
 49
-0.25
 74
     0
  0
LTYPE
  5
26
330
5
100
AcDbSymbolTableRecord
100
AcDbLinetypeTableRecord
  2
CENTER2
 70
     0
  3
____ _ ____ _ ____ _ ____ _ ____ _ ____ _ ____
 72
    65
 73
     4
 40
1.125
 49
0.75
 74
     0
 49
-0.125
 74
     0
 49
0.125
 74
     0
 49
-0.125
 74
     0
  0
LTYPE
  5
27
330
5
100
AcDbSymbolTableRecord
100
AcDbLinetypeTableRecord
  2
CENTERX2
 70
     0
  3
________  __  ________  __  ________  __  
 72
    65
 73
     4
 40
4.0
 49
2.5
 74
     0
 49
-0.5
 74
     0
 49
0.5
 74
     0
 49
-0.5
 74
     0
  0
LTYPE
  5
28
330
5
100
AcDbSymbolTableRecord
100
AcDbLinetypeTableRecord
  2
DASHDOT
 70
     0
  3
__ . __ . __ . __ . __ . __ . __ . 
 72
    65
 73
     4
 40
1.0
 49
0.5
 74
     0
 49
-0.25
 74
     0
 49
0.0
 74
     0
 49
-0.25
 74
     0
  0
LTYPE
  5
29
330
5
100
AcDbSymbolTableRecord
100
AcDbLinetypeTableRecord
  2
DASHDOT2
 70
     0
  3
_._._._._._._._._._._._._._._._.
 72
    65
 73
     4
 40
0.5
 49
0.25
 74
     0
 49
-0.125
 74
     0
 49
0.0
 74
     0
 49
-0.125
 74
     0
  0
LTYPE
  5
2A
330
5
100
AcDbSymbolTableRecord
100
AcDbLinetypeTableRecord
  2
DASHDOTX2
 70
     0
  3
____  .  ____  .  ____  .  ____  .  
 72
    65
 73
     4
 40
2.0
 49
1.0
 74
     0
 49
-0.5
 74
     0
 49
0.0
 74
     0
 49
-0.5
 74
     0
  0
LTYPE
  5
2B
330
5
100
AcDbSymbolTableRecord
100
AcDbLinetypeTableRecord
  2
DASHED
 70
     0
  3
__ __ __ __ __ __ __ __ __ __ __ __ 
 72
    65
 73
     2
 40
0.75
 49
0.5
 74
     0
 49
-0.25
 74
     0
  0
LTYPE
  5
2C
330
5
100
AcDbSymbolTableRecord
100
AcDbLinetypeTableRecord
  2
DASHED2
 70
     0
  3
_ _ _ _ _ _ _ _ _ _ _ _ _ _ _ _ _ _ 
 72
    65
 73
     2
 40
0.375
 49
0.25
 74
     0
 49
-0.125
 74
     0
  0
LTYPE
  5
2D
330
5
100
AcDbSymbolTableRecord
100
AcDbLinetypeTableRecord
  2
DASHEDX2
 70
     0
  3
____  ____  ____  ____  ____  ____  
 72
    65
 73
     2
 40
1.5
 49
1.0
 74
     0
 49
-0.5
 74
     0
  0
LTYPE
  5
2E
330
5
100
AcDbSymbolTableRecord
100
AcDbLinetypeTableRecord
  2
DIVIDE
 70
     0
  3
____ . . ____ . . ____ . . ____ . . 
 72
    65
 73
     6
 40
1.25
 49
0.5
 74
     0
 49
-0.25
 74
     0
 49
0.0
 74
     0
 49
-0.25
 74
     0
 49
0.0
 74
     0
 49
-0.25
 74
     0
  0
LTYPE
  5
2F
330
5
100
AcDbSymbolTableRecord
100
AcDbLinetypeTableRecord
  2
DIVIDE2
 70
     0
  3
__..__..__..__..__..__..__..__..__..
 72
    65
 73
     6
 40
0.625
 49
0.25
 74
     0
 49
-0.125
 74
     0
 49
0.0
 74
     0
 49
-0.125
 74
     0
 49
0.0
 74
     0
 49
-0.125
 74
     0
  0
LTYPE
  5
30
330
5
100
AcDbSymbolTableRecord
100
AcDbLinetypeTableRecord
  2
DIVIDEX2
 70
     0
  3
________  .  .  ________  .  .  ________  .  . 
 72
    65
 73
     6
 40
2.5
 49
1.0
 74
     0
 49
-0.5
 74
     0
 49
0.0
 74
     0
 49
-0.5
 74
     0
 49
0.0
 74
     0
 49
-0.5
 74
     0
  0
LTYPE
  5
31
330
5
100
AcDbSymbolTableRecord
100
AcDbLinetypeTableRecord
  2
DOT
 70
     0
  3
. . . . . . . . . . . . . . . . . . 
 72
    65
 73
     2
 40
0.25
 49
0.0
 74
     0
 49
-0.25
 74
     0
  0
LTYPE
  5
32
330
5
100
AcDbSymbolTableRecord
100
AcDbLinetypeTableRecord
  2
DOT2
 70
     0
  3
....................................
 72
    65
 73
     2
 40
0.125
 49
0.0
 74
     0
 49
-0.125
 74
     0
  0
LTYPE
  5
33
330
5
100
AcDbSymbolTableRecord
100
AcDbLinetypeTableRecord
  2
DOTX2
 70
     0
  3
.  .  .  .  .  .  .  .  .  .  .  .  .  
 72
    65
 73
     2
 40
0.5
 49
0.0
 74
     0
 49
-0.5
 74
     0
  0
LTYPE
  5
34
330
5
100
AcDbSymbolTableRecord
100
AcDbLinetypeTableRecord
  2
HIDDEN
 70
     0
  3
__ __ __ __ __ __ __ __ __ __ __ __ 
 72
    65
 73
     2
 40
0.375
 49
0.25
 74
     0
 49
-0.125
 74
     0
  0
LTYPE
  5
35
330
5
100
AcDbSymbolTableRecord
100
AcDbLinetypeTableRecord
  2
HIDDEN2
 70
     0
  3
_ _ _ _ _ _ _ _ _ _ _ _ _ _ _ _ _ _ 
 72
    65
 73
     2
 40
0.1875
 49
0.125
 74
     0
 49
-0.0625
 74
     0
  0
LTYPE
  5
36
330
5
100
AcDbSymbolTableRecord
100
AcDbLinetypeTableRecord
  2
HIDDENX2
 70
     0
  3
____ ____ ____ ____ ____ ____ ____ 
 72
    65
 73
     2
 40
0.75
 49
0.5
 74
     0
 49
-0.25
 74
     0
  0
LTYPE
  5
37
330
5
100
AcDbSymbolTableRecord
100
AcDbLinetypeTableRecord
  2
PHANTOM
 70
     0
  3
______  __  __  ______  __  __  
 72
    65
 73
     6
 40
2.5
 49
1.25
 74
     0
 49
-0.25
 74
     0
 49
0.25
 74
     0
 49
-0.25
 74
     0
 49
0.25
 74
     0
 49
-0.25
 74
     0
  0
LTYPE
  5
38
330
5
100
AcDbSymbolTableRecord
100
AcDbLinetypeTableRecord
  2
PHANTOM2
 70
     0
  3
___ _ _ ___ _ _ ___ _ _ ___ _ _ 
 72
    65
 73
     6
 40
1.25
 49
0.625
 74
     0
 49
-0.125
 74
     0
 49
0.125
 74
     0
 49
-0.125
 74
     0
 49
0.125
 74
     0
 49
-0.125
 74
     0
  0
LTYPE
  5
39
330
5
100
AcDbSymbolTableRecord
100
AcDbLinetypeTableRecord
  2
PHANTOMX2
 70
     0
  3
___ _ _ ___ _ _ ___ _ _ ___ _ _ 
 72
    65
 73
     6
 40
5.0
 49
2.5
 74
     0
 49
-0.5
 74
     0
 49
0.5
 74
     0
 49
-0.5
 74
     0
 49
0.5
 74
     0
 49
-0.5
 74
     0
  0
ENDTAB
  0
TABLE
  2
LAYER
  5
2
330
0
100
AcDbSymbolTable
 70
   257
  0
LAYER
  5
10
330
2
100
AcDbSymbolTableRecord
100
AcDbLayerTableRecord
  2
0
 70
     0
 62
     7
  6
CONTINUOUS
  0
LAYER
  5
3A
330
2
100
AcDbSymbolTableRecord
100
AcDbLayerTableRecord
  2
1
 70
     0
 62
     1
  6
CONTINUOUS
  0
LAYER
  5
3B
330
2
100
AcDbSymbolTableRecord
100
AcDbLayerTableRecord
  2
2
 70
     0
 62
     2
  6
CONTINUOUS
  0
LAYER
  5
3C
330
2
100
AcDbSymbolTableRecord
100
AcDbLayerTableRecord
  2
3
 70
     0
 62
     3
  6
CONTINUOUS
  0
LAYER
  5
3D
330
2
100
AcDbSymbolTableRecord
100
AcDbLayerTableRecord
  2
4
 70
     0
 62
     4
  6
CONTINUOUS
  0
LAYER
  5
3E
330
2
100
AcDbSymbolTableRecord
100
AcDbLayerTableRecord
  2
5
 70
     0
 62
     5
  6
CONTINUOUS
  0
LAYER
  5
3F
330
2
100
AcDbSymbolTableRecord
100
AcDbLayerTableRecord
  2
6
 70
     0
 62
     6
  6
CONTINUOUS
  0
LAYER
  5
40
330
2
100
AcDbSymbolTableRecord
100
AcDbLayerTableRecord
  2
7
 70
     0
 62
     7
  6
CONTINUOUS
  0
LAYER
  5
41
330
2
100
AcDbSymbolTableRecord
100
AcDbLayerTableRecord
  2
8
 70
     0
 62
     8
  6
CONTINUOUS
  0
LAYER
  5
42
330
2
100
AcDbSymbolTableRecord
100
AcDbLayerTableRecord
  2
9
 70
     0
 62
     9
  6
CONTINUOUS
  0
LAYER
  5
43
330
2
100
AcDbSymbolTableRecord
100
AcDbLayerTableRecord
  2
10
 70
     0
 62
    10
  6
CONTINUOUS
  0
LAYER
  5
44
330
2
100
AcDbSymbolTableRecord
100
AcDbLayerTableRecord
  2
11
 70
     0
 62
    11
  6
CONTINUOUS
  0
LAYER
  5
45
330
2
100
AcDbSymbolTableRecord
100
AcDbLayerTableRecord
  2
12
 70
     0
 62
    12
  6
CONTINUOUS
  0
LAYER
  5
46
330
2
100
AcDbSymbolTableRecord
100
AcDbLayerTableRecord
  2
13
 70
     0
 62
    13
  6
CONTINUOUS
  0
LAYER
  5
47
330
2
100
AcDbSymbolTableRecord
100
AcDbLayerTableRecord
  2
14
 70
     0
 62
    14
  6
CONTINUOUS
  0
LAYER
  5
48
330
2
100
AcDbSymbolTableRecord
100
AcDbLayerTableRecord
  2
15
 70
     0
 62
    15
  6
CONTINUOUS
  0
LAYER
  5
49
330
2
100
AcDbSymbolTableRecord
100
AcDbLayerTableRecord
  2
16
 70
     0
 62
    16
  6
CONTINUOUS
  0
LAYER
  5
4A
330
2
100
AcDbSymbolTableRecord
100
AcDbLayerTableRecord
  2
17
 70
     0
 62
    17
  6
CONTINUOUS
  0
LAYER
  5
4B
330
2
100
AcDbSymbolTableRecord
100
AcDbLayerTableRecord
  2
18
 70
     0
 62
    18
  6
CONTINUOUS
  0
LAYER
  5
4C
330
2
100
AcDbSymbolTableRecord
100
AcDbLayerTableRecord
  2
19
 70
     0
 62
    19
  6
CONTINUOUS
  0
LAYER
  5
4D
330
2
100
AcDbSymbolTableRecord
100
AcDbLayerTableRecord
  2
20
 70
     0
 62
    20
  6
CONTINUOUS
  0
LAYER
  5
4E
330
2
100
AcDbSymbolTableRecord
100
AcDbLayerTableRecord
  2
21
 70
     0
 62
    21
  6
CONTINUOUS
  0
LAYER
  5
4F
330
2
100
AcDbSymbolTableRecord
100
AcDbLayerTableRecord
  2
22
 70
     0
 62
    22
  6
CONTINUOUS
  0
LAYER
  5
50
330
2
100
AcDbSymbolTableRecord
100
AcDbLayerTableRecord
  2
23
 70
     0
 62
    23
  6
CONTINUOUS
  0
LAYER
  5
51
330
2
100
AcDbSymbolTableRecord
100
AcDbLayerTableRecord
  2
24
 70
     0
 62
    24
  6
CONTINUOUS
  0
LAYER
  5
52
330
2
100
AcDbSymbolTableRecord
100
AcDbLayerTableRecord
  2
25
 70
     0
 62
    25
  6
CONTINUOUS
  0
LAYER
  5
53
330
2
100
AcDbSymbolTableRecord
100
AcDbLayerTableRecord
  2
26
 70
     0
 62
    26
  6
CONTINUOUS
  0
LAYER
  5
54
330
2
100
AcDbSymbolTableRecord
100
AcDbLayerTableRecord
  2
27
 70
     0
 62
    27
  6
CONTINUOUS
  0
LAYER
  5
55
330
2
100
AcDbSymbolTableRecord
100
AcDbLayerTableRecord
  2
28
 70
     0
 62
    28
  6
CONTINUOUS
  0
LAYER
  5
56
330
2
100
AcDbSymbolTableRecord
100
AcDbLayerTableRecord
  2
29
 70
     0
 62
    29
  6
CONTINUOUS
  0
LAYER
  5
57
330
2
100
AcDbSymbolTableRecord
100
AcDbLayerTableRecord
  2
30
 70
     0
 62
    30
  6
CONTINUOUS
  0
LAYER
  5
58
330
2
100
AcDbSymbolTableRecord
100
AcDbLayerTableRecord
  2
31
 70
     0
 62
    31
  6
CONTINUOUS
  0
LAYER
  5
59
330
2
100
AcDbSymbolTableRecord
100
AcDbLayerTableRecord
  2
32
 70
     0
 62
    32
  6
CONTINUOUS
  0
LAYER
  5
5A
330
2
100
AcDbSymbolTableRecord
100
AcDbLayerTableRecord
  2
33
 70
     0
 62
    33
  6
CONTINUOUS
  0
LAYER
  5
5B
330
2
100
AcDbSymbolTableRecord
100
AcDbLayerTableRecord
  2
34
 70
     0
 62
    34
  6
CONTINUOUS
  0
LAYER
  5
5C
330
2
100
AcDbSymbolTableRecord
100
AcDbLayerTableRecord
  2
35
 70
     0
 62
    35
  6
CONTINUOUS
  0
LAYER
  5
5D
330
2
100
AcDbSymbolTableRecord
100
AcDbLayerTableRecord
  2
36
 70
     0
 62
    36
  6
CONTINUOUS
  0
LAYER
  5
5E
330
2
100
AcDbSymbolTableRecord
100
AcDbLayerTableRecord
  2
37
 70
     0
 62
    37
  6
CONTINUOUS
  0
LAYER
  5
5F
330
2
100
AcDbSymbolTableRecord
100
AcDbLayerTableRecord
  2
38
 70
     0
 62
    38
  6
CONTINUOUS
  0
LAYER
  5
60
330
2
100
AcDbSymbolTableRecord
100
AcDbLayerTableRecord
  2
39
 70
     0
 62
    39
  6
CONTINUOUS
  0
LAYER
  5
61
330
2
100
AcDbSymbolTableRecord
100
AcDbLayerTableRecord
  2
40
 70
     0
 62
    40
  6
CONTINUOUS
  0
LAYER
  5
62
330
2
100
AcDbSymbolTableRecord
100
AcDbLayerTableRecord
  2
41
 70
     0
 62
    41
  6
CONTINUOUS
  0
LAYER
  5
63
330
2
100
AcDbSymbolTableRecord
100
AcDbLayerTableRecord
  2
42
 70
     0
 62
    42
  6
CONTINUOUS
  0
LAYER
  5
64
330
2
100
AcDbSymbolTableRecord
100
AcDbLayerTableRecord
  2
43
 70
     0
 62
    43
  6
CONTINUOUS
  0
LAYER
  5
65
330
2
100
AcDbSymbolTableRecord
100
AcDbLayerTableRecord
  2
44
 70
     0
 62
    44
  6
CONTINUOUS
  0
LAYER
  5
66
330
2
100
AcDbSymbolTableRecord
100
AcDbLayerTableRecord
  2
45
 70
     0
 62
    45
  6
CONTINUOUS
  0
LAYER
  5
67
330
2
100
AcDbSymbolTableRecord
100
AcDbLayerTableRecord
  2
46
 70
     0
 62
    46
  6
CONTINUOUS
  0
LAYER
  5
68
330
2
100
AcDbSymbolTableRecord
100
AcDbLayerTableRecord
  2
47
 70
     0
 62
    47
  6
CONTINUOUS
  0
LAYER
  5
69
330
2
100
AcDbSymbolTableRecord
100
AcDbLayerTableRecord
  2
48
 70
     0
 62
    48
  6
CONTINUOUS
  0
LAYER
  5
6A
330
2
100
AcDbSymbolTableRecord
100
AcDbLayerTableRecord
  2
49
 70
     0
 62
    49
  6
CONTINUOUS
  0
LAYER
  5
6B
330
2
100
AcDbSymbolTableRecord
100
AcDbLayerTableRecord
  2
50
 70
     0
 62
    50
  6
CONTINUOUS
  0
LAYER
  5
6C
330
2
100
AcDbSymbolTableRecord
100
AcDbLayerTableRecord
  2
51
 70
     0
 62
    51
  6
CONTINUOUS
  0
LAYER
  5
6D
330
2
100
AcDbSymbolTableRecord
100
AcDbLayerTableRecord
  2
52
 70
     0
 62
    52
  6
CONTINUOUS
  0
LAYER
  5
6E
330
2
100
AcDbSymbolTableRecord
100
AcDbLayerTableRecord
  2
53
 70
     0
 62
    53
  6
CONTINUOUS
  0
LAYER
  5
6F
330
2
100
AcDbSymbolTableRecord
100
AcDbLayerTableRecord
  2
54
 70
     0
 62
    54
  6
CONTINUOUS
  0
LAYER
  5
70
330
2
100
AcDbSymbolTableRecord
100
AcDbLayerTableRecord
  2
55
 70
     0
 62
    55
  6
CONTINUOUS
  0
LAYER
  5
71
330
2
100
AcDbSymbolTableRecord
100
AcDbLayerTableRecord
  2
56
 70
     0
 62
    56
  6
CONTINUOUS
  0
LAYER
  5
72
330
2
100
AcDbSymbolTableRecord
100
AcDbLayerTableRecord
  2
57
 70
     0
 62
    57
  6
CONTINUOUS
  0
LAYER
  5
73
330
2
100
AcDbSymbolTableRecord
100
AcDbLayerTableRecord
  2
58
 70
     0
 62
    58
  6
CONTINUOUS
  0
LAYER
  5
74
330
2
100
AcDbSymbolTableRecord
100
AcDbLayerTableRecord
  2
59
 70
     0
 62
    59
  6
CONTINUOUS
  0
LAYER
  5
75
330
2
100
AcDbSymbolTableRecord
100
AcDbLayerTableRecord
  2
60
 70
     0
 62
    60
  6
CONTINUOUS
  0
LAYER
  5
76
330
2
100
AcDbSymbolTableRecord
100
AcDbLayerTableRecord
  2
61
 70
     0
 62
    61
  6
CONTINUOUS
  0
LAYER
  5
77
330
2
100
AcDbSymbolTableRecord
100
AcDbLayerTableRecord
  2
62
 70
     0
 62
    62
  6
CONTINUOUS
  0
LAYER
  5
78
330
2
100
AcDbSymbolTableRecord
100
AcDbLayerTableRecord
  2
63
 70
     0
 62
    63
  6
CONTINUOUS
  0
LAYER
  5
79
330
2
100
AcDbSymbolTableRecord
100
AcDbLayerTableRecord
  2
64
 70
     0
 62
    64
  6
CONTINUOUS
  0
LAYER
  5
7A
330
2
100
AcDbSymbolTableRecord
100
AcDbLayerTableRecord
  2
65
 70
     0
 62
    65
  6
CONTINUOUS
  0
LAYER
  5
7B
330
2
100
AcDbSymbolTableRecord
100
AcDbLayerTableRecord
  2
66
 70
     0
 62
    66
  6
CONTINUOUS
  0
LAYER
  5
7C
330
2
100
AcDbSymbolTableRecord
100
AcDbLayerTableRecord
  2
67
 70
     0
 62
    67
  6
CONTINUOUS
  0
LAYER
  5
7D
330
2
100
AcDbSymbolTableRecord
100
AcDbLayerTableRecord
  2
68
 70
     0
 62
    68
  6
CONTINUOUS
  0
LAYER
  5
7E
330
2
100
AcDbSymbolTableRecord
100
AcDbLayerTableRecord
  2
69
 70
     0
 62
    69
  6
CONTINUOUS
  0
LAYER
  5
7F
330
2
100
AcDbSymbolTableRecord
100
AcDbLayerTableRecord
  2
70
 70
     0
 62
    70
  6
CONTINUOUS
  0
LAYER
  5
80
330
2
100
AcDbSymbolTableRecord
100
AcDbLayerTableRecord
  2
71
 70
     0
 62
    71
  6
CONTINUOUS
  0
LAYER
  5
81
330
2
100
AcDbSymbolTableRecord
100
AcDbLayerTableRecord
  2
72
 70
     0
 62
    72
  6
CONTINUOUS
  0
LAYER
  5
82
330
2
100
AcDbSymbolTableRecord
100
AcDbLayerTableRecord
  2
73
 70
     0
 62
    73
  6
CONTINUOUS
  0
LAYER
  5
83
330
2
100
AcDbSymbolTableRecord
100
AcDbLayerTableRecord
  2
74
 70
     0
 62
    74
  6
CONTINUOUS
  0
LAYER
  5
84
330
2
100
AcDbSymbolTableRecord
100
AcDbLayerTableRecord
  2
75
 70
     0
 62
    75
  6
CONTINUOUS
  0
LAYER
  5
85
330
2
100
AcDbSymbolTableRecord
100
AcDbLayerTableRecord
  2
76
 70
     0
 62
    76
  6
CONTINUOUS
  0
LAYER
  5
86
330
2
100
AcDbSymbolTableRecord
100
AcDbLayerTableRecord
  2
77
 70
     0
 62
    77
  6
CONTINUOUS
  0
LAYER
  5
87
330
2
100
AcDbSymbolTableRecord
100
AcDbLayerTableRecord
  2
78
 70
     0
 62
    78
  6
CONTINUOUS
  0
LAYER
  5
88
330
2
100
AcDbSymbolTableRecord
100
AcDbLayerTableRecord
  2
79
 70
     0
 62
    79
  6
CONTINUOUS
  0
LAYER
  5
89
330
2
100
AcDbSymbolTableRecord
100
AcDbLayerTableRecord
  2
80
 70
     0
 62
    80
  6
CONTINUOUS
  0
LAYER
  5
8A
330
2
100
AcDbSymbolTableRecord
100
AcDbLayerTableRecord
  2
81
 70
     0
 62
    81
  6
CONTINUOUS
  0
LAYER
  5
8B
330
2
100
AcDbSymbolTableRecord
100
AcDbLayerTableRecord
  2
82
 70
     0
 62
    82
  6
CONTINUOUS
  0
LAYER
  5
8C
330
2
100
AcDbSymbolTableRecord
100
AcDbLayerTableRecord
  2
83
 70
     0
 62
    83
  6
CONTINUOUS
  0
LAYER
  5
8D
330
2
100
AcDbSymbolTableRecord
100
AcDbLayerTableRecord
  2
84
 70
     0
 62
    84
  6
CONTINUOUS
  0
LAYER
  5
8E
330
2
100
AcDbSymbolTableRecord
100
AcDbLayerTableRecord
  2
85
 70
     0
 62
    85
  6
CONTINUOUS
  0
LAYER
  5
8F
330
2
100
AcDbSymbolTableRecord
100
AcDbLayerTableRecord
  2
86
 70
     0
 62
    86
  6
CONTINUOUS
  0
LAYER
  5
90
330
2
100
AcDbSymbolTableRecord
100
AcDbLayerTableRecord
  2
87
 70
     0
 62
    87
  6
CONTINUOUS
  0
LAYER
  5
91
330
2
100
AcDbSymbolTableRecord
100
AcDbLayerTableRecord
  2
88
 70
     0
 62
    88
  6
CONTINUOUS
  0
LAYER
  5
92
330
2
100
AcDbSymbolTableRecord
100
AcDbLayerTableRecord
  2
89
 70
     0
 62
    89
  6
CONTINUOUS
  0
LAYER
  5
93
330
2
100
AcDbSymbolTableRecord
100
AcDbLayerTableRecord
  2
90
 70
     0
 62
    90
  6
CONTINUOUS
  0
LAYER
  5
94
330
2
100
AcDbSymbolTableRecord
100
AcDbLayerTableRecord
  2
91
 70
     0
 62
    91
  6
CONTINUOUS
  0
LAYER
  5
95
330
2
100
AcDbSymbolTableRecord
100
AcDbLayerTableRecord
  2
92
 70
     0
 62
    92
  6
CONTINUOUS
  0
LAYER
  5
96
330
2
100
AcDbSymbolTableRecord
100
AcDbLayerTableRecord
  2
93
 70
     0
 62
    93
  6
CONTINUOUS
  0
LAYER
  5
97
330
2
100
AcDbSymbolTableRecord
100
AcDbLayerTableRecord
  2
94
 70
     0
 62
    94
  6
CONTINUOUS
  0
LAYER
  5
98
330
2
100
AcDbSymbolTableRecord
100
AcDbLayerTableRecord
  2
95
 70
     0
 62
    95
  6
CONTINUOUS
  0
LAYER
  5
99
330
2
100
AcDbSymbolTableRecord
100
AcDbLayerTableRecord
  2
96
 70
     0
 62
    96
  6
CONTINUOUS
  0
LAYER
  5
9A
330
2
100
AcDbSymbolTableRecord
100
AcDbLayerTableRecord
  2
97
 70
     0
 62
    97
  6
CONTINUOUS
  0
LAYER
  5
9B
330
2
100
AcDbSymbolTableRecord
100
AcDbLayerTableRecord
  2
98
 70
     0
 62
    98
  6
CONTINUOUS
  0
LAYER
  5
9C
330
2
100
AcDbSymbolTableRecord
100
AcDbLayerTableRecord
  2
99
 70
     0
 62
    99
  6
CONTINUOUS
  0
LAYER
  5
9D
330
2
100
AcDbSymbolTableRecord
100
AcDbLayerTableRecord
  2
100
 70
     0
 62
   100
  6
CONTINUOUS
  0
LAYER
  5
9E
330
2
100
AcDbSymbolTableRecord
100
AcDbLayerTableRecord
  2
101
 70
     0
 62
   101
  6
CONTINUOUS
  0
LAYER
  5
9F
330
2
100
AcDbSymbolTableRecord
100
AcDbLayerTableRecord
  2
102
 70
     0
 62
   102
  6
CONTINUOUS
  0
LAYER
  5
A0
330
2
100
AcDbSymbolTableRecord
100
AcDbLayerTableRecord
  2
103
 70
     0
 62
   103
  6
CONTINUOUS
  0
LAYER
  5
A1
330
2
100
AcDbSymbolTableRecord
100
AcDbLayerTableRecord
  2
104
 70
     0
 62
   104
  6
CONTINUOUS
  0
LAYER
  5
A2
330
2
100
AcDbSymbolTableRecord
100
AcDbLayerTableRecord
  2
105
 70
     0
 62
   105
  6
CONTINUOUS
  0
LAYER
  5
A3
330
2
100
AcDbSymbolTableRecord
100
AcDbLayerTableRecord
  2
106
 70
     0
 62
   106
  6
CONTINUOUS
  0
LAYER
  5
A4
330
2
100
AcDbSymbolTableRecord
100
AcDbLayerTableRecord
  2
107
 70
     0
 62
   107
  6
CONTINUOUS
  0
LAYER
  5
A5
330
2
100
AcDbSymbolTableRecord
100
AcDbLayerTableRecord
  2
108
 70
     0
 62
   108
  6
CONTINUOUS
  0
LAYER
  5
A6
330
2
100
AcDbSymbolTableRecord
100
AcDbLayerTableRecord
  2
109
 70
     0
 62
   109
  6
CONTINUOUS
  0
LAYER
  5
A7
330
2
100
AcDbSymbolTableRecord
100
AcDbLayerTableRecord
  2
110
 70
     0
 62
   110
  6
CONTINUOUS
  0
LAYER
  5
A8
330
2
100
AcDbSymbolTableRecord
100
AcDbLayerTableRecord
  2
111
 70
     0
 62
   111
  6
CONTINUOUS
  0
LAYER
  5
A9
330
2
100
AcDbSymbolTableRecord
100
AcDbLayerTableRecord
  2
112
 70
     0
 62
   112
  6
CONTINUOUS
  0
LAYER
  5
AA
330
2
100
AcDbSymbolTableRecord
100
AcDbLayerTableRecord
  2
113
 70
     0
 62
   113
  6
CONTINUOUS
  0
LAYER
  5
AB
330
2
100
AcDbSymbolTableRecord
100
AcDbLayerTableRecord
  2
114
 70
     0
 62
   114
  6
CONTINUOUS
  0
LAYER
  5
AC
330
2
100
AcDbSymbolTableRecord
100
AcDbLayerTableRecord
  2
115
 70
     0
 62
   115
  6
CONTINUOUS
  0
LAYER
  5
AD
330
2
100
AcDbSymbolTableRecord
100
AcDbLayerTableRecord
  2
116
 70
     0
 62
   116
  6
CONTINUOUS
  0
LAYER
  5
AE
330
2
100
AcDbSymbolTableRecord
100
AcDbLayerTableRecord
  2
117
 70
     0
 62
   117
  6
CONTINUOUS
  0
LAYER
  5
AF
330
2
100
AcDbSymbolTableRecord
100
AcDbLayerTableRecord
  2
118
 70
     0
 62
   118
  6
CONTINUOUS
  0
LAYER
  5
B0
330
2
100
AcDbSymbolTableRecord
100
AcDbLayerTableRecord
  2
119
 70
     0
 62
   119
  6
CONTINUOUS
  0
LAYER
  5
B1
330
2
100
AcDbSymbolTableRecord
100
AcDbLayerTableRecord
  2
120
 70
     0
 62
   120
  6
CONTINUOUS
  0
LAYER
  5
B2
330
2
100
AcDbSymbolTableRecord
100
AcDbLayerTableRecord
  2
121
 70
     0
 62
   121
  6
CONTINUOUS
  0
LAYER
  5
B3
330
2
100
AcDbSymbolTableRecord
100
AcDbLayerTableRecord
  2
122
 70
     0
 62
   122
  6
CONTINUOUS
  0
LAYER
  5
B4
330
2
100
AcDbSymbolTableRecord
100
AcDbLayerTableRecord
  2
123
 70
     0
 62
   123
  6
CONTINUOUS
  0
LAYER
  5
B5
330
2
100
AcDbSymbolTableRecord
100
AcDbLayerTableRecord
  2
124
 70
     0
 62
   124
  6
CONTINUOUS
  0
LAYER
  5
B6
330
2
100
AcDbSymbolTableRecord
100
AcDbLayerTableRecord
  2
125
 70
     0
 62
   125
  6
CONTINUOUS
  0
LAYER
  5
B7
330
2
100
AcDbSymbolTableRecord
100
AcDbLayerTableRecord
  2
126
 70
     0
 62
   126
  6
CONTINUOUS
  0
LAYER
  5
B8
330
2
100
AcDbSymbolTableRecord
100
AcDbLayerTableRecord
  2
127
 70
     0
 62
   127
  6
CONTINUOUS
  0
LAYER
  5
B9
330
2
100
AcDbSymbolTableRecord
100
AcDbLayerTableRecord
  2
128
 70
     0
 62
   128
  6
CONTINUOUS
  0
LAYER
  5
BA
330
2
100
AcDbSymbolTableRecord
100
AcDbLayerTableRecord
  2
129
 70
     0
 62
   129
  6
CONTINUOUS
  0
LAYER
  5
BB
330
2
100
AcDbSymbolTableRecord
100
AcDbLayerTableRecord
  2
130
 70
     0
 62
   130
  6
CONTINUOUS
  0
LAYER
  5
BC
330
2
100
AcDbSymbolTableRecord
100
AcDbLayerTableRecord
  2
131
 70
     0
 62
   131
  6
CONTINUOUS
  0
LAYER
  5
BD
330
2
100
AcDbSymbolTableRecord
100
AcDbLayerTableRecord
  2
132
 70
     0
 62
   132
  6
CONTINUOUS
  0
LAYER
  5
BE
330
2
100
AcDbSymbolTableRecord
100
AcDbLayerTableRecord
  2
133
 70
     0
 62
   133
  6
CONTINUOUS
  0
LAYER
  5
BF
330
2
100
AcDbSymbolTableRecord
100
AcDbLayerTableRecord
  2
134
 70
     0
 62
   134
  6
CONTINUOUS
  0
LAYER
  5
C0
330
2
100
AcDbSymbolTableRecord
100
AcDbLayerTableRecord
  2
135
 70
     0
 62
   135
  6
CONTINUOUS
  0
LAYER
  5
C1
330
2
100
AcDbSymbolTableRecord
100
AcDbLayerTableRecord
  2
136
 70
     0
 62
   136
  6
CONTINUOUS
  0
LAYER
  5
C2
330
2
100
AcDbSymbolTableRecord
100
AcDbLayerTableRecord
  2
137
 70
     0
 62
   137
  6
CONTINUOUS
  0
LAYER
  5
C3
330
2
100
AcDbSymbolTableRecord
100
AcDbLayerTableRecord
  2
138
 70
     0
 62
   138
  6
CONTINUOUS
  0
LAYER
  5
C4
330
2
100
AcDbSymbolTableRecord
100
AcDbLayerTableRecord
  2
139
 70
     0
 62
   139
  6
CONTINUOUS
  0
LAYER
  5
C5
330
2
100
AcDbSymbolTableRecord
100
AcDbLayerTableRecord
  2
140
 70
     0
 62
   140
  6
CONTINUOUS
  0
LAYER
  5
C6
330
2
100
AcDbSymbolTableRecord
100
AcDbLayerTableRecord
  2
141
 70
     0
 62
   141
  6
CONTINUOUS
  0
LAYER
  5
C7
330
2
100
AcDbSymbolTableRecord
100
AcDbLayerTableRecord
  2
142
 70
     0
 62
   142
  6
CONTINUOUS
  0
LAYER
  5
C8
330
2
100
AcDbSymbolTableRecord
100
AcDbLayerTableRecord
  2
143
 70
     0
 62
   143
  6
CONTINUOUS
  0
LAYER
  5
C9
330
2
100
AcDbSymbolTableRecord
100
AcDbLayerTableRecord
  2
144
 70
     0
 62
   144
  6
CONTINUOUS
  0
LAYER
  5
CA
330
2
100
AcDbSymbolTableRecord
100
AcDbLayerTableRecord
  2
145
 70
     0
 62
   145
  6
CONTINUOUS
  0
LAYER
  5
CB
330
2
100
AcDbSymbolTableRecord
100
AcDbLayerTableRecord
  2
146
 70
     0
 62
   146
  6
CONTINUOUS
  0
LAYER
  5
CC
330
2
100
AcDbSymbolTableRecord
100
AcDbLayerTableRecord
  2
147
 70
     0
 62
   147
  6
CONTINUOUS
  0
LAYER
  5
CD
330
2
100
AcDbSymbolTableRecord
100
AcDbLayerTableRecord
  2
148
 70
     0
 62
   148
  6
CONTINUOUS
  0
LAYER
  5
CE
330
2
100
AcDbSymbolTableRecord
100
AcDbLayerTableRecord
  2
149
 70
     0
 62
   149
  6
CONTINUOUS
  0
LAYER
  5
CF
330
2
100
AcDbSymbolTableRecord
100
AcDbLayerTableRecord
  2
150
 70
     0
 62
   150
  6
CONTINUOUS
  0
LAYER
  5
D0
330
2
100
AcDbSymbolTableRecord
100
AcDbLayerTableRecord
  2
151
 70
     0
 62
   151
  6
CONTINUOUS
  0
LAYER
  5
D1
330
2
100
AcDbSymbolTableRecord
100
AcDbLayerTableRecord
  2
152
 70
     0
 62
   152
  6
CONTINUOUS
  0
LAYER
  5
D2
330
2
100
AcDbSymbolTableRecord
100
AcDbLayerTableRecord
  2
153
 70
     0
 62
   153
  6
CONTINUOUS
  0
LAYER
  5
D3
330
2
100
AcDbSymbolTableRecord
100
AcDbLayerTableRecord
  2
154
 70
     0
 62
   154
  6
CONTINUOUS
  0
LAYER
  5
D4
330
2
100
AcDbSymbolTableRecord
100
AcDbLayerTableRecord
  2
155
 70
     0
 62
   155
  6
CONTINUOUS
  0
LAYER
  5
D5
330
2
100
AcDbSymbolTableRecord
100
AcDbLayerTableRecord
  2
156
 70
     0
 62
   156
  6
CONTINUOUS
  0
LAYER
  5
D6
330
2
100
AcDbSymbolTableRecord
100
AcDbLayerTableRecord
  2
157
 70
     0
 62
   157
  6
CONTINUOUS
  0
LAYER
  5
D7
330
2
100
AcDbSymbolTableRecord
100
AcDbLayerTableRecord
  2
158
 70
     0
 62
   158
  6
CONTINUOUS
  0
LAYER
  5
D8
330
2
100
AcDbSymbolTableRecord
100
AcDbLayerTableRecord
  2
159
 70
     0
 62
   159
  6
CONTINUOUS
  0
LAYER
  5
D9
330
2
100
AcDbSymbolTableRecord
100
AcDbLayerTableRecord
  2
160
 70
     0
 62
   160
  6
CONTINUOUS
  0
LAYER
  5
DA
330
2
100
AcDbSymbolTableRecord
100
AcDbLayerTableRecord
  2
161
 70
     0
 62
   161
  6
CONTINUOUS
  0
LAYER
  5
DB
330
2
100
AcDbSymbolTableRecord
100
AcDbLayerTableRecord
  2
162
 70
     0
 62
   162
  6
CONTINUOUS
  0
LAYER
  5
DC
330
2
100
AcDbSymbolTableRecord
100
AcDbLayerTableRecord
  2
163
 70
     0
 62
   163
  6
CONTINUOUS
  0
LAYER
  5
DD
330
2
100
AcDbSymbolTableRecord
100
AcDbLayerTableRecord
  2
164
 70
     0
 62
   164
  6
CONTINUOUS
  0
LAYER
  5
DE
330
2
100
AcDbSymbolTableRecord
100
AcDbLayerTableRecord
  2
165
 70
     0
 62
   165
  6
CONTINUOUS
  0
LAYER
  5
DF
330
2
100
AcDbSymbolTableRecord
100
AcDbLayerTableRecord
  2
166
 70
     0
 62
   166
  6
CONTINUOUS
  0
LAYER
  5
E0
330
2
100
AcDbSymbolTableRecord
100
AcDbLayerTableRecord
  2
167
 70
     0
 62
   167
  6
CONTINUOUS
  0
LAYER
  5
E1
330
2
100
AcDbSymbolTableRecord
100
AcDbLayerTableRecord
  2
168
 70
     0
 62
   168
  6
CONTINUOUS
  0
LAYER
  5
E2
330
2
100
AcDbSymbolTableRecord
100
AcDbLayerTableRecord
  2
169
 70
     0
 62
   169
  6
CONTINUOUS
  0
LAYER
  5
E3
330
2
100
AcDbSymbolTableRecord
100
AcDbLayerTableRecord
  2
170
 70
     0
 62
   170
  6
CONTINUOUS
  0
LAYER
  5
E4
330
2
100
AcDbSymbolTableRecord
100
AcDbLayerTableRecord
  2
171
 70
     0
 62
   171
  6
CONTINUOUS
  0
LAYER
  5
E5
330
2
100
AcDbSymbolTableRecord
100
AcDbLayerTableRecord
  2
172
 70
     0
 62
   172
  6
CONTINUOUS
  0
LAYER
  5
E6
330
2
100
AcDbSymbolTableRecord
100
AcDbLayerTableRecord
  2
173
 70
     0
 62
   173
  6
CONTINUOUS
  0
LAYER
  5
E7
330
2
100
AcDbSymbolTableRecord
100
AcDbLayerTableRecord
  2
174
 70
     0
 62
   174
  6
CONTINUOUS
  0
LAYER
  5
E8
330
2
100
AcDbSymbolTableRecord
100
AcDbLayerTableRecord
  2
175
 70
     0
 62
   175
  6
CONTINUOUS
  0
LAYER
  5
E9
330
2
100
AcDbSymbolTableRecord
100
AcDbLayerTableRecord
  2
176
 70
     0
 62
   176
  6
CONTINUOUS
  0
LAYER
  5
EA
330
2
100
AcDbSymbolTableRecord
100
AcDbLayerTableRecord
  2
177
 70
     0
 62
   177
  6
CONTINUOUS
  0
LAYER
  5
EB
330
2
100
AcDbSymbolTableRecord
100
AcDbLayerTableRecord
  2
178
 70
     0
 62
   178
  6
CONTINUOUS
  0
LAYER
  5
EC
330
2
100
AcDbSymbolTableRecord
100
AcDbLayerTableRecord
  2
179
 70
     0
 62
   179
  6
CONTINUOUS
  0
LAYER
  5
ED
330
2
100
AcDbSymbolTableRecord
100
AcDbLayerTableRecord
  2
180
 70
     0
 62
   180
  6
CONTINUOUS
  0
LAYER
  5
EE
330
2
100
AcDbSymbolTableRecord
100
AcDbLayerTableRecord
  2
181
 70
     0
 62
   181
  6
CONTINUOUS
  0
LAYER
  5
EF
330
2
100
AcDbSymbolTableRecord
100
AcDbLayerTableRecord
  2
182
 70
     0
 62
   182
  6
CONTINUOUS
  0
LAYER
  5
F0
330
2
100
AcDbSymbolTableRecord
100
AcDbLayerTableRecord
  2
183
 70
     0
 62
   183
  6
CONTINUOUS
  0
LAYER
  5
F1
330
2
100
AcDbSymbolTableRecord
100
AcDbLayerTableRecord
  2
184
 70
     0
 62
   184
  6
CONTINUOUS
  0
LAYER
  5
F2
330
2
100
AcDbSymbolTableRecord
100
AcDbLayerTableRecord
  2
185
 70
     0
 62
   185
  6
CONTINUOUS
  0
LAYER
  5
F3
330
2
100
AcDbSymbolTableRecord
100
AcDbLayerTableRecord
  2
186
 70
     0
 62
   186
  6
CONTINUOUS
  0
LAYER
  5
F4
330
2
100
AcDbSymbolTableRecord
100
AcDbLayerTableRecord
  2
187
 70
     0
 62
   187
  6
CONTINUOUS
  0
LAYER
  5
F5
330
2
100
AcDbSymbolTableRecord
100
AcDbLayerTableRecord
  2
188
 70
     0
 62
   188
  6
CONTINUOUS
  0
LAYER
  5
F6
330
2
100
AcDbSymbolTableRecord
100
AcDbLayerTableRecord
  2
189
 70
     0
 62
   189
  6
CONTINUOUS
  0
LAYER
  5
F7
330
2
100
AcDbSymbolTableRecord
100
AcDbLayerTableRecord
  2
190
 70
     0
 62
   190
  6
CONTINUOUS
  0
LAYER
  5
F8
330
2
100
AcDbSymbolTableRecord
100
AcDbLayerTableRecord
  2
191
 70
     0
 62
   191
  6
CONTINUOUS
  0
LAYER
  5
F9
330
2
100
AcDbSymbolTableRecord
100
AcDbLayerTableRecord
  2
192
 70
     0
 62
   192
  6
CONTINUOUS
  0
LAYER
  5
FA
330
2
100
AcDbSymbolTableRecord
100
AcDbLayerTableRecord
  2
193
 70
     0
 62
   193
  6
CONTINUOUS
  0
LAYER
  5
FB
330
2
100
AcDbSymbolTableRecord
100
AcDbLayerTableRecord
  2
194
 70
     0
 62
   194
  6
CONTINUOUS
  0
LAYER
  5
FC
330
2
100
AcDbSymbolTableRecord
100
AcDbLayerTableRecord
  2
195
 70
     0
 62
   195
  6
CONTINUOUS
  0
LAYER
  5
FD
330
2
100
AcDbSymbolTableRecord
100
AcDbLayerTableRecord
  2
196
 70
     0
 62
   196
  6
CONTINUOUS
  0
LAYER
  5
FE
330
2
100
AcDbSymbolTableRecord
100
AcDbLayerTableRecord
  2
197
 70
     0
 62
   197
  6
CONTINUOUS
  0
LAYER
  5
FF
330
2
100
AcDbSymbolTableRecord
100
AcDbLayerTableRecord
  2
198
 70
     0
 62
   198
  6
CONTINUOUS
  0
LAYER
  5
100
330
2
100
AcDbSymbolTableRecord
100
AcDbLayerTableRecord
  2
199
 70
     0
 62
   199
  6
CONTINUOUS
  0
LAYER
  5
101
330
2
100
AcDbSymbolTableRecord
100
AcDbLayerTableRecord
  2
200
 70
     0
 62
   200
  6
CONTINUOUS
  0
LAYER
  5
102
330
2
100
AcDbSymbolTableRecord
100
AcDbLayerTableRecord
  2
201
 70
     0
 62
   201
  6
CONTINUOUS
  0
LAYER
  5
103
330
2
100
AcDbSymbolTableRecord
100
AcDbLayerTableRecord
  2
202
 70
     0
 62
   202
  6
CONTINUOUS
  0
LAYER
  5
104
330
2
100
AcDbSymbolTableRecord
100
AcDbLayerTableRecord
  2
203
 70
     0
 62
   203
  6
CONTINUOUS
  0
LAYER
  5
105
330
2
100
AcDbSymbolTableRecord
100
AcDbLayerTableRecord
  2
204
 70
     0
 62
   204
  6
CONTINUOUS
  0
LAYER
  5
106
330
2
100
AcDbSymbolTableRecord
100
AcDbLayerTableRecord
  2
205
 70
     0
 62
   205
  6
CONTINUOUS
  0
LAYER
  5
107
330
2
100
AcDbSymbolTableRecord
100
AcDbLayerTableRecord
  2
206
 70
     0
 62
   206
  6
CONTINUOUS
  0
LAYER
  5
108
330
2
100
AcDbSymbolTableRecord
100
AcDbLayerTableRecord
  2
207
 70
     0
 62
   207
  6
CONTINUOUS
  0
LAYER
  5
109
330
2
100
AcDbSymbolTableRecord
100
AcDbLayerTableRecord
  2
208
 70
     0
 62
   208
  6
CONTINUOUS
  0
LAYER
  5
10A
330
2
100
AcDbSymbolTableRecord
100
AcDbLayerTableRecord
  2
209
 70
     0
 62
   209
  6
CONTINUOUS
  0
LAYER
  5
10B
330
2
100
AcDbSymbolTableRecord
100
AcDbLayerTableRecord
  2
210
 70
     0
 62
   210
  6
CONTINUOUS
  0
LAYER
  5
10C
330
2
100
AcDbSymbolTableRecord
100
AcDbLayerTableRecord
  2
211
 70
     0
 62
   211
  6
CONTINUOUS
  0
LAYER
  5
10D
330
2
100
AcDbSymbolTableRecord
100
AcDbLayerTableRecord
  2
212
 70
     0
 62
   212
  6
CONTINUOUS
  0
LAYER
  5
10E
330
2
100
AcDbSymbolTableRecord
100
AcDbLayerTableRecord
  2
213
 70
     0
 62
   213
  6
CONTINUOUS
  0
LAYER
  5
10F
330
2
100
AcDbSymbolTableRecord
100
AcDbLayerTableRecord
  2
214
 70
     0
 62
   214
  6
CONTINUOUS
  0
LAYER
  5
110
330
2
100
AcDbSymbolTableRecord
100
AcDbLayerTableRecord
  2
215
 70
     0
 62
   215
  6
CONTINUOUS
  0
LAYER
  5
111
330
2
100
AcDbSymbolTableRecord
100
AcDbLayerTableRecord
  2
216
 70
     0
 62
   216
  6
CONTINUOUS
  0
LAYER
  5
112
330
2
100
AcDbSymbolTableRecord
100
AcDbLayerTableRecord
  2
217
 70
     0
 62
   217
  6
CONTINUOUS
  0
LAYER
  5
113
330
2
100
AcDbSymbolTableRecord
100
AcDbLayerTableRecord
  2
218
 70
     0
 62
   218
  6
CONTINUOUS
  0
LAYER
  5
114
330
2
100
AcDbSymbolTableRecord
100
AcDbLayerTableRecord
  2
219
 70
     0
 62
   219
  6
CONTINUOUS
  0
LAYER
  5
115
330
2
100
AcDbSymbolTableRecord
100
AcDbLayerTableRecord
  2
220
 70
     0
 62
   220
  6
CONTINUOUS
  0
LAYER
  5
116
330
2
100
AcDbSymbolTableRecord
100
AcDbLayerTableRecord
  2
221
 70
     0
 62
   221
  6
CONTINUOUS
  0
LAYER
  5
117
330
2
100
AcDbSymbolTableRecord
100
AcDbLayerTableRecord
  2
222
 70
     0
 62
   222
  6
CONTINUOUS
  0
LAYER
  5
118
330
2
100
AcDbSymbolTableRecord
100
AcDbLayerTableRecord
  2
223
 70
     0
 62
   223
  6
CONTINUOUS
  0
LAYER
  5
119
330
2
100
AcDbSymbolTableRecord
100
AcDbLayerTableRecord
  2
224
 70
     0
 62
   224
  6
CONTINUOUS
  0
LAYER
  5
11A
330
2
100
AcDbSymbolTableRecord
100
AcDbLayerTableRecord
  2
225
 70
     0
 62
   225
  6
CONTINUOUS
  0
LAYER
  5
11B
330
2
100
AcDbSymbolTableRecord
100
AcDbLayerTableRecord
  2
226
 70
     0
 62
   226
  6
CONTINUOUS
  0
LAYER
  5
11C
330
2
100
AcDbSymbolTableRecord
100
AcDbLayerTableRecord
  2
227
 70
     0
 62
   227
  6
CONTINUOUS
  0
LAYER
  5
11D
330
2
100
AcDbSymbolTableRecord
100
AcDbLayerTableRecord
  2
228
 70
     0
 62
   228
  6
CONTINUOUS
  0
LAYER
  5
11E
330
2
100
AcDbSymbolTableRecord
100
AcDbLayerTableRecord
  2
229
 70
     0
 62
   229
  6
CONTINUOUS
  0
LAYER
  5
11F
330
2
100
AcDbSymbolTableRecord
100
AcDbLayerTableRecord
  2
230
 70
     0
 62
   230
  6
CONTINUOUS
  0
LAYER
  5
120
330
2
100
AcDbSymbolTableRecord
100
AcDbLayerTableRecord
  2
231
 70
     0
 62
   231
  6
CONTINUOUS
  0
LAYER
  5
121
330
2
100
AcDbSymbolTableRecord
100
AcDbLayerTableRecord
  2
232
 70
     0
 62
   232
  6
CONTINUOUS
  0
LAYER
  5
122
330
2
100
AcDbSymbolTableRecord
100
AcDbLayerTableRecord
  2
233
 70
     0
 62
   233
  6
CONTINUOUS
  0
LAYER
  5
123
330
2
100
AcDbSymbolTableRecord
100
AcDbLayerTableRecord
  2
234
 70
     0
 62
   234
  6
CONTINUOUS
  0
LAYER
  5
124
330
2
100
AcDbSymbolTableRecord
100
AcDbLayerTableRecord
  2
235
 70
     0
 62
   235
  6
CONTINUOUS
  0
LAYER
  5
125
330
2
100
AcDbSymbolTableRecord
100
AcDbLayerTableRecord
  2
236
 70
     0
 62
   236
  6
CONTINUOUS
  0
LAYER
  5
126
330
2
100
AcDbSymbolTableRecord
100
AcDbLayerTableRecord
  2
237
 70
     0
 62
   237
  6
CONTINUOUS
  0
LAYER
  5
127
330
2
100
AcDbSymbolTableRecord
100
AcDbLayerTableRecord
  2
238
 70
     0
 62
   238
  6
CONTINUOUS
  0
LAYER
  5
128
330
2
100
AcDbSymbolTableRecord
100
AcDbLayerTableRecord
  2
239
 70
     0
 62
   239
  6
CONTINUOUS
  0
LAYER
  5
129
330
2
100
AcDbSymbolTableRecord
100
AcDbLayerTableRecord
  2
240
 70
     0
 62
   240
  6
CONTINUOUS
  0
LAYER
  5
12A
330
2
100
AcDbSymbolTableRecord
100
AcDbLayerTableRecord
  2
241
 70
     0
 62
   241
  6
CONTINUOUS
  0
LAYER
  5
12B
330
2
100
AcDbSymbolTableRecord
100
AcDbLayerTableRecord
  2
242
 70
     0
 62
   242
  6
CONTINUOUS
  0
LAYER
  5
12C
330
2
100
AcDbSymbolTableRecord
100
AcDbLayerTableRecord
  2
243
 70
     0
 62
   243
  6
CONTINUOUS
  0
LAYER
  5
12D
330
2
100
AcDbSymbolTableRecord
100
AcDbLayerTableRecord
  2
244
 70
     0
 62
   244
  6
CONTINUOUS
  0
LAYER
  5
12E
330
2
100
AcDbSymbolTableRecord
100
AcDbLayerTableRecord
  2
245
 70
     0
 62
   245
  6
CONTINUOUS
  0
LAYER
  5
12F
330
2
100
AcDbSymbolTableRecord
100
AcDbLayerTableRecord
  2
246
 70
     0
 62
   246
  6
CONTINUOUS
  0
LAYER
  5
130
330
2
100
AcDbSymbolTableRecord
100
AcDbLayerTableRecord
  2
247
 70
     0
 62
   247
  6
CONTINUOUS
  0
LAYER
  5
131
330
2
100
AcDbSymbolTableRecord
100
AcDbLayerTableRecord
  2
248
 70
     0
 62
   248
  6
CONTINUOUS
  0
LAYER
  5
132
330
2
100
AcDbSymbolTableRecord
100
AcDbLayerTableRecord
  2
249
 70
     0
 62
   249
  6
CONTINUOUS
  0
LAYER
  5
133
330
2
100
AcDbSymbolTableRecord
100
AcDbLayerTableRecord
  2
250
 70
     0
 62
   250
  6
CONTINUOUS
  0
LAYER
  5
134
330
2
100
AcDbSymbolTableRecord
100
AcDbLayerTableRecord
  2
251
 70
     0
 62
   251
  6
CONTINUOUS
  0
LAYER
  5
135
330
2
100
AcDbSymbolTableRecord
100
AcDbLayerTableRecord
  2
252
 70
     0
 62
   252
  6
CONTINUOUS
  0
LAYER
  5
136
330
2
100
AcDbSymbolTableRecord
100
AcDbLayerTableRecord
  2
253
 70
     0
 62
   253
  6
CONTINUOUS
  0
LAYER
  5
137
330
2
100
AcDbSymbolTableRecord
100
AcDbLayerTableRecord
  2
254
 70
     0
 62
   254
  6
CONTINUOUS
  0
LAYER
  5
138
330
2
100
AcDbSymbolTableRecord
100
AcDbLayerTableRecord
  2
255
 70
     0
 62
   255
  6
CONTINUOUS
  0
LAYER
  5
4EC7
330
2
100
AcDbSymbolTableRecord
100
AcDbLayerTableRecord
  2
DEFPOINTS
 70
     0
 62
     7
  6
CONTINUOUS
  0
ENDTAB
  0
TABLE
  2
STYLE
  5
3
330
0
100
AcDbSymbolTable
 70
     1
  0
STYLE
  5
11
330
3
100
AcDbSymbolTableRecord
100
AcDbTextStyleTableRecord
  2
STANDARD
 70
     0
 40
0.0
 41
1.0
 50
0.0
 71
     0
 42
0.2
  3
monotxt
  4

  0
ENDTAB
  0
TABLE
  2
VIEW
  5
6
330
0
100
AcDbSymbolTable
 70
     0
  0
ENDTAB
  0
TABLE
  2
UCS
  5
7
330
0
100
AcDbSymbolTable
 70
     0
  0
ENDTAB
  0
TABLE
  2
APPID
  5
9
330
0
100
AcDbSymbolTable
 70
     1
  0
APPID
  5
12
330
9
100
AcDbSymbolTableRecord
100
AcDbRegAppTableRecord
  2
ACAD
 70
     0
  0
ENDTAB
  0
TABLE
  2
DIMSTYLE
  5
A
330
0
100
AcDbSymbolTable
 70
     1
  0
DIMSTYLE
105
37D1
102
{ACAD_REACTORS
330
4EC6
102
}
330
A
100
AcDbSymbolTableRecord
100
AcDbDimStyleTableRecord
  2
STANDARD
 70
     0
  3

  4

  5

  6

  7

 40
1.0
 41
0.18
 42
0.0625
 43
0.38
 44
0.18
 45
0.0
 46
0.0
 47
0.0
 48
0.0
140
0.18
141
0.09
142
0.0
143
25.4
144
1.0
145
0.0
146
1.0
147
0.09
 71
     0
 72
     0
 73
     1
 74
     1
 75
     0
 76
     0
 77
     0
 78
     0
170
     0
171
     2
172
     0
173
     0
174
     0
175
     0
176
     0
177
     0
178
     0
270
     2
271
     4
272
     4
273
     2
274
     2
340
11
275
     0
280
     0
281
     0
282
     0
283
     1
284
     0
285
     0
286
     0
287
     3
288
     0
  0
ENDTAB
  0
TABLE
  2
BLOCK_RECORD
  5
1
330
0
100
AcDbSymbolTable
 70
     1
  0
BLOCK_RECORD
  5
1E
102
{ACAD_XDICTIONARY
360
4F1C
102
}
330
1
100
AcDbSymbolTableRecord
100
AcDbBlockTableRecord
  2
*MODEL_SPACE
  0
BLOCK_RECORD
  5
1A
102
{ACAD_XDICTIONARY
360
4F1A
102
}
330
1
100
AcDbSymbolTableRecord
100
AcDbBlockTableRecord
  2
*PAPER_SPACE
  0
BLOCK_RECORD
  5
4EC8
330
1
100
AcDbSymbolTableRecord
100
AcDbBlockTableRecord
  2
*D0
  0
ENDTAB
  0
ENDSEC
  0
SECTION
  2
BLOCKS
  0
BLOCK
  5
13B
330
1E
100
AcDbEntity
  8
0
100
AcDbBlockBegin
  2
*MODEL_SPACE
 70
     0
 10
0.0
 20
0.0
 30
0.0
  3
*MODEL_SPACE
  1

  0
ENDBLK
  5
13C
330
1E
100
AcDbEntity
  8
0
100
AcDbBlockEnd
  0
BLOCK
  5
139
330
1A
100
AcDbEntity
 67
     1
  8
0
100
AcDbBlockBegin
  2
*PAPER_SPACE
 70
     0
 10
0.0
 20
0.0
 30
0.0
  3
*PAPER_SPACE
  1

  0
ENDBLK
  5
13A
330
1A
100
AcDbEntity
 67
     1
  8
0
100
AcDbBlockEnd
  0
BLOCK
  5
4ED2
330
4EC8
100
AcDbEntity
  8
0
100
AcDbBlockBegin
  2
*D0
 70
     1
 10
0.0
 20
0.0
 30
0.0
  3
*D0
  1

  0
LINE
  5
4ED4
330
4EC8
100
AcDbEntity
  8
0
 62
     0
100
AcDbLine
 10
5.843253954704938
 20
8.18706813851362
 30
0.0
 11
7.252192182671006
 21
8.18706813851362
 31
0.0
  0
LINE
  5
4ED5
330
4EC8
100
AcDbEntity
  8
0
 62
     0
100
AcDbLine
 10
5.843253954704938
 20
7.063052390482123
 30
0.0
 11
7.252192182671006
 21
7.063052390482122
 31
0.0
  0
LINE
  5
4ED6
330
4EC8
100
AcDbEntity
  8
0
 62
     0
100
AcDbLine
 10
7.072192182671006
 20
8.00706813851362
 30
0.0
 11
7.072192182671006
 21
7.805060264497871
 31
0.0
  0
LINE
  5
4ED7
330
4EC8
100
AcDbEntity
  8
0
 62
     0
100
AcDbLine
 10
7.072192182671006
 20
7.243052390482122
 30
0.0
 11
7.072192182671006
 21
7.445060264497872
 31
0.0
  0
SOLID
  5
4ED8
330
4EC8
100
AcDbEntity
  8
0
 62
     0
100
AcDbTrace
 10
7.042192182671006
 20
8.00706813851362
 30
0.0
 11
7.102192182671006
 21
8.00706813851362
 31
0.0
 12
7.072192182671006
 22
8.18706813851362
 32
0.0
 13
7.072192182671006
 23
8.18706813851362
 33
0.0
  0
SOLID
  5
4ED9
330
4EC8
100
AcDbEntity
  8
0
 62
     0
100
AcDbTrace
 10
7.042192182671006
 20
7.243052390482122
 30
0.0
 11
7.102192182671006
 21
7.243052390482122
 31
0.0
 12
7.072192182671006
 22
7.063052390482122
 32
0.0
 13
7.072192182671006
 23
7.063052390482122
 33
0.0
  0
MTEXT
  5
4EDA
330
4EC8
100
AcDbEntity
  8
0
 62
     0
100
AcDbMText
 10
7.072192182671005
 20
7.625060264497873
 30
0.0
 40
0.18
 41
0.0
 71
     5
 72
     1
  1
\A1;1.1240
1001
ACAD
1000
MTEXTBEGIN
1070
    73
1070
     1
1070
    44
1040
1.0
1070
    74
1070
     0
1000
MTEXTEND
  0
POINT
  5
4EDB
330
4EC8
100
AcDbEntity
  8
DEFPOINTS
 62
     0
100
AcDbPoint
 10
5.780753954704938
 20
8.18706813851362
 30
0.0
  0
POINT
  5
4EDC
330
4EC8
100
AcDbEntity
  8
DEFPOINTS
 62
     0
100
AcDbPoint
 10
5.780753954704938
 20
7.063052390482123
 30
0.0
  0
POINT
  5
4EDD
330
4EC8
100
AcDbEntity
  8
DEFPOINTS
 62
     0
100
AcDbPoint
 10
7.072192182671006
 20
7.063052390482122
 30
0.0
  0
ENDBLK
  5
4ED3
330
4EC8
100
AcDbEntity
  8
0
100
AcDbBlockEnd
  0
ENDSEC
  0
SECTION
  2
ENTITIES
  0
LINE
  5
2DD6
330
1E
100
AcDbEntity
  8
7
100
AcDbLine
 10
4.229572852342732
 20
3.102422469222283
 30
0.0
 11
4.229572852342732
 21
3.145729555836455
 31
0.0
  0
LINE
  5
2DD7
330
1E
100
AcDbEntity
  8
7
100
AcDbLine
 10
4.038627970452969
 20
3.253997272371888
 30
0.0
 11
3.979572852342732
 21
3.253997272371888
 31
0.0
  0
LINE
  5
2DD8
330
1E
100
AcDbEntity
  8
7
100
AcDbLine
 10
4.079966553130134
 20
3.285493335364014
 30
0.0
 11
4.011068915334858
 21
3.338642941663227
 31
0.0
  0
LINE
  5
2DD9
330
1E
100
AcDbEntity
  8
7
100
AcDbLine
 10
4.229572852342732
 20
3.061083886545116
 30
0.0
 11
4.150832694862417
 21
3.061083886545116
 31
0.0
  0
LINE
  5
2DDA
330
1E
100
AcDbEntity
  8
7
100
AcDbLine
 10
3.979572852342732
 20
3.210690185757714
 30
0.0
 11
3.989415372027771
 21
3.194942154261651
 31
0.0
  0
LINE
  5
2DDB
330
1E
100
AcDbEntity
  8
7
100
AcDbLine
 10
4.150832694862417
 20
3.002028768434881
 30
0.0
 11
4.229572852342732
 21
3.002028768434881
 31
0.0
  0
LINE
  5
2DDC
330
1E
100
AcDbEntity
  8
7
100
AcDbLine
 10
4.229572852342732
 20
3.35439097315929
 30
0.0
 11
4.219730332657693
 21
3.338642941663227
 31
0.0
  0
LINE
  5
2DDD
330
1E
100
AcDbEntity
  8
7
100
AcDbLine
 10
4.030753954704938
 20
3.194942154261651
 30
0.0
 11
4.038627970452969
 21
3.208721681820707
 31
0.0
  0
LINE
  5
2DDE
330
1E
100
AcDbEntity
  8
7
100
AcDbLine
 10
4.050438994075015
 20
3.025650815678975
 30
0.0
 11
3.999257891712812
 21
3.08667443772622
 31
0.0
  0
LINE
  5
2DDF
330
1E
100
AcDbEntity
  8
7
100
AcDbLine
 10
3.989415372027771
 20
2.929194122765588
 30
0.0
 11
4.030753954704938
 21
2.929194122765588
 31
0.0
  0
LINE
  5
2DE0
330
1E
100
AcDbEntity
  8
7
100
AcDbLine
 10
4.079966553130134
 20
2.988249240875825
 30
0.0
 11
4.079966553130134
 21
2.942973650324644
 31
0.0
  0
LINE
  5
2DE1
330
1E
100
AcDbEntity
  8
7
100
AcDbLine
 10
3.979572852342732
 20
2.944942154261651
 30
0.0
 11
3.989415372027771
 21
2.929194122765588
 31
0.0
  0
LINE
  5
2DE2
330
1E
100
AcDbEntity
  8
7
100
AcDbLine
 10
4.229572852342732
 20
2.862264988907321
 30
0.0
 11
4.12917915155533
 21
2.862264988907321
 31
0.0
  0
LINE
  5
2DE3
330
1E
100
AcDbEntity
  8
7
100
AcDbLine
 10
4.180360253917536
 20
3.35439097315929
 30
0.0
 11
4.180360253917536
 21
3.397698059773462
 31
0.0
  0
LINE
  5
2DE4
330
1E
100
AcDbEntity
  8
7
100
AcDbLine
 10
4.12917915155533
 20
3.397698059773462
 30
0.0
 11
4.229572852342732
 21
3.397698059773462
 31
0.0
  0
LINE
  5
2DE5
330
1E
100
AcDbEntity
  8
7
100
AcDbLine
 10
4.12917915155533
 20
2.954784673946692
 30
0.0
 11
4.12917915155533
 21
2.941005146387636
 31
0.0
  0
LINE
  5
2DE6
330
1E
100
AcDbEntity
  8
7
100
AcDbLine
 10
3.979572852342732
 20
3.338642941663227
 30
0.0
 11
4.079966553130134
 21
3.338642941663227
 31
0.0
  0
LINE
  5
2DE7
330
1E
100
AcDbEntity
  8
7
100
AcDbLine
 10
4.229572852342732
 20
3.230375225127794
 30
0.0
 11
4.12917915155533
 21
3.169351603080549
 31
0.0
  0
LINE
  5
2DE8
330
1E
100
AcDbEntity
  8
7
100
AcDbLine
 10
4.12917915155533
 20
3.230375225127794
 30
0.0
 11
4.229572852342732
 21
3.230375225127794
 31
0.0
  0
LINE
  5
2DE9
330
1E
100
AcDbEntity
  8
7
100
AcDbLine
 10
4.070124033445095
 20
3.025650815678975
 30
0.0
 11
4.050438994075015
 21
3.025650815678975
 31
0.0
  0
LINE
  5
2DEA
330
1E
100
AcDbEntity
  8
7
100
AcDbLine
 10
4.079966553130134
 20
3.253997272371888
 30
0.0
 11
4.079966553130134
 21
3.208721681820707
 31
0.0
  0
LINE
  5
2DEB
330
1E
100
AcDbEntity
  8
7
100
AcDbLine
 10
4.070124033445095
 20
3.08470593378921
 30
0.0
 11
4.079966553130134
 21
3.070926406230157
 31
0.0
  0
LINE
  5
2DEC
330
1E
100
AcDbEntity
  8
7
100
AcDbLine
 10
4.209887812972652
 20
3.08667443772622
 30
0.0
 11
4.229572852342732
 21
3.102422469222283
 31
0.0
  0
LINE
  5
2DED
330
1E
100
AcDbEntity
  8
7
100
AcDbLine
 10
4.079966553130134
 20
3.041398847175038
 30
0.0
 11
4.070124033445095
 21
3.025650815678975
 31
0.0
  0
LINE
  5
2DEE
330
1E
100
AcDbEntity
  8
7
100
AcDbLine
 10
3.979572852342732
 20
2.988249240875825
 30
0.0
 11
3.979572852342732
 21
2.944942154261651
 31
0.0
  0
LINE
  5
2DEF
330
1E
100
AcDbEntity
  8
7
100
AcDbLine
 10
4.038627970452969
 20
2.988249240875825
 30
0.0
 11
4.079966553130134
 21
2.988249240875825
 31
0.0
  0
LINE
  5
2DF0
330
1E
100
AcDbEntity
  8
7
100
AcDbLine
 10
4.079966553130134
 20
2.942973650324644
 30
0.0
 11
4.070124033445095
 21
2.93706813851362
 31
0.0
  0
LINE
  5
2DF1
330
1E
100
AcDbEntity
  8
7
100
AcDbLine
 10
4.229572852342732
 20
3.283524831427007
 30
0.0
 11
4.12917915155533
 21
3.253997272371888
 31
0.0
  0
LINE
  5
2DF2
330
1E
100
AcDbEntity
  8
7
100
AcDbLine
 10
4.12917915155533
 20
3.017776799930944
 30
0.0
 11
4.150832694862417
 21
3.002028768434881
 31
0.0
  0
LINE
  5
2DF3
330
1E
100
AcDbEntity
  8
7
100
AcDbLine
 10
4.079966553130134
 20
3.070926406230157
 30
0.0
 11
4.079966553130134
 21
3.041398847175038
 31
0.0
  0
LINE
  5
2DF4
330
1E
100
AcDbEntity
  8
7
100
AcDbLine
 10
4.229572852342732
 20
3.397698059773462
 30
0.0
 11
4.229572852342732
 21
3.35439097315929
 31
0.0
  0
LINE
  5
2DF5
330
1E
100
AcDbEntity
  8
7
100
AcDbLine
 10
4.219730332657693
 20
3.338642941663227
 30
0.0
 11
4.190202773602575
 21
3.338642941663227
 31
0.0
  0
LINE
  5
2DF6
330
1E
100
AcDbEntity
  8
7
100
AcDbLine
 10
4.229572852342732
 20
3.145729555836455
 30
0.0
 11
4.12917915155533
 21
3.145729555836455
 31
0.0
  0
LINE
  5
2DF7
330
1E
100
AcDbEntity
  8
7
100
AcDbLine
 10
4.12917915155533
 20
3.04730435898606
 30
0.0
 11
4.12917915155533
 21
3.017776799930944
 31
0.0
  0
LINE
  5
2DF8
330
1E
100
AcDbEntity
  8
7
100
AcDbLine
 10
4.190202773602575
 20
3.338642941663227
 30
0.0
 11
4.180360253917536
 21
3.35439097315929
 31
0.0
  0
LINE
  5
2DF9
330
1E
100
AcDbEntity
  8
7
100
AcDbLine
 10
3.979572852342732
 20
3.253997272371888
 30
0.0
 11
3.979572852342732
 21
3.210690185757714
 31
0.0
  0
LINE
  5
2DFA
330
1E
100
AcDbEntity
  8
7
100
AcDbLine
 10
4.070124033445095
 20
2.93706813851362
 30
0.0
 11
4.050438994075015
 21
2.93706813851362
 31
0.0
  0
LINE
  5
2DFB
330
1E
100
AcDbEntity
  8
7
100
AcDbLine
 10
4.030753954704938
 20
2.929194122765588
 30
0.0
 11
4.038627970452969
 21
2.942973650324644
 31
0.0
  0
LINE
  5
2DFC
330
1E
100
AcDbEntity
  8
7
100
AcDbLine
 10
4.229572852342732
 20
2.948879162135668
 30
0.0
 11
4.12917915155533
 21
2.94691065819866
 31
0.0
  0
LINE
  5
2DFD
330
1E
100
AcDbEntity
  8
7
100
AcDbLine
 10
4.038627970452969
 20
3.208721681820707
 30
0.0
 11
4.038627970452969
 21
3.253997272371888
 31
0.0
  0
LINE
  5
2DFE
330
1E
100
AcDbEntity
  8
7
100
AcDbLine
 10
4.050438994075015
 20
3.202816170009683
 30
0.0
 11
4.038627970452969
 21
3.208721681820707
 31
0.0
  0
LINE
  5
2DFF
330
1E
100
AcDbEntity
  8
7
100
AcDbLine
 10
3.979572852342732
 20
3.110296484970314
 30
0.0
 11
4.079966553130134
 21
3.169351603080549
 31
0.0
  0
LINE
  5
2E00
330
1E
100
AcDbEntity
  8
7
100
AcDbLine
 10
4.079966553130134
 20
3.208721681820707
 30
0.0
 11
4.070124033445095
 21
3.202816170009683
 31
0.0
  0
LINE
  5
2E01
330
1E
100
AcDbEntity
  8
7
100
AcDbLine
 10
4.038627970452969
 20
3.253997272371888
 30
0.0
 11
4.079966553130134
 21
3.253997272371888
 31
0.0
  0
LINE
  5
2E02
330
1E
100
AcDbEntity
  8
7
100
AcDbLine
 10
4.050438994075015
 20
2.93706813851362
 30
0.0
 11
4.038627970452969
 21
2.942973650324644
 31
0.0
  0
LINE
  5
2E03
330
1E
100
AcDbEntity
  8
7
100
AcDbLine
 10
3.989415372027771
 20
3.194942154261651
 30
0.0
 11
4.030753954704938
 21
3.194942154261651
 31
0.0
  0
LINE
  5
2E04
330
1E
100
AcDbEntity
  8
7
100
AcDbLine
 10
3.979572852342732
 20
3.169351603080549
 30
0.0
 11
4.079966553130134
 21
3.110296484970314
 31
0.0
  0
LINE
  5
2E05
330
1E
100
AcDbEntity
  8
7
100
AcDbLine
 10
4.229572852342732
 20
2.954784673946692
 30
0.0
 11
4.229572852342732
 21
2.941005146387636
 31
0.0
  0
LINE
  5
2E06
330
1E
100
AcDbEntity
  8
7
100
AcDbLine
 10
4.12917915155533
 20
3.313052390482123
 30
0.0
 11
4.229572852342732
 21
3.283524831427007
 31
0.0
  0
LINE
  5
2E07
330
1E
100
AcDbEntity
  8
7
100
AcDbLine
 10
4.12917915155533
 20
3.102422469222283
 30
0.0
 11
4.150832694862417
 21
3.08667443772622
 31
0.0
  0
LINE
  5
2E08
330
1E
100
AcDbEntity
  8
7
100
AcDbLine
 10
4.12917915155533
 20
3.145729555836455
 30
0.0
 11
4.12917915155533
 21
3.102422469222283
 31
0.0
  0
LINE
  5
2E09
330
1E
100
AcDbEntity
  8
7
100
AcDbLine
 10
3.979572852342732
 20
3.285493335364014
 30
0.0
 11
4.038627970452969
 21
3.31698939835614
 31
0.0
  0
LINE
  5
2E0A
330
1E
100
AcDbEntity
  8
7
100
AcDbLine
 10
1.320124033445095
 20
2.942973650324644
 30
0.0
 11
1.355557104311237
 21
2.942973650324644
 31
0.0
  0
LINE
  5
2E0B
330
1E
100
AcDbEntity
  8
7
100
AcDbLine
 10
4.038627970452969
 20
2.942973650324644
 30
0.0
 11
4.038627970452969
 21
2.988249240875825
 31
0.0
  0
LINE
  5
2E0C
330
1E
100
AcDbEntity
  8
7
100
AcDbLine
 10
3.999257891712812
 20
3.08667443772622
 30
0.0
 11
3.979572852342732
 21
3.08470593378921
 31
0.0
  0
LINE
  5
2E0D
330
1E
100
AcDbEntity
  8
7
100
AcDbLine
 10
4.12917915155533
 20
3.169351603080549
 30
0.0
 11
4.229572852342732
 21
3.169351603080549
 31
0.0
  0
LINE
  5
2E0E
330
1E
100
AcDbEntity
  8
7
100
AcDbLine
 10
4.070124033445095
 20
3.202816170009683
 30
0.0
 11
4.050438994075015
 21
3.202816170009683
 31
0.0
  0
LINE
  5
2E0F
330
1E
100
AcDbEntity
  8
7
100
AcDbLine
 10
4.229572852342732
 20
2.832737429852203
 30
0.0
 11
4.229572852342732
 21
2.89179254796244
 31
0.0
  0
LINE
  5
2E10
330
1E
100
AcDbEntity
  8
7
100
AcDbLine
 10
4.180360253917536
 20
3.29927286292307
 30
0.0
 11
4.180360253917536
 21
3.269745303867951
 31
0.0
  0
LINE
  5
2E11
330
1E
100
AcDbEntity
  8
7
100
AcDbLine
 10
4.150832694862417
 20
3.08667443772622
 30
0.0
 11
4.209887812972652
 21
3.08667443772622
 31
0.0
  0
LINE
  5
2E12
330
1E
100
AcDbEntity
  8
7
100
AcDbLine
 10
3.979572852342732
 20
3.08470593378921
 30
0.0
 11
3.979572852342732
 21
3.025650815678975
 31
0.0
  0
LINE
  5
2E13
330
1E
100
AcDbEntity
  8
7
100
AcDbLine
 10
4.150832694862417
 20
3.061083886545116
 30
0.0
 11
4.12917915155533
 21
3.04730435898606
 31
0.0
  0
LINE
  5
2E14
330
1E
100
AcDbEntity
  8
7
100
AcDbLine
 10
4.038627970452969
 20
2.988249240875825
 30
0.0
 11
3.979572852342732
 21
2.988249240875825
 31
0.0
  0
LINE
  5
2E15
330
1E
100
AcDbEntity
  8
7
100
AcDbLine
 10
1.064218521634072
 20
3.58470593378921
 30
0.0
 11
1.072092537382103
 21
3.588642941663227
 31
0.0
  0
LINE
  5
2E16
330
1E
100
AcDbEntity
  8
7
100
AcDbLine
 10
1.064218521634072
 20
3.58470593378921
 30
0.0
 11
1.064218521634072
 21
2.990217744812833
 31
0.0
  0
LINE
  5
2E1C
330
1E
100
AcDbEntity
  8
7
100
AcDbLine
 10
1.30634450588604
 20
2.929194122765588
 30
0.0
 11
1.30634450588604
 21
2.781556327489997
 31
0.0
  0
LINE
  5
2E1D
330
1E
100
AcDbEntity
  8
7
100
AcDbLine
 10
1.064218521634072
 20
2.929194122765588
 30
0.0
 11
1.30634450588604
 21
2.929194122765588
 31
0.0
  0
LINE
  5
2E1E
330
1E
100
AcDbEntity
  8
7
100
AcDbLine
 10
1.064218521634072
 20
2.990217744812833
 30
0.0
 11
1.064218521634072
 21
2.929194122765588
 31
0.0
  0
LINE
  5
2E1F
330
1E
100
AcDbEntity
  8
7
100
AcDbLine
 10
1.007131907460843
 20
3.58470593378921
 30
0.0
 11
1.064218521634072
 21
3.58470593378921
 31
0.0
  0
LINE
  5
2E25
330
1E
100
AcDbEntity
  8
7
100
AcDbLine
 10
1.005163403523836
 20
2.781556327489997
 30
0.0
 11
1.005163403523836
 21
2.893761051899447
 31
0.0
  0
LINE
  5
2E2B
330
1E
100
AcDbEntity
  8
7
100
AcDbLine
 10
1.011068915334859
 20
2.77958782355299
 30
0.0
 11
1.005163403523836
 21
2.781556327489997
 31
0.0
  0
LINE
  5
2E2C
330
1E
100
AcDbEntity
  8
7
100
AcDbLine
 10
1.011068915334859
 20
2.77958782355299
 30
0.0
 11
1.308313009823048
 21
2.77958782355299
 31
0.0
  0
LINE
  5
2E2D
330
1E
100
AcDbEntity
  8
7
100
AcDbLine
 10
1.30634450588604
 20
4.315020894419133
 30
0.0
 11
1.30634450588604
 21
4.462658689694723
 31
0.0
  0
LINE
  5
2E2E
330
1E
100
AcDbEntity
  8
7
100
AcDbLine
 10
1.005163403523836
 20
4.462658689694723
 30
0.0
 11
1.30634450588604
 21
4.462658689694723
 31
0.0
  0
LINE
  5
2E2F
330
1E
100
AcDbEntity
  8
7
100
AcDbLine
 10
1.005163403523836
 20
4.350453965285273
 30
0.0
 11
1.005163403523836
 21
4.462658689694723
 31
0.0
  0
LINE
  5
2E30
330
1E
100
AcDbEntity
  8
7
100
AcDbLine
 10
1.007131907460843
 20
4.350453965285273
 30
0.0
 11
1.005163403523836
 21
4.350453965285273
 31
0.0
  0
LINE
  5
2E36
330
1E
100
AcDbEntity
  8
7
100
AcDbLine
 10
1.064218521634072
 20
4.315020894419133
 30
0.0
 11
1.064218521634072
 21
4.252028768434881
 31
0.0
  0
LINE
  5
2E37
330
1E
100
AcDbEntity
  8
7
100
AcDbLine
 10
1.30634450588604
 20
4.315020894419133
 30
0.0
 11
1.064218521634072
 21
4.315020894419133
 31
0.0
  0
LINE
  5
2E38
330
1E
100
AcDbEntity
  8
7
100
AcDbLine
 10
0.9913838759647806
 20
3.58470593378921
 30
0.0
 11
0.9913838759647806
 21
2.895729555836455
 31
0.0
  0
LINE
  5
2E3F
330
1E
100
AcDbEntity
  8
7
100
AcDbLine
 10
0.9913838759647806
 20
3.58470593378921
 30
0.0
 11
1.005163403523836
 21
3.58470593378921
 31
0.0
  0
LINE
  5
2E40
330
1E
100
AcDbEntity
  8
7
100
AcDbLine
 10
1.005163403523836
 20
2.895729555836455
 30
0.0
 11
0.9913838759647806
 21
2.895729555836455
 31
0.0
  0
LINE
  5
2E41
330
1E
100
AcDbEntity
  8
7
100
AcDbLine
 10
1.005163403523836
 20
3.58470593378921
 30
0.0
 11
1.005163403523836
 21
2.895729555836455
 31
0.0
  0
LINE
  5
2E42
330
1E
100
AcDbEntity
  8
7
100
AcDbLine
 10
1.007131907460843
 20
3.58470593378921
 30
0.0
 11
1.005163403523836
 21
3.58470593378921
 31
0.0
  0
LINE
  5
2E43
330
1E
100
AcDbEntity
  8
7
100
AcDbLine
 10
1.007131907460843
 20
2.893761051899447
 30
0.0
 11
1.005163403523836
 21
2.895729555836455
 31
0.0
  0
LINE
  5
2E44
330
1E
100
AcDbEntity
  8
7
100
AcDbLine
 10
1.227604348405725
 20
3.003997272371888
 30
0.0
 11
1.231541356279741
 21
3.000060264497871
 31
0.0
  0
LINE
  5
2E45
330
1E
100
AcDbEntity
  8
7
100
AcDbLine
 10
1.064218521634072
 20
2.990217744812833
 30
0.0
 11
1.077998049193126
 21
3.003997272371888
 31
0.0
  0
LINE
  5
2E46
330
1E
100
AcDbEntity
  8
7
100
AcDbLine
 10
1.072092537382103
 20
3.588642941663227
 30
0.0
 11
1.077998049193126
 21
3.58470593378921
 31
0.0
  0
LINE
  5
2E47
330
1E
100
AcDbEntity
  8
7
100
AcDbLine
 10
1.231541356279741
 20
3.588642941663227
 30
0.0
 11
1.227604348405725
 21
3.58470593378921
 31
0.0
  0
LINE
  5
2E48
330
1E
100
AcDbEntity
  8
7
100
AcDbLine
 10
1.227604348405725
 20
3.65950908339551
 30
0.0
 11
1.231541356279741
 21
3.655572075521494
 31
0.0
  0
LINE
  5
2E49
330
1E
100
AcDbEntity
  8
7
100
AcDbLine
 10
1.072092537382103
 20
3.655572075521494
 30
0.0
 11
1.077998049193126
 21
3.65950908339551
 31
0.0
  0
LINE
  5
2E4A
330
1E
100
AcDbEntity
  8
7
100
AcDbLine
 10
1.064218521634072
 20
4.252028768434881
 30
0.0
 11
1.077998049193126
 21
4.240217744812833
 31
0.0
  0
LINE
  5
2E4B
330
1E
100
AcDbEntity
  8
7
100
AcDbLine
 10
1.231541356279741
 20
4.244154752686849
 30
0.0
 11
1.227604348405725
 21
4.240217744812833
 31
0.0
  0
LINE
  5
2E51
330
1E
100
AcDbEntity
  8
7
100
AcDbLine
 10
1.072092537382103
 20
3.588642941663227
 30
0.0
 11
1.077998049193126
 21
3.590611445600234
 31
0.0
  0
LINE
  5
2E58
330
1E
100
AcDbEntity
  8
7
100
AcDbLine
 10
1.077998049193126
 20
3.681162626702597
 30
0.0
 11
1.077998049193126
 21
3.665414595206534
 31
0.0
  0
LINE
  5
2E59
330
1E
100
AcDbEntity
  8
7
100
AcDbLine
 10
1.077998049193126
 20
3.65950908339551
 30
0.0
 11
1.077998049193126
 21
3.681162626702597
 31
0.0
  0
LINE
  5
2E5A
330
1E
100
AcDbEntity
  8
7
100
AcDbLine
 10
1.227604348405725
 20
3.58470593378921
 30
0.0
 11
1.227604348405725
 21
3.561083886545116
 31
0.0
  0
LINE
  5
2E60
330
1E
100
AcDbEntity
  8
7
100
AcDbLine
 10
1.227604348405725
 20
3.561083886545116
 30
0.0
 11
1.227604348405725
 21
3.578800421978188
 31
0.0
  0
LINE
  5
2E61
330
1E
100
AcDbEntity
  8
7
100
AcDbLine
 10
1.363431120059268
 20
3.590611445600234
 30
0.0
 11
1.227604348405725
 21
3.590611445600234
 31
0.0
  0
LINE
  5
2E62
330
1E
100
AcDbEntity
  8
7
100
AcDbLine
 10
1.363431120059268
 20
3.651635067647479
 30
0.0
 11
1.363431120059268
 21
3.590611445600234
 31
0.0
  0
LINE
  5
2E63
330
1E
100
AcDbEntity
  8
7
100
AcDbLine
 10
1.227604348405725
 20
3.651635067647479
 30
0.0
 11
1.363431120059268
 21
3.651635067647479
 31
0.0
  0
LINE
  5
2E64
330
1E
100
AcDbEntity
  8
7
100
AcDbLine
 10
1.227604348405725
 20
3.665414595206534
 30
0.0
 11
1.227604348405725
 21
3.651635067647479
 31
0.0
  0
LINE
  5
2E65
330
1E
100
AcDbEntity
  8
7
100
AcDbLine
 10
1.227604348405725
 20
3.665414595206534
 30
0.0
 11
1.077998049193126
 21
3.665414595206534
 31
0.0
  0
LINE
  5
2E66
330
1E
100
AcDbEntity
  8
7
100
AcDbLine
 10
1.227604348405725
 20
3.578800421978188
 30
0.0
 11
1.077998049193126
 21
3.578800421978188
 31
0.0
  0
LINE
  5
2E6E
330
1E
100
AcDbEntity
  8
7
100
AcDbLine
 10
1.227604348405725
 20
4.240217744812833
 30
0.0
 11
1.227604348405725
 21
4.216595697568738
 31
0.0
  0
LINE
  5
2E74
330
1E
100
AcDbEntity
  8
7
100
AcDbLine
 10
1.227604348405725
 20
4.216595697568738
 30
0.0
 11
1.227604348405725
 21
4.234312233001809
 31
0.0
  0
LINE
  5
2E75
330
1E
100
AcDbEntity
  8
7
100
AcDbLine
 10
1.363431120059268
 20
4.301241366860077
 30
0.0
 11
1.363431120059268
 21
4.246123256623857
 31
0.0
  0
LINE
  5
2E76
330
1E
100
AcDbEntity
  8
7
100
AcDbLine
 10
1.077998049193126
 20
4.301241366860077
 30
0.0
 11
1.363431120059268
 21
4.301241366860077
 31
0.0
  0
LINE
  5
2E77
330
1E
100
AcDbEntity
  8
7
100
AcDbLine
 10
1.227604348405725
 20
4.234312233001809
 30
0.0
 11
1.077998049193126
 21
4.234312233001809
 31
0.0
  0
LINE
  5
2E78
330
1E
100
AcDbEntity
  8
7
100
AcDbLine
 10
1.363431120059268
 20
4.246123256623857
 30
0.0
 11
1.227604348405725
 21
4.246123256623857
 31
0.0
  0
LINE
  5
2E79
330
1E
100
AcDbEntity
  8
7
100
AcDbLine
 10
1.369336631870292
 20
3.58470593378921
 30
0.0
 11
1.363431120059268
 21
3.590611445600234
 31
0.0
  0
LINE
  5
2E7A
330
1E
100
AcDbEntity
  8
7
100
AcDbLine
 10
1.24138387596478
 20
3.58470593378921
 30
0.0
 11
1.231541356279741
 21
3.588642941663227
 31
0.0
  0
LINE
  5
2E7B
330
1E
100
AcDbEntity
  8
7
100
AcDbLine
 10
1.30634450588604
 20
3.58470593378921
 30
0.0
 11
1.24138387596478
 21
3.58470593378921
 31
0.0
  0
LINE
  5
2E7C
330
1E
100
AcDbEntity
  8
7
100
AcDbLine
 10
1.30634450588604
 20
3.58470593378921
 30
0.0
 11
1.369336631870292
 21
3.58470593378921
 31
0.0
  0
LINE
  5
2E7D
330
1E
100
AcDbEntity
  8
7
100
AcDbLine
 10
1.227604348405725
 20
2.998091760560864
 30
0.0
 11
1.231541356279741
 21
3.000060264497871
 31
0.0
  0
LINE
  5
2E7E
330
1E
100
AcDbEntity
  8
7
100
AcDbLine
 10
1.227604348405725
 20
2.998091760560864
 30
0.0
 11
1.363431120059268
 21
2.998091760560864
 31
0.0
  0
LINE
  5
2E7F
330
1E
100
AcDbEntity
  8
7
100
AcDbLine
 10
1.369336631870292
 20
3.003997272371888
 30
0.0
 11
1.363431120059268
 21
2.998091760560864
 31
0.0
  0
LINE
  5
2E80
330
1E
100
AcDbEntity
  8
7
100
AcDbLine
 10
1.369336631870292
 20
3.003997272371888
 30
0.0
 11
1.30634450588604
 21
3.003997272371888
 31
0.0
  0
LINE
  5
2E81
330
1E
100
AcDbEntity
  8
7
100
AcDbLine
 10
1.24138387596478
 20
3.003997272371888
 30
0.0
 11
1.30634450588604
 21
3.003997272371888
 31
0.0
  0
LINE
  5
2E82
330
1E
100
AcDbEntity
  8
7
100
AcDbLine
 10
1.24138387596478
 20
3.003997272371888
 30
0.0
 11
1.231541356279741
 21
3.000060264497871
 31
0.0
  0
LINE
  5
2E83
330
1E
100
AcDbEntity
  8
7
100
AcDbLine
 10
1.369336631870292
 20
4.240217744812833
 30
0.0
 11
1.363431120059268
 21
4.246123256623857
 31
0.0
  0
LINE
  5
2E84
330
1E
100
AcDbEntity
  8
7
100
AcDbLine
 10
1.24138387596478
 20
4.240217744812833
 30
0.0
 11
1.231541356279741
 21
4.244154752686849
 31
0.0
  0
LINE
  5
2E85
330
1E
100
AcDbEntity
  8
7
100
AcDbLine
 10
1.30634450588604
 20
4.240217744812833
 30
0.0
 11
1.24138387596478
 21
4.240217744812833
 31
0.0
  0
LINE
  5
2E86
330
1E
100
AcDbEntity
  8
7
100
AcDbLine
 10
1.30634450588604
 20
4.240217744812833
 30
0.0
 11
1.369336631870292
 21
4.240217744812833
 31
0.0
  0
LINE
  5
2E87
330
1E
100
AcDbEntity
  8
7
100
AcDbLine
 10
1.227604348405725
 20
3.651635067647479
 30
0.0
 11
1.231541356279741
 21
3.655572075521494
 31
0.0
  0
LINE
  5
2E88
330
1E
100
AcDbEntity
  8
7
100
AcDbLine
 10
1.369336631870292
 20
3.65950908339551
 30
0.0
 11
1.363431120059268
 21
3.651635067647479
 31
0.0
  0
LINE
  5
2E89
330
1E
100
AcDbEntity
  8
7
100
AcDbLine
 10
1.369336631870292
 20
3.65950908339551
 30
0.0
 11
1.30634450588604
 21
3.65950908339551
 31
0.0
  0
LINE
  5
2E8A
330
1E
100
AcDbEntity
  8
7
100
AcDbLine
 10
1.24138387596478
 20
3.65950908339551
 30
0.0
 11
1.30634450588604
 21
3.65950908339551
 31
0.0
  0
LINE
  5
2E8B
330
1E
100
AcDbEntity
  8
7
100
AcDbLine
 10
1.24138387596478
 20
3.65950908339551
 30
0.0
 11
1.231541356279741
 21
3.655572075521494
 31
0.0
  0
LINE
  5
2E8C
330
1E
100
AcDbEntity
  8
7
100
AcDbLine
 10
1.369336631870292
 20
4.315020894419133
 30
0.0
 11
1.363431120059268
 21
4.301241366860077
 31
0.0
  0
LINE
  5
2E93
330
1E
100
AcDbEntity
  8
7
100
AcDbLine
 10
1.30634450588604
 20
4.315020894419133
 30
0.0
 11
1.320124033445095
 21
4.301241366860077
 31
0.0
  0
LINE
  5
2E94
330
1E
100
AcDbEntity
  8
7
100
AcDbLine
 10
1.369336631870292
 20
3.58470593378921
 30
0.0
 11
1.369336631870292
 21
3.65950908339551
 31
0.0
  0
LINE
  5
2E95
330
1E
100
AcDbEntity
  8
7
100
AcDbLine
 10
1.363431120059268
 20
2.998091760560864
 30
0.0
 11
1.363431120059268
 21
2.942973650324644
 31
0.0
  0
LINE
  5
2E96
330
1E
100
AcDbEntity
  8
7
100
AcDbLine
 10
1.369336631870292
 20
2.929194122765588
 30
0.0
 11
1.363431120059268
 21
2.942973650324644
 31
0.0
  0
LINE
  5
2E97
330
1E
100
AcDbEntity
  8
7
100
AcDbLine
 10
1.369336631870292
 20
2.929194122765588
 30
0.0
 11
1.369336631870292
 21
3.003997272371888
 31
0.0
  0
LINE
  5
2E98
330
1E
100
AcDbEntity
  8
7
100
AcDbLine
 10
1.369336631870292
 20
2.929194122765588
 30
0.0
 11
1.357525608248245
 21
2.942973650324644
 31
0.0
  0
LINE
  5
2E99
330
1E
100
AcDbEntity
  8
7
100
AcDbLine
 10
1.363431120059268
 20
2.942973650324644
 30
0.0
 11
1.077998049193126
 21
2.942973650324644
 31
0.0
  0
LINE
  5
2E9A
330
1E
100
AcDbEntity
  8
7
100
AcDbLine
 10
1.064218521634072
 20
2.929194122765588
 30
0.0
 11
1.077998049193126
 21
2.942973650324644
 31
0.0
  0
LINE
  5
2E9B
330
1E
100
AcDbEntity
  8
7
100
AcDbLine
 10
1.30634450588604
 20
2.929194122765588
 30
0.0
 11
1.320124033445095
 21
2.942973650324644
 31
0.0
  0
LINE
  5
2E9C
330
1E
100
AcDbEntity
  8
7
100
AcDbLine
 10
1.357525608248245
 20
2.942973650324644
 30
0.0
 11
1.320124033445095
 21
2.942973650324644
 31
0.0
  0
LINE
  5
2E9D
330
1E
100
AcDbEntity
  8
7
100
AcDbLine
 10
1.077998049193126
 20
3.003997272371888
 30
0.0
 11
1.077998049193126
 21
3.027619319615983
 31
0.0
  0
LINE
  5
2E9E
330
1E
100
AcDbEntity
  8
7
100
AcDbLine
 10
1.077998049193126
 20
2.942973650324644
 30
0.0
 11
1.077998049193126
 21
3.009902784182912
 31
0.0
  0
LINE
  5
2E9F
330
1E
100
AcDbEntity
  8
7
100
AcDbLine
 10
1.077998049193126
 20
3.027619319615983
 30
0.0
 11
1.077998049193126
 21
3.009902784182912
 31
0.0
  0
LINE
  5
2EA5
330
1E
100
AcDbEntity
  8
7
100
AcDbLine
 10
1.227604348405725
 20
3.003997272371888
 30
0.0
 11
1.227604348405725
 21
3.027619319615983
 31
0.0
  0
LINE
  5
2EAB
330
1E
100
AcDbEntity
  8
7
100
AcDbLine
 10
1.369336631870292
 20
2.781556327489997
 30
0.0
 11
1.369336631870292
 21
2.929194122765588
 31
0.0
  0
LINE
  5
2EAC
330
1E
100
AcDbEntity
  8
7
100
AcDbLine
 10
1.369336631870292
 20
2.781556327489997
 30
0.0
 11
2.298470490138009
 21
2.781556327489997
 31
0.0
  0
LINE
  5
2EB5
330
1E
100
AcDbEntity
  8
7
100
AcDbLine
 10
2.402801198799425
 20
2.781556327489997
 30
0.0
 11
2.526816946830922
 21
2.781556327489997
 31
0.0
  0
LINE
  5
2EB6
330
1E
100
AcDbEntity
  8
7
100
AcDbLine
 10
2.526816946830922
 20
4.462658689694723
 30
0.0
 11
2.526816946830922
 21
2.781556327489997
 31
0.0
  0
LINE
  5
2EB7
330
1E
100
AcDbEntity
  8
7
100
AcDbLine
 10
1.369336631870292
 20
4.462658689694723
 30
0.0
 11
2.526816946830922
 21
4.462658689694723
 31
0.0
  0
LINE
  5
2EB8
330
1E
100
AcDbEntity
  8
7
100
AcDbLine
 10
1.369336631870292
 20
4.462658689694723
 30
0.0
 11
1.369336631870292
 21
4.315020894419133
 31
0.0
  0
LINE
  5
2EB9
330
1E
100
AcDbEntity
  8
7
100
AcDbLine
 10
1.30634450588604
 20
3.65950908339551
 30
0.0
 11
1.30634450588604
 21
4.240217744812833
 31
0.0
  0
LINE
  5
2EBA
330
1E
100
AcDbEntity
  8
7
100
AcDbLine
 10
1.30634450588604
 20
3.003997272371888
 30
0.0
 11
1.30634450588604
 21
3.58470593378921
 31
0.0
  0
LINE
  5
2EBB
330
1E
100
AcDbEntity
  8
7
100
AcDbLine
 10
2.520911435019899
 20
4.403603571584486
 30
0.0
 11
1.379179151555331
 21
4.403603571584486
 31
0.0
  0
LINE
  5
2EC1
330
1E
100
AcDbEntity
  8
7
100
AcDbLine
 10
1.379179151555331
 20
4.403603571584486
 30
0.0
 11
1.379179151555331
 21
3.97446971331677
 31
0.0
  0
LINE
  5
2EC2
330
1E
100
AcDbEntity
  8
7
100
AcDbLine
 10
2.520911435019899
 20
3.267776799930944
 30
0.0
 11
1.379179151555331
 21
3.267776799930944
 31
0.0
  0
LINE
  5
2ECF
330
1E
100
AcDbEntity
  8
7
100
AcDbLine
 10
2.282722458641946
 20
2.840611445600234
 30
0.0
 11
1.379179151555331
 21
2.840611445600234
 31
0.0
  0
LINE
  5
2ED0
330
1E
100
AcDbEntity
  8
7
100
AcDbLine
 10
1.379179151555331
 20
3.267776799930944
 30
0.0
 11
1.379179151555331
 21
2.840611445600234
 31
0.0
  0
LINE
  5
2ED1
330
1E
100
AcDbEntity
  8
7
100
AcDbLine
 10
2.520911435019899
 20
3.919351603080549
 30
0.0
 11
1.379179151555331
 21
3.919351603080549
 31
0.0
  0
LINE
  5
2ED7
330
1E
100
AcDbEntity
  8
7
100
AcDbLine
 10
1.379179151555331
 20
3.919351603080549
 30
0.0
 11
1.379179151555331
 21
3.324863414104171
 31
0.0
  0
LINE
  5
2ED8
330
1E
100
AcDbEntity
  8
7
100
AcDbLine
 10
2.280753954704938
 20
2.842579949537242
 30
0.0
 11
2.282722458641946
 21
2.840611445600234
 31
0.0
  0
LINE
  5
2ED9
330
1E
100
AcDbEntity
  8
7
100
AcDbLine
 10
2.280753954704938
 20
2.842579949537242
 30
0.0
 11
1.381147655492339
 21
2.842579949537242
 31
0.0
  0
LINE
  5
2EDA
330
1E
100
AcDbEntity
  8
7
100
AcDbLine
 10
1.379179151555331
 20
2.840611445600234
 30
0.0
 11
1.381147655492339
 21
2.842579949537242
 31
0.0
  0
LINE
  5
2EE7
330
1E
100
AcDbEntity
  8
7
100
AcDbLine
 10
2.810281513760056
 20
2.917383099143542
 30
0.0
 11
2.812250017697063
 21
2.917383099143542
 31
0.0
  0
LINE
  5
2EE8
330
1E
100
AcDbEntity
  8
7
100
AcDbLine
 10
2.812250017697063
 20
2.917383099143542
 30
0.0
 11
2.814218521634072
 21
2.919351603080549
 31
0.0
  0
LINE
  5
2EEE
330
1E
100
AcDbEntity
  8
7
100
AcDbLine
 10
2.51894293108289
 20
3.326831918041179
 30
0.0
 11
1.381147655492339
 21
3.326831918041179
 31
0.0
  0
LINE
  5
2EEF
330
1E
100
AcDbEntity
  8
7
100
AcDbLine
 10
2.51894293108289
 20
3.917383099143542
 30
0.0
 11
2.51894293108289
 21
3.326831918041179
 31
0.0
  0
LINE
  5
2EF0
330
1E
100
AcDbEntity
  8
7
100
AcDbLine
 10
1.711856316909662
 20
3.545335855049053
 30
0.0
 11
1.749257891712812
 21
3.555178374734092
 31
0.0
  0
LINE
  5
2EF9
330
1E
100
AcDbEntity
  8
7
100
AcDbLine
 10
1.587840568878166
 20
3.545335855049053
 30
0.0
 11
1.711856316909662
 21
3.545335855049053
 31
0.0
  0
LINE
  5
2F06
330
1E
100
AcDbEntity
  8
7
100
AcDbLine
 10
1.711856316909662
 20
3.698879162135668
 30
0.0
 11
1.587840568878166
 21
3.698879162135668
 31
0.0
  0
LINE
  5
2F0E
330
1E
100
AcDbEntity
  8
7
100
AcDbLine
 10
2.51894293108289
 20
2.842579949537242
 30
0.0
 11
2.420517734232497
 21
2.842579949537242
 31
0.0
  0
LINE
  5
2F0F
330
1E
100
AcDbEntity
  8
7
100
AcDbLine
 10
2.51894293108289
 20
3.267776799930944
 30
0.0
 11
2.51894293108289
 21
2.842579949537242
 31
0.0
  0
LINE
  5
2F1A
330
1E
100
AcDbEntity
  8
7
100
AcDbLine
 10
2.51894293108289
 20
3.976438217253777
 30
0.0
 11
1.381147655492339
 21
3.976438217253777
 31
0.0
  0
LINE
  5
2F1B
330
1E
100
AcDbEntity
  8
7
100
AcDbLine
 10
2.51894293108289
 20
4.401635067647479
 30
0.0
 11
2.51894293108289
 21
3.976438217253777
 31
0.0
  0
LINE
  5
2F1C
330
1E
100
AcDbEntity
  8
7
100
AcDbLine
 10
1.892958679114387
 20
4.590611445600234
 30
0.0
 11
1.885084663366355
 21
4.58470593378921
 31
0.0
  0
LINE
  5
2F22
330
1E
100
AcDbEntity
  8
7
100
AcDbLine
 10
1.885084663366355
 20
4.58470593378921
 30
0.0
 11
1.650832694862418
 21
4.58470593378921
 31
0.0
  0
LINE
  5
2F23
330
1E
100
AcDbEntity
  8
7
100
AcDbLine
 10
1.642958679114387
 20
2.653603571584486
 30
0.0
 11
1.650832694862418
 21
2.65950908339551
 31
0.0
  0
LINE
  5
2F29
330
1E
100
AcDbEntity
  8
7
100
AcDbLine
 10
1.650832694862418
 20
2.65950908339551
 30
0.0
 11
1.885084663366355
 21
2.65950908339551
 31
0.0
  0
LINE
  5
2F32
330
1E
100
AcDbEntity
  8
7
100
AcDbLine
 10
3.944139781476589
 20
3.72446971331677
 30
0.0
 11
3.934297261791551
 21
3.685099634576612
 31
0.0
  0
LINE
  5
2F33
330
1E
100
AcDbEntity
  8
7
100
AcDbLine
 10
3.934297261791551
 20
3.685099634576612
 30
0.0
 11
3.934297261791551
 21
3.559115382608109
 31
0.0
  0
LINE
  5
2F3D
330
1E
100
AcDbEntity
  8
7
100
AcDbLine
 10
4.089809072815173
 20
3.685099634576612
 30
0.0
 11
4.089809072815173
 21
3.559115382608109
 31
0.0
  0
LINE
  5
2F43
330
1E
100
AcDbEntity
  8
7
100
AcDbLine
 10
4.369336631870291
 20
4.045335855049053
 30
0.0
 11
4.369336631870291
 21
4.126044516466377
 31
0.0
  0
LINE
  5
2F49
330
1E
100
AcDbEntity
  8
7
100
AcDbLine
 10
4.353588600374228
 20
4.02958782355299
 30
0.0
 11
4.318155529508086
 21
4.02958782355299
 31
0.0
  0
LINE
  5
2F4F
330
1E
100
AcDbEntity
  8
7
100
AcDbLine
 10
4.302407498012023
 20
3.645729555836455
 30
0.0
 11
4.302407498012023
 21
4.013839792056927
 31
0.0
  0
LINE
  5
2F57
330
1E
100
AcDbEntity
  8
7
100
AcDbLine
 10
4.302407498012023
 20
3.238249240875825
 30
0.0
 11
4.302407498012023
 21
3.598485461348266
 31
0.0
  0
LINE
  5
2F5D
330
1E
100
AcDbEntity
  8
7
100
AcDbLine
 10
4.353588600374228
 20
3.222501209379762
 30
0.0
 11
4.318155529508086
 21
3.222501209379762
 31
0.0
  0
LINE
  5
2F63
330
1E
100
AcDbEntity
  8
7
100
AcDbLine
 10
4.369336631870291
 20
3.118170500718346
 30
0.0
 11
4.369336631870291
 21
3.206753177883699
 31
0.0
  0
LINE
  5
2F69
330
1E
100
AcDbEntity
  8
7
100
AcDbLine
 10
3.863431120059267
 20
2.79927286292307
 30
0.0
 11
3.863431120059267
 21
2.830768925915196
 31
0.0
  0
LINE
  5
2F6F
330
1E
100
AcDbEntity
  8
7
100
AcDbLine
 10
3.759100411397851
 20
2.846516957411258
 30
0.0
 11
3.847683088563204
 21
2.846516957411258
 31
0.0
  0
LINE
  5
2F75
330
1E
100
AcDbEntity
  8
7
100
AcDbLine
 10
3.743352379901788
 20
2.862264988907321
 30
0.0
 11
3.743352379901788
 21
2.897698059773462
 31
0.0
  0
LINE
  5
2F7B
330
1E
100
AcDbEntity
  8
7
100
AcDbLine
 10
3.367368127933284
 20
2.913446091269525
 30
0.0
 11
3.727604348405725
 21
2.913446091269525
 31
0.0
  0
LINE
  5
2F83
330
1E
100
AcDbEntity
  8
7
100
AcDbLine
 10
2.959887812972654
 20
2.913446091269525
 30
0.0
 11
3.320124033445095
 21
2.913446091269525
 31
0.0
  0
LINE
  5
2F84
330
1E
100
AcDbEntity
  8
7
100
AcDbLine
 10
2.944139781476591
 20
2.897698059773462
 30
0.0
 11
2.948076789350607
 21
2.90950908339551
 31
0.0
  0
LINE
  5
2F85
330
1E
100
AcDbEntity
  8
7
100
AcDbLine
 10
2.948076789350607
 20
2.90950908339551
 30
0.0
 11
2.959887812972654
 21
2.913446091269525
 31
0.0
  0
LINE
  5
2F86
330
1E
100
AcDbEntity
  8
7
100
AcDbLine
 10
2.944139781476591
 20
2.862264988907321
 30
0.0
 11
2.944139781476591
 21
2.897698059773462
 31
0.0
  0
LINE
  5
2F8C
330
1E
100
AcDbEntity
  8
7
100
AcDbLine
 10
2.839809072815174
 20
2.846516957411258
 30
0.0
 11
2.928391749980528
 21
2.846516957411258
 31
0.0
  0
LINE
  5
2F97
330
1E
100
AcDbEntity
  8
7
100
AcDbLine
 10
2.928391749980528
 20
4.397698059773462
 30
0.0
 11
2.839809072815174
 21
4.397698059773462
 31
0.0
  0
LINE
  5
2F9D
330
1E
100
AcDbEntity
  8
7
100
AcDbLine
 10
2.944139781476591
 20
4.379981524340392
 30
0.0
 11
2.944139781476591
 21
4.346516957411258
 31
0.0
  0
LINE
  5
2FA3
330
1E
100
AcDbEntity
  8
7
100
AcDbLine
 10
3.320124033445095
 20
4.328800421978188
 30
0.0
 11
2.959887812972654
 21
4.328800421978188
 31
0.0
  0
LINE
  5
2FAB
330
1E
100
AcDbEntity
  8
7
100
AcDbLine
 10
3.727604348405725
 20
4.328800421978188
 30
0.0
 11
3.367368127933284
 21
4.328800421978188
 31
0.0
  0
LINE
  5
2FB1
330
1E
100
AcDbEntity
  8
7
100
AcDbLine
 10
3.743352379901788
 20
4.379981524340392
 30
0.0
 11
3.743352379901788
 21
4.346516957411258
 31
0.0
  0
LINE
  5
2FB7
330
1E
100
AcDbEntity
  8
7
100
AcDbLine
 10
3.847683088563204
 20
4.397698059773462
 30
0.0
 11
3.759100411397851
 21
4.397698059773462
 31
0.0
  0
LINE
  5
2FBD
330
1E
100
AcDbEntity
  8
7
100
AcDbLine
 10
3.863431120059267
 20
4.442973650324644
 30
0.0
 11
3.863431120059267
 21
4.413446091269525
 31
0.0
  0
LINE
  5
2FC3
330
1E
100
AcDbEntity
  8
7
100
AcDbLine
 10
1.892958679114387
 20
2.722501209379762
 30
0.0
 11
1.892958679114387
 21
2.653603571584486
 31
0.0
  0
LINE
  5
2FC4
330
1E
100
AcDbEntity
  8
7
100
AcDbLine
 10
1.650832694862418
 20
2.728406721190785
 30
0.0
 11
1.885084663366355
 21
2.728406721190785
 31
0.0
  0
LINE
  5
2FC5
330
1E
100
AcDbEntity
  8
7
100
AcDbLine
 10
1.650832694862418
 20
2.728406721190785
 30
0.0
 11
1.650832694862418
 21
2.65950908339551
 31
0.0
  0
LINE
  5
2FC6
330
1E
100
AcDbEntity
  8
7
100
AcDbLine
 10
1.642958679114387
 20
2.722501209379762
 30
0.0
 11
1.650832694862418
 21
2.728406721190785
 31
0.0
  0
LINE
  5
2FC7
330
1E
100
AcDbEntity
  8
7
100
AcDbLine
 10
1.642958679114387
 20
2.722501209379762
 30
0.0
 11
1.642958679114387
 21
2.653603571584486
 31
0.0
  0
LINE
  5
2FC8
330
1E
100
AcDbEntity
  8
7
100
AcDbLine
 10
1.591777576752182
 20
2.730375225127794
 30
0.0
 11
1.593746080689189
 21
2.722501209379762
 31
0.0
  0
LINE
  5
2FC9
330
1E
100
AcDbEntity
  8
7
100
AcDbLine
 10
1.450045293287614
 20
2.730375225127794
 30
0.0
 11
1.591777576752182
 21
2.730375225127794
 31
0.0
  0
LINE
  5
2FCA
330
1E
100
AcDbEntity
  8
7
100
AcDbLine
 10
1.450045293287614
 20
2.730375225127794
 30
0.0
 11
1.448076789350607
 21
2.722501209379762
 31
0.0
  0
LINE
  5
2FCB
330
1E
100
AcDbEntity
  8
7
100
AcDbLine
 10
1.450045293287614
 20
4.513839792056927
 30
0.0
 11
1.448076789350607
 21
4.521713807804959
 31
0.0
  0
LINE
  5
2FCC
330
1E
100
AcDbEntity
  8
7
100
AcDbLine
 10
1.591777576752182
 20
4.513839792056927
 30
0.0
 11
1.450045293287614
 21
4.513839792056927
 31
0.0
  0
LINE
  5
2FCD
330
1E
100
AcDbEntity
  8
7
100
AcDbLine
 10
1.591777576752182
 20
4.513839792056927
 30
0.0
 11
1.593746080689189
 21
4.521713807804959
 31
0.0
  0
LINE
  5
2FD3
330
1E
100
AcDbEntity
  8
7
100
AcDbLine
 10
1.642958679114387
 20
4.521713807804959
 30
0.0
 11
1.642958679114387
 21
4.590611445600234
 31
0.0
  0
LINE
  5
2FD4
330
1E
100
AcDbEntity
  8
7
100
AcDbLine
 10
1.885084663366355
 20
4.515808295993934
 30
0.0
 11
1.650832694862418
 21
4.515808295993934
 31
0.0
  0
LINE
  5
2FD5
330
1E
100
AcDbEntity
  8
7
100
AcDbLine
 10
1.885084663366355
 20
4.515808295993934
 30
0.0
 11
1.885084663366355
 21
4.58470593378921
 31
0.0
  0
LINE
  5
2FD6
330
1E
100
AcDbEntity
  8
7
100
AcDbLine
 10
1.892958679114387
 20
4.521713807804959
 30
0.0
 11
1.885084663366355
 21
4.515808295993934
 31
0.0
  0
LINE
  5
2FD7
330
1E
100
AcDbEntity
  8
7
100
AcDbLine
 10
1.892958679114387
 20
4.521713807804959
 30
0.0
 11
1.892958679114387
 21
4.590611445600234
 31
0.0
  0
LINE
  5
2FD8
330
1E
100
AcDbEntity
  8
7
100
AcDbLine
 10
2.824061041319111
 20
4.515808295993934
 30
0.0
 11
2.824061041319111
 21
4.413446091269525
 31
0.0
  0
LINE
  5
2FD9
330
1E
100
AcDbEntity
  8
7
100
AcDbLine
 10
2.824061041319111
 20
4.515808295993934
 30
0.0
 11
2.816187025571079
 21
4.521713807804959
 31
0.0
  0
LINE
  5
2FDA
330
1E
100
AcDbEntity
  8
7
100
AcDbLine
 10
4.034690962578952
 20
2.722501209379762
 30
0.0
 11
4.032722458641945
 21
2.730375225127794
 31
0.0
  0
LINE
  5
2FDB
330
1E
100
AcDbEntity
  8
7
100
AcDbLine
 10
4.489415372027771
 20
3.102422469222283
 30
0.0
 11
4.385084663366354
 21
3.102422469222283
 31
0.0
  0
LINE
  5
2FDC
330
1E
100
AcDbEntity
  8
7
100
AcDbLine
 10
4.489415372027771
 20
3.102422469222283
 30
0.0
 11
4.495320883838795
 21
3.094548453474251
 31
0.0
  0
LINE
  5
2FDD
330
1E
100
AcDbEntity
  8
7
100
AcDbLine
 10
4.032722458641945
 20
4.513839792056927
 30
0.0
 11
4.034690962578952
 21
4.521713807804959
 31
0.0
  0
LINE
  5
2FDE
330
1E
100
AcDbEntity
  8
7
100
AcDbLine
 10
4.489415372027771
 20
4.14179254796244
 30
0.0
 11
4.385084663366354
 21
4.14179254796244
 31
0.0
  0
LINE
  5
2FDF
330
1E
100
AcDbEntity
  8
7
100
AcDbLine
 10
4.489415372027771
 20
4.14179254796244
 30
0.0
 11
4.495320883838795
 21
4.149666563710471
 31
0.0
  0
LINE
  5
2FE0
330
1E
100
AcDbEntity
  8
7
100
AcDbLine
 10
2.824061041319111
 20
2.728406721190785
 30
0.0
 11
2.824061041319111
 21
2.830768925915196
 31
0.0
  0
LINE
  5
2FE1
330
1E
100
AcDbEntity
  8
7
100
AcDbLine
 10
2.824061041319111
 20
2.728406721190785
 30
0.0
 11
2.816187025571079
 21
2.722501209379762
 31
0.0
  0
LINE
  5
2FE2
330
1E
100
AcDbEntity
  8
7
100
AcDbLine
 10
1.379179151555331
 20
3.324863414104171
 30
0.0
 11
1.381147655492339
 21
3.326831918041179
 31
0.0
  0
LINE
  5
2FE3
330
1E
100
AcDbEntity
  8
7
100
AcDbLine
 10
1.379179151555331
 20
3.919351603080549
 30
0.0
 11
1.381147655492339
 21
3.917383099143542
 31
0.0
  0
LINE
  5
2FE4
330
1E
100
AcDbEntity
  8
7
100
AcDbLine
 10
2.520911435019899
 20
3.324863414104171
 30
0.0
 11
2.51894293108289
 21
3.326831918041179
 31
0.0
  0
LINE
  5
2FE5
330
1E
100
AcDbEntity
  8
7
100
AcDbLine
 10
2.520911435019899
 20
3.919351603080549
 30
0.0
 11
2.51894293108289
 21
3.917383099143542
 31
0.0
  0
LINE
  5
2FE6
330
1E
100
AcDbEntity
  8
7
100
AcDbLine
 10
1.379179151555331
 20
3.267776799930944
 30
0.0
 11
1.381147655492339
 21
3.267776799930944
 31
0.0
  0
LINE
  5
2FE7
330
1E
100
AcDbEntity
  8
7
100
AcDbLine
 10
2.418549230295488
 20
2.840611445600234
 30
0.0
 11
2.420517734232497
 21
2.842579949537242
 31
0.0
  0
LINE
  5
2FE8
330
1E
100
AcDbEntity
  8
7
100
AcDbLine
 10
2.520911435019899
 20
2.840611445600234
 30
0.0
 11
2.51894293108289
 21
2.842579949537242
 31
0.0
  0
LINE
  5
2FE9
330
1E
100
AcDbEntity
  8
7
100
AcDbLine
 10
2.520911435019899
 20
3.267776799930944
 30
0.0
 11
2.51894293108289
 21
3.267776799930944
 31
0.0
  0
LINE
  5
2FEA
330
1E
100
AcDbEntity
  8
7
100
AcDbLine
 10
1.379179151555331
 20
3.97446971331677
 30
0.0
 11
1.381147655492339
 21
3.976438217253777
 31
0.0
  0
LINE
  5
2FEB
330
1E
100
AcDbEntity
  8
7
100
AcDbLine
 10
1.379179151555331
 20
4.403603571584486
 30
0.0
 11
1.381147655492339
 21
4.401635067647479
 31
0.0
  0
LINE
  5
2FEC
330
1E
100
AcDbEntity
  8
7
100
AcDbLine
 10
2.520911435019899
 20
3.97446971331677
 30
0.0
 11
2.51894293108289
 21
3.976438217253777
 31
0.0
  0
LINE
  5
2FED
330
1E
100
AcDbEntity
  8
7
100
AcDbLine
 10
2.520911435019899
 20
4.403603571584486
 30
0.0
 11
2.51894293108289
 21
4.401635067647479
 31
0.0
  0
LINE
  5
2FF3
330
1E
100
AcDbEntity
  8
7
100
AcDbLine
 10
4.072092537382102
 20
2.787461839301021
 30
0.0
 11
4.070124033445095
 21
2.787461839301021
 31
0.0
  0
LINE
  5
2FF4
330
1E
100
AcDbEntity
  8
7
100
AcDbLine
 10
4.072092537382102
 20
2.787461839301021
 30
0.0
 11
4.072092537382102
 21
2.838642941663227
 31
0.0
  0
LINE
  5
2FFA
330
1E
100
AcDbEntity
  8
7
100
AcDbLine
 10
4.072092537382102
 20
4.405572075521494
 30
0.0
 11
4.070124033445095
 21
4.407540579458503
 31
0.0
  0
LINE
  5
2FFB
330
1E
100
AcDbEntity
  8
7
100
AcDbLine
 10
4.072092537382102
 20
4.405572075521494
 30
0.0
 11
4.072092537382102
 21
4.454784673946692
 31
0.0
  0
LINE
  5
2FFC
330
1E
100
AcDbEntity
  8
7
100
AcDbLine
 10
2.400832694862418
 20
2.781556327489997
 30
0.0
 11
2.390990175177378
 21
2.811083886545116
 31
0.0
  0
LINE
  5
3004
330
1E
100
AcDbEntity
  8
7
100
AcDbLine
 10
2.300438994075016
 20
2.781556327489997
 30
0.0
 11
2.300438994075016
 21
2.722501209379762
 31
0.0
  0
LINE
  5
3005
330
1E
100
AcDbEntity
  8
7
100
AcDbLine
 10
1.892958679114387
 20
2.722501209379762
 30
0.0
 11
2.300438994075016
 21
2.722501209379762
 31
0.0
  0
LINE
  5
3006
330
1E
100
AcDbEntity
  8
7
100
AcDbLine
 10
1.593746080689189
 20
2.722501209379762
 30
0.0
 11
1.642958679114387
 21
2.722501209379762
 31
0.0
  0
LINE
  5
3007
330
1E
100
AcDbEntity
  8
7
100
AcDbLine
 10
0.9933523799017889
 20
2.722501209379762
 30
0.0
 11
1.448076789350607
 21
2.722501209379762
 31
0.0
  0
LINE
  5
3008
330
1E
100
AcDbEntity
  8
7
100
AcDbLine
 10
0.9933523799017889
 20
2.889824044025431
 30
0.0
 11
0.9933523799017889
 21
2.722501209379762
 31
0.0
  0
LINE
  5
3009
330
1E
100
AcDbEntity
  8
7
100
AcDbLine
 10
0.9933523799017889
 20
2.889824044025431
 30
0.0
 11
0.9185492302954889
 21
2.889824044025431
 31
0.0
  0
LINE
  5
300A
330
1E
100
AcDbEntity
  8
7
100
AcDbLine
 10
0.9185492302954889
 20
4.352422469222283
 30
0.0
 11
0.9185492302954889
 21
2.889824044025431
 31
0.0
  0
LINE
  5
3010
330
1E
100
AcDbEntity
  8
7
100
AcDbLine
 10
1.448076789350607
 20
4.521713807804959
 30
0.0
 11
0.9933523799017889
 21
4.521713807804959
 31
0.0
  0
LINE
  5
3011
330
1E
100
AcDbEntity
  8
7
100
AcDbLine
 10
1.642958679114387
 20
4.521713807804959
 30
0.0
 11
1.593746080689189
 21
4.521713807804959
 31
0.0
  0
LINE
  5
3012
330
1E
100
AcDbEntity
  8
7
100
AcDbLine
 10
2.816187025571079
 20
4.521713807804959
 30
0.0
 11
1.892958679114387
 21
4.521713807804959
 31
0.0
  0
LINE
  5
3013
330
1E
100
AcDbEntity
  8
7
100
AcDbLine
 10
4.300438994075015
 20
4.521713807804959
 30
0.0
 11
4.034690962578952
 21
4.521713807804959
 31
0.0
  0
LINE
  5
301C
330
1E
100
AcDbEntity
  8
7
100
AcDbLine
 10
4.495320883838795
 20
4.149666563710471
 30
0.0
 11
4.495320883838795
 21
4.326831918041179
 31
0.0
  0
LINE
  5
301D
330
1E
100
AcDbEntity
  8
7
100
AcDbLine
 10
4.495320883838795
 20
2.917383099143542
 30
0.0
 11
4.495320883838795
 21
3.094548453474251
 31
0.0
  0
LINE
  5
3026
330
1E
100
AcDbEntity
  8
7
100
AcDbLine
 10
4.034690962578952
 20
2.722501209379762
 30
0.0
 11
4.300438994075015
 21
2.722501209379762
 31
0.0
  0
LINE
  5
3027
330
1E
100
AcDbEntity
  8
7
100
AcDbLine
 10
2.400832694862418
 20
2.722501209379762
 30
0.0
 11
2.816187025571079
 21
2.722501209379762
 31
0.0
  0
LINE
  5
3028
330
1E
100
AcDbEntity
  8
7
100
AcDbLine
 10
2.400832694862418
 20
2.781556327489997
 30
0.0
 11
2.400832694862418
 21
2.722501209379762
 31
0.0
  0
LINE
  5
3029
330
1E
100
AcDbEntity
  8
7
100
AcDbLine
 10
2.298470490138009
 20
2.781556327489997
 30
0.0
 11
2.300438994075016
 21
2.781556327489997
 31
0.0
  0
LINE
  5
302A
330
1E
100
AcDbEntity
  8
7
100
AcDbLine
 10
2.400832694862418
 20
2.781556327489997
 30
0.0
 11
2.402801198799425
 21
2.781556327489997
 31
0.0
  0
LINE
  5
3038
330
1E
100
AcDbEntity
  8
7
100
AcDbLine
 10
3.875242143681315
 20
2.83667443772622
 30
0.0
 11
3.875242143681315
 21
2.787461839301021
 31
0.0
  0
LINE
  5
3039
330
1E
100
AcDbEntity
  8
7
100
AcDbLine
 10
4.070124033445095
 20
2.787461839301021
 30
0.0
 11
3.875242143681315
 21
2.787461839301021
 31
0.0
  0
LINE
  5
303A
330
1E
100
AcDbEntity
  8
7
100
AcDbLine
 10
3.875242143681315
 20
4.456753177883699
 30
0.0
 11
4.070124033445095
 21
4.456753177883699
 31
0.0
  0
LINE
  5
303B
330
1E
100
AcDbEntity
  8
7
100
AcDbLine
 10
3.875242143681315
 20
4.407540579458503
 30
0.0
 11
3.875242143681315
 21
4.456753177883699
 31
0.0
  0
LINE
  5
303C
330
1E
100
AcDbEntity
  8
7
100
AcDbLine
 10
4.070124033445095
 20
4.407540579458503
 30
0.0
 11
3.875242143681315
 21
4.407540579458503
 31
0.0
  0
LINE
  5
303D
330
1E
100
AcDbEntity
  8
7
100
AcDbLine
 10
3.873273639744306
 20
4.405572075521494
 30
0.0
 11
4.072092537382102
 21
4.405572075521494
 31
0.0
  0
LINE
  5
303E
330
1E
100
AcDbEntity
  8
7
100
AcDbLine
 10
3.873273639744306
 20
4.405572075521494
 30
0.0
 11
3.875242143681315
 21
4.407540579458503
 31
0.0
  0
LINE
  5
303F
330
1E
100
AcDbEntity
  8
7
100
AcDbLine
 10
4.477604348405725
 20
2.933131130639605
 30
0.0
 11
4.495320883838795
 21
2.917383099143542
 31
0.0
  0
LINE
  5
3047
330
1E
100
AcDbEntity
  8
7
100
AcDbLine
 10
4.467761828720684
 20
2.874076012529368
 30
0.0
 11
4.477604348405725
 21
2.933131130639605
 31
0.0
  0
LINE
  5
3048
330
1E
100
AcDbEntity
  8
7
100
AcDbLine
 10
4.300438994075015
 20
2.722501209379762
 30
0.0
 11
4.282722458641945
 21
2.740217744812833
 31
0.0
  0
LINE
  5
304E
330
1E
100
AcDbEntity
  8
7
100
AcDbLine
 10
4.489415372027771
 20
3.051241366860077
 30
0.0
 11
4.477604348405725
 21
3.04730435898606
 31
0.0
  0
LINE
  5
304F
330
1E
100
AcDbEntity
  8
7
100
AcDbLine
 10
4.428391749980526
 20
3.051241366860077
 30
0.0
 11
4.489415372027771
 21
3.051241366860077
 31
0.0
  0
LINE
  5
3050
330
1E
100
AcDbEntity
  8
7
100
AcDbLine
 10
4.270911435019897
 20
2.785493335364014
 30
0.0
 11
4.268942931082889
 21
2.787461839301021
 31
0.0
  0
LINE
  5
3059
330
1E
100
AcDbEntity
  8
7
100
AcDbLine
 10
4.428391749980526
 20
2.948879162135668
 30
0.0
 11
4.432328757854543
 21
2.944942154261651
 31
0.0
  0
LINE
  5
3061
330
1E
100
AcDbEntity
  8
7
100
AcDbLine
 10
4.420517734232495
 20
2.899666563710471
 30
0.0
 11
4.428391749980526
 21
2.948879162135668
 31
0.0
  0
LINE
  5
3062
330
1E
100
AcDbEntity
  8
7
100
AcDbLine
 10
4.432328757854543
 20
2.944942154261651
 30
0.0
 11
4.432328757854543
 21
3.04730435898606
 31
0.0
  0
LINE
  5
3063
330
1E
100
AcDbEntity
  8
7
100
AcDbLine
 10
4.428391749980526
 20
2.948879162135668
 30
0.0
 11
4.428391749980526
 21
3.051241366860077
 31
0.0
  0
LINE
  5
3064
330
1E
100
AcDbEntity
  8
7
100
AcDbLine
 10
3.877210647618323
 20
2.740217744812833
 30
0.0
 11
3.875242143681315
 21
2.730375225127794
 31
0.0
  0
LINE
  5
3065
330
1E
100
AcDbEntity
  8
7
100
AcDbLine
 10
3.877210647618323
 20
2.785493335364014
 30
0.0
 11
3.877210647618323
 21
2.740217744812833
 31
0.0
  0
LINE
  5
3066
330
1E
100
AcDbEntity
  8
7
100
AcDbLine
 10
3.875242143681315
 20
2.787461839301021
 30
0.0
 11
3.877210647618323
 21
2.785493335364014
 31
0.0
  0
LINE
  5
3067
330
1E
100
AcDbEntity
  8
7
100
AcDbLine
 10
3.873273639744306
 20
2.79927286292307
 30
0.0
 11
3.873273639744306
 21
2.838642941663227
 31
0.0
  0
LINE
  5
3068
330
1E
100
AcDbEntity
  8
7
100
AcDbLine
 10
3.877210647618323
 20
2.785493335364014
 30
0.0
 11
4.270911435019897
 21
2.785493335364014
 31
0.0
  0
LINE
  5
3069
330
1E
100
AcDbEntity
  8
7
100
AcDbLine
 10
4.072092537382102
 20
2.787461839301021
 30
0.0
 11
4.268942931082889
 21
2.787461839301021
 31
0.0
  0
LINE
  5
306A
330
1E
100
AcDbEntity
  8
7
100
AcDbLine
 10
4.477604348405725
 20
3.04730435898606
 30
0.0
 11
4.477604348405725
 21
2.933131130639605
 31
0.0
  0
LINE
  5
306B
330
1E
100
AcDbEntity
  8
7
100
AcDbLine
 10
4.489415372027771
 20
3.102422469222283
 30
0.0
 11
4.489415372027771
 21
3.051241366860077
 31
0.0
  0
LINE
  5
306C
330
1E
100
AcDbEntity
  8
7
100
AcDbLine
 10
3.877210647618323
 20
2.740217744812833
 30
0.0
 11
4.282722458641945
 21
2.740217744812833
 31
0.0
  0
LINE
  5
306D
330
1E
100
AcDbEntity
  8
7
100
AcDbLine
 10
0.9835098602167491
 20
3.653603571584486
 30
0.0
 11
0.9402027736025759
 21
3.657540579458503
 31
0.0
  0
LINE
  5
306E
330
1E
100
AcDbEntity
  8
7
100
AcDbLine
 10
0.9402027736025759
 20
4.348485461348266
 30
0.0
 11
0.9402027736025759
 21
3.657540579458503
 31
0.0
  0
LINE
  5
306F
330
1E
100
AcDbEntity
  8
7
100
AcDbLine
 10
0.9185492302954889
 20
4.352422469222283
 30
0.0
 11
0.9402027736025759
 21
4.348485461348266
 31
0.0
  0
LINE
  5
3070
330
1E
100
AcDbEntity
  8
7
100
AcDbLine
 10
0.9185492302954889
 20
2.889824044025431
 30
0.0
 11
0.9402027736025759
 21
2.895729555836455
 31
0.0
  0
LINE
  5
3071
330
1E
100
AcDbEntity
  8
7
100
AcDbLine
 10
0.9835098602167491
 20
3.590611445600234
 30
0.0
 11
0.9402027736025759
 21
3.58470593378921
 31
0.0
  0
LINE
  5
3072
330
1E
100
AcDbEntity
  8
7
100
AcDbLine
 10
0.9835098602167491
 20
3.590611445600234
 30
0.0
 11
0.9835098602167491
 21
3.653603571584486
 31
0.0
  0
LINE
  5
3073
330
1E
100
AcDbEntity
  8
7
100
AcDbLine
 10
2.814218521634072
 20
4.324863414104171
 30
0.0
 11
2.810281513760056
 21
4.326831918041179
 31
0.0
  0
LINE
  5
307A
330
1E
100
AcDbEntity
  8
7
100
AcDbLine
 10
2.827998049193126
 20
4.348485461348266
 30
0.0
 11
2.831935057067142
 21
4.346516957411258
 31
0.0
  0
LINE
  5
3089
330
1E
100
AcDbEntity
  8
7
100
AcDbLine
 10
2.883116159429347
 20
4.309115382608109
 30
0.0
 11
2.885084663366355
 21
4.305178374734092
 31
0.0
  0
LINE
  5
30A6
330
1E
100
AcDbEntity
  8
7
100
AcDbLine
 10
2.735478364153757
 20
4.287461839301021
 30
0.0
 11
2.735478364153757
 21
4.291398847175038
 31
0.0
  0
LINE
  5
30B3
330
1E
100
AcDbEntity
  8
7
100
AcDbLine
 10
2.576029545256119
 20
3.244154752686849
 30
0.0
 11
3.82406104131911
 21
3.244154752686849
 31
0.0
  0
LINE
  5
30B4
330
1E
100
AcDbEntity
  8
7
100
AcDbLine
 10
2.579966553130135
 20
3.24218624874984
 30
0.0
 11
2.576029545256119
 21
3.244154752686849
 31
0.0
  0
LINE
  5
30B5
330
1E
100
AcDbEntity
  8
7
100
AcDbLine
 10
3.826029545256117
 20
3.24218624874984
 30
0.0
 11
2.579966553130135
 21
3.24218624874984
 31
0.0
  0
LINE
  5
30B6
330
1E
100
AcDbEntity
  8
7
100
AcDbLine
 10
2.579966553130135
 20
4.002028768434881
 30
0.0
 11
2.576029545256119
 21
3.998091760560864
 31
0.0
  0
LINE
  5
30B7
330
1E
100
AcDbEntity
  8
7
100
AcDbLine
 10
3.82406104131911
 20
3.998091760560864
 30
0.0
 11
2.576029545256119
 21
3.998091760560864
 31
0.0
  0
LINE
  5
30B8
330
1E
100
AcDbEntity
  8
7
100
AcDbLine
 10
2.579966553130135
 20
4.002028768434881
 30
0.0
 11
3.826029545256117
 21
4.002028768434881
 31
0.0
  0
LINE
  5
30B9
330
1E
100
AcDbEntity
  8
7
100
AcDbLine
 10
2.579966553130135
 20
4.454784673946692
 30
0.0
 11
2.579966553130135
 21
4.002028768434881
 31
0.0
  0
LINE
  5
30BA
330
1E
100
AcDbEntity
  8
7
100
AcDbLine
 10
2.579966553130135
 20
4.454784673946692
 30
0.0
 11
2.576029545256119
 21
4.458721681820707
 31
0.0
  0
LINE
  5
30BB
330
1E
100
AcDbEntity
  8
7
100
AcDbLine
 10
2.576029545256119
 20
3.998091760560864
 30
0.0
 11
2.576029545256119
 21
4.458721681820707
 31
0.0
  0
LINE
  5
30C1
330
1E
100
AcDbEntity
  8
7
100
AcDbLine
 10
2.766974427145883
 20
4.454784673946692
 30
0.0
 11
2.763037419271867
 21
4.458721681820707
 31
0.0
  0
LINE
  5
30C2
330
1E
100
AcDbEntity
  8
7
100
AcDbLine
 10
2.766974427145883
 20
4.454784673946692
 30
0.0
 11
2.766974427145883
 21
4.515808295993934
 31
0.0
  0
LINE
  5
30C3
330
1E
100
AcDbEntity
  8
7
100
AcDbLine
 10
2.763037419271867
 20
4.458721681820707
 30
0.0
 11
2.576029545256119
 21
4.458721681820707
 31
0.0
  0
LINE
  5
30C4
330
1E
100
AcDbEntity
  8
7
100
AcDbLine
 10
2.579966553130135
 20
4.454784673946692
 30
0.0
 11
2.766974427145883
 21
4.454784673946692
 31
0.0
  0
LINE
  5
30C5
330
1E
100
AcDbEntity
  8
7
100
AcDbLine
 10
0.9933523799017889
 20
4.352422469222283
 30
0.0
 11
1.005163403523836
 21
4.350453965285273
 31
0.0
  0
LINE
  5
30C6
330
1E
100
AcDbEntity
  8
7
100
AcDbLine
 10
1.011068915334859
 20
4.464627193631731
 30
0.0
 11
1.005163403523836
 21
4.462658689694723
 31
0.0
  0
LINE
  5
30C7
330
1E
100
AcDbEntity
  8
7
100
AcDbLine
 10
1.011068915334859
 20
4.503997272371888
 30
0.0
 11
1.011068915334859
 21
4.464627193631731
 31
0.0
  0
LINE
  5
30C8
330
1E
100
AcDbEntity
  8
7
100
AcDbLine
 10
0.9933523799017889
 20
4.521713807804959
 30
0.0
 11
1.011068915334859
 21
4.503997272371888
 31
0.0
  0
LINE
  5
30CF
330
1E
100
AcDbEntity
  8
7
100
AcDbLine
 10
2.296501986201
 20
2.77958782355299
 30
0.0
 11
2.298470490138009
 21
2.781556327489997
 31
0.0
  0
LINE
  5
30D0
330
1E
100
AcDbEntity
  8
7
100
AcDbLine
 10
2.296501986201
 20
2.740217744812833
 30
0.0
 11
2.296501986201
 21
2.77958782355299
 31
0.0
  0
LINE
  5
30D1
330
1E
100
AcDbEntity
  8
7
100
AcDbLine
 10
2.300438994075016
 20
2.722501209379762
 30
0.0
 11
2.296501986201
 21
2.740217744812833
 31
0.0
  0
LINE
  5
30D7
330
1E
100
AcDbEntity
  8
7
100
AcDbLine
 10
0.9933523799017889
 20
2.889824044025431
 30
0.0
 11
1.005163403523836
 21
2.893761051899447
 31
0.0
  0
LINE
  5
30E9
330
1E
100
AcDbEntity
  8
7
100
AcDbLine
 10
2.883116159429347
 20
2.935099634576612
 30
0.0
 11
2.885084663366355
 21
2.939036642450629
 31
0.0
  0
LINE
  5
3103
330
1E
100
AcDbEntity
  8
7
100
AcDbLine
 10
2.70398230116163
 20
3.017776799930944
 30
0.0
 11
2.705950805098638
 21
3.023682311741966
 31
0.0
  0
LINE
  5
310E
330
1E
100
AcDbEntity
  8
7
100
AcDbLine
 10
2.766974427145883
 20
2.728406721190785
 30
0.0
 11
2.763037419271867
 21
2.740217744812833
 31
0.0
  0
LINE
  5
310F
330
1E
100
AcDbEntity
  8
7
100
AcDbLine
 10
2.766974427145883
 20
2.728406721190785
 30
0.0
 11
2.766974427145883
 21
2.787461839301021
 31
0.0
  0
LINE
  5
3110
330
1E
100
AcDbEntity
  8
7
100
AcDbLine
 10
2.576029545256119
 20
2.785493335364014
 30
0.0
 11
2.579966553130135
 21
2.787461839301021
 31
0.0
  0
LINE
  5
3111
330
1E
100
AcDbEntity
  8
7
100
AcDbLine
 10
2.576029545256119
 20
2.785493335364014
 30
0.0
 11
2.763037419271867
 21
2.785493335364014
 31
0.0
  0
LINE
  5
3112
330
1E
100
AcDbEntity
  8
7
100
AcDbLine
 10
2.766974427145883
 20
2.787461839301021
 30
0.0
 11
2.579966553130135
 21
2.787461839301021
 31
0.0
  0
LINE
  5
3113
330
1E
100
AcDbEntity
  8
7
100
AcDbLine
 10
2.579966553130135
 20
3.24218624874984
 30
0.0
 11
2.579966553130135
 21
2.787461839301021
 31
0.0
  0
LINE
  5
3114
330
1E
100
AcDbEntity
  8
7
100
AcDbLine
 10
2.576029545256119
 20
2.785493335364014
 30
0.0
 11
2.576029545256119
 21
3.244154752686849
 31
0.0
  0
LINE
  5
3115
330
1E
100
AcDbEntity
  8
7
100
AcDbLine
 10
2.404769702736434
 20
2.740217744812833
 30
0.0
 11
2.763037419271867
 21
2.740217744812833
 31
0.0
  0
LINE
  5
3116
330
1E
100
AcDbEntity
  8
7
100
AcDbLine
 10
2.766974427145883
 20
2.728406721190785
 30
0.0
 11
2.824061041319111
 21
2.728406721190785
 31
0.0
  0
LINE
  5
3117
330
1E
100
AcDbEntity
  8
7
100
AcDbLine
 10
1.011068915334859
 20
4.503997272371888
 30
0.0
 11
2.763037419271867
 21
4.503997272371888
 31
0.0
  0
LINE
  5
3118
330
1E
100
AcDbEntity
  8
7
100
AcDbLine
 10
2.824061041319111
 20
4.515808295993934
 30
0.0
 11
2.766974427145883
 21
4.515808295993934
 31
0.0
  0
LINE
  5
3119
330
1E
100
AcDbEntity
  8
7
100
AcDbLine
 10
1.011068915334859
 20
2.740217744812833
 30
0.0
 11
2.296501986201
 21
2.740217744812833
 31
0.0
  0
LINE
  5
311A
330
1E
100
AcDbEntity
  8
7
100
AcDbLine
 10
0.9913838759647806
 20
4.348485461348266
 30
0.0
 11
0.9402027736025759
 21
4.348485461348266
 31
0.0
  0
LINE
  5
311B
330
1E
100
AcDbEntity
  8
7
100
AcDbLine
 10
1.005163403523836
 20
4.348485461348266
 30
0.0
 11
0.9913838759647806
 21
4.348485461348266
 31
0.0
  0
LINE
  5
311C
330
1E
100
AcDbEntity
  8
7
100
AcDbLine
 10
1.007131907460843
 20
4.350453965285273
 30
0.0
 11
1.005163403523836
 21
4.348485461348266
 31
0.0
  0
LINE
  5
3141
330
1E
100
AcDbEntity
  8
7
100
AcDbLine
 10
4.489415372027771
 20
4.192973650324644
 30
0.0
 11
4.489415372027771
 21
4.14179254796244
 31
0.0
  0
LINE
  5
3142
330
1E
100
AcDbEntity
  8
7
100
AcDbLine
 10
4.428391749980526
 20
4.192973650324644
 30
0.0
 11
4.489415372027771
 21
4.192973650324644
 31
0.0
  0
LINE
  5
314C
330
1E
100
AcDbEntity
  8
7
100
AcDbLine
 10
4.072092537382102
 20
4.454784673946692
 30
0.0
 11
4.268942931082889
 21
4.454784673946692
 31
0.0
  0
LINE
  5
314D
330
1E
100
AcDbEntity
  8
7
100
AcDbLine
 10
3.873273639744306
 20
4.442973650324644
 30
0.0
 11
3.873273639744306
 21
4.405572075521494
 31
0.0
  0
LINE
  5
3154
330
1E
100
AcDbEntity
  8
7
100
AcDbLine
 10
3.875242143681315
 20
4.513839792056927
 30
0.0
 11
4.032722458641945
 21
4.513839792056927
 31
0.0
  0
LINE
  5
315B
330
1E
100
AcDbEntity
  8
7
100
AcDbLine
 10
4.432328757854543
 20
4.29927286292307
 30
0.0
 11
4.428391749980526
 21
4.295335855049053
 31
0.0
  0
LINE
  5
3164
330
1E
100
AcDbEntity
  8
7
100
AcDbLine
 10
4.268942931082889
 20
4.454784673946692
 30
0.0
 11
4.270911435019897
 21
4.458721681820707
 31
0.0
  0
LINE
  5
3165
330
1E
100
AcDbEntity
  8
7
100
AcDbLine
 10
4.489415372027771
 20
4.192973650324644
 30
0.0
 11
4.477604348405725
 21
4.19691065819866
 31
0.0
  0
LINE
  5
3166
330
1E
100
AcDbEntity
  8
7
100
AcDbLine
 10
4.432328757854543
 20
4.19691065819866
 30
0.0
 11
4.477604348405725
 21
4.19691065819866
 31
0.0
  0
LINE
  5
316C
330
1E
100
AcDbEntity
  8
7
100
AcDbLine
 10
3.877210647618323
 20
4.458721681820707
 30
0.0
 11
4.270911435019897
 21
4.458721681820707
 31
0.0
  0
LINE
  5
316D
330
1E
100
AcDbEntity
  8
7
100
AcDbLine
 10
4.282722458641945
 20
4.503997272371888
 30
0.0
 11
4.300438994075015
 21
4.521713807804959
 31
0.0
  0
LINE
  5
317B
330
1E
100
AcDbEntity
  8
7
100
AcDbLine
 10
3.877210647618323
 20
4.503997272371888
 30
0.0
 11
4.282722458641945
 21
4.503997272371888
 31
0.0
  0
LINE
  5
3181
330
1E
100
AcDbEntity
  8
7
100
AcDbLine
 10
2.404769702736434
 20
2.77958782355299
 30
0.0
 11
2.52878545076793
 21
2.77958782355299
 31
0.0
  0
LINE
  5
3182
330
1E
100
AcDbEntity
  8
7
100
AcDbLine
 10
3.322092537382102
 20
3.870139004655353
 30
0.0
 11
2.822092537382103
 21
3.870139004655353
 31
0.0
  0
LINE
  5
318A
330
1E
100
AcDbEntity
  8
7
100
AcDbLine
 10
3.446108285413599
 20
3.498091760560864
 30
0.0
 11
3.446108285413599
 21
3.746123256623857
 31
0.0
  0
LINE
  5
3192
330
1E
100
AcDbEntity
  8
7
100
AcDbLine
 10
2.822092537382103
 20
3.374076012529368
 30
0.0
 11
3.322092537382102
 21
3.374076012529368
 31
0.0
  0
LINE
  5
319D
330
1E
100
AcDbEntity
  8
7
100
AcDbLine
 10
2.700045293287614
 20
3.746123256623857
 30
0.0
 11
2.700045293287614
 21
3.498091760560864
 31
0.0
  0
LINE
  5
31A5
330
1E
100
AcDbEntity
  8
7
100
AcDbLine
 10
2.747289387775804
 20
3.35439097315929
 30
0.0
 11
2.747289387775804
 21
3.303209870797084
 31
0.0
  0
LINE
  5
31A6
330
1E
100
AcDbEntity
  8
7
100
AcDbLine
 10
2.973667340531709
 20
3.35439097315929
 30
0.0
 11
2.747289387775804
 21
3.35439097315929
 31
0.0
  0
LINE
  5
31A7
330
1E
100
AcDbEntity
  8
7
100
AcDbLine
 10
2.973667340531709
 20
3.303209870797084
 30
0.0
 11
2.973667340531709
 21
3.35439097315929
 31
0.0
  0
LINE
  5
31A8
330
1E
100
AcDbEntity
  8
7
100
AcDbLine
 10
2.747289387775804
 20
3.303209870797084
 30
0.0
 11
2.973667340531709
 21
3.303209870797084
 31
0.0
  0
LINE
  5
31A9
330
1E
100
AcDbEntity
  8
7
100
AcDbLine
 10
3.371305135807299
 20
3.35439097315929
 30
0.0
 11
3.371305135807299
 21
3.303209870797084
 31
0.0
  0
LINE
  5
31AA
330
1E
100
AcDbEntity
  8
7
100
AcDbLine
 10
3.595714584626197
 20
3.35439097315929
 30
0.0
 11
3.371305135807299
 21
3.35439097315929
 31
0.0
  0
LINE
  5
31AB
330
1E
100
AcDbEntity
  8
7
100
AcDbLine
 10
3.595714584626197
 20
3.303209870797084
 30
0.0
 11
3.595714584626197
 21
3.35439097315929
 31
0.0
  0
LINE
  5
31AC
330
1E
100
AcDbEntity
  8
7
100
AcDbLine
 10
3.371305135807299
 20
3.303209870797084
 30
0.0
 11
3.595714584626197
 21
3.303209870797084
 31
0.0
  0
LINE
  5
31AD
330
1E
100
AcDbEntity
  8
7
100
AcDbLine
 10
3.371305135807299
 20
3.939036642450629
 30
0.0
 11
3.371305135807299
 21
3.889824044025431
 31
0.0
  0
LINE
  5
31AE
330
1E
100
AcDbEntity
  8
7
100
AcDbLine
 10
3.595714584626197
 20
3.939036642450629
 30
0.0
 11
3.371305135807299
 21
3.939036642450629
 31
0.0
  0
LINE
  5
31AF
330
1E
100
AcDbEntity
  8
7
100
AcDbLine
 10
3.595714584626197
 20
3.889824044025431
 30
0.0
 11
3.595714584626197
 21
3.939036642450629
 31
0.0
  0
LINE
  5
31B0
330
1E
100
AcDbEntity
  8
7
100
AcDbLine
 10
3.371305135807299
 20
3.889824044025431
 30
0.0
 11
3.595714584626197
 21
3.889824044025431
 31
0.0
  0
LINE
  5
31B1
330
1E
100
AcDbEntity
  8
7
100
AcDbLine
 10
2.747289387775804
 20
3.939036642450629
 30
0.0
 11
2.747289387775804
 21
3.889824044025431
 31
0.0
  0
LINE
  5
31B2
330
1E
100
AcDbEntity
  8
7
100
AcDbLine
 10
2.973667340531709
 20
3.939036642450629
 30
0.0
 11
2.747289387775804
 21
3.939036642450629
 31
0.0
  0
LINE
  5
31B3
330
1E
100
AcDbEntity
  8
7
100
AcDbLine
 10
2.973667340531709
 20
3.889824044025431
 30
0.0
 11
2.973667340531709
 21
3.939036642450629
 31
0.0
  0
LINE
  5
31B4
330
1E
100
AcDbEntity
  8
7
100
AcDbLine
 10
2.747289387775804
 20
3.889824044025431
 30
0.0
 11
2.973667340531709
 21
3.889824044025431
 31
0.0
  0
LINE
  5
31BC
330
1E
100
AcDbEntity
  8
7
100
AcDbLine
 10
3.715793324783676
 20
3.746123256623857
 30
0.0
 11
3.715793324783676
 21
3.85439097315929
 31
0.0
  0
LINE
  5
31BD
330
1E
100
AcDbEntity
  8
7
100
AcDbLine
 10
3.715793324783676
 20
3.746123256623857
 30
0.0
 11
3.759100411397851
 21
3.746123256623857
 31
0.0
  0
LINE
  5
31BE
330
1E
100
AcDbEntity
  8
7
100
AcDbLine
 10
3.759100411397851
 20
3.496123256623857
 30
0.0
 11
3.759100411397851
 21
3.746123256623857
 31
0.0
  0
LINE
  5
31BF
330
1E
100
AcDbEntity
  8
7
100
AcDbLine
 10
3.715793324783676
 20
3.496123256623857
 30
0.0
 11
3.759100411397851
 21
3.496123256623857
 31
0.0
  0
LINE
  5
31C0
330
1E
100
AcDbEntity
  8
7
100
AcDbLine
 10
3.715793324783676
 20
3.389824044025431
 30
0.0
 11
3.715793324783676
 21
3.496123256623857
 31
0.0
  0
LINE
  5
31C1
330
1E
100
AcDbEntity
  8
7
100
AcDbLine
 10
3.53665946651596
 20
3.389824044025431
 30
0.0
 11
3.715793324783676
 21
3.389824044025431
 31
0.0
  0
LINE
  5
31C2
330
1E
100
AcDbEntity
  8
7
100
AcDbLine
 10
3.53665946651596
 20
3.389824044025431
 30
0.0
 11
3.53665946651596
 21
3.496123256623857
 31
0.0
  0
LINE
  5
31C3
330
1E
100
AcDbEntity
  8
7
100
AcDbLine
 10
3.495320883838795
 20
3.496123256623857
 30
0.0
 11
3.53665946651596
 21
3.496123256623857
 31
0.0
  0
LINE
  5
31C4
330
1E
100
AcDbEntity
  8
7
100
AcDbLine
 10
1.308313009823048
 20
4.464627193631731
 30
0.0
 11
1.30634450588604
 21
4.462658689694723
 31
0.0
  0
LINE
  5
31C5
330
1E
100
AcDbEntity
  8
7
100
AcDbLine
 10
1.369336631870292
 20
4.464627193631731
 30
0.0
 11
1.308313009823048
 21
4.464627193631731
 31
0.0
  0
LINE
  5
31C6
330
1E
100
AcDbEntity
  8
7
100
AcDbLine
 10
1.369336631870292
 20
4.462658689694723
 30
0.0
 11
1.369336631870292
 21
4.464627193631731
 31
0.0
  0
LINE
  5
31C7
330
1E
100
AcDbEntity
  8
7
100
AcDbLine
 10
2.526816946830922
 20
4.462658689694723
 30
0.0
 11
2.52878545076793
 21
4.464627193631731
 31
0.0
  0
LINE
  5
31C8
330
1E
100
AcDbEntity
  8
7
100
AcDbLine
 10
2.526816946830922
 20
2.781556327489997
 30
0.0
 11
2.52878545076793
 21
2.77958782355299
 31
0.0
  0
LINE
  5
31E8
330
1E
100
AcDbEntity
  8
7
100
AcDbLine
 10
0.9913838759647806
 20
3.657540579458503
 30
0.0
 11
0.9402027736025759
 21
3.657540579458503
 31
0.0
  0
LINE
  5
31E9
330
1E
100
AcDbEntity
  8
7
100
AcDbLine
 10
0.9913838759647806
 20
4.348485461348266
 30
0.0
 11
0.9913838759647806
 21
3.657540579458503
 31
0.0
  0
LINE
  5
31EA
330
1E
100
AcDbEntity
  8
7
100
AcDbLine
 10
1.369336631870292
 20
2.77958782355299
 30
0.0
 11
2.296501986201
 21
2.77958782355299
 31
0.0
  0
LINE
  5
31F0
330
1E
100
AcDbEntity
  8
7
100
AcDbLine
 10
2.707919309035646
 20
4.293367351112046
 30
0.0
 11
2.707919309035646
 21
4.291398847175038
 31
0.0
  0
LINE
  5
31FC
330
1E
100
AcDbEntity
  8
7
100
AcDbLine
 10
0.9913838759647806
 20
3.657540579458503
 30
0.0
 11
1.005163403523836
 21
3.657540579458503
 31
0.0
  0
LINE
  5
31FD
330
1E
100
AcDbEntity
  8
7
100
AcDbLine
 10
1.005163403523836
 20
4.348485461348266
 30
0.0
 11
1.005163403523836
 21
3.657540579458503
 31
0.0
  0
LINE
  5
31FE
330
1E
100
AcDbEntity
  8
7
100
AcDbLine
 10
1.007131907460843
 20
3.65950908339551
 30
0.0
 11
1.005163403523836
 21
3.657540579458503
 31
0.0
  0
LINE
  5
31FF
330
1E
100
AcDbEntity
  8
7
100
AcDbLine
 10
1.227604348405725
 20
3.009902784182912
 30
0.0
 11
1.077998049193126
 21
3.009902784182912
 31
0.0
  0
LINE
  5
3200
330
1E
100
AcDbEntity
  8
7
100
AcDbLine
 10
1.077998049193126
 20
4.216595697568738
 30
0.0
 11
1.227604348405725
 21
4.216595697568738
 31
0.0
  0
LINE
  5
3201
330
1E
100
AcDbEntity
  8
7
100
AcDbLine
 10
1.077998049193126
 20
3.681162626702597
 30
0.0
 11
1.227604348405725
 21
3.681162626702597
 31
0.0
  0
LINE
  5
3202
330
1E
100
AcDbEntity
  8
7
100
AcDbLine
 10
1.077998049193126
 20
3.561083886545116
 30
0.0
 11
1.227604348405725
 21
3.561083886545116
 31
0.0
  0
LINE
  5
3203
330
1E
100
AcDbEntity
  8
7
100
AcDbLine
 10
1.077998049193126
 20
3.027619319615983
 30
0.0
 11
1.227604348405725
 21
3.027619319615983
 31
0.0
  0
LINE
  5
3204
330
1E
100
AcDbEntity
  8
7
100
AcDbLine
 10
0.9835098602167491
 20
3.653603571584486
 30
0.0
 11
1.077998049193126
 21
3.653603571584486
 31
0.0
  0
LINE
  5
3205
330
1E
100
AcDbEntity
  8
7
100
AcDbLine
 10
0.9835098602167491
 20
3.590611445600234
 30
0.0
 11
1.077998049193126
 21
3.590611445600234
 31
0.0
  0
LINE
  5
3232
330
1E
100
AcDbEntity
  8
7
100
AcDbLine
 10
2.822092537382103
 20
3.832737429852203
 30
0.0
 11
2.831935057067142
 21
3.820926406230157
 31
0.0
  0
LINE
  5
323D
330
1E
100
AcDbEntity
  8
7
100
AcDbLine
 10
2.749257891712812
 20
3.736280736938818
 30
0.0
 11
2.737446868090764
 21
3.748091760560864
 31
0.0
  0
LINE
  5
3250
330
1E
100
AcDbEntity
  8
7
100
AcDbLine
 10
3.406738206673441
 20
3.748091760560864
 30
0.0
 11
3.396895686988401
 21
3.736280736938818
 31
0.0
  0
LINE
  5
325E
330
1E
100
AcDbEntity
  8
7
100
AcDbLine
 10
3.022879938956906
 20
3.824863414104171
 30
0.0
 11
3.123273639744308
 21
3.824863414104171
 31
0.0
  0
LINE
  5
325F
330
1E
100
AcDbEntity
  8
7
100
AcDbLine
 10
3.022879938956906
 20
3.832737429852203
 30
0.0
 11
3.022879938956906
 21
3.824863414104171
 31
0.0
  0
LINE
  5
3260
330
1E
100
AcDbEntity
  8
7
100
AcDbLine
 10
3.022879938956906
 20
3.832737429852203
 30
0.0
 11
2.822092537382103
 21
3.832737429852203
 31
0.0
  0
LINE
  5
3261
330
1E
100
AcDbEntity
  8
7
100
AcDbLine
 10
3.32406104131911
 20
3.411477587332518
 30
0.0
 11
3.312250017697063
 21
3.423288610954566
 31
0.0
  0
LINE
  5
3262
330
1E
100
AcDbEntity
  8
7
100
AcDbLine
 10
3.406738206673441
 20
3.496123256623857
 30
0.0
 11
3.400832694862417
 21
3.462658689694723
 31
0.0
  0
LINE
  5
326F
330
1E
100
AcDbEntity
  8
7
100
AcDbLine
 10
3.400832694862417
 20
3.671320107017557
 30
0.0
 11
3.400832694862417
 21
3.570926406230157
 31
0.0
  0
LINE
  5
3270
330
1E
100
AcDbEntity
  8
7
100
AcDbLine
 10
3.406738206673441
 20
3.673288610954566
 30
0.0
 11
3.400832694862417
 21
3.671320107017557
 31
0.0
  0
LINE
  5
3271
330
1E
100
AcDbEntity
  8
7
100
AcDbLine
 10
3.406738206673441
 20
3.673288610954566
 30
0.0
 11
3.406738206673441
 21
3.748091760560864
 31
0.0
  0
LINE
  5
3272
330
1E
100
AcDbEntity
  8
7
100
AcDbLine
 10
2.737446868090764
 20
3.748091760560864
 30
0.0
 11
2.737446868090764
 21
3.673288610954566
 31
0.0
  0
LINE
  5
3273
330
1E
100
AcDbEntity
  8
7
100
AcDbLine
 10
2.743352379901788
 20
3.671320107017557
 30
0.0
 11
2.737446868090764
 21
3.673288610954566
 31
0.0
  0
LINE
  5
3274
330
1E
100
AcDbEntity
  8
7
100
AcDbLine
 10
2.743352379901788
 20
3.570926406230157
 30
0.0
 11
2.743352379901788
 21
3.671320107017557
 31
0.0
  0
LINE
  5
328A
330
1E
100
AcDbEntity
  8
7
100
AcDbLine
 10
3.022879938956906
 20
3.417383099143542
 30
0.0
 11
3.022879938956906
 21
3.411477587332518
 31
0.0
  0
LINE
  5
328B
330
1E
100
AcDbEntity
  8
7
100
AcDbLine
 10
3.123273639744308
 20
3.417383099143542
 30
0.0
 11
3.022879938956906
 21
3.417383099143542
 31
0.0
  0
LINE
  5
3291
330
1E
100
AcDbEntity
  8
7
100
AcDbLine
 10
2.761068915334859
 20
3.340611445600234
 30
0.0
 11
2.761068915334859
 21
3.307146878671101
 31
0.0
  0
LINE
  5
3292
330
1E
100
AcDbEntity
  8
7
100
AcDbLine
 10
2.761068915334859
 20
3.903603571584486
 30
0.0
 11
2.761068915334859
 21
3.93706813851362
 31
0.0
  0
LINE
  5
3293
330
1E
100
AcDbEntity
  8
7
100
AcDbLine
 10
2.959887812972654
 20
3.93706813851362
 30
0.0
 11
2.959887812972654
 21
3.903603571584486
 31
0.0
  0
LINE
  5
3294
330
1E
100
AcDbEntity
  8
7
100
AcDbLine
 10
3.383116159429347
 20
3.903603571584486
 30
0.0
 11
3.383116159429347
 21
3.93706813851362
 31
0.0
  0
LINE
  5
3295
330
1E
100
AcDbEntity
  8
7
100
AcDbLine
 10
3.583903561004149
 20
3.93706813851362
 30
0.0
 11
3.583903561004149
 21
3.903603571584486
 31
0.0
  0
LINE
  5
3296
330
1E
100
AcDbEntity
  8
7
100
AcDbLine
 10
3.583903561004149
 20
3.307146878671101
 30
0.0
 11
3.583903561004149
 21
3.340611445600234
 31
0.0
  0
LINE
  5
3297
330
1E
100
AcDbEntity
  8
7
100
AcDbLine
 10
3.383116159429347
 20
3.340611445600234
 30
0.0
 11
3.383116159429347
 21
3.307146878671101
 31
0.0
  0
LINE
  5
3298
330
1E
100
AcDbEntity
  8
7
100
AcDbLine
 10
2.959887812972654
 20
3.307146878671101
 30
0.0
 11
2.959887812972654
 21
3.340611445600234
 31
0.0
  0
LINE
  5
3299
330
1E
100
AcDbEntity
  8
7
100
AcDbLine
 10
2.709887812972654
 20
3.673288610954566
 30
0.0
 11
2.737446868090764
 21
3.673288610954566
 31
0.0
  0
LINE
  5
329A
330
1E
100
AcDbEntity
  8
7
100
AcDbLine
 10
2.70398230116163
 20
3.671320107017557
 30
0.0
 11
2.709887812972654
 21
3.673288610954566
 31
0.0
  0
LINE
  5
329B
330
1E
100
AcDbEntity
  8
7
100
AcDbLine
 10
2.70398230116163
 20
3.671320107017557
 30
0.0
 11
2.743352379901788
 21
3.671320107017557
 31
0.0
  0
LINE
  5
329C
330
1E
100
AcDbEntity
  8
7
100
AcDbLine
 10
2.70398230116163
 20
3.570926406230157
 30
0.0
 11
2.70398230116163
 21
3.671320107017557
 31
0.0
  0
LINE
  5
329D
330
1E
100
AcDbEntity
  8
7
100
AcDbLine
 10
2.70398230116163
 20
3.570926406230157
 30
0.0
 11
2.743352379901788
 21
3.570926406230157
 31
0.0
  0
LINE
  5
32A3
330
1E
100
AcDbEntity
  8
7
100
AcDbLine
 10
3.022879938956906
 20
3.411477587332518
 30
0.0
 11
3.022879938956906
 21
3.385887036151416
 31
0.0
  0
LINE
  5
32A4
330
1E
100
AcDbEntity
  8
7
100
AcDbLine
 10
3.022879938956906
 20
3.378013020403384
 30
0.0
 11
3.022879938956906
 21
3.385887036151416
 31
0.0
  0
LINE
  5
32A5
330
1E
100
AcDbEntity
  8
7
100
AcDbLine
 10
3.022879938956906
 20
3.378013020403384
 30
0.0
 11
3.022879938956906
 21
3.417383099143542
 31
0.0
  0
LINE
  5
32A6
330
1E
100
AcDbEntity
  8
7
100
AcDbLine
 10
3.123273639744308
 20
3.378013020403384
 30
0.0
 11
3.022879938956906
 21
3.378013020403384
 31
0.0
  0
LINE
  5
32A7
330
1E
100
AcDbEntity
  8
7
100
AcDbLine
 10
3.123273639744308
 20
3.378013020403384
 30
0.0
 11
3.123273639744308
 21
3.417383099143542
 31
0.0
  0
LINE
  5
32B2
330
1E
100
AcDbEntity
  8
7
100
AcDbLine
 10
3.400832694862417
 20
3.570926406230157
 30
0.0
 11
3.440202773602575
 21
3.570926406230157
 31
0.0
  0
LINE
  5
32B3
330
1E
100
AcDbEntity
  8
7
100
AcDbLine
 10
3.440202773602575
 20
3.671320107017557
 30
0.0
 11
3.440202773602575
 21
3.570926406230157
 31
0.0
  0
LINE
  5
32B4
330
1E
100
AcDbEntity
  8
7
100
AcDbLine
 10
3.400832694862417
 20
3.671320107017557
 30
0.0
 11
3.440202773602575
 21
3.671320107017557
 31
0.0
  0
LINE
  5
32B5
330
1E
100
AcDbEntity
  8
7
100
AcDbLine
 10
3.434297261791551
 20
3.673288610954566
 30
0.0
 11
3.440202773602575
 21
3.671320107017557
 31
0.0
  0
LINE
  5
32B6
330
1E
100
AcDbEntity
  8
7
100
AcDbLine
 10
3.406738206673441
 20
3.673288610954566
 30
0.0
 11
3.434297261791551
 21
3.673288610954566
 31
0.0
  0
LINE
  5
32BC
330
1E
100
AcDbEntity
  8
7
100
AcDbLine
 10
3.123273639744308
 20
3.824863414104171
 30
0.0
 11
3.123273639744308
 21
3.864233492844329
 31
0.0
  0
LINE
  5
32BD
330
1E
100
AcDbEntity
  8
7
100
AcDbLine
 10
3.022879938956906
 20
3.864233492844329
 30
0.0
 11
3.123273639744308
 21
3.864233492844329
 31
0.0
  0
LINE
  5
32BE
330
1E
100
AcDbEntity
  8
7
100
AcDbLine
 10
3.022879938956906
 20
3.824863414104171
 30
0.0
 11
3.022879938956906
 21
3.864233492844329
 31
0.0
  0
LINE
  5
32BF
330
1E
100
AcDbEntity
  8
7
100
AcDbLine
 10
3.022879938956906
 20
3.858327981033305
 30
0.0
 11
3.022879938956906
 21
3.864233492844329
 31
0.0
  0
LINE
  5
32C0
330
1E
100
AcDbEntity
  8
7
100
AcDbLine
 10
3.022879938956906
 20
3.832737429852203
 30
0.0
 11
3.022879938956906
 21
3.858327981033305
 31
0.0
  0
LINE
  5
32C1
330
1E
100
AcDbEntity
  8
7
100
AcDbLine
 10
2.761068915334859
 20
3.307146878671101
 30
0.0
 11
2.959887812972654
 21
3.307146878671101
 31
0.0
  0
LINE
  5
32C2
330
1E
100
AcDbEntity
  8
7
100
AcDbLine
 10
2.959887812972654
 20
3.340611445600234
 30
0.0
 11
2.761068915334859
 21
3.340611445600234
 31
0.0
  0
LINE
  5
32C3
330
1E
100
AcDbEntity
  8
7
100
AcDbLine
 10
3.383116159429347
 20
3.307146878671101
 30
0.0
 11
3.583903561004149
 21
3.307146878671101
 31
0.0
  0
LINE
  5
32C4
330
1E
100
AcDbEntity
  8
7
100
AcDbLine
 10
3.583903561004149
 20
3.340611445600234
 30
0.0
 11
3.383116159429347
 21
3.340611445600234
 31
0.0
  0
LINE
  5
32C5
330
1E
100
AcDbEntity
  8
7
100
AcDbLine
 10
3.583903561004149
 20
3.93706813851362
 30
0.0
 11
3.383116159429347
 21
3.93706813851362
 31
0.0
  0
LINE
  5
32C6
330
1E
100
AcDbEntity
  8
7
100
AcDbLine
 10
3.583903561004149
 20
3.903603571584486
 30
0.0
 11
3.383116159429347
 21
3.903603571584486
 31
0.0
  0
LINE
  5
32C7
330
1E
100
AcDbEntity
  8
7
100
AcDbLine
 10
2.959887812972654
 20
3.93706813851362
 30
0.0
 11
2.761068915334859
 21
3.93706813851362
 31
0.0
  0
LINE
  5
32C8
330
1E
100
AcDbEntity
  8
7
100
AcDbLine
 10
2.959887812972654
 20
3.903603571584486
 30
0.0
 11
2.761068915334859
 21
3.903603571584486
 31
0.0
  0
LINE
  5
32CE
330
1E
100
AcDbEntity
  8
7
100
AcDbLine
 10
3.59177757675218
 20
3.895729555836455
 30
0.0
 11
3.59177757675218
 21
3.935099634576612
 31
0.0
  0
LINE
  5
32E1
330
1E
100
AcDbEntity
  8
7
100
AcDbLine
 10
2.709887812972654
 20
3.570926406230157
 30
0.0
 11
2.709887812972654
 21
3.507934280245903
 31
0.0
  0
LINE
  5
32E9
330
1E
100
AcDbEntity
  8
7
100
AcDbLine
 10
2.83390356100415
 20
3.385887036151416
 30
0.0
 11
3.022879938956906
 21
3.385887036151416
 31
0.0
  0
LINE
  5
32F6
330
1E
100
AcDbEntity
  8
7
100
AcDbLine
 10
3.310281513760054
 20
3.858327981033305
 30
0.0
 11
3.123273639744308
 21
3.858327981033305
 31
0.0
  0
LINE
  5
32FF
330
1E
100
AcDbEntity
  8
7
100
AcDbLine
 10
3.022879938956906
 20
3.858327981033305
 30
0.0
 11
2.83390356100415
 21
3.858327981033305
 31
0.0
  0
LINE
  5
3308
330
1E
100
AcDbEntity
  8
7
100
AcDbLine
 10
2.753194899586827
 20
3.309115382608109
 30
0.0
 11
2.761068915334859
 21
3.307146878671101
 31
0.0
  0
LINE
  5
3309
330
1E
100
AcDbEntity
  8
7
100
AcDbLine
 10
2.761068915334859
 20
3.93706813851362
 30
0.0
 11
2.753194899586827
 21
3.935099634576612
 31
0.0
  0
LINE
  5
330A
330
1E
100
AcDbEntity
  8
7
100
AcDbLine
 10
2.967761828720686
 20
3.935099634576612
 30
0.0
 11
2.959887812972654
 21
3.93706813851362
 31
0.0
  0
LINE
  5
330B
330
1E
100
AcDbEntity
  8
7
100
AcDbLine
 10
3.383116159429347
 20
3.93706813851362
 30
0.0
 11
3.375242143681315
 21
3.935099634576612
 31
0.0
  0
LINE
  5
330C
330
1E
100
AcDbEntity
  8
7
100
AcDbLine
 10
3.59177757675218
 20
3.935099634576612
 30
0.0
 11
3.583903561004149
 21
3.93706813851362
 31
0.0
  0
LINE
  5
330D
330
1E
100
AcDbEntity
  8
7
100
AcDbLine
 10
3.583903561004149
 20
3.307146878671101
 30
0.0
 11
3.59177757675218
 21
3.309115382608109
 31
0.0
  0
LINE
  5
330E
330
1E
100
AcDbEntity
  8
7
100
AcDbLine
 10
3.375242143681315
 20
3.309115382608109
 30
0.0
 11
3.383116159429347
 21
3.307146878671101
 31
0.0
  0
LINE
  5
330F
330
1E
100
AcDbEntity
  8
7
100
AcDbLine
 10
2.959887812972654
 20
3.307146878671101
 30
0.0
 11
2.967761828720686
 21
3.309115382608109
 31
0.0
  0
LINE
  5
3310
330
1E
100
AcDbEntity
  8
7
100
AcDbLine
 10
2.700045293287614
 20
3.746123256623857
 30
0.0
 11
2.709887812972654
 21
3.736280736938818
 31
0.0
  0
LINE
  5
3311
330
1E
100
AcDbEntity
  8
7
100
AcDbLine
 10
2.83390356100415
 20
3.858327981033305
 30
0.0
 11
2.822092537382103
 21
3.870139004655353
 31
0.0
  0
LINE
  5
3312
330
1E
100
AcDbEntity
  8
7
100
AcDbLine
 10
2.709887812972654
 20
3.507934280245903
 30
0.0
 11
2.700045293287614
 21
3.498091760560864
 31
0.0
  0
LINE
  5
3313
330
1E
100
AcDbEntity
  8
7
100
AcDbLine
 10
2.822092537382103
 20
3.374076012529368
 30
0.0
 11
2.83390356100415
 21
3.385887036151416
 31
0.0
  0
LINE
  5
3314
330
1E
100
AcDbEntity
  8
7
100
AcDbLine
 10
3.310281513760054
 20
3.385887036151416
 30
0.0
 11
3.322092537382102
 21
3.374076012529368
 31
0.0
  0
LINE
  5
3315
330
1E
100
AcDbEntity
  8
7
100
AcDbLine
 10
3.446108285413599
 20
3.498091760560864
 30
0.0
 11
3.434297261791551
 21
3.507934280245903
 31
0.0
  0
LINE
  5
3316
330
1E
100
AcDbEntity
  8
7
100
AcDbLine
 10
3.434297261791551
 20
3.736280736938818
 30
0.0
 11
3.446108285413599
 21
3.746123256623857
 31
0.0
  0
LINE
  5
3317
330
1E
100
AcDbEntity
  8
7
100
AcDbLine
 10
3.322092537382102
 20
3.870139004655353
 30
0.0
 11
3.310281513760054
 21
3.858327981033305
 31
0.0
  0
LINE
  5
3318
330
1E
100
AcDbEntity
  8
7
100
AcDbLine
 10
2.959887812972654
 20
3.307146878671101
 30
0.0
 11
2.973667340531709
 21
3.303209870797084
 31
0.0
  0
LINE
  5
3319
330
1E
100
AcDbEntity
  8
7
100
AcDbLine
 10
2.761068915334859
 20
3.307146878671101
 30
0.0
 11
2.747289387775804
 21
3.303209870797084
 31
0.0
  0
LINE
  5
331A
330
1E
100
AcDbEntity
  8
7
100
AcDbLine
 10
2.967761828720686
 20
3.348485461348266
 30
0.0
 11
2.973667340531709
 21
3.35439097315929
 31
0.0
  0
LINE
  5
331B
330
1E
100
AcDbEntity
  8
7
100
AcDbLine
 10
2.753194899586827
 20
3.348485461348266
 30
0.0
 11
2.747289387775804
 21
3.35439097315929
 31
0.0
  0
LINE
  5
331C
330
1E
100
AcDbEntity
  8
7
100
AcDbLine
 10
3.583903561004149
 20
3.307146878671101
 30
0.0
 11
3.595714584626197
 21
3.303209870797084
 31
0.0
  0
LINE
  5
331D
330
1E
100
AcDbEntity
  8
7
100
AcDbLine
 10
3.383116159429347
 20
3.307146878671101
 30
0.0
 11
3.371305135807299
 21
3.303209870797084
 31
0.0
  0
LINE
  5
331E
330
1E
100
AcDbEntity
  8
7
100
AcDbLine
 10
3.59177757675218
 20
3.348485461348266
 30
0.0
 11
3.595714584626197
 21
3.35439097315929
 31
0.0
  0
LINE
  5
331F
330
1E
100
AcDbEntity
  8
7
100
AcDbLine
 10
3.375242143681315
 20
3.348485461348266
 30
0.0
 11
3.371305135807299
 21
3.35439097315929
 31
0.0
  0
LINE
  5
3320
330
1E
100
AcDbEntity
  8
7
100
AcDbLine
 10
3.59177757675218
 20
3.895729555836455
 30
0.0
 11
3.595714584626197
 21
3.889824044025431
 31
0.0
  0
LINE
  5
3321
330
1E
100
AcDbEntity
  8
7
100
AcDbLine
 10
3.375242143681315
 20
3.895729555836455
 30
0.0
 11
3.371305135807299
 21
3.889824044025431
 31
0.0
  0
LINE
  5
3322
330
1E
100
AcDbEntity
  8
7
100
AcDbLine
 10
3.583903561004149
 20
3.93706813851362
 30
0.0
 11
3.595714584626197
 21
3.939036642450629
 31
0.0
  0
LINE
  5
3323
330
1E
100
AcDbEntity
  8
7
100
AcDbLine
 10
3.383116159429347
 20
3.93706813851362
 30
0.0
 11
3.371305135807299
 21
3.939036642450629
 31
0.0
  0
LINE
  5
3324
330
1E
100
AcDbEntity
  8
7
100
AcDbLine
 10
2.967761828720686
 20
3.895729555836455
 30
0.0
 11
2.973667340531709
 21
3.889824044025431
 31
0.0
  0
LINE
  5
3325
330
1E
100
AcDbEntity
  8
7
100
AcDbLine
 10
2.753194899586827
 20
3.895729555836455
 30
0.0
 11
2.747289387775804
 21
3.889824044025431
 31
0.0
  0
LINE
  5
3326
330
1E
100
AcDbEntity
  8
7
100
AcDbLine
 10
2.959887812972654
 20
3.93706813851362
 30
0.0
 11
2.973667340531709
 21
3.939036642450629
 31
0.0
  0
LINE
  5
3327
330
1E
100
AcDbEntity
  8
7
100
AcDbLine
 10
2.761068915334859
 20
3.93706813851362
 30
0.0
 11
2.747289387775804
 21
3.939036642450629
 31
0.0
  0
LINE
  5
3328
330
1E
100
AcDbEntity
  8
7
100
AcDbLine
 10
3.711856316909662
 20
3.752028768434881
 30
0.0
 11
3.715793324783676
 21
3.746123256623857
 31
0.0
  0
LINE
  5
332E
330
1E
100
AcDbEntity
  8
7
100
AcDbLine
 10
3.540596474389976
 20
3.752028768434881
 30
0.0
 11
3.53665946651596
 21
3.746123256623857
 31
0.0
  0
LINE
  5
332F
330
1E
100
AcDbEntity
  8
7
100
AcDbLine
 10
3.540596474389976
 20
3.771713807804959
 30
0.0
 11
3.540596474389976
 21
3.752028768434881
 31
0.0
  0
LINE
  5
3330
330
1E
100
AcDbEntity
  8
7
100
AcDbLine
 10
3.540596474389976
 20
3.771713807804959
 30
0.0
 11
3.53665946651596
 21
3.85439097315929
 31
0.0
  0
LINE
  5
3331
330
1E
100
AcDbEntity
  8
7
100
AcDbLine
 10
3.540596474389976
 20
3.752028768434881
 30
0.0
 11
3.548470490138008
 21
3.744154752686849
 31
0.0
  0
LINE
  5
3332
330
1E
100
AcDbEntity
  8
7
100
AcDbLine
 10
3.540596474389976
 20
3.49218624874984
 30
0.0
 11
3.548470490138008
 21
3.500060264497871
 31
0.0
  0
LINE
  5
3333
330
1E
100
AcDbEntity
  8
7
100
AcDbLine
 10
3.711856316909662
 20
3.49218624874984
 30
0.0
 11
3.705950805098638
 21
3.500060264497871
 31
0.0
  0
LINE
  5
3334
330
1E
100
AcDbEntity
  8
7
100
AcDbLine
 10
3.711856316909662
 20
3.752028768434881
 30
0.0
 11
3.705950805098638
 21
3.744154752686849
 31
0.0
  0
LINE
  5
3335
330
1E
100
AcDbEntity
  8
7
100
AcDbLine
 10
3.540596474389976
 20
3.752028768434881
 30
0.0
 11
3.711856316909662
 21
3.752028768434881
 31
0.0
  0
LINE
  5
3336
330
1E
100
AcDbEntity
  8
7
100
AcDbLine
 10
3.540596474389976
 20
3.49218624874984
 30
0.0
 11
3.711856316909662
 21
3.49218624874984
 31
0.0
  0
LINE
  5
3337
330
1E
100
AcDbEntity
  8
7
100
AcDbLine
 10
3.540596474389976
 20
3.49218624874984
 30
0.0
 11
3.540596474389976
 21
3.472501209379762
 31
0.0
  0
LINE
  5
3338
330
1E
100
AcDbEntity
  8
7
100
AcDbLine
 10
3.540596474389976
 20
3.472501209379762
 30
0.0
 11
3.711856316909662
 21
3.472501209379762
 31
0.0
  0
LINE
  5
3339
330
1E
100
AcDbEntity
  8
7
100
AcDbLine
 10
3.711856316909662
 20
3.49218624874984
 30
0.0
 11
3.711856316909662
 21
3.472501209379762
 31
0.0
  0
LINE
  5
333A
330
1E
100
AcDbEntity
  8
7
100
AcDbLine
 10
3.540596474389976
 20
3.771713807804959
 30
0.0
 11
3.711856316909662
 21
3.771713807804959
 31
0.0
  0
LINE
  5
333B
330
1E
100
AcDbEntity
  8
7
100
AcDbLine
 10
3.715793324783676
 20
3.389824044025431
 30
0.0
 11
3.711856316909662
 21
3.472501209379762
 31
0.0
  0
LINE
  5
333C
330
1E
100
AcDbEntity
  8
7
100
AcDbLine
 10
3.540596474389976
 20
3.472501209379762
 30
0.0
 11
3.53665946651596
 21
3.389824044025431
 31
0.0
  0
LINE
  5
333D
330
1E
100
AcDbEntity
  8
7
100
AcDbLine
 10
3.711856316909662
 20
3.49218624874984
 30
0.0
 11
3.715793324783676
 21
3.496123256623857
 31
0.0
  0
LINE
  5
333E
330
1E
100
AcDbEntity
  8
7
100
AcDbLine
 10
3.540596474389976
 20
3.49218624874984
 30
0.0
 11
3.53665946651596
 21
3.496123256623857
 31
0.0
  0
LINE
  5
3349
330
1E
100
AcDbEntity
  8
7
100
AcDbLine
 10
3.499257891712812
 20
3.500060264497871
 30
0.0
 11
3.499257891712812
 21
3.744154752686849
 31
0.0
  0
LINE
  5
334A
330
1E
100
AcDbEntity
  8
7
100
AcDbLine
 10
3.495320883838795
 20
3.746123256623857
 30
0.0
 11
3.499257891712812
 21
3.744154752686849
 31
0.0
  0
LINE
  5
334B
330
1E
100
AcDbEntity
  8
7
100
AcDbLine
 10
3.495320883838795
 20
3.496123256623857
 30
0.0
 11
3.499257891712812
 21
3.500060264497871
 31
0.0
  0
LINE
  5
3359
330
1E
100
AcDbEntity
  8
7
100
AcDbLine
 10
3.680360253917536
 20
3.505965776308896
 30
0.0
 11
3.680360253917536
 21
3.736280736938818
 31
0.0
  0
LINE
  5
335A
330
1E
100
AcDbEntity
  8
7
100
AcDbLine
 10
3.57406104131911
 20
3.736280736938818
 30
0.0
 11
3.680360253917536
 21
3.736280736938818
 31
0.0
  0
LINE
  5
335B
330
1E
100
AcDbEntity
  8
7
100
AcDbLine
 10
3.57406104131911
 20
3.505965776308896
 30
0.0
 11
3.680360253917536
 21
3.505965776308896
 31
0.0
  0
LINE
  5
3369
330
1E
100
AcDbEntity
  8
7
100
AcDbLine
 10
3.759100411397851
 20
3.746123256623857
 30
0.0
 11
3.755163403523834
 21
3.744154752686849
 31
0.0
  0
LINE
  5
336A
330
1E
100
AcDbEntity
  8
7
100
AcDbLine
 10
3.759100411397851
 20
3.496123256623857
 30
0.0
 11
3.755163403523834
 21
3.500060264497871
 31
0.0
  0
LINE
  5
3375
330
1E
100
AcDbEntity
  8
7
100
AcDbLine
 10
3.57406104131911
 20
3.74218624874984
 30
0.0
 11
3.680360253917536
 21
3.74218624874984
 31
0.0
  0
LINE
  5
3376
330
1E
100
AcDbEntity
  8
7
100
AcDbLine
 10
3.680360253917536
 20
3.502028768434881
 30
0.0
 11
3.57406104131911
 21
3.502028768434881
 31
0.0
  0
LINE
  5
337D
330
1E
100
AcDbEntity
  8
7
100
AcDbLine
 10
1.308313009823048
 20
4.464627193631731
 30
0.0
 11
1.320124033445095
 21
4.350453965285273
 31
0.0
  0
LINE
  5
3385
330
1E
100
AcDbEntity
  8
7
100
AcDbLine
 10
1.320124033445095
 20
4.350453965285273
 30
0.0
 11
1.357525608248245
 21
4.350453965285273
 31
0.0
  0
LINE
  5
338C
330
1E
100
AcDbEntity
  8
7
100
AcDbLine
 10
1.320124033445095
 20
2.942973650324644
 30
0.0
 11
1.320124033445095
 21
2.923288610954566
 31
0.0
  0
LINE
  5
338D
330
1E
100
AcDbEntity
  8
7
100
AcDbLine
 10
1.357525608248245
 20
2.923288610954566
 30
0.0
 11
1.357525608248245
 21
2.942973650324644
 31
0.0
  0
LINE
  5
3398
330
1E
100
AcDbEntity
  8
7
100
AcDbLine
 10
1.357525608248245
 20
4.320926406230157
 30
0.0
 11
1.320124033445095
 21
4.320926406230157
 31
0.0
  0
LINE
  5
3399
330
1E
100
AcDbEntity
  8
7
100
AcDbLine
 10
1.320124033445095
 20
2.923288610954566
 30
0.0
 11
1.357525608248245
 21
2.923288610954566
 31
0.0
  0
LINE
  5
339A
330
1E
100
AcDbEntity
  8
7
100
AcDbLine
 10
-2.292080690964352
 20
8.145729555836455
 30
0.0
 11
-2.292080690964352
 21
8.135887036151416
 31
0.0
  0
LINE
  5
33B3
330
1E
100
AcDbEntity
  8
7
100
AcDbLine
 10
-2.317671242145455
 20
7.998091760560864
 30
0.0
 11
-1.087356281515534
 21
7.998091760560864
 31
0.0
  0
LINE
  5
33B4
330
1E
100
AcDbEntity
  8
7
100
AcDbLine
 10
-1.075545257893486
 20
7.356359477096297
 30
0.0
 11
-1.087356281515534
 21
7.998091760560864
 31
0.0
  0
LINE
  5
33CB
330
1E
100
AcDbEntity
  8
7
100
AcDbLine
 10
-2.675938958680887
 20
7.063052390482123
 30
0.0
 11
-2.614915336633644
 21
7.935099634576612
 31
0.0
  0
LINE
  5
33D1
330
1E
100
AcDbEntity
  8
7
100
AcDbLine
 10
-2.327513761830495
 20
7.356359477096297
 30
0.0
 11
-2.431844470491911
 21
7.356359477096297
 31
0.0
  0
LINE
  5
33D2
330
1E
100
AcDbEntity
  8
7
100
AcDbLine
 10
-2.327513761830495
 20
7.356359477096297
 30
0.0
 11
-2.317671242145455
 21
7.998091760560864
 31
0.0
  0
LINE
  5
33D3
330
1E
100
AcDbEntity
  8
7
100
AcDbLine
 10
-0.9712145492320694
 20
7.356359477096297
 30
0.0
 11
-1.075545257893486
 21
7.356359477096297
 31
0.0
  0
LINE
  5
33D4
330
1E
100
AcDbEntity
  8
7
100
AcDbLine
 10
-0.9672775413580545
 20
7.063052390482123
 30
0.0
 11
-0.9712145492320694
 21
7.356359477096297
 31
0.0
  0
LINE
  5
33D5
330
1E
100
AcDbEntity
  8
7
100
AcDbLine
 10
-0.9672775413580545
 20
7.063052390482123
 30
0.0
 11
-0.7271200610430935
 21
7.063052390482123
 31
0.0
  0
LINE
  5
3400
330
1E
100
AcDbEntity
  8
7
100
AcDbLine
 10
-2.246805100413172
 20
7.063052390482123
 30
0.0
 11
-2.412159431121833
 21
7.063052390482123
 31
0.0
  0
LINE
  5
3401
330
1E
100
AcDbEntity
  8
7
100
AcDbLine
 10
-2.412159431121833
 20
7.063052390482123
 30
0.0
 11
-2.437749982302936
 21
7.063052390482123
 31
0.0
  0
LINE
  5
3402
330
1E
100
AcDbEntity
  8
7
100
AcDbLine
 10
-0.9928680925391564
 20
7.063052390482123
 30
0.0
 11
-1.012553131909235
 21
7.356359477096297
 31
0.0
  0
LINE
  5
3409
330
1E
100
AcDbEntity
  8
7
100
AcDbLine
 10
-2.390505887814747
 20
7.356359477096297
 30
0.0
 11
-2.412159431121833
 21
7.063052390482123
 31
0.0
  0
LINE
  5
3419
330
1E
100
AcDbEntity
  8
7
100
AcDbLine
 10
-2.014521635846243
 20
7.689036642450629
 30
0.0
 11
-1.890505887814747
 21
7.689036642450629
 31
0.0
  0
LINE
  5
342C
330
1E
100
AcDbEntity
  8
7
100
AcDbLine
 10
-1.658222423247817
 20
7.486280736938818
 30
0.0
 11
-1.701529509861991
 21
7.486280736938818
 31
0.0
  0
LINE
  5
343D
330
1E
100
AcDbEntity
  8
7
100
AcDbLine
 10
-2.128694864192699
 20
7.063052390482123
 30
0.0
 11
-2.122789352381675
 21
7.161477587332518
 31
0.0
  0
LINE
  5
344F
330
1E
100
AcDbEntity
  8
7
100
AcDbLine
 10
-1.658222423247817
 20
7.551241366860077
 30
0.0
 11
-1.701529509861991
 21
7.551241366860077
 31
0.0
  0
LINE
  5
345C
330
1E
100
AcDbEntity
  8
7
100
AcDbLine
 10
-1.701529509861991
 20
7.629981524340392
 30
0.0
 11
-1.660190927184824
 21
7.629981524340392
 31
0.0
  0
LINE
  5
3470
330
1E
100
AcDbEntity
  8
7
100
AcDbLine
 10
-2.217277541358054
 20
7.063052390482123
 30
0.0
 11
-2.205466517736006
 21
7.301241366860077
 31
0.0
  0
LINE
  5
348B
330
1E
100
AcDbEntity
  8
7
100
AcDbLine
 10
-1.660190927184824
 20
7.657540579458503
 30
0.0
 11
-1.701529509861991
 21
7.657540579458503
 31
0.0
  0
LINE
  5
34A5
330
1E
100
AcDbEntity
  8
7
100
AcDbLine
 10
-1.701529509861991
 20
7.517776799930944
 30
0.0
 11
-1.658222423247817
 21
7.517776799930944
 31
0.0
  0
LINE
  5
34AE
330
1E
100
AcDbEntity
  8
7
100
AcDbLine
 10
-1.969246045295061
 20
7.500060264497871
 30
0.0
 11
-1.969246045295061
 21
7.486280736938818
 31
0.0
  0
LINE
  5
34CF
330
1E
100
AcDbEntity
  8
7
100
AcDbLine
 10
-1.075545257893486
 20
7.356359477096297
 30
0.0
 11
-1.65625391931081
 21
7.356359477096297
 31
0.0
  0
LINE
  5
34D0
330
1E
100
AcDbEntity
  8
7
100
AcDbLine
 10
-1.666096438995849
 20
7.998091760560864
 30
0.0
 11
-1.65625391931081
 21
7.356359477096297
 31
0.0
  0
LINE
  5
34D1
330
1E
100
AcDbEntity
  8
7
100
AcDbLine
 10
1.020911435019899
 20
8.18706813851362
 30
0.0
 11
0.9382342696655676
 21
8.18706813851362
 31
0.0
  0
LINE
  5
34D2
330
1E
100
AcDbEntity
  8
7
100
AcDbLine
 10
3.074061041319111
 20
8.18706813851362
 30
0.0
 11
1.109494112185252
 21
8.18706813851362
 31
0.0
  0
LINE
  5
34D3
330
1E
100
AcDbEntity
  8
7
100
AcDbLine
 10
1.109494112185252
 20
8.19691065819866
 30
0.0
 11
1.020911435019899
 21
8.19691065819866
 31
0.0
  0
LINE
  5
34D4
330
1E
100
AcDbEntity
  8
7
100
AcDbLine
 10
1.109494112185252
 20
8.18706813851362
 30
0.0
 11
1.109494112185252
 21
8.19691065819866
 31
0.0
  0
LINE
  5
34E7
330
1E
100
AcDbEntity
  8
7
100
AcDbLine
 10
4.198076789350606
 20
7.714627193631731
 30
0.0
 11
4.202013797224621
 21
7.661477587332518
 31
0.0
  0
LINE
  5
34E8
330
1E
100
AcDbEntity
  8
7
100
AcDbLine
 10
4.209887812972652
 20
7.551241366860077
 30
0.0
 11
4.217761828720684
 21
7.442973650324644
 31
0.0
  0
LINE
  5
34E9
330
1E
100
AcDbEntity
  8
7
100
AcDbLine
 10
4.225635844468715
 20
7.33470593378921
 30
0.0
 11
4.233509860216747
 21
7.226438217253777
 31
0.0
  0
LINE
  5
34EA
330
1E
100
AcDbEntity
  8
7
100
AcDbLine
 10
4.241383875964778
 20
7.116201996781336
 30
0.0
 11
4.243352379901788
 21
7.063052390482123
 31
0.0
  0
LINE
  5
34EB
330
1E
100
AcDbEntity
  8
3
100
AcDbLine
 10
3.804376001949032
 20
7.507934280245903
 30
0.0
 11
3.808313009823047
 21
7.450847666072675
 31
0.0
  0
LINE
  5
34EC
330
1E
100
AcDbEntity
  8
3
100
AcDbLine
 10
3.814218521634071
 20
7.340611445600234
 30
0.0
 11
3.820124033445095
 21
7.230375225127794
 31
0.0
  0
LINE
  5
34FC
330
1E
100
AcDbEntity
  8
3
100
AcDbLine
 10
3.796501986201
 20
7.543367351112046
 30
0.0
 11
3.804376001949032
 21
7.507934280245903
 31
0.0
  0
LINE
  5
34FD
330
1E
100
AcDbEntity
  8
3
100
AcDbLine
 10
3.597683088563204
 20
7.689036642450629
 30
0.0
 11
3.558313009823047
 21
7.689036642450629
 31
0.0
  0
LINE
  5
3503
330
1E
100
AcDbEntity
  8
3
100
AcDbLine
 10
3.32406104131911
 20
7.689036642450629
 30
0.0
 11
3.284690962578952
 21
7.689036642450629
 31
0.0
  0
LINE
  5
3504
330
1E
100
AcDbEntity
  8
3
100
AcDbLine
 10
3.284690962578952
 20
7.689036642450629
 30
0.0
 11
3.245320883838795
 21
7.689036642450629
 31
0.0
  0
LINE
  5
350A
330
1E
100
AcDbEntity
  8
3
100
AcDbLine
 10
3.011068915334859
 20
7.689036642450629
 30
0.0
 11
2.971698836594701
 21
7.689036642450629
 31
0.0
  0
LINE
  5
3510
330
1E
100
AcDbEntity
  8
3
100
AcDbLine
 10
2.80634450588604
 20
7.610296484970314
 30
0.0
 11
2.83390356100415
 21
7.64179254796244
 31
0.0
  0
LINE
  5
3511
330
1E
100
AcDbEntity
  8
3
100
AcDbLine
 10
2.83390356100415
 20
7.64179254796244
 30
0.0
 11
2.863431120059268
 21
7.657540579458503
 31
0.0
  0
LINE
  5
3517
330
1E
100
AcDbEntity
  8
3
100
AcDbLine
 10
2.763037419271867
 20
7.507934280245903
 30
0.0
 11
2.759100411397851
 21
7.450847666072675
 31
0.0
  0
LINE
  5
3518
330
1E
100
AcDbEntity
  8
3
100
AcDbLine
 10
2.753194899586827
 20
7.340611445600234
 30
0.0
 11
2.749257891712812
 21
7.230375225127794
 31
0.0
  0
LINE
  5
3519
330
1E
100
AcDbEntity
  8
3
100
AcDbLine
 10
2.743352379901788
 20
7.118170500718346
 30
0.0
 11
2.74138387596478
 21
7.094548453474251
 31
0.0
  0
LINE
  5
351A
330
1E
100
AcDbEntity
  8
3
100
AcDbLine
 10
2.74138387596478
 20
7.094548453474251
 30
0.0
 11
2.739415372027773
 21
7.063052390482123
 31
0.0
  0
LINE
  5
3522
330
1E
100
AcDbEntity
  8
7
100
AcDbLine
 10
1.081935057067142
 20
8.19691065819866
 30
0.0
 11
1.081935057067142
 21
8.18706813851362
 31
0.0
  0
LINE
  5
352C
330
1E
100
AcDbEntity
  8
7
100
AcDbLine
 10
1.05634450588604
 20
8.19691065819866
 30
0.0
 11
1.058313009823048
 21
8.19691065819866
 31
0.0
  0
LINE
  5
352D
330
1E
100
AcDbEntity
  8
7
100
AcDbLine
 10
1.074061041319111
 20
8.19691065819866
 30
0.0
 11
1.081935057067142
 21
8.19691065819866
 31
0.0
  0
LINE
  5
352E
330
1E
100
AcDbEntity
  8
7
100
AcDbLine
 10
1.081935057067142
 20
8.18706813851362
 30
0.0
 11
1.081935057067142
 21
8.189036642450629
 31
0.0
  0
LINE
  5
352F
330
1E
100
AcDbEntity
  8
7
100
AcDbLine
 10
1.081935057067142
 20
8.194942154261651
 30
0.0
 11
1.081935057067142
 21
8.19691065819866
 31
0.0
  0
LINE
  5
3530
330
1E
100
AcDbEntity
  8
7
100
AcDbLine
 10
1.095714584626198
 20
8.19691065819866
 30
0.0
 11
1.095714584626198
 21
8.194942154261651
 31
0.0
  0
LINE
  5
3536
330
1E
100
AcDbEntity
  8
7
100
AcDbLine
 10
1.08390356100415
 20
8.18706813851362
 30
0.0
 11
1.081935057067142
 21
8.18706813851362
 31
0.0
  0
LINE
  5
3547
330
1E
100
AcDbEntity
  8
7
100
AcDbLine
 10
1.095714584626198
 20
8.19691065819866
 30
0.0
 11
1.081935057067142
 21
8.19691065819866
 31
0.0
  0
LINE
  5
3548
330
1E
100
AcDbEntity
  8
7
100
AcDbLine
 10
1.050438994075016
 20
8.147698059773462
 30
0.0
 11
1.050438994075016
 21
8.137855540088423
 31
0.0
  0
LINE
  5
3578
330
1E
100
AcDbEntity
  8
7
100
AcDbLine
 10
0.8594941121852528
 20
7.063052390482123
 30
0.0
 11
0.9205177342324972
 21
7.935099634576612
 31
0.0
  0
LINE
  5
3592
330
1E
100
AcDbEntity
  8
7
100
AcDbLine
 10
3.074061041319111
 20
8.096516957411258
 30
0.0
 11
3.074061041319111
 21
8.120139004655353
 31
0.0
  0
LINE
  5
35C2
330
1E
100
AcDbEntity
  8
7
100
AcDbLine
 10
3.924454742106512
 20
7.980375225127794
 30
0.0
 11
3.826029545256117
 21
8.007934280245903
 31
0.0
  0
LINE
  5
35C3
330
1E
100
AcDbEntity
  8
7
100
AcDbLine
 10
3.727604348405725
 20
8.027619319615983
 30
0.0
 11
3.627210647618323
 21
8.04730435898606
 31
0.0
  0
LINE
  5
35C4
330
1E
100
AcDbEntity
  8
7
100
AcDbLine
 10
3.528785450767928
 20
8.063052390482123
 30
0.0
 11
3.426423246043519
 21
8.074863414104171
 31
0.0
  0
LINE
  5
35CA
330
1E
100
AcDbEntity
  8
7
100
AcDbLine
 10
3.123273639744308
 20
8.094548453474249
 30
0.0
 11
3.074061041319111
 21
8.096516957411258
 31
0.0
  0
LINE
  5
35D4
330
1E
100
AcDbEntity
  8
7
100
AcDbLine
 10
1.841777576752182
 20
7.063052390482123
 30
0.0
 11
4.245320883838795
 21
7.063052390482123
 31
0.0
  0
LINE
  5
35D5
330
1E
100
AcDbEntity
  8
3
100
AcDbLine
 10
2.739415372027773
 20
7.063052390482123
 30
0.0
 11
2.747289387775804
 21
7.063052390482123
 31
0.0
  0
LINE
  5
35D6
330
1E
100
AcDbEntity
  8
3
100
AcDbLine
 10
2.761068915334859
 20
7.063052390482123
 30
0.0
 11
2.76894293108289
 21
7.063052390482123
 31
0.0
  0
LINE
  5
35D7
330
1E
100
AcDbEntity
  8
3
100
AcDbLine
 10
2.76894293108289
 20
7.063052390482123
 30
0.0
 11
2.776816946830922
 21
7.063052390482123
 31
0.0
  0
LINE
  5
35D8
330
1E
100
AcDbEntity
  8
3
100
AcDbLine
 10
2.790596474389977
 20
7.063052390482123
 30
0.0
 11
2.798470490138009
 21
7.063052390482123
 31
0.0
  0
LINE
  5
35D9
330
1E
100
AcDbEntity
  8
3
100
AcDbLine
 10
2.798470490138009
 20
7.063052390482123
 30
0.0
 11
2.812250017697063
 21
7.063052390482123
 31
0.0
  0
LINE
  5
35DA
330
1E
100
AcDbEntity
  8
3
100
AcDbLine
 10
2.841777576752182
 20
7.063052390482123
 30
0.0
 11
2.857525608248245
 21
7.063052390482123
 31
0.0
  0
LINE
  5
35DB
330
1E
100
AcDbEntity
  8
3
100
AcDbLine
 10
2.857525608248245
 20
7.063052390482123
 30
0.0
 11
2.865399623996276
 21
7.063052390482123
 31
0.0
  0
LINE
  5
35DC
330
1E
100
AcDbEntity
  8
3
100
AcDbLine
 10
2.881147655492339
 20
7.063052390482123
 30
0.0
 11
2.889021671240371
 21
7.063052390482123
 31
0.0
  0
LINE
  5
35DD
330
1E
100
AcDbEntity
  8
3
100
AcDbLine
 10
2.889021671240371
 20
7.063052390482123
 30
0.0
 11
2.896895686988402
 21
7.063052390482123
 31
0.0
  0
LINE
  5
35DE
330
1E
100
AcDbEntity
  8
3
100
AcDbLine
 10
2.912643718484465
 20
7.063052390482123
 30
0.0
 11
2.920517734232497
 21
7.063052390482123
 31
0.0
  0
LINE
  5
35DF
330
1E
100
AcDbEntity
  8
3
100
AcDbLine
 10
2.920517734232497
 20
7.063052390482123
 30
0.0
 11
2.965793324783677
 21
7.063052390482123
 31
0.0
  0
LINE
  5
35E0
330
1E
100
AcDbEntity
  8
3
100
AcDbLine
 10
3.05634450588604
 20
7.063052390482123
 30
0.0
 11
3.146895686988402
 21
7.063052390482123
 31
0.0
  0
LINE
  5
35E1
330
1E
100
AcDbEntity
  8
3
100
AcDbLine
 10
3.239415372027771
 20
7.063052390482123
 30
0.0
 11
3.329966553130134
 21
7.063052390482123
 31
0.0
  0
LINE
  5
35E2
330
1E
100
AcDbEntity
  8
3
100
AcDbLine
 10
3.420517734232495
 20
7.063052390482123
 30
0.0
 11
3.511068915334858
 21
7.063052390482123
 31
0.0
  0
LINE
  5
35E3
330
1E
100
AcDbEntity
  8
3
100
AcDbLine
 10
3.601620096437221
 20
7.063052390482123
 30
0.0
 11
3.646895686988401
 21
7.063052390482123
 31
0.0
  0
LINE
  5
35E4
330
1E
100
AcDbEntity
  8
3
100
AcDbLine
 10
3.646895686988401
 20
7.063052390482123
 30
0.0
 11
3.654769702736432
 21
7.063052390482123
 31
0.0
  0
LINE
  5
35E5
330
1E
100
AcDbEntity
  8
3
100
AcDbLine
 10
3.670517734232495
 20
7.063052390482123
 30
0.0
 11
3.678391749980526
 21
7.063052390482123
 31
0.0
  0
LINE
  5
35E6
330
1E
100
AcDbEntity
  8
3
100
AcDbLine
 10
3.709887812972652
 20
7.063052390482123
 30
0.0
 11
3.702013797224621
 21
7.063052390482123
 31
0.0
  0
LINE
  5
35E7
330
1E
100
AcDbEntity
  8
3
100
AcDbLine
 10
3.686265765728558
 20
7.063052390482123
 30
0.0
 11
3.678391749980526
 21
7.063052390482123
 31
0.0
  0
LINE
  5
35E8
330
1E
100
AcDbEntity
  8
3
100
AcDbLine
 10
3.709887812972652
 20
7.063052390482123
 30
0.0
 11
3.725635844468715
 21
7.063052390482123
 31
0.0
  0
LINE
  5
35E9
330
1E
100
AcDbEntity
  8
3
100
AcDbLine
 10
3.755163403523834
 20
7.063052390482123
 30
0.0
 11
3.768942931082889
 21
7.063052390482123
 31
0.0
  0
LINE
  5
35EA
330
1E
100
AcDbEntity
  8
3
100
AcDbLine
 10
3.768942931082889
 20
7.063052390482123
 30
0.0
 11
3.776816946830921
 21
7.063052390482123
 31
0.0
  0
LINE
  5
35EB
330
1E
100
AcDbEntity
  8
3
100
AcDbLine
 10
3.792564978326984
 20
7.063052390482123
 30
0.0
 11
3.798470490138008
 21
7.063052390482123
 31
0.0
  0
LINE
  5
35EC
330
1E
100
AcDbEntity
  8
3
100
AcDbLine
 10
3.827998049193126
 20
7.063052390482123
 30
0.0
 11
3.820124033445095
 21
7.063052390482123
 31
0.0
  0
LINE
  5
35ED
330
1E
100
AcDbEntity
  8
3
100
AcDbLine
 10
3.806344505886039
 20
7.063052390482123
 30
0.0
 11
3.798470490138008
 21
7.063052390482123
 31
0.0
  0
LINE
  5
35F5
330
1E
100
AcDbEntity
  8
7
100
AcDbLine
 10
4.243352379901788
 20
7.063052390482123
 30
0.0
 11
4.241383875964778
 21
7.116201996781336
 31
0.0
  0
LINE
  5
35F6
330
1E
100
AcDbEntity
  8
7
100
AcDbLine
 10
4.233509860216747
 20
7.226438217253777
 30
0.0
 11
4.225635844468715
 21
7.33470593378921
 31
0.0
  0
LINE
  5
35F7
330
1E
100
AcDbEntity
  8
7
100
AcDbLine
 10
4.217761828720684
 20
7.442973650324644
 30
0.0
 11
4.209887812972652
 21
7.551241366860077
 31
0.0
  0
LINE
  5
35F8
330
1E
100
AcDbEntity
  8
7
100
AcDbLine
 10
4.202013797224621
 20
7.661477587332518
 30
0.0
 11
4.198076789350606
 21
7.714627193631731
 31
0.0
  0
LINE
  5
35F9
330
1E
100
AcDbEntity
  8
3
100
AcDbLine
 10
3.284690962578952
 20
7.689036642450629
 30
0.0
 11
3.245320883838795
 21
7.689036642450629
 31
0.0
  0
LINE
  5
35FF
330
1E
100
AcDbEntity
  8
3
100
AcDbLine
 10
3.011068915334859
 20
7.689036642450629
 30
0.0
 11
2.971698836594701
 21
7.689036642450629
 31
0.0
  0
LINE
  5
3600
330
1E
100
AcDbEntity
  8
3
100
AcDbLine
 10
3.597683088563204
 20
7.689036642450629
 30
0.0
 11
3.558313009823047
 21
7.689036642450629
 31
0.0
  0
LINE
  5
3606
330
1E
100
AcDbEntity
  8
3
100
AcDbLine
 10
3.32406104131911
 20
7.689036642450629
 30
0.0
 11
3.284690962578952
 21
7.689036642450629
 31
0.0
  0
LINE
  5
3607
330
1E
100
AcDbEntity
  8
7
100
AcDbLine
 10
0.9205177342324972
 20
7.935099634576612
 30
0.0
 11
0.9697303326576944
 21
7.935099634576612
 31
0.0
  0
LINE
  5
3608
330
1E
100
AcDbEntity
  8
7
100
AcDbLine
 10
1.066187025571079
 20
7.935099634576612
 30
0.0
 11
1.164612222421473
 21
7.935099634576612
 31
0.0
  0
LINE
  5
3609
330
1E
100
AcDbEntity
  8
7
100
AcDbLine
 10
1.263037419271867
 20
7.935099634576612
 30
0.0
 11
1.359494112185252
 21
7.935099634576612
 31
0.0
  0
LINE
  5
360A
330
1E
100
AcDbEntity
  8
7
100
AcDbLine
 10
1.457919309035646
 20
7.935099634576612
 30
0.0
 11
1.55634450588604
 21
7.935099634576612
 31
0.0
  0
LINE
  5
360B
330
1E
100
AcDbEntity
  8
7
100
AcDbLine
 10
1.654769702736434
 20
7.935099634576612
 30
0.0
 11
1.75122639564982
 21
7.935099634576612
 31
0.0
  0
LINE
  5
360C
330
1E
100
AcDbEntity
  8
7
100
AcDbLine
 10
1.849651592500213
 20
7.935099634576612
 30
0.0
 11
1.948076789350607
 21
7.935099634576612
 31
0.0
  0
LINE
  5
360D
330
1E
100
AcDbEntity
  8
7
100
AcDbLine
 10
2.044533482263993
 20
7.935099634576612
 30
0.0
 11
2.142958679114387
 21
7.935099634576612
 31
0.0
  0
LINE
  5
360E
330
1E
100
AcDbEntity
  8
7
100
AcDbLine
 10
2.24138387596478
 20
7.935099634576612
 30
0.0
 11
2.339809072815174
 21
7.935099634576612
 31
0.0
  0
LINE
  5
360F
330
1E
100
AcDbEntity
  8
7
100
AcDbLine
 10
2.43626576572856
 20
7.935099634576612
 30
0.0
 11
2.534690962578953
 21
7.935099634576612
 31
0.0
  0
LINE
  5
3610
330
1E
100
AcDbEntity
  8
7
100
AcDbLine
 10
2.633116159429347
 20
7.935099634576612
 30
0.0
 11
2.729572852342733
 21
7.935099634576612
 31
0.0
  0
LINE
  5
3611
330
1E
100
AcDbEntity
  8
7
100
AcDbLine
 10
2.827998049193126
 20
7.935099634576612
 30
0.0
 11
2.92642324604352
 21
7.935099634576612
 31
0.0
  0
LINE
  5
361C
330
1E
100
AcDbEntity
  8
7
100
AcDbLine
 10
3.408706710610449
 20
7.913446091269525
 30
0.0
 11
3.503194899586826
 21
7.903603571584486
 31
0.0
  0
LINE
  5
361D
330
1E
100
AcDbEntity
  8
7
100
AcDbLine
 10
3.597683088563204
 20
7.887855540088423
 30
0.0
 11
3.692171277539582
 21
7.870139004655353
 31
0.0
  0
LINE
  5
361E
330
1E
100
AcDbEntity
  8
7
100
AcDbLine
 10
3.78665946651596
 20
7.848485461348266
 30
0.0
 11
3.87917915155533
 21
7.824863414104171
 31
0.0
  0
LINE
  5
3629
330
1E
100
AcDbEntity
  8
7
100
AcDbLine
 10
4.209887812972652
 20
7.555178374734092
 30
0.0
 11
4.217761828720684
 21
7.44691065819866
 31
0.0
  0
LINE
  5
362A
330
1E
100
AcDbEntity
  8
7
100
AcDbLine
 10
4.225635844468715
 20
7.336674437726218
 30
0.0
 11
4.233509860216747
 21
7.226438217253777
 31
0.0
  0
LINE
  5
362B
330
1E
100
AcDbEntity
  8
7
100
AcDbLine
 10
4.241383875964778
 20
7.118170500718346
 30
0.0
 11
4.245320883838795
 21
7.063052390482123
 31
0.0
  0
LINE
  5
362C
330
1E
100
AcDbEntity
  8
3
100
AcDbLine
 10
3.284690962578952
 20
7.486280736938818
 30
0.0
 11
3.351620096437221
 21
7.486280736938818
 31
0.0
  0
LINE
  5
3632
330
1E
100
AcDbEntity
  8
3
100
AcDbLine
 10
3.016974427145883
 20
7.486280736938818
 30
0.0
 11
3.08390356100415
 21
7.486280736938818
 31
0.0
  0
LINE
  5
3638
330
1E
100
AcDbEntity
  8
3
100
AcDbLine
 10
3.284690962578952
 20
7.551241366860077
 30
0.0
 11
3.351620096437221
 21
7.551241366860077
 31
0.0
  0
LINE
  5
3639
330
1E
100
AcDbEntity
  8
3
100
AcDbLine
 10
3.483509860216747
 20
7.551241366860077
 30
0.0
 11
3.550438994075015
 21
7.551241366860077
 31
0.0
  0
LINE
  5
363A
330
1E
100
AcDbEntity
  8
3
100
AcDbLine
 10
3.597683088563204
 20
7.629981524340392
 30
0.0
 11
3.558313009823047
 21
7.629981524340392
 31
0.0
  0
LINE
  5
3640
330
1E
100
AcDbEntity
  8
3
100
AcDbLine
 10
3.32406104131911
 20
7.629981524340392
 30
0.0
 11
3.284690962578952
 21
7.629981524340392
 31
0.0
  0
LINE
  5
3641
330
1E
100
AcDbEntity
  8
3
100
AcDbLine
 10
3.284690962578952
 20
7.629981524340392
 30
0.0
 11
3.245320883838795
 21
7.629981524340392
 31
0.0
  0
LINE
  5
3647
330
1E
100
AcDbEntity
  8
3
100
AcDbLine
 10
3.011068915334859
 20
7.629981524340392
 30
0.0
 11
2.971698836594701
 21
7.629981524340392
 31
0.0
  0
LINE
  5
3648
330
1E
100
AcDbEntity
  8
7
100
AcDbLine
 10
4.198076789350606
 20
7.720532705442755
 30
0.0
 11
4.265005923208875
 21
7.714627193631731
 31
0.0
  0
LINE
  5
364F
330
1E
100
AcDbEntity
  8
3
100
AcDbLine
 10
2.971698836594701
 20
7.689036642450629
 30
0.0
 11
2.971698836594701
 21
7.681162626702597
 31
0.0
  0
LINE
  5
3650
330
1E
100
AcDbEntity
  8
3
100
AcDbLine
 10
2.971698836594701
 20
7.665414595206534
 30
0.0
 11
2.971698836594701
 21
7.657540579458503
 31
0.0
  0
LINE
  5
3651
330
1E
100
AcDbEntity
  8
3
100
AcDbLine
 10
3.284690962578952
 20
7.657540579458503
 30
0.0
 11
3.284690962578952
 21
7.665414595206534
 31
0.0
  0
LINE
  5
3652
330
1E
100
AcDbEntity
  8
3
100
AcDbLine
 10
3.284690962578952
 20
7.681162626702597
 30
0.0
 11
3.284690962578952
 21
7.689036642450629
 31
0.0
  0
LINE
  5
3653
330
1E
100
AcDbEntity
  8
3
100
AcDbLine
 10
2.971698836594701
 20
7.657540579458503
 30
0.0
 11
3.011068915334859
 21
7.657540579458503
 31
0.0
  0
LINE
  5
3659
330
1E
100
AcDbEntity
  8
3
100
AcDbLine
 10
3.245320883838795
 20
7.657540579458503
 30
0.0
 11
3.284690962578952
 21
7.657540579458503
 31
0.0
  0
LINE
  5
365A
330
1E
100
AcDbEntity
  8
3
100
AcDbLine
 10
3.597683088563204
 20
7.689036642450629
 30
0.0
 11
3.597683088563204
 21
7.681162626702597
 31
0.0
  0
LINE
  5
365B
330
1E
100
AcDbEntity
  8
3
100
AcDbLine
 10
3.597683088563204
 20
7.665414595206534
 30
0.0
 11
3.597683088563204
 21
7.657540579458503
 31
0.0
  0
LINE
  5
365C
330
1E
100
AcDbEntity
  8
3
100
AcDbLine
 10
3.597683088563204
 20
7.657540579458503
 30
0.0
 11
3.558313009823047
 21
7.657540579458503
 31
0.0
  0
LINE
  5
3662
330
1E
100
AcDbEntity
  8
3
100
AcDbLine
 10
3.32406104131911
 20
7.657540579458503
 30
0.0
 11
3.284690962578952
 21
7.657540579458503
 31
0.0
  0
LINE
  5
3663
330
1E
100
AcDbEntity
  8
3
100
AcDbLine
 10
3.597683088563204
 20
7.629981524340392
 30
0.0
 11
3.597683088563204
 21
7.635887036151416
 31
0.0
  0
LINE
  5
3664
330
1E
100
AcDbEntity
  8
3
100
AcDbLine
 10
3.597683088563204
 20
7.649666563710471
 30
0.0
 11
3.597683088563204
 21
7.657540579458503
 31
0.0
  0
LINE
  5
3665
330
1E
100
AcDbEntity
  8
3
100
AcDbLine
 10
3.284690962578952
 20
7.657540579458503
 30
0.0
 11
3.284690962578952
 21
7.649666563710471
 31
0.0
  0
LINE
  5
3666
330
1E
100
AcDbEntity
  8
3
100
AcDbLine
 10
3.284690962578952
 20
7.635887036151416
 30
0.0
 11
3.284690962578952
 21
7.629981524340392
 31
0.0
  0
LINE
  5
3667
330
1E
100
AcDbEntity
  8
3
100
AcDbLine
 10
2.971698836594701
 20
7.629981524340392
 30
0.0
 11
2.971698836594701
 21
7.635887036151416
 31
0.0
  0
LINE
  5
3668
330
1E
100
AcDbEntity
  8
3
100
AcDbLine
 10
2.971698836594701
 20
7.649666563710471
 30
0.0
 11
2.971698836594701
 21
7.657540579458503
 31
0.0
  0
LINE
  5
3669
330
1E
100
AcDbEntity
  8
3
100
AcDbLine
 10
3.550438994075015
 20
7.517776799930944
 30
0.0
 11
3.550438994075015
 21
7.509902784182912
 31
0.0
  0
LINE
  5
366A
330
1E
100
AcDbEntity
  8
3
100
AcDbLine
 10
3.550438994075015
 20
7.494154752686849
 30
0.0
 11
3.550438994075015
 21
7.486280736938818
 31
0.0
  0
LINE
  5
366B
330
1E
100
AcDbEntity
  8
3
100
AcDbLine
 10
3.284690962578952
 20
7.486280736938818
 30
0.0
 11
3.284690962578952
 21
7.494154752686849
 31
0.0
  0
LINE
  5
366C
330
1E
100
AcDbEntity
  8
3
100
AcDbLine
 10
3.284690962578952
 20
7.509902784182912
 30
0.0
 11
3.284690962578952
 21
7.517776799930944
 31
0.0
  0
LINE
  5
366D
330
1E
100
AcDbEntity
  8
3
100
AcDbLine
 10
3.284690962578952
 20
7.517776799930944
 30
0.0
 11
3.351620096437221
 21
7.517776799930944
 31
0.0
  0
LINE
  5
366E
330
1E
100
AcDbEntity
  8
3
100
AcDbLine
 10
3.483509860216747
 20
7.517776799930944
 30
0.0
 11
3.550438994075015
 21
7.517776799930944
 31
0.0
  0
LINE
  5
366F
330
1E
100
AcDbEntity
  8
3
100
AcDbLine
 10
3.016974427145883
 20
7.517776799930944
 30
0.0
 11
3.016974427145883
 21
7.509902784182912
 31
0.0
  0
LINE
  5
3670
330
1E
100
AcDbEntity
  8
3
100
AcDbLine
 10
3.016974427145883
 20
7.494154752686849
 30
0.0
 11
3.016974427145883
 21
7.486280736938818
 31
0.0
  0
LINE
  5
3671
330
1E
100
AcDbEntity
  8
3
100
AcDbLine
 10
3.284690962578952
 20
7.517776799930944
 30
0.0
 11
3.217761828720684
 21
7.517776799930944
 31
0.0
  0
LINE
  5
3672
330
1E
100
AcDbEntity
  8
3
100
AcDbLine
 10
3.08390356100415
 20
7.517776799930944
 30
0.0
 11
3.016974427145883
 21
7.517776799930944
 31
0.0
  0
LINE
  5
3673
330
1E
100
AcDbEntity
  8
3
100
AcDbLine
 10
3.016974427145883
 20
7.517776799930944
 30
0.0
 11
3.016974427145883
 21
7.525650815678975
 31
0.0
  0
LINE
  5
3674
330
1E
100
AcDbEntity
  8
3
100
AcDbLine
 10
3.016974427145883
 20
7.543367351112046
 30
0.0
 11
3.016974427145883
 21
7.551241366860077
 31
0.0
  0
LINE
  5
3675
330
1E
100
AcDbEntity
  8
3
100
AcDbLine
 10
3.284690962578952
 20
7.551241366860077
 30
0.0
 11
3.284690962578952
 21
7.543367351112046
 31
0.0
  0
LINE
  5
3676
330
1E
100
AcDbEntity
  8
3
100
AcDbLine
 10
3.284690962578952
 20
7.525650815678975
 30
0.0
 11
3.284690962578952
 21
7.517776799930944
 31
0.0
  0
LINE
  5
3677
330
1E
100
AcDbEntity
  8
3
100
AcDbLine
 10
3.550438994075015
 20
7.517776799930944
 30
0.0
 11
3.550438994075015
 21
7.525650815678975
 31
0.0
  0
LINE
  5
3678
330
1E
100
AcDbEntity
  8
3
100
AcDbLine
 10
3.550438994075015
 20
7.543367351112046
 30
0.0
 11
3.550438994075015
 21
7.551241366860077
 31
0.0
  0
LINE
  5
367E
330
1E
100
AcDbEntity
  8
7
100
AcDbLine
 10
2.92642324604352
 20
8.096516957411258
 30
0.0
 11
2.829966553130135
 21
8.096516957411258
 31
0.0
  0
LINE
  5
367F
330
1E
100
AcDbEntity
  8
7
100
AcDbLine
 10
2.73154135627974
 20
8.096516957411258
 30
0.0
 11
2.635084663366355
 21
8.096516957411258
 31
0.0
  0
LINE
  5
3680
330
1E
100
AcDbEntity
  8
7
100
AcDbLine
 10
2.538627970452969
 20
8.096516957411258
 30
0.0
 11
2.440202773602575
 21
8.096516957411258
 31
0.0
  0
LINE
  5
3681
330
1E
100
AcDbEntity
  8
7
100
AcDbLine
 10
2.343746080689189
 20
8.096516957411258
 30
0.0
 11
2.245320883838796
 21
8.096516957411258
 31
0.0
  0
LINE
  5
3682
330
1E
100
AcDbEntity
  8
7
100
AcDbLine
 10
2.14886419092541
 20
8.096516957411258
 30
0.0
 11
2.050438994075016
 21
8.096516957411258
 31
0.0
  0
LINE
  5
3683
330
1E
100
AcDbEntity
  8
7
100
AcDbLine
 10
1.95398230116163
 20
8.096516957411258
 30
0.0
 11
1.855557104311237
 21
8.096516957411258
 31
0.0
  0
LINE
  5
3684
330
1E
100
AcDbEntity
  8
7
100
AcDbLine
 10
1.759100411397851
 20
8.096516957411258
 30
0.0
 11
1.660675214547457
 21
8.096516957411258
 31
0.0
  0
LINE
  5
3685
330
1E
100
AcDbEntity
  8
7
100
AcDbLine
 10
1.564218521634072
 20
8.096516957411258
 30
0.0
 11
1.467761828720686
 21
8.096516957411258
 31
0.0
  0
LINE
  5
3686
330
1E
100
AcDbEntity
  8
7
100
AcDbLine
 10
1.369336631870292
 20
8.096516957411258
 30
0.0
 11
1.272879938956906
 21
8.096516957411258
 31
0.0
  0
LINE
  5
3687
330
1E
100
AcDbEntity
  8
7
100
AcDbLine
 10
1.174454742106513
 20
8.096516957411258
 30
0.0
 11
1.077998049193126
 21
8.096516957411258
 31
0.0
  0
LINE
  5
3688
330
1E
100
AcDbEntity
  8
7
100
AcDbLine
 10
0.9795728523427333
 20
8.096516957411258
 30
0.0
 11
0.9323287578545444
 21
8.096516957411258
 31
0.0
  0
LINE
  5
3689
330
1E
100
AcDbEntity
  8
3
100
AcDbLine
 10
3.550438994075015
 20
7.517776799930944
 30
0.0
 11
3.550438994075015
 21
7.509902784182912
 31
0.0
  0
LINE
  5
368A
330
1E
100
AcDbEntity
  8
3
100
AcDbLine
 10
3.550438994075015
 20
7.494154752686849
 30
0.0
 11
3.550438994075015
 21
7.486280736938818
 31
0.0
  0
LINE
  5
368B
330
1E
100
AcDbEntity
  8
3
100
AcDbLine
 10
3.660675214547456
 20
7.413446091269525
 30
0.0
 11
3.64886419092541
 21
7.452816170009683
 31
0.0
  0
LINE
  5
3691
330
1E
100
AcDbEntity
  8
3
100
AcDbLine
 10
3.62917915155533
 20
7.421320107017557
 30
0.0
 11
3.637053167303362
 21
7.419351603080549
 31
0.0
  0
LINE
  5
3692
330
1E
100
AcDbEntity
  8
3
100
AcDbLine
 10
3.652801198799425
 20
7.415414595206534
 30
0.0
 11
3.660675214547456
 21
7.413446091269525
 31
0.0
  0
LINE
  5
369D
330
1E
100
AcDbEntity
  8
3
100
AcDbLine
 10
3.284690962578952
 20
7.486280736938818
 30
0.0
 11
3.284690962578952
 21
7.494154752686849
 31
0.0
  0
LINE
  5
369E
330
1E
100
AcDbEntity
  8
3
100
AcDbLine
 10
3.284690962578952
 20
7.509902784182912
 30
0.0
 11
3.284690962578952
 21
7.517776799930944
 31
0.0
  0
LINE
  5
369F
330
1E
100
AcDbEntity
  8
3
100
AcDbLine
 10
3.284690962578952
 20
7.517776799930944
 30
0.0
 11
3.351620096437221
 21
7.517776799930944
 31
0.0
  0
LINE
  5
36A0
330
1E
100
AcDbEntity
  8
3
100
AcDbLine
 10
3.483509860216747
 20
7.517776799930944
 30
0.0
 11
3.550438994075015
 21
7.517776799930944
 31
0.0
  0
LINE
  5
36A1
330
1E
100
AcDbEntity
  8
3
100
AcDbLine
 10
3.284690962578952
 20
7.486280736938818
 30
0.0
 11
3.351620096437221
 21
7.486280736938818
 31
0.0
  0
LINE
  5
36A7
330
1E
100
AcDbEntity
  8
3
100
AcDbLine
 10
3.016974427145883
 20
7.517776799930944
 30
0.0
 11
3.016974427145883
 21
7.509902784182912
 31
0.0
  0
LINE
  5
36A8
330
1E
100
AcDbEntity
  8
3
100
AcDbLine
 10
3.016974427145883
 20
7.494154752686849
 30
0.0
 11
3.016974427145883
 21
7.486280736938818
 31
0.0
  0
LINE
  5
36A9
330
1E
100
AcDbEntity
  8
3
100
AcDbLine
 10
3.284690962578952
 20
7.517776799930944
 30
0.0
 11
3.217761828720684
 21
7.517776799930944
 31
0.0
  0
LINE
  5
36AA
330
1E
100
AcDbEntity
  8
3
100
AcDbLine
 10
3.08390356100415
 20
7.517776799930944
 30
0.0
 11
3.016974427145883
 21
7.517776799930944
 31
0.0
  0
LINE
  5
36AB
330
1E
100
AcDbEntity
  8
3
100
AcDbLine
 10
3.016974427145883
 20
7.486280736938818
 30
0.0
 11
3.08390356100415
 21
7.486280736938818
 31
0.0
  0
LINE
  5
36AC
330
1E
100
AcDbEntity
  8
3
100
AcDbLine
 10
3.217761828720684
 20
7.486280736938818
 30
0.0
 11
3.221698836594701
 21
7.486280736938818
 31
0.0
  0
LINE
  5
36AD
330
1E
100
AcDbEntity
  8
3
100
AcDbLine
 10
3.221698836594701
 20
7.486280736938818
 30
0.0
 11
3.284690962578952
 21
7.486280736938818
 31
0.0
  0
LINE
  5
36AE
330
1E
100
AcDbEntity
  8
3
100
AcDbLine
 10
2.940202773602575
 20
7.421320107017557
 30
0.0
 11
2.932328757854544
 21
7.419351603080549
 31
0.0
  0
LINE
  5
36AF
330
1E
100
AcDbEntity
  8
3
100
AcDbLine
 10
2.914612222421473
 20
7.415414595206534
 30
0.0
 11
2.906738206673441
 21
7.413446091269525
 31
0.0
  0
LINE
  5
36B0
330
1E
100
AcDbEntity
  8
3
100
AcDbLine
 10
2.906738206673441
 20
7.413446091269525
 30
0.0
 11
2.918549230295488
 21
7.452816170009683
 31
0.0
  0
LINE
  5
36C0
330
1E
100
AcDbEntity
  8
3
100
AcDbLine
 10
3.597683088563204
 20
7.629981524340392
 30
0.0
 11
3.597683088563204
 21
7.635887036151416
 31
0.0
  0
LINE
  5
36C1
330
1E
100
AcDbEntity
  8
3
100
AcDbLine
 10
3.597683088563204
 20
7.649666563710471
 30
0.0
 11
3.597683088563204
 21
7.657540579458503
 31
0.0
  0
LINE
  5
36CC
330
1E
100
AcDbEntity
  8
3
100
AcDbLine
 10
3.776816946830921
 20
7.486280736938818
 30
0.0
 11
3.768942931082889
 21
7.490217744812833
 31
0.0
  0
LINE
  5
36CD
330
1E
100
AcDbEntity
  8
3
100
AcDbLine
 10
3.755163403523834
 20
7.498091760560864
 30
0.0
 11
3.747289387775802
 21
7.502028768434881
 31
0.0
  0
LINE
  5
36CE
330
1E
100
AcDbEntity
  8
3
100
AcDbLine
 10
3.597683088563204
 20
7.629981524340392
 30
0.0
 11
3.607525608248243
 21
7.629981524340392
 31
0.0
  0
LINE
  5
36CF
330
1E
100
AcDbEntity
  8
3
100
AcDbLine
 10
3.607525608248243
 20
7.629981524340392
 30
0.0
 11
3.650832694862417
 21
7.620139004655353
 31
0.0
  0
LINE
  5
36D5
330
1E
100
AcDbEntity
  8
3
100
AcDbLine
 10
3.597683088563204
 20
7.629981524340392
 30
0.0
 11
3.558313009823047
 21
7.629981524340392
 31
0.0
  0
LINE
  5
36DB
330
1E
100
AcDbEntity
  8
3
100
AcDbLine
 10
3.32406104131911
 20
7.629981524340392
 30
0.0
 11
3.284690962578952
 21
7.629981524340392
 31
0.0
  0
LINE
  5
36DC
330
1E
100
AcDbEntity
  8
3
100
AcDbLine
 10
3.284690962578952
 20
7.657540579458503
 30
0.0
 11
3.284690962578952
 21
7.649666563710471
 31
0.0
  0
LINE
  5
36DD
330
1E
100
AcDbEntity
  8
3
100
AcDbLine
 10
3.284690962578952
 20
7.635887036151416
 30
0.0
 11
3.284690962578952
 21
7.629981524340392
 31
0.0
  0
LINE
  5
36DE
330
1E
100
AcDbEntity
  8
3
100
AcDbLine
 10
2.971698836594701
 20
7.629981524340392
 30
0.0
 11
2.971698836594701
 21
7.635887036151416
 31
0.0
  0
LINE
  5
36DF
330
1E
100
AcDbEntity
  8
3
100
AcDbLine
 10
2.971698836594701
 20
7.649666563710471
 30
0.0
 11
2.971698836594701
 21
7.657540579458503
 31
0.0
  0
LINE
  5
36E0
330
1E
100
AcDbEntity
  8
3
100
AcDbLine
 10
2.971698836594701
 20
7.657540579458503
 30
0.0
 11
3.011068915334859
 21
7.657540579458503
 31
0.0
  0
LINE
  5
36E6
330
1E
100
AcDbEntity
  8
3
100
AcDbLine
 10
3.245320883838795
 20
7.657540579458503
 30
0.0
 11
3.284690962578952
 21
7.657540579458503
 31
0.0
  0
LINE
  5
36E7
330
1E
100
AcDbEntity
  8
3
100
AcDbLine
 10
3.016974427145883
 20
7.517776799930944
 30
0.0
 11
3.016974427145883
 21
7.525650815678975
 31
0.0
  0
LINE
  5
36E8
330
1E
100
AcDbEntity
  8
3
100
AcDbLine
 10
3.016974427145883
 20
7.543367351112046
 30
0.0
 11
3.016974427145883
 21
7.551241366860077
 31
0.0
  0
LINE
  5
36E9
330
1E
100
AcDbEntity
  8
3
100
AcDbLine
 10
2.877210647618324
 20
7.427225618828581
 30
0.0
 11
2.885084663366355
 21
7.423288610954566
 31
0.0
  0
LINE
  5
36EA
330
1E
100
AcDbEntity
  8
3
100
AcDbLine
 10
2.89886419092541
 20
7.417383099143542
 30
0.0
 11
2.906738206673441
 21
7.413446091269525
 31
0.0
  0
LINE
  5
36EB
330
1E
100
AcDbEntity
  8
3
100
AcDbLine
 10
3.016974427145883
 20
7.551241366860077
 30
0.0
 11
2.967761828720686
 21
7.541398847175038
 31
0.0
  0
LINE
  5
36F1
330
1E
100
AcDbEntity
  8
3
100
AcDbLine
 10
3.016974427145883
 20
7.551241366860077
 30
0.0
 11
3.08390356100415
 21
7.551241366860077
 31
0.0
  0
LINE
  5
36F2
330
1E
100
AcDbEntity
  8
3
100
AcDbLine
 10
3.217761828720684
 20
7.551241366860077
 30
0.0
 11
3.284690962578952
 21
7.551241366860077
 31
0.0
  0
LINE
  5
36F3
330
1E
100
AcDbEntity
  8
3
100
AcDbLine
 10
3.284690962578952
 20
7.551241366860077
 30
0.0
 11
3.284690962578952
 21
7.543367351112046
 31
0.0
  0
LINE
  5
36F4
330
1E
100
AcDbEntity
  8
3
100
AcDbLine
 10
3.284690962578952
 20
7.525650815678975
 30
0.0
 11
3.284690962578952
 21
7.517776799930944
 31
0.0
  0
LINE
  5
36F5
330
1E
100
AcDbEntity
  8
3
100
AcDbLine
 10
3.284690962578952
 20
7.551241366860077
 30
0.0
 11
3.351620096437221
 21
7.551241366860077
 31
0.0
  0
LINE
  5
36F6
330
1E
100
AcDbEntity
  8
3
100
AcDbLine
 10
3.483509860216747
 20
7.551241366860077
 30
0.0
 11
3.550438994075015
 21
7.551241366860077
 31
0.0
  0
LINE
  5
36F7
330
1E
100
AcDbEntity
  8
3
100
AcDbLine
 10
3.550438994075015
 20
7.517776799930944
 30
0.0
 11
3.550438994075015
 21
7.525650815678975
 31
0.0
  0
LINE
  5
36F8
330
1E
100
AcDbEntity
  8
3
100
AcDbLine
 10
3.550438994075015
 20
7.543367351112046
 30
0.0
 11
3.550438994075015
 21
7.551241366860077
 31
0.0
  0
LINE
  5
36F9
330
1E
100
AcDbEntity
  8
3
100
AcDbLine
 10
3.692171277539582
 20
7.427225618828581
 30
0.0
 11
3.684297261791551
 21
7.423288610954566
 31
0.0
  0
LINE
  5
36FA
330
1E
100
AcDbEntity
  8
3
100
AcDbLine
 10
3.668549230295488
 20
7.417383099143542
 30
0.0
 11
3.660675214547456
 21
7.413446091269525
 31
0.0
  0
LINE
  5
3705
330
1E
100
AcDbEntity
  8
3
100
AcDbLine
 10
2.790596474389977
 20
7.486280736938818
 30
0.0
 11
2.798470490138009
 21
7.490217744812833
 31
0.0
  0
LINE
  5
3706
330
1E
100
AcDbEntity
  8
3
100
AcDbLine
 10
2.814218521634072
 20
7.498091760560864
 30
0.0
 11
2.822092537382103
 21
7.502028768434881
 31
0.0
  0
LINE
  5
371B
330
1E
100
AcDbEntity
  8
3
100
AcDbLine
 10
2.971698836594701
 20
7.689036642450629
 30
0.0
 11
2.971698836594701
 21
7.681162626702597
 31
0.0
  0
LINE
  5
371C
330
1E
100
AcDbEntity
  8
3
100
AcDbLine
 10
2.971698836594701
 20
7.665414595206534
 30
0.0
 11
2.971698836594701
 21
7.657540579458503
 31
0.0
  0
LINE
  5
371D
330
1E
100
AcDbEntity
  8
3
100
AcDbLine
 10
2.790596474389977
 20
7.486280736938818
 30
0.0
 11
2.784690962578953
 21
7.49218624874984
 31
0.0
  0
LINE
  5
371E
330
1E
100
AcDbEntity
  8
3
100
AcDbLine
 10
2.770911435019899
 20
7.502028768434881
 30
0.0
 11
2.763037419271867
 21
7.507934280245903
 31
0.0
  0
LINE
  5
371F
330
1E
100
AcDbEntity
  8
3
100
AcDbLine
 10
3.284690962578952
 20
7.657540579458503
 30
0.0
 11
3.284690962578952
 21
7.665414595206534
 31
0.0
  0
LINE
  5
3720
330
1E
100
AcDbEntity
  8
3
100
AcDbLine
 10
3.284690962578952
 20
7.681162626702597
 30
0.0
 11
3.284690962578952
 21
7.689036642450629
 31
0.0
  0
LINE
  5
3721
330
1E
100
AcDbEntity
  8
3
100
AcDbLine
 10
3.597683088563204
 20
7.689036642450629
 30
0.0
 11
3.597683088563204
 21
7.681162626702597
 31
0.0
  0
LINE
  5
3722
330
1E
100
AcDbEntity
  8
3
100
AcDbLine
 10
3.597683088563204
 20
7.665414595206534
 30
0.0
 11
3.597683088563204
 21
7.657540579458503
 31
0.0
  0
LINE
  5
3723
330
1E
100
AcDbEntity
  8
3
100
AcDbLine
 10
3.776816946830921
 20
7.486280736938818
 30
0.0
 11
3.784690962578952
 21
7.49218624874984
 31
0.0
  0
LINE
  5
3724
330
1E
100
AcDbEntity
  8
3
100
AcDbLine
 10
3.798470490138008
 20
7.502028768434881
 30
0.0
 11
3.804376001949032
 21
7.507934280245903
 31
0.0
  0
LINE
  5
372A
330
1E
100
AcDbEntity
  8
3
100
AcDbLine
 10
3.798470490138008
 20
7.063052390482123
 30
0.0
 11
3.796501986201
 21
7.116201996781336
 31
0.0
  0
LINE
  5
3730
330
1E
100
AcDbEntity
  8
3
100
AcDbLine
 10
3.778785450767928
 20
7.433131130639605
 30
0.0
 11
3.776816946830921
 21
7.486280736938818
 31
0.0
  0
LINE
  5
3731
330
1E
100
AcDbEntity
  8
3
100
AcDbLine
 10
3.747289387775802
 20
7.502028768434881
 30
0.0
 11
3.749257891712812
 21
7.44691065819866
 31
0.0
  0
LINE
  5
3732
330
1E
100
AcDbEntity
  8
3
100
AcDbLine
 10
3.755163403523834
 20
7.336674437726218
 30
0.0
 11
3.761068915334858
 21
7.226438217253777
 31
0.0
  0
LINE
  5
3738
330
1E
100
AcDbEntity
  8
3
100
AcDbLine
 10
3.678391749980526
 20
7.063052390482123
 30
0.0
 11
3.676423246043519
 21
7.106359477096297
 31
0.0
  0
LINE
  5
373E
330
1E
100
AcDbEntity
  8
3
100
AcDbLine
 10
3.662643718484464
 20
7.370139004655353
 30
0.0
 11
3.660675214547456
 21
7.413446091269525
 31
0.0
  0
LINE
  5
373F
330
1E
100
AcDbEntity
  8
3
100
AcDbLine
 10
3.709887812972652
 20
7.063052390482123
 30
0.0
 11
3.707919309035645
 21
7.108327981033305
 31
0.0
  0
LINE
  5
374A
330
1E
100
AcDbEntity
  8
3
100
AcDbLine
 10
3.62917915155533
 20
7.421320107017557
 30
0.0
 11
3.631147655492338
 21
7.376044516466377
 31
0.0
  0
LINE
  5
3755
330
1E
100
AcDbEntity
  8
3
100
AcDbLine
 10
2.920517734232497
 20
7.063052390482123
 30
0.0
 11
2.922486238169504
 21
7.108327981033305
 31
0.0
  0
LINE
  5
3760
330
1E
100
AcDbEntity
  8
3
100
AcDbLine
 10
2.889021671240371
 20
7.063052390482123
 30
0.0
 11
2.890990175177378
 21
7.106359477096297
 31
0.0
  0
LINE
  5
3766
330
1E
100
AcDbEntity
  8
3
100
AcDbLine
 10
2.904769702736434
 20
7.370139004655353
 30
0.0
 11
2.906738206673441
 21
7.413446091269525
 31
0.0
  0
LINE
  5
3767
330
1E
100
AcDbEntity
  8
3
100
AcDbLine
 10
2.877210647618324
 20
7.427225618828581
 30
0.0
 11
2.873273639744308
 21
7.381950028277399
 31
0.0
  0
LINE
  5
3768
330
1E
100
AcDbEntity
  8
3
100
AcDbLine
 10
2.869336631870292
 20
7.291398847175038
 30
0.0
 11
2.865399623996276
 21
7.226438217253777
 31
0.0
  0
LINE
  5
3769
330
1E
100
AcDbEntity
  8
3
100
AcDbLine
 10
2.865399623996276
 20
7.226438217253777
 30
0.0
 11
2.865399623996276
 21
7.198879162135668
 31
0.0
  0
LINE
  5
376F
330
1E
100
AcDbEntity
  8
3
100
AcDbLine
 10
2.798470490138009
 20
7.063052390482123
 30
0.0
 11
2.800438994075016
 21
7.118170500718346
 31
0.0
  0
LINE
  5
3770
330
1E
100
AcDbEntity
  8
3
100
AcDbLine
 10
2.80634450588604
 20
7.226438217253777
 30
0.0
 11
2.812250017697063
 21
7.336674437726218
 31
0.0
  0
LINE
  5
3776
330
1E
100
AcDbEntity
  8
3
100
AcDbLine
 10
2.76894293108289
 20
7.063052390482123
 30
0.0
 11
2.770911435019899
 21
7.116201996781336
 31
0.0
  0
LINE
  5
377C
330
1E
100
AcDbEntity
  8
3
100
AcDbLine
 10
2.788627970452969
 20
7.433131130639605
 30
0.0
 11
2.790596474389977
 21
7.486280736938818
 31
0.0
  0
LINE
  5
377D
330
1E
100
AcDbEntity
  8
7
100
AcDbLine
 10
1.841777576752182
 20
7.063052390482123
 30
0.0
 11
1.831935057067142
 21
7.194942154261651
 31
0.0
  0
LINE
  5
3787
330
1E
100
AcDbEntity
  8
7
100
AcDbLine
 10
0.8594941121852528
 20
7.063052390482123
 30
0.0
 11
1.579966553130135
 21
7.063052390482123
 31
0.0
  0
LINE
  5
3788
330
1E
100
AcDbEntity
  8
7
100
AcDbLine
 10
4.245320883838795
 20
7.063052390482123
 30
0.0
 11
4.198076789350606
 21
7.720532705442755
 31
0.0
  0
LINE
  5
37A4
330
1E
100
AcDbEntity
  8
7
100
AcDbLine
 10
3.074061041319111
 20
7.929194122765588
 30
0.0
 11
3.074061041319111
 21
7.954784673946692
 31
0.0
  0
LINE
  5
37AC
330
1E
100
AcDbEntity
  8
7
100
AcDbLine
 10
3.074061041319111
 20
7.954784673946692
 30
0.0
 11
3.074061041319111
 21
7.929194122765588
 31
0.0
  0
LINE
  5
37AD
330
1E
100
AcDbEntity
  8
7
100
AcDbLine
 10
3.074061041319111
 20
7.935099634576612
 30
0.0
 11
3.074061041319111
 21
7.97446971331677
 31
0.0
  0
LINE
  5
37B3
330
1E
100
AcDbEntity
  8
7
100
AcDbLine
 10
4.198076789350606
 20
7.720532705442755
 30
0.0
 11
4.213824820846669
 21
7.757934280245903
 31
0.0
  0
LINE
  5
37B9
330
1E
100
AcDbEntity
  8
7
100
AcDbLine
 10
4.463824820846669
 20
7.704784673946692
 30
0.0
 11
4.452013797224621
 21
7.752028768434881
 31
0.0
  0
LINE
  5
37BA
330
1E
100
AcDbEntity
  8
7
100
AcDbLine
 10
4.394927183051393
 20
7.828800421978186
 30
0.0
 11
4.353588600374228
 21
7.856359477096297
 31
0.0
  0
LINE
  5
37D4
330
1E
100
AcDbEntity
  8
7
100
AcDbLine
 10
3.074061041319111
 20
7.935099634576612
 30
0.0
 11
3.074061041319111
 21
7.990217744812833
 31
0.0
  0
LINE
  5
37D5
330
1E
100
AcDbEntity
  8
7
100
AcDbLine
 10
3.074061041319111
 20
7.990217744812833
 30
0.0
 11
3.074061041319111
 21
8.039430343238029
 31
0.0
  0
LINE
  5
37D6
330
1E
100
AcDbEntity
  8
7
100
AcDbLine
 10
3.074061041319111
 20
8.039430343238029
 30
0.0
 11
3.074061041319111
 21
8.074863414104171
 31
0.0
  0
LINE
  5
37D7
330
1E
100
AcDbEntity
  8
7
100
AcDbLine
 10
3.074061041319111
 20
8.074863414104171
 30
0.0
 11
3.074061041319111
 21
8.096516957411258
 31
0.0
  0
LINE
  5
37D8
330
1E
100
AcDbEntity
  8
7
100
AcDbLine
 10
4.198076789350606
 20
7.720532705442755
 30
0.0
 11
4.219730332657693
 21
7.771713807804959
 31
0.0
  0
LINE
  5
37D9
330
1E
100
AcDbEntity
  8
7
100
AcDbLine
 10
4.219730332657693
 20
7.771713807804959
 30
0.0
 11
4.237446868090763
 21
7.81698939835614
 31
0.0
  0
LINE
  5
37DA
330
1E
100
AcDbEntity
  8
7
100
AcDbLine
 10
4.237446868090763
 20
7.81698939835614
 30
0.0
 11
4.253194899586826
 21
7.850453965285273
 31
0.0
  0
LINE
  5
37DB
330
1E
100
AcDbEntity
  8
7
100
AcDbLine
 10
4.253194899586826
 20
7.850453965285273
 30
0.0
 11
4.263037419271865
 21
7.870139004655353
 31
0.0
  0
LINE
  5
37DC
330
1E
100
AcDbEntity
  8
7
100
AcDbLine
 10
4.463824820846669
 20
7.704784673946692
 30
0.0
 11
4.448076789350606
 21
7.767776799930944
 31
0.0
  0
LINE
  5
37DD
330
1E
100
AcDbEntity
  8
7
100
AcDbLine
 10
4.448076789350606
 20
7.767776799930944
 30
0.0
 11
4.408706710610449
 21
7.820926406230155
 31
0.0
  0
LINE
  5
37DE
330
1E
100
AcDbEntity
  8
7
100
AcDbLine
 10
4.408706710610449
 20
7.820926406230155
 30
0.0
 11
4.353588600374228
 21
7.856359477096297
 31
0.0
  0
LINE
  5
37DF
330
1E
100
AcDbEntity
  8
7
100
AcDbLine
 10
4.245320883838795
 20
7.832737429852203
 30
0.0
 11
4.253194899586826
 21
7.850453965285273
 31
0.0
  0
LINE
  5
37E0
330
1E
100
AcDbEntity
  8
7
100
AcDbLine
 10
4.253194899586826
 20
7.850453965285273
 30
0.0
 11
4.263037419271865
 21
7.870139004655353
 31
0.0
  0
LINE
  5
37E1
330
1E
100
AcDbEntity
  8
7
100
AcDbLine
 10
3.074061041319111
 20
8.057146878671101
 30
0.0
 11
3.074061041319111
 21
8.074863414104171
 31
0.0
  0
LINE
  5
37E2
330
1E
100
AcDbEntity
  8
7
100
AcDbLine
 10
3.074061041319111
 20
8.074863414104171
 30
0.0
 11
3.074061041319111
 21
8.096516957411258
 31
0.0
  0
LINE
  5
37E3
330
1E
100
AcDbEntity
  8
7
100
AcDbLine
 10
3.074061041319111
 20
8.003997272371888
 30
0.0
 11
3.074061041319111
 21
8.009902784182912
 31
0.0
  0
LINE
  5
37E4
330
1E
100
AcDbEntity
  8
7
100
AcDbLine
 10
3.074061041319111
 20
8.009902784182912
 30
0.0
 11
3.074061041319111
 21
8.02958782355299
 31
0.0
  0
LINE
  5
37E5
330
1E
100
AcDbEntity
  8
7
100
AcDbLine
 10
3.074061041319111
 20
8.02958782355299
 30
0.0
 11
3.074061041319111
 21
8.009902784182912
 31
0.0
  0
LINE
  5
37E6
330
1E
100
AcDbEntity
  8
7
100
AcDbLine
 10
3.074061041319111
 20
8.009902784182912
 30
0.0
 11
3.074061041319111
 21
8.003997272371888
 31
0.0
  0
LINE
  5
37ED
330
1E
100
AcDbEntity
  8
7
100
AcDbLine
 10
4.463824820846669
 20
7.704784673946692
 30
0.0
 11
4.450045293287614
 21
7.704784673946692
 31
0.0
  0
LINE
  5
37EE
330
1E
100
AcDbEntity
  8
7
100
AcDbLine
 10
4.450045293287614
 20
7.704784673946692
 30
0.0
 11
4.406738206673441
 21
7.704784673946692
 31
0.0
  0
LINE
  5
37EF
330
1E
100
AcDbEntity
  8
7
100
AcDbLine
 10
4.406738206673441
 20
7.704784673946692
 30
0.0
 11
4.34177757675218
 21
7.708721681820707
 31
0.0
  0
LINE
  5
37F0
330
1E
100
AcDbEntity
  8
7
100
AcDbLine
 10
4.34177757675218
 20
7.708721681820707
 30
0.0
 11
4.261068915334858
 21
7.714627193631731
 31
0.0
  0
LINE
  5
37F1
330
1E
100
AcDbEntity
  8
7
100
AcDbLine
 10
4.261068915334858
 20
7.714627193631731
 30
0.0
 11
4.198076789350606
 21
7.720532705442755
 31
0.0
  0
LINE
  5
37F2
330
1E
100
AcDbEntity
  8
7
100
AcDbLine
 10
4.198076789350606
 20
7.720532705442755
 30
0.0
 11
3.981541356279739
 21
7.79730435898606
 31
0.0
  0
LINE
  5
37F3
330
1E
100
AcDbEntity
  8
7
100
AcDbLine
 10
3.981541356279739
 20
7.79730435898606
 30
0.0
 11
3.759100411397851
 21
7.856359477096297
 31
0.0
  0
LINE
  5
37F4
330
1E
100
AcDbEntity
  8
7
100
AcDbLine
 10
3.759100411397851
 20
7.856359477096297
 30
0.0
 11
3.532722458641945
 21
7.899666563710471
 31
0.0
  0
LINE
  5
37F5
330
1E
100
AcDbEntity
  8
7
100
AcDbLine
 10
3.532722458641945
 20
7.899666563710471
 30
0.0
 11
3.304376001949032
 21
7.925257114891573
 31
0.0
  0
LINE
  5
37F6
330
1E
100
AcDbEntity
  8
7
100
AcDbLine
 10
3.304376001949032
 20
7.925257114891573
 30
0.0
 11
3.074061041319111
 21
7.935099634576612
 31
0.0
  0
LINE
  5
37F7
330
1E
100
AcDbEntity
  8
7
100
AcDbLine
 10
3.074061041319111
 20
7.935099634576612
 30
0.0
 11
0.9205177342324972
 21
7.935099634576612
 31
0.0
  0
LINE
  5
37F8
330
1E
100
AcDbEntity
  8
3
100
AcDbLine
 10
2.776816946830922
 20
7.222501209379762
 30
0.0
 11
2.780753954704938
 21
7.301241366860077
 31
0.0
  0
LINE
  5
37F9
330
1E
100
AcDbEntity
  8
3
100
AcDbLine
 10
2.780753954704938
 20
7.301241366860077
 30
0.0
 11
2.782722458641946
 21
7.328800421978186
 31
0.0
  0
LINE
  5
37FA
330
1E
100
AcDbEntity
  8
3
100
AcDbLine
 10
2.818155529508088
 20
7.44691065819866
 30
0.0
 11
2.820124033445095
 21
7.468564201505746
 31
0.0
  0
LINE
  5
37FB
330
1E
100
AcDbEntity
  8
3
100
AcDbLine
 10
2.820124033445095
 20
7.468564201505746
 30
0.0
 11
2.822092537382103
 21
7.502028768434881
 31
0.0
  0
LINE
  5
37FC
330
1E
100
AcDbEntity
  8
3
100
AcDbLine
 10
2.859494112185252
 20
7.108327981033305
 30
0.0
 11
2.859494112185252
 21
7.094548453474251
 31
0.0
  0
LINE
  5
37FD
330
1E
100
AcDbEntity
  8
3
100
AcDbLine
 10
2.859494112185252
 20
7.094548453474251
 30
0.0
 11
2.857525608248245
 21
7.063052390482123
 31
0.0
  0
LINE
  5
37FE
330
1E
100
AcDbEntity
  8
3
100
AcDbLine
 10
2.896895686988402
 20
7.194942154261651
 30
0.0
 11
2.89886419092541
 21
7.259902784182912
 31
0.0
  0
LINE
  5
37FF
330
1E
100
AcDbEntity
  8
3
100
AcDbLine
 10
2.89886419092541
 20
7.259902784182912
 30
0.0
 11
2.900832694862418
 21
7.281556327489997
 31
0.0
  0
LINE
  5
3800
330
1E
100
AcDbEntity
  8
3
100
AcDbLine
 10
2.93626576572856
 20
7.376044516466377
 30
0.0
 11
2.938234269665567
 21
7.387855540088423
 31
0.0
  0
LINE
  5
3801
330
1E
100
AcDbEntity
  8
3
100
AcDbLine
 10
2.938234269665567
 20
7.387855540088423
 30
0.0
 11
2.940202773602575
 21
7.421320107017557
 31
0.0
  0
LINE
  5
3802
330
1E
100
AcDbEntity
  8
3
100
AcDbLine
 10
2.928391749980528
 20
7.19691065819866
 30
0.0
 11
2.930360253917536
 21
7.255965776308896
 31
0.0
  0
LINE
  5
3803
330
1E
100
AcDbEntity
  8
3
100
AcDbLine
 10
2.930360253917536
 20
7.255965776308896
 30
0.0
 11
2.932328757854544
 21
7.287461839301021
 31
0.0
  0
LINE
  5
3804
330
1E
100
AcDbEntity
  8
3
100
AcDbLine
 10
3.644927183051393
 20
7.108327981033305
 30
0.0
 11
3.644927183051393
 21
7.094548453474251
 31
0.0
  0
LINE
  5
3805
330
1E
100
AcDbEntity
  8
3
100
AcDbLine
 10
3.644927183051393
 20
7.094548453474251
 30
0.0
 11
3.646895686988401
 21
7.063052390482123
 31
0.0
  0
LINE
  5
3806
330
1E
100
AcDbEntity
  8
3
100
AcDbLine
 10
3.635084663366354
 20
7.287461839301021
 30
0.0
 11
3.639021671240369
 21
7.226438217253777
 31
0.0
  0
LINE
  5
3807
330
1E
100
AcDbEntity
  8
3
100
AcDbLine
 10
3.639021671240369
 20
7.226438217253777
 30
0.0
 11
3.640990175177378
 21
7.19691065819866
 31
0.0
  0
LINE
  5
3808
330
1E
100
AcDbEntity
  8
3
100
AcDbLine
 10
3.694139781476589
 20
7.381950028277399
 30
0.0
 11
3.694139781476589
 21
7.393761051899447
 31
0.0
  0
LINE
  5
3809
330
1E
100
AcDbEntity
  8
3
100
AcDbLine
 10
3.694139781476589
 20
7.393761051899447
 30
0.0
 11
3.692171277539582
 21
7.427225618828581
 31
0.0
  0
LINE
  5
380A
330
1E
100
AcDbEntity
  8
3
100
AcDbLine
 10
3.70398230116163
 20
7.198879162135668
 30
0.0
 11
3.700045293287614
 21
7.259902784182912
 31
0.0
  0
LINE
  5
380B
330
1E
100
AcDbEntity
  8
3
100
AcDbLine
 10
3.700045293287614
 20
7.259902784182912
 30
0.0
 11
3.698076789350606
 21
7.291398847175038
 31
0.0
  0
LINE
  5
380C
330
1E
100
AcDbEntity
  8
3
100
AcDbLine
 10
3.672486238169504
 20
7.194942154261651
 30
0.0
 11
3.668549230295488
 21
7.259902784182912
 31
0.0
  0
LINE
  5
380D
330
1E
100
AcDbEntity
  8
3
100
AcDbLine
 10
3.668549230295488
 20
7.259902784182912
 30
0.0
 11
3.66658072635848
 21
7.281556327489997
 31
0.0
  0
LINE
  5
380E
330
1E
100
AcDbEntity
  8
3
100
AcDbLine
 10
3.766974427145882
 20
7.118170500718346
 30
0.0
 11
3.768942931082889
 21
7.094548453474251
 31
0.0
  0
LINE
  5
380F
330
1E
100
AcDbEntity
  8
3
100
AcDbLine
 10
3.768942931082889
 20
7.094548453474251
 30
0.0
 11
3.768942931082889
 21
7.063052390482123
 31
0.0
  0
LINE
  5
3810
330
1E
100
AcDbEntity
  8
3
100
AcDbLine
 10
3.790596474389976
 20
7.222501209379762
 30
0.0
 11
3.78665946651596
 21
7.301241366860077
 31
0.0
  0
LINE
  5
3811
330
1E
100
AcDbEntity
  8
3
100
AcDbLine
 10
3.78665946651596
 20
7.301241366860077
 30
0.0
 11
3.784690962578952
 21
7.328800421978186
 31
0.0
  0
LINE
  5
3812
330
1E
100
AcDbEntity
  8
7
100
AcDbLine
 10
1.831935057067142
 20
7.194942154261651
 30
0.0
 11
1.589809072815174
 21
7.194942154261651
 31
0.0
  0
LINE
  5
3813
330
1E
100
AcDbEntity
  8
7
100
AcDbLine
 10
1.589809072815174
 20
7.194942154261651
 30
0.0
 11
1.579966553130135
 21
7.063052390482123
 31
0.0
  0
LINE
  5
3814
330
1E
100
AcDbEntity
  8
3
100
AcDbLine
 10
2.918549230295488
 20
7.620139004655353
 30
0.0
 11
2.952013797224623
 21
7.628013020403384
 31
0.0
  0
LINE
  5
3815
330
1E
100
AcDbEntity
  8
3
100
AcDbLine
 10
2.952013797224623
 20
7.628013020403384
 30
0.0
 11
2.971698836594701
 21
7.629981524340392
 31
0.0
  0
LINE
  5
3816
330
1E
100
AcDbEntity
  8
3
100
AcDbLine
 10
2.822092537382103
 20
7.502028768434881
 30
0.0
 11
2.831935057067142
 21
7.543367351112046
 31
0.0
  0
LINE
  5
3817
330
1E
100
AcDbEntity
  8
3
100
AcDbLine
 10
2.831935057067142
 20
7.543367351112046
 30
0.0
 11
2.837840568878166
 21
7.551241366860077
 31
0.0
  0
LINE
  5
3818
330
1E
100
AcDbEntity
  8
3
100
AcDbLine
 10
2.808313009823048
 20
7.553209870797084
 30
0.0
 11
2.804376001949032
 21
7.545335855049053
 31
0.0
  0
LINE
  5
3819
330
1E
100
AcDbEntity
  8
3
100
AcDbLine
 10
2.804376001949032
 20
7.545335855049053
 30
0.0
 11
2.790596474389977
 21
7.486280736938818
 31
0.0
  0
LINE
  5
381A
330
1E
100
AcDbEntity
  8
3
100
AcDbLine
 10
2.971698836594701
 20
7.657540579458503
 30
0.0
 11
2.920517734232497
 21
7.649666563710471
 31
0.0
  0
LINE
  5
381B
330
1E
100
AcDbEntity
  8
3
100
AcDbLine
 10
2.920517734232497
 20
7.649666563710471
 30
0.0
 11
2.904769702736434
 21
7.643761051899447
 31
0.0
  0
LINE
  5
381C
330
1E
100
AcDbEntity
  8
3
100
AcDbLine
 10
3.601620096437221
 20
7.541398847175038
 30
0.0
 11
3.568155529508086
 21
7.54927286292307
 31
0.0
  0
LINE
  5
381D
330
1E
100
AcDbEntity
  8
3
100
AcDbLine
 10
3.568155529508086
 20
7.54927286292307
 30
0.0
 11
3.550438994075015
 21
7.551241366860077
 31
0.0
  0
LINE
  5
381E
330
1E
100
AcDbEntity
  8
3
100
AcDbLine
 10
3.692171277539582
 20
7.427225618828581
 30
0.0
 11
3.680360253917536
 21
7.468564201505746
 31
0.0
  0
LINE
  5
381F
330
1E
100
AcDbEntity
  8
3
100
AcDbLine
 10
3.680360253917536
 20
7.468564201505746
 30
0.0
 11
3.676423246043519
 21
7.476438217253777
 31
0.0
  0
LINE
  5
3820
330
1E
100
AcDbEntity
  8
3
100
AcDbLine
 10
2.892958679114387
 20
7.476438217253777
 30
0.0
 11
2.879179151555331
 21
7.444942154261651
 31
0.0
  0
LINE
  5
3821
330
1E
100
AcDbEntity
  8
3
100
AcDbLine
 10
2.879179151555331
 20
7.444942154261651
 30
0.0
 11
2.877210647618324
 21
7.427225618828581
 31
0.0
  0
LINE
  5
3822
330
1E
100
AcDbEntity
  8
3
100
AcDbLine
 10
3.087840568878166
 20
7.657540579458503
 30
0.0
 11
3.146895686988402
 21
7.657540579458503
 31
0.0
  0
LINE
  5
3823
330
1E
100
AcDbEntity
  8
3
100
AcDbLine
 10
3.146895686988402
 20
7.657540579458503
 30
0.0
 11
3.166580726358481
 21
7.657540579458503
 31
0.0
  0
LINE
  5
3824
330
1E
100
AcDbEntity
  8
3
100
AcDbLine
 10
3.479572852342732
 20
7.629981524340392
 30
0.0
 11
3.410675214547456
 21
7.629981524340392
 31
0.0
  0
LINE
  5
3825
330
1E
100
AcDbEntity
  8
3
100
AcDbLine
 10
3.410675214547456
 20
7.629981524340392
 30
0.0
 11
3.400832694862417
 21
7.629981524340392
 31
0.0
  0
LINE
  5
3826
330
1E
100
AcDbEntity
  8
3
100
AcDbLine
 10
3.729572852342732
 20
7.553209870797084
 30
0.0
 11
3.743352379901788
 21
7.517776799930944
 31
0.0
  0
LINE
  5
3827
330
1E
100
AcDbEntity
  8
3
100
AcDbLine
 10
3.743352379901788
 20
7.517776799930944
 30
0.0
 11
3.747289387775802
 21
7.502028768434881
 31
0.0
  0
LINE
  5
3828
330
1E
100
AcDbEntity
  8
3
100
AcDbLine
 10
3.759100411397851
 20
7.553209870797084
 30
0.0
 11
3.763037419271865
 21
7.545335855049053
 31
0.0
  0
LINE
  5
3829
330
1E
100
AcDbEntity
  8
3
100
AcDbLine
 10
3.763037419271865
 20
7.545335855049053
 30
0.0
 11
3.776816946830921
 21
7.486280736938818
 31
0.0
  0
LINE
  5
382A
330
1E
100
AcDbEntity
  8
3
100
AcDbLine
 10
3.597683088563204
 20
7.657540579458503
 30
0.0
 11
3.646895686988401
 21
7.649666563710471
 31
0.0
  0
LINE
  5
382B
330
1E
100
AcDbEntity
  8
3
100
AcDbLine
 10
3.646895686988401
 20
7.649666563710471
 30
0.0
 11
3.662643718484464
 21
7.643761051899447
 31
0.0
  0
LINE
  5
382C
330
1E
100
AcDbEntity
  8
3
100
AcDbLine
 10
2.989415372027773
 20
7.482343729064801
 30
0.0
 11
3.007131907460843
 21
7.486280736938818
 31
0.0
  0
LINE
  5
382D
330
1E
100
AcDbEntity
  8
3
100
AcDbLine
 10
3.007131907460843
 20
7.486280736938818
 30
0.0
 11
3.016974427145883
 21
7.486280736938818
 31
0.0
  0
LINE
  5
382E
330
1E
100
AcDbEntity
  8
3
100
AcDbLine
 10
2.940202773602575
 20
7.421320107017557
 30
0.0
 11
2.944139781476591
 21
7.441005146387636
 31
0.0
  0
LINE
  5
382F
330
1E
100
AcDbEntity
  8
3
100
AcDbLine
 10
2.944139781476591
 20
7.441005146387636
 30
0.0
 11
2.948076789350607
 21
7.44691065819866
 31
0.0
  0
LINE
  5
3830
330
1E
100
AcDbEntity
  8
3
100
AcDbLine
 10
2.977604348405725
 20
7.509902784182912
 30
0.0
 11
2.98154135627974
 21
7.51187128811992
 31
0.0
  0
LINE
  5
3831
330
1E
100
AcDbEntity
  8
3
100
AcDbLine
 10
2.98154135627974
 20
7.51187128811992
 30
0.0
 11
3.016974427145883
 21
7.517776799930944
 31
0.0
  0
LINE
  5
3832
330
1E
100
AcDbEntity
  8
3
100
AcDbLine
 10
3.483509860216747
 20
7.486280736938818
 30
0.0
 11
3.487446868090763
 21
7.486280736938818
 31
0.0
  0
LINE
  5
3833
330
1E
100
AcDbEntity
  8
3
100
AcDbLine
 10
3.487446868090763
 20
7.486280736938818
 30
0.0
 11
3.550438994075015
 21
7.486280736938818
 31
0.0
  0
LINE
  5
3834
330
1E
100
AcDbEntity
  8
3
100
AcDbLine
 10
3.621305135807299
 20
7.44691065819866
 30
0.0
 11
3.627210647618323
 21
7.429194122765588
 31
0.0
  0
LINE
  5
3835
330
1E
100
AcDbEntity
  8
3
100
AcDbLine
 10
3.627210647618323
 20
7.429194122765588
 30
0.0
 11
3.62917915155533
 21
7.421320107017557
 31
0.0
  0
LINE
  5
3836
330
1E
100
AcDbEntity
  8
3
100
AcDbLine
 10
3.550438994075015
 20
7.486280736938818
 30
0.0
 11
3.568155529508086
 21
7.486280736938818
 31
0.0
  0
LINE
  5
3837
330
1E
100
AcDbEntity
  8
3
100
AcDbLine
 10
3.568155529508086
 20
7.486280736938818
 30
0.0
 11
3.577998049193126
 21
7.482343729064801
 31
0.0
  0
LINE
  5
3838
330
1E
100
AcDbEntity
  8
3
100
AcDbLine
 10
3.59177757675218
 20
7.509902784182912
 30
0.0
 11
3.587840568878165
 21
7.51187128811992
 31
0.0
  0
LINE
  5
3839
330
1E
100
AcDbEntity
  8
3
100
AcDbLine
 10
3.587840568878165
 20
7.51187128811992
 30
0.0
 11
3.550438994075015
 21
7.517776799930944
 31
0.0
  0
LINE
  5
383A
330
1E
100
AcDbEntity
  8
7
100
AcDbLine
 10
0.9323287578545444
 20
8.096516957411258
 30
0.0
 11
3.074061041319111
 21
8.096516957411258
 31
0.0
  0
LINE
  5
383B
330
1E
100
AcDbEntity
  8
7
100
AcDbLine
 10
3.074061041319111
 20
8.096516957411258
 30
0.0
 11
3.024848442893914
 21
8.096516957411258
 31
0.0
  0
LINE
  5
383C
330
1E
100
AcDbEntity
  8
3
100
AcDbLine
 10
3.479572852342732
 20
7.657540579458503
 30
0.0
 11
3.422486238169504
 21
7.657540579458503
 31
0.0
  0
LINE
  5
383D
330
1E
100
AcDbEntity
  8
3
100
AcDbLine
 10
3.422486238169504
 20
7.657540579458503
 30
0.0
 11
3.400832694862417
 21
7.657540579458503
 31
0.0
  0
LINE
  5
383E
330
1E
100
AcDbEntity
  8
3
100
AcDbLine
 10
3.087840568878166
 20
7.657540579458503
 30
0.0
 11
3.146895686988402
 21
7.657540579458503
 31
0.0
  0
LINE
  5
383F
330
1E
100
AcDbEntity
  8
3
100
AcDbLine
 10
3.146895686988402
 20
7.657540579458503
 30
0.0
 11
3.166580726358481
 21
7.657540579458503
 31
0.0
  0
LINE
  5
3840
330
1E
100
AcDbEntity
  8
7
100
AcDbLine
 10
4.396895686988401
 20
7.706753177883699
 30
0.0
 11
4.424454742106512
 21
7.704784673946692
 31
0.0
  0
LINE
  5
3841
330
1E
100
AcDbEntity
  8
7
100
AcDbLine
 10
4.424454742106512
 20
7.704784673946692
 30
0.0
 11
4.457919309035645
 21
7.704784673946692
 31
0.0
  0
LINE
  5
3842
330
1E
100
AcDbEntity
  8
7
100
AcDbLine
 10
4.457919309035645
 20
7.704784673946692
 30
0.0
 11
4.463824820846669
 21
7.704784673946692
 31
0.0
  0
LINE
  5
3843
330
1E
100
AcDbEntity
  8
3
100
AcDbLine
 10
3.166580726358481
 20
7.629981524340392
 30
0.0
 11
3.097683088563205
 21
7.629981524340392
 31
0.0
  0
LINE
  5
3844
330
1E
100
AcDbEntity
  8
3
100
AcDbLine
 10
3.097683088563205
 20
7.629981524340392
 30
0.0
 11
3.087840568878166
 21
7.629981524340392
 31
0.0
  0
LINE
  5
3845
330
1E
100
AcDbEntity
  8
3
100
AcDbLine
 10
3.479572852342732
 20
7.629981524340392
 30
0.0
 11
3.410675214547456
 21
7.629981524340392
 31
0.0
  0
LINE
  5
3846
330
1E
100
AcDbEntity
  8
3
100
AcDbLine
 10
3.410675214547456
 20
7.629981524340392
 30
0.0
 11
3.400832694862417
 21
7.629981524340392
 31
0.0
  0
LINE
  5
3847
330
1E
100
AcDbEntity
  8
3
100
AcDbLine
 10
3.217761828720684
 20
7.486280736938818
 30
0.0
 11
3.221698836594701
 21
7.486280736938818
 31
0.0
  0
LINE
  5
3848
330
1E
100
AcDbEntity
  8
3
100
AcDbLine
 10
3.221698836594701
 20
7.486280736938818
 30
0.0
 11
3.284690962578952
 21
7.486280736938818
 31
0.0
  0
LINE
  5
3849
330
1E
100
AcDbEntity
  8
3
100
AcDbLine
 10
3.483509860216747
 20
7.486280736938818
 30
0.0
 11
3.487446868090763
 21
7.486280736938818
 31
0.0
  0
LINE
  5
384A
330
1E
100
AcDbEntity
  8
3
100
AcDbLine
 10
3.487446868090763
 20
7.486280736938818
 30
0.0
 11
3.550438994075015
 21
7.486280736938818
 31
0.0
  0
LINE
  5
384B
330
1E
100
AcDbEntity
  8
7
100
AcDbLine
 10
4.152801198799425
 20
7.736280736938818
 30
0.0
 11
4.198076789350606
 21
7.720532705442755
 31
0.0
  0
LINE
  5
384C
330
1E
100
AcDbEntity
  8
7
100
AcDbLine
 10
4.198076789350606
 20
7.720532705442755
 30
0.0
 11
4.202013797224621
 21
7.665414595206534
 31
0.0
  0
LINE
  5
384D
330
1E
100
AcDbEntity
  8
7
100
AcDbLine
 10
3.971698836594701
 20
7.79927286292307
 30
0.0
 11
3.981541356279739
 21
7.79730435898606
 31
0.0
  0
LINE
  5
384E
330
1E
100
AcDbEntity
  8
7
100
AcDbLine
 10
3.981541356279739
 20
7.79730435898606
 30
0.0
 11
4.062250017697063
 21
7.767776799930944
 31
0.0
  0
LINE
  5
384F
330
1E
100
AcDbEntity
  8
7
100
AcDbLine
 10
3.217761828720684
 20
7.929194122765588
 30
0.0
 11
3.304376001949032
 21
7.925257114891573
 31
0.0
  0
LINE
  5
3850
330
1E
100
AcDbEntity
  8
7
100
AcDbLine
 10
3.304376001949032
 20
7.925257114891573
 30
0.0
 11
3.312250017697063
 21
7.925257114891573
 31
0.0
  0
LINE
  5
3851
330
1E
100
AcDbEntity
  8
7
100
AcDbLine
 10
3.024848442893914
 20
7.935099634576612
 30
0.0
 11
3.074061041319111
 21
7.935099634576612
 31
0.0
  0
LINE
  5
3852
330
1E
100
AcDbEntity
  8
7
100
AcDbLine
 10
3.074061041319111
 20
7.935099634576612
 30
0.0
 11
3.1213051358073
 21
7.933131130639605
 31
0.0
  0
LINE
  5
3853
330
1E
100
AcDbEntity
  8
3
100
AcDbLine
 10
3.479572852342732
 20
7.689036642450629
 30
0.0
 11
3.473667340531708
 21
7.689036642450629
 31
0.0
  0
LINE
  5
3854
330
1E
100
AcDbEntity
  8
3
100
AcDbLine
 10
3.473667340531708
 20
7.689036642450629
 30
0.0
 11
3.400832694862417
 21
7.689036642450629
 31
0.0
  0
LINE
  5
3855
330
1E
100
AcDbEntity
  8
3
100
AcDbLine
 10
3.166580726358481
 20
7.689036642450629
 30
0.0
 11
3.160675214547457
 21
7.689036642450629
 31
0.0
  0
LINE
  5
3856
330
1E
100
AcDbEntity
  8
3
100
AcDbLine
 10
3.160675214547457
 20
7.689036642450629
 30
0.0
 11
3.087840568878166
 21
7.689036642450629
 31
0.0
  0
LINE
  5
3857
330
1E
100
AcDbEntity
  8
7
100
AcDbLine
 10
4.457919309035645
 20
7.783524831427007
 30
0.0
 11
4.459887812972652
 21
7.775650815678975
 31
0.0
  0
LINE
  5
3858
330
1E
100
AcDbEntity
  8
7
100
AcDbLine
 10
4.459887812972652
 20
7.775650815678975
 30
0.0
 11
4.461856316909662
 21
7.748091760560864
 31
0.0
  0
LINE
  5
3859
330
1E
100
AcDbEntity
  8
7
100
AcDbLine
 10
4.461856316909662
 20
7.748091760560864
 30
0.0
 11
4.463824820846669
 21
7.704784673946692
 31
0.0
  0
LINE
  5
385A
330
1E
100
AcDbEntity
  8
7
100
AcDbLine
 10
4.463824820846669
 20
7.704784673946692
 30
0.0
 11
4.509100411397851
 21
7.063052390482123
 31
0.0
  0
LINE
  5
385B
330
1E
100
AcDbEntity
  8
7
100
AcDbLine
 10
4.509100411397851
 20
7.063052390482123
 30
0.0
 11
4.499257891712812
 21
7.063052390482123
 31
0.0
  0
LINE
  5
385C
330
1E
100
AcDbEntity
  8
7
100
AcDbLine
 10
4.499257891712812
 20
7.063052390482123
 30
0.0
 11
4.473667340531708
 21
7.063052390482123
 31
0.0
  0
LINE
  5
385D
330
1E
100
AcDbEntity
  8
7
100
AcDbLine
 10
4.473667340531708
 20
7.063052390482123
 30
0.0
 11
4.432328757854543
 21
7.063052390482123
 31
0.0
  0
LINE
  5
385E
330
1E
100
AcDbEntity
  8
7
100
AcDbLine
 10
4.432328757854543
 20
7.063052390482123
 30
0.0
 11
4.377210647618323
 21
7.063052390482123
 31
0.0
  0
LINE
  5
385F
330
1E
100
AcDbEntity
  8
7
100
AcDbLine
 10
4.377210647618323
 20
7.063052390482123
 30
0.0
 11
4.312250017697063
 21
7.063052390482123
 31
0.0
  0
LINE
  5
3860
330
1E
100
AcDbEntity
  8
7
100
AcDbLine
 10
4.312250017697063
 20
7.063052390482123
 30
0.0
 11
4.245320883838795
 21
7.063052390482123
 31
0.0
  0
LINE
  5
3861
330
1E
100
AcDbEntity
  8
7
100
AcDbLine
 10
3.326029545256117
 20
8.086674437726218
 30
0.0
 11
3.316187025571078
 21
8.088642941663227
 31
0.0
  0
LINE
  5
3862
330
1E
100
AcDbEntity
  8
7
100
AcDbLine
 10
3.316187025571078
 20
8.088642941663227
 30
0.0
 11
3.225635844468715
 21
8.090611445600234
 31
0.0
  0
LINE
  5
3863
330
1E
100
AcDbEntity
  8
7
100
AcDbLine
 10
4.119336631870291
 20
7.921320107017557
 30
0.0
 11
4.032722458641945
 21
7.950847666072675
 31
0.0
  0
LINE
  5
3864
330
1E
100
AcDbEntity
  8
7
100
AcDbLine
 10
4.032722458641945
 20
7.950847666072675
 30
0.0
 11
4.022879938956906
 21
7.954784673946692
 31
0.0
  0
LINE
  5
3865
330
1E
100
AcDbEntity
  8
7
100
AcDbLine
 10
4.284690962578952
 20
7.862264988907321
 30
0.0
 11
4.268942931082889
 21
7.868170500718346
 31
0.0
  0
LINE
  5
3866
330
1E
100
AcDbEntity
  8
7
100
AcDbLine
 10
4.268942931082889
 20
7.868170500718346
 30
0.0
 11
4.263037419271865
 21
7.870139004655353
 31
0.0
  0
LINE
  5
3867
330
1E
100
AcDbEntity
  8
7
100
AcDbLine
 10
4.263037419271865
 20
7.870139004655353
 30
0.0
 11
4.213824820846669
 21
7.887855540088423
 31
0.0
  0
LINE
  5
3868
330
1E
100
AcDbEntity
  8
7
100
AcDbLine
 10
4.351620096437221
 20
7.876044516466377
 30
0.0
 11
4.353588600374228
 21
7.856359477096297
 31
0.0
  0
LINE
  5
3869
330
1E
100
AcDbEntity
  8
7
100
AcDbLine
 10
4.353588600374228
 20
7.856359477096297
 30
0.0
 11
4.349651592500212
 21
7.850453965285273
 31
0.0
  0
LINE
  5
386A
330
1E
100
AcDbEntity
  8
7
100
AcDbLine
 10
4.349651592500212
 20
7.850453965285273
 30
0.0
 11
4.337840568878165
 21
7.850453965285273
 31
0.0
  0
LINE
  5
386B
330
1E
100
AcDbEntity
  8
7
100
AcDbLine
 10
4.337840568878165
 20
7.850453965285273
 30
0.0
 11
4.331935057067141
 21
7.850453965285273
 31
0.0
  0
LINE
  5
386C
330
1E
100
AcDbEntity
  8
7
100
AcDbLine
 10
4.347683088563204
 20
7.93706813851362
 30
0.0
 11
4.347683088563204
 21
7.929194122765588
 31
0.0
  0
LINE
  5
386D
330
1E
100
AcDbEntity
  8
7
100
AcDbLine
 10
4.347683088563204
 20
7.929194122765588
 30
0.0
 11
4.347683088563204
 21
7.917383099143542
 31
0.0
  0
LINE
  5
386E
330
1E
100
AcDbEntity
  8
7
100
AcDbLine
 10
3.074061041319111
 20
8.177225618828581
 30
0.0
 11
3.074061041319111
 21
8.147698059773462
 31
0.0
  0
LINE
  5
386F
330
1E
100
AcDbEntity
  8
7
100
AcDbLine
 10
3.074061041319111
 20
8.147698059773462
 30
0.0
 11
3.074061041319111
 21
8.096516957411258
 31
0.0
  0
LINE
  5
3870
330
1E
100
AcDbEntity
  8
7
100
AcDbLine
 10
3.074061041319111
 20
8.096516957411258
 30
0.0
 11
3.316187025571078
 21
8.088642941663227
 31
0.0
  0
LINE
  5
3871
330
1E
100
AcDbEntity
  8
7
100
AcDbLine
 10
3.316187025571078
 20
8.088642941663227
 30
0.0
 11
3.558313009823047
 21
8.061083886545116
 31
0.0
  0
LINE
  5
3872
330
1E
100
AcDbEntity
  8
7
100
AcDbLine
 10
3.558313009823047
 20
8.061083886545116
 30
0.0
 11
3.798470490138008
 21
8.015808295993934
 31
0.0
  0
LINE
  5
3873
330
1E
100
AcDbEntity
  8
7
100
AcDbLine
 10
3.798470490138008
 20
8.015808295993934
 30
0.0
 11
4.032722458641945
 21
7.950847666072675
 31
0.0
  0
LINE
  5
3874
330
1E
100
AcDbEntity
  8
7
100
AcDbLine
 10
4.032722458641945
 20
7.950847666072675
 30
0.0
 11
4.263037419271865
 21
7.870139004655353
 31
0.0
  0
LINE
  5
3875
330
1E
100
AcDbEntity
  8
7
100
AcDbLine
 10
4.263037419271865
 20
7.870139004655353
 30
0.0
 11
4.292564978326984
 21
7.860296484970314
 31
0.0
  0
LINE
  5
3876
330
1E
100
AcDbEntity
  8
7
100
AcDbLine
 10
4.292564978326984
 20
7.860296484970314
 30
0.0
 11
4.320124033445095
 21
7.852422469222283
 31
0.0
  0
LINE
  5
3877
330
1E
100
AcDbEntity
  8
7
100
AcDbLine
 10
4.320124033445095
 20
7.852422469222283
 30
0.0
 11
4.339809072815173
 21
7.848485461348266
 31
0.0
  0
LINE
  5
3878
330
1E
100
AcDbEntity
  8
7
100
AcDbLine
 10
4.339809072815173
 20
7.848485461348266
 30
0.0
 11
4.349651592500212
 21
7.850453965285273
 31
0.0
  0
LINE
  5
3879
330
1E
100
AcDbEntity
  8
7
100
AcDbLine
 10
4.349651592500212
 20
7.850453965285273
 30
0.0
 11
4.353588600374228
 21
7.856359477096297
 31
0.0
  0
LINE
  5
387A
330
1E
100
AcDbEntity
  8
7
100
AcDbLine
 10
4.353588600374228
 20
7.856359477096297
 30
0.0
 11
4.349651592500212
 21
7.901635067647479
 31
0.0
  0
LINE
  5
387B
330
1E
100
AcDbEntity
  8
7
100
AcDbLine
 10
4.349651592500212
 20
7.901635067647479
 30
0.0
 11
4.347683088563204
 21
7.929194122765588
 31
0.0
  0
LINE
  5
387C
330
1E
100
AcDbEntity
  8
7
100
AcDbLine
 10
4.347683088563204
 20
7.929194122765588
 30
0.0
 11
4.347683088563204
 21
7.93706813851362
 31
0.0
  0
LINE
  5
387D
330
1E
100
AcDbEntity
  8
7
100
AcDbLine
 10
3.074061041319111
 20
8.165414595206534
 30
0.0
 11
3.074061041319111
 21
8.177225618828581
 31
0.0
  0
LINE
  5
387E
330
1E
100
AcDbEntity
  8
7
100
AcDbLine
 10
3.074061041319111
 20
8.177225618828581
 30
0.0
 11
3.074061041319111
 21
8.18706813851362
 31
0.0
  0
LINE
  5
387F
330
1E
100
AcDbEntity
  8
7
100
AcDbLine
 10
3.074061041319111
 20
8.18706813851362
 30
0.0
 11
3.074061041319111
 21
8.177225618828581
 31
0.0
  0
LINE
  5
3882
330
1E
100
AcDbEntity
  8
7
100
AcDbLine
 10
3.074061041319111
 20
8.02958782355299
 30
0.0
 11
3.074061041319111
 21
8.072894910167164
 31
0.0
  0
LINE
  5
3883
330
1E
100
AcDbEntity
  8
7
100
AcDbLine
 10
3.074061041319111
 20
8.072894910167164
 30
0.0
 11
3.074061041319111
 21
8.02958782355299
 31
0.0
  0
LINE
  5
3884
330
1E
100
AcDbEntity
  8
7
100
AcDbLine
 10
0.9205177342324972
 20
7.935099634576612
 30
0.0
 11
0.924454742106513
 21
7.990217744812833
 31
0.0
  0
LINE
  5
3885
330
1E
100
AcDbEntity
  8
7
100
AcDbLine
 10
0.924454742106513
 20
7.990217744812833
 30
0.0
 11
0.9264232460435204
 21
8.039430343238029
 31
0.0
  0
LINE
  5
3886
330
1E
100
AcDbEntity
  8
7
100
AcDbLine
 10
0.9264232460435204
 20
8.039430343238029
 30
0.0
 11
0.9303602539175361
 21
8.074863414104171
 31
0.0
  0
LINE
  5
3887
330
1E
100
AcDbEntity
  8
7
100
AcDbLine
 10
0.9303602539175361
 20
8.074863414104171
 30
0.0
 11
0.9323287578545444
 21
8.096516957411258
 31
0.0
  0
LINE
  5
3888
330
1E
100
AcDbEntity
  8
7
100
AcDbLine
 10
0.9323287578545444
 20
8.096516957411258
 30
0.0
 11
0.9342972617915519
 21
8.147698059773462
 31
0.0
  0
LINE
  5
3889
330
1E
100
AcDbEntity
  8
7
100
AcDbLine
 10
0.9342972617915519
 20
8.147698059773462
 30
0.0
 11
0.9362657657285602
 21
8.177225618828581
 31
0.0
  0
LINE
  5
388A
330
1E
100
AcDbEntity
  8
7
100
AcDbLine
 10
0.9362657657285602
 20
8.177225618828581
 30
0.0
 11
0.9382342696655676
 21
8.18706813851362
 31
0.0
  0
LINE
  5
388B
330
1E
100
AcDbEntity
  8
7
100
AcDbLine
 10
1.042564978326985
 20
8.145729555836455
 30
0.0
 11
1.044533482263993
 21
8.145729555836455
 31
0.0
  0
LINE
  5
388C
330
1E
100
AcDbEntity
  8
7
100
AcDbLine
 10
1.044533482263993
 20
8.145729555836455
 30
0.0
 11
1.048470490138009
 21
8.145729555836455
 31
0.0
  0
LINE
  5
388D
330
1E
100
AcDbEntity
  8
7
100
AcDbLine
 10
1.048470490138009
 20
8.145729555836455
 30
0.0
 11
1.050438994075016
 21
8.147698059773462
 31
0.0
  0
LINE
  5
388E
330
1E
100
AcDbEntity
  8
7
100
AcDbLine
 10
1.020911435019899
 20
8.147698059773462
 30
0.0
 11
1.022879938956906
 21
8.145729555836455
 31
0.0
  0
LINE
  5
388F
330
1E
100
AcDbEntity
  8
7
100
AcDbLine
 10
1.022879938956906
 20
8.145729555836455
 30
0.0
 11
1.026816946830922
 21
8.145729555836455
 31
0.0
  0
LINE
  5
3890
330
1E
100
AcDbEntity
  8
7
100
AcDbLine
 10
1.020911435019899
 20
8.147698059773462
 30
0.0
 11
1.020911435019899
 21
8.185099634576612
 31
0.0
  0
LINE
  5
3891
330
1E
100
AcDbEntity
  8
7
100
AcDbLine
 10
1.020911435019899
 20
8.185099634576612
 30
0.0
 11
1.020911435019899
 21
8.19691065819866
 31
0.0
  0
LINE
  5
3892
330
1E
100
AcDbEntity
  8
7
100
AcDbLine
 10
1.030753954704938
 20
8.145729555836455
 30
0.0
 11
1.026816946830922
 21
8.145729555836455
 31
0.0
  0
LINE
  5
3893
330
1E
100
AcDbEntity
  8
7
100
AcDbLine
 10
1.026816946830922
 20
8.145729555836455
 30
0.0
 11
1.022879938956906
 21
8.145729555836455
 31
0.0
  0
LINE
  5
3894
330
1E
100
AcDbEntity
  8
7
100
AcDbLine
 10
1.022879938956906
 20
8.145729555836455
 30
0.0
 11
1.020911435019899
 21
8.147698059773462
 31
0.0
  0
LINE
  5
3895
330
1E
100
AcDbEntity
  8
7
100
AcDbLine
 10
1.020911435019899
 20
8.147698059773462
 30
0.0
 11
1.020911435019899
 21
8.137855540088423
 31
0.0
  0
LINE
  5
3896
330
1E
100
AcDbEntity
  8
7
100
AcDbLine
 10
1.050438994075016
 20
8.147698059773462
 30
0.0
 11
1.048470490138009
 21
8.147698059773462
 31
0.0
  0
LINE
  5
3897
330
1E
100
AcDbEntity
  8
7
100
AcDbLine
 10
1.048470490138009
 20
8.147698059773462
 30
0.0
 11
1.046501986201
 21
8.145729555836455
 31
0.0
  0
LINE
  5
3898
330
1E
100
AcDbEntity
  8
7
100
AcDbLine
 10
1.046501986201
 20
8.145729555836455
 30
0.0
 11
1.040596474389977
 21
8.145729555836455
 31
0.0
  0
LINE
  5
3899
330
1E
100
AcDbEntity
  8
7
100
AcDbLine
 10
1.040596474389977
 20
8.145729555836455
 30
0.0
 11
1.036659466515962
 21
8.145729555836455
 31
0.0
  0
LINE
  5
389A
330
1E
100
AcDbEntity
  8
7
100
AcDbLine
 10
1.036659466515962
 20
8.145729555836455
 30
0.0
 11
1.030753954704938
 21
8.145729555836455
 31
0.0
  0
LINE
  5
389B
330
1E
100
AcDbEntity
  8
7
100
AcDbLine
 10
1.050438994075016
 20
8.137855540088423
 30
0.0
 11
1.048470490138009
 21
8.137855540088423
 31
0.0
  0
LINE
  5
389C
330
1E
100
AcDbEntity
  8
7
100
AcDbLine
 10
1.048470490138009
 20
8.137855540088423
 30
0.0
 11
1.046501986201
 21
8.135887036151416
 31
0.0
  0
LINE
  5
389D
330
1E
100
AcDbEntity
  8
7
100
AcDbLine
 10
1.046501986201
 20
8.135887036151416
 30
0.0
 11
1.040596474389977
 21
8.135887036151416
 31
0.0
  0
LINE
  5
389E
330
1E
100
AcDbEntity
  8
7
100
AcDbLine
 10
1.040596474389977
 20
8.135887036151416
 30
0.0
 11
1.036659466515962
 21
8.135887036151416
 31
0.0
  0
LINE
  5
389F
330
1E
100
AcDbEntity
  8
7
100
AcDbLine
 10
1.036659466515962
 20
8.135887036151416
 30
0.0
 11
1.030753954704938
 21
8.135887036151416
 31
0.0
  0
LINE
  5
38A0
330
1E
100
AcDbEntity
  8
7
100
AcDbLine
 10
1.030753954704938
 20
8.135887036151416
 30
0.0
 11
1.026816946830922
 21
8.135887036151416
 31
0.0
  0
LINE
  5
38A1
330
1E
100
AcDbEntity
  8
7
100
AcDbLine
 10
1.026816946830922
 20
8.135887036151416
 30
0.0
 11
1.022879938956906
 21
8.135887036151416
 31
0.0
  0
LINE
  5
38A2
330
1E
100
AcDbEntity
  8
7
100
AcDbLine
 10
1.022879938956906
 20
8.135887036151416
 30
0.0
 11
1.020911435019899
 21
8.137855540088423
 31
0.0
  0
LINE
  5
38A3
330
1E
100
AcDbEntity
  8
7
100
AcDbLine
 10
1.050438994075016
 20
8.147698059773462
 30
0.0
 11
1.050438994075016
 21
8.183131130639605
 31
0.0
  0
LINE
  5
38A4
330
1E
100
AcDbEntity
  8
7
100
AcDbLine
 10
1.050438994075016
 20
8.183131130639605
 30
0.0
 11
1.050438994075016
 21
8.19691065819866
 31
0.0
  0
LINE
  5
38A5
330
1E
100
AcDbEntity
  8
7
100
AcDbLine
 10
1.109494112185252
 20
8.19691065819866
 30
0.0
 11
1.107525608248245
 21
8.19691065819866
 31
0.0
  0
LINE
  5
38A6
330
1E
100
AcDbEntity
  8
7
100
AcDbLine
 10
1.107525608248245
 20
8.19691065819866
 30
0.0
 11
1.105557104311237
 21
8.19691065819866
 31
0.0
  0
LINE
  5
38A7
330
1E
100
AcDbEntity
  8
7
100
AcDbLine
 10
1.105557104311237
 20
8.19691065819866
 30
0.0
 11
1.101620096437221
 21
8.19691065819866
 31
0.0
  0
LINE
  5
38A8
330
1E
100
AcDbEntity
  8
7
100
AcDbLine
 10
1.101620096437221
 20
8.19691065819866
 30
0.0
 11
1.095714584626198
 21
8.19691065819866
 31
0.0
  0
LINE
  5
38A9
330
1E
100
AcDbEntity
  8
7
100
AcDbLine
 10
1.095714584626198
 20
8.19691065819866
 30
0.0
 11
1.095714584626198
 21
8.18706813851362
 31
0.0
  0
LINE
  5
38AA
330
1E
100
AcDbEntity
  8
7
100
AcDbLine
 10
1.095714584626198
 20
8.18706813851362
 30
0.0
 11
1.081935057067142
 21
8.18706813851362
 31
0.0
  0
LINE
  5
38AB
330
1E
100
AcDbEntity
  8
7
100
AcDbLine
 10
1.109494112185252
 20
8.18706813851362
 30
0.0
 11
1.107525608248245
 21
8.18706813851362
 31
0.0
  0
LINE
  5
38AC
330
1E
100
AcDbEntity
  8
7
100
AcDbLine
 10
1.107525608248245
 20
8.18706813851362
 30
0.0
 11
1.105557104311237
 21
8.18706813851362
 31
0.0
  0
LINE
  5
38AD
330
1E
100
AcDbEntity
  8
7
100
AcDbLine
 10
1.105557104311237
 20
8.18706813851362
 30
0.0
 11
1.101620096437221
 21
8.18706813851362
 31
0.0
  0
LINE
  5
38AE
330
1E
100
AcDbEntity
  8
7
100
AcDbLine
 10
1.101620096437221
 20
8.18706813851362
 30
0.0
 11
1.095714584626198
 21
8.18706813851362
 31
0.0
  0
LINE
  5
38AF
330
1E
100
AcDbEntity
  8
7
100
AcDbLine
 10
1.095714584626198
 20
8.189036642450629
 30
0.0
 11
1.095714584626198
 21
8.18706813851362
 31
0.0
  0
LINE
  5
38B0
330
1E
100
AcDbEntity
  8
7
100
AcDbLine
 10
1.095714584626198
 20
8.18706813851362
 30
0.0
 11
1.091777576752182
 21
8.18706813851362
 31
0.0
  0
LINE
  5
38B1
330
1E
100
AcDbEntity
  8
7
100
AcDbLine
 10
1.081935057067142
 20
8.19691065819866
 30
0.0
 11
1.070124033445095
 21
8.19691065819866
 31
0.0
  0
LINE
  5
38B2
330
1E
100
AcDbEntity
  8
7
100
AcDbLine
 10
1.070124033445095
 20
8.19691065819866
 30
0.0
 11
1.062250017697063
 21
8.19691065819866
 31
0.0
  0
LINE
  5
38B3
330
1E
100
AcDbEntity
  8
7
100
AcDbLine
 10
1.062250017697063
 20
8.19691065819866
 30
0.0
 11
1.054376001949032
 21
8.19691065819866
 31
0.0
  0
LINE
  5
38B4
330
1E
100
AcDbEntity
  8
7
100
AcDbLine
 10
1.054376001949032
 20
8.19691065819866
 30
0.0
 11
1.050438994075016
 21
8.19691065819866
 31
0.0
  0
LINE
  5
38B5
330
1E
100
AcDbEntity
  8
7
100
AcDbLine
 10
1.050438994075016
 20
8.19691065819866
 30
0.0
 11
1.052407498012025
 21
8.19691065819866
 31
0.0
  0
LINE
  5
38B6
330
1E
100
AcDbEntity
  8
7
100
AcDbLine
 10
1.052407498012025
 20
8.19691065819866
 30
0.0
 11
1.05634450588604
 21
8.19691065819866
 31
0.0
  0
LINE
  5
38B7
330
1E
100
AcDbEntity
  8
7
100
AcDbLine
 10
1.081935057067142
 20
8.18706813851362
 30
0.0
 11
1.070124033445095
 21
8.18706813851362
 31
0.0
  0
LINE
  5
38B8
330
1E
100
AcDbEntity
  8
7
100
AcDbLine
 10
1.070124033445095
 20
8.18706813851362
 30
0.0
 11
1.062250017697063
 21
8.18706813851362
 31
0.0
  0
LINE
  5
38B9
330
1E
100
AcDbEntity
  8
7
100
AcDbLine
 10
1.062250017697063
 20
8.18706813851362
 30
0.0
 11
1.054376001949032
 21
8.18706813851362
 31
0.0
  0
LINE
  5
38BA
330
1E
100
AcDbEntity
  8
7
100
AcDbLine
 10
1.054376001949032
 20
8.18706813851362
 30
0.0
 11
1.050438994075016
 21
8.18706813851362
 31
0.0
  0
LINE
  5
38BB
330
1E
100
AcDbEntity
  8
3
100
AcDbLine
 10
2.934297261791551
 20
7.683131130639605
 30
0.0
 11
2.961856316909662
 21
7.689036642450629
 31
0.0
  0
LINE
  5
38BC
330
1E
100
AcDbEntity
  8
3
100
AcDbLine
 10
2.961856316909662
 20
7.689036642450629
 30
0.0
 11
2.971698836594701
 21
7.689036642450629
 31
0.0
  0
LINE
  5
38BD
330
1E
100
AcDbEntity
  8
3
100
AcDbLine
 10
2.763037419271867
 20
7.507934280245903
 30
0.0
 11
2.766974427145883
 21
7.531556327489997
 31
0.0
  0
LINE
  5
38BE
330
1E
100
AcDbEntity
  8
3
100
AcDbLine
 10
2.766974427145883
 20
7.531556327489997
 30
0.0
 11
2.770911435019899
 21
7.543367351112046
 31
0.0
  0
LINE
  5
38BF
330
1E
100
AcDbEntity
  8
3
100
AcDbLine
 10
3.166580726358481
 20
7.689036642450629
 30
0.0
 11
3.160675214547457
 21
7.689036642450629
 31
0.0
  0
LINE
  5
38C0
330
1E
100
AcDbEntity
  8
3
100
AcDbLine
 10
3.160675214547457
 20
7.689036642450629
 30
0.0
 11
3.087840568878166
 21
7.689036642450629
 31
0.0
  0
LINE
  5
38C1
330
1E
100
AcDbEntity
  8
3
100
AcDbLine
 10
3.479572852342732
 20
7.689036642450629
 30
0.0
 11
3.473667340531708
 21
7.689036642450629
 31
0.0
  0
LINE
  5
38C2
330
1E
100
AcDbEntity
  8
3
100
AcDbLine
 10
3.473667340531708
 20
7.689036642450629
 30
0.0
 11
3.400832694862417
 21
7.689036642450629
 31
0.0
  0
LINE
  5
38C3
330
1E
100
AcDbEntity
  8
3
100
AcDbLine
 10
3.70398230116163
 20
7.657540579458503
 30
0.0
 11
3.751226395649819
 21
7.626044516466377
 31
0.0
  0
LINE
  5
38C4
330
1E
100
AcDbEntity
  8
3
100
AcDbLine
 10
3.751226395649819
 20
7.626044516466377
 30
0.0
 11
3.761068915334858
 21
7.610296484970314
 31
0.0
  0
LINE
  5
38C5
330
1E
100
AcDbEntity
  8
3
100
AcDbLine
 10
3.597683088563204
 20
7.689036642450629
 30
0.0
 11
3.623273639744306
 21
7.68706813851362
 31
0.0
  0
LINE
  5
38C6
330
1E
100
AcDbEntity
  8
3
100
AcDbLine
 10
3.623273639744306
 20
7.68706813851362
 30
0.0
 11
3.635084663366354
 21
7.683131130639605
 31
0.0
  0
LINE
  5
38C7
330
1E
100
AcDbEntity
  8
3
100
AcDbLine
 10
3.826029545256117
 20
7.118170500718346
 30
0.0
 11
3.826029545256117
 21
7.094548453474251
 31
0.0
  0
LINE
  5
38C8
330
1E
100
AcDbEntity
  8
3
100
AcDbLine
 10
3.826029545256117
 20
7.094548453474251
 30
0.0
 11
3.827998049193126
 21
7.063052390482123
 31
0.0
  0
LINE
  5
38C9
330
1E
100
AcDbEntity
  8
7
100
AcDbLine
 10
4.457919309035645
 20
7.783524831427007
 30
0.0
 11
4.440202773602575
 21
7.848485461348266
 31
0.0
  0
LINE
  5
38CA
330
1E
100
AcDbEntity
  8
7
100
AcDbLine
 10
4.440202773602575
 20
7.848485461348266
 30
0.0
 11
4.402801198799425
 21
7.901635067647479
 31
0.0
  0
LINE
  5
38CB
330
1E
100
AcDbEntity
  8
7
100
AcDbLine
 10
4.402801198799425
 20
7.901635067647479
 30
0.0
 11
4.345714584626197
 21
7.93706813851362
 31
0.0
  0
LINE
  5
38CC
330
1E
100
AcDbEntity
  8
7
100
AcDbLine
 10
3.849651592500212
 20
8.096516957411258
 30
0.0
 11
3.593746080689189
 21
8.147698059773462
 31
0.0
  0
LINE
  5
38CD
330
1E
100
AcDbEntity
  8
7
100
AcDbLine
 10
3.593746080689189
 20
8.147698059773462
 30
0.0
 11
3.333903561004149
 21
8.177225618828581
 31
0.0
  0
LINE
  5
38CE
330
1E
100
AcDbEntity
  8
7
100
AcDbLine
 10
3.333903561004149
 20
8.177225618828581
 30
0.0
 11
3.074061041319111
 21
8.18706813851362
 31
0.0
  0
LINE
  5
38CF
330
1E
100
AcDbEntity
  8
7
100
AcDbLine
 10
4.347683088563204
 20
7.93706813851362
 30
0.0
 11
4.101620096437221
 21
8.027619319615983
 31
0.0
  0
LINE
  5
38D0
330
1E
100
AcDbEntity
  8
7
100
AcDbLine
 10
4.101620096437221
 20
8.027619319615983
 30
0.0
 11
3.849651592500212
 21
8.096516957411258
 31
0.0
  0
LINE
  5
38D1
330
1E
100
AcDbEntity
  8
7
100
AcDbLine
 10
-1.701529509861991
 20
7.551241366860077
 30
0.0
 11
-1.701529509861991
 21
7.531556327489997
 31
0.0
  0
LINE
  5
38D2
330
1E
100
AcDbEntity
  8
7
100
AcDbLine
 10
-1.701529509861991
 20
7.531556327489997
 30
0.0
 11
-1.701529509861991
 21
7.517776799930944
 31
0.0
  0
LINE
  5
38D3
330
1E
100
AcDbEntity
  8
7
100
AcDbLine
 10
-1.969246045295061
 20
7.517776799930944
 30
0.0
 11
-1.969246045295061
 21
7.535493335364014
 31
0.0
  0
LINE
  5
38D4
330
1E
100
AcDbEntity
  8
7
100
AcDbLine
 10
-1.969246045295061
 20
7.535493335364014
 30
0.0
 11
-1.969246045295061
 21
7.551241366860077
 31
0.0
  0
LINE
  5
38D5
330
1E
100
AcDbEntity
  8
7
100
AcDbLine
 10
-2.109009824822621
 20
7.427225618828581
 30
0.0
 11
-2.091293289389549
 21
7.419351603080549
 31
0.0
  0
LINE
  5
38D6
330
1E
100
AcDbEntity
  8
7
100
AcDbLine
 10
-2.091293289389549
 20
7.419351603080549
 30
0.0
 11
-2.079482265767502
 21
7.413446091269525
 31
0.0
  0
LINE
  5
38D7
330
1E
100
AcDbEntity
  8
7
100
AcDbLine
 10
-2.097198801200573
 20
7.063052390482123
 30
0.0
 11
-2.087356281515534
 21
7.259902784182912
 31
0.0
  0
LINE
  5
38D8
330
1E
100
AcDbEntity
  8
7
100
AcDbLine
 10
-2.087356281515534
 20
7.259902784182912
 30
0.0
 11
-2.079482265767502
 21
7.413446091269525
 31
0.0
  0
LINE
  5
38D9
330
1E
100
AcDbEntity
  8
7
100
AcDbLine
 10
-2.046017698838369
 20
7.421320107017557
 30
0.0
 11
-2.063734234271439
 21
7.417383099143542
 31
0.0
  0
LINE
  5
38DA
330
1E
100
AcDbEntity
  8
7
100
AcDbLine
 10
-2.063734234271439
 20
7.417383099143542
 30
0.0
 11
-2.079482265767502
 21
7.413446091269525
 31
0.0
  0
LINE
  5
38DB
330
1E
100
AcDbEntity
  8
7
100
AcDbLine
 10
-2.079482265767502
 20
7.413446091269525
 30
0.0
 11
-2.065702738208447
 21
7.458721681820707
 31
0.0
  0
LINE
  5
38DC
330
1E
100
AcDbEntity
  8
7
100
AcDbLine
 10
-2.065702738208447
 20
7.458721681820707
 30
0.0
 11
-2.036175179153329
 21
7.494154752686849
 31
0.0
  0
LINE
  5
38DD
330
1E
100
AcDbEntity
  8
7
100
AcDbLine
 10
-2.036175179153329
 20
7.494154752686849
 30
0.0
 11
-2.004679116161203
 21
7.51187128811992
 31
0.0
  0
LINE
  5
38DE
330
1E
100
AcDbEntity
  8
7
100
AcDbLine
 10
-2.004679116161203
 20
7.51187128811992
 30
0.0
 11
-1.969246045295061
 21
7.517776799930944
 31
0.0
  0
LINE
  5
38DF
330
1E
100
AcDbEntity
  8
7
100
AcDbLine
 10
-1.701529509861991
 20
7.486280736938818
 30
0.0
 11
-1.701529509861991
 21
7.503997272371888
 31
0.0
  0
LINE
  5
38E0
330
1E
100
AcDbEntity
  8
7
100
AcDbLine
 10
-1.701529509861991
 20
7.503997272371888
 30
0.0
 11
-1.701529509861991
 21
7.517776799930944
 31
0.0
  0
LINE
  5
38E1
330
1E
100
AcDbEntity
  8
7
100
AcDbLine
 10
-1.701529509861991
 20
7.517776799930944
 30
0.0
 11
-1.851135809074589
 21
7.517776799930944
 31
0.0
  0
LINE
  5
38E2
330
1E
100
AcDbEntity
  8
7
100
AcDbLine
 10
-1.851135809074589
 20
7.517776799930944
 30
0.0
 11
-1.969246045295061
 21
7.517776799930944
 31
0.0
  0
LINE
  5
38E3
330
1E
100
AcDbEntity
  8
7
100
AcDbLine
 10
-1.969246045295061
 20
7.517776799930944
 30
0.0
 11
-1.969246045295061
 21
7.500060264497871
 31
0.0
  0
LINE
  5
38E4
330
1E
100
AcDbEntity
  8
7
100
AcDbLine
 10
-1.307828722460415
 20
7.063052390482123
 30
0.0
 11
-1.317671242145455
 21
7.259902784182912
 31
0.0
  0
LINE
  5
38E5
330
1E
100
AcDbEntity
  8
7
100
AcDbLine
 10
-1.317671242145455
 20
7.259902784182912
 30
0.0
 11
-1.321608250019471
 21
7.356359477096297
 31
0.0
  0
LINE
  5
38E6
330
1E
100
AcDbEntity
  8
7
100
AcDbLine
 10
-2.195623998050967
 20
7.486280736938818
 30
0.0
 11
-2.177907462617896
 21
7.496123256623857
 31
0.0
  0
LINE
  5
38E7
330
1E
100
AcDbEntity
  8
7
100
AcDbLine
 10
-2.177907462617896
 20
7.496123256623857
 30
0.0
 11
-2.164127935058841
 21
7.502028768434881
 31
0.0
  0
LINE
  5
38E8
330
1E
100
AcDbEntity
  8
7
100
AcDbLine
 10
-2.014521635846243
 20
7.629981524340392
 30
0.0
 11
-2.014521635846243
 21
7.645729555836455
 31
0.0
  0
LINE
  5
38E9
330
1E
100
AcDbEntity
  8
7
100
AcDbLine
 10
-2.014521635846243
 20
7.645729555836455
 30
0.0
 11
-2.014521635846243
 21
7.657540579458503
 31
0.0
  0
LINE
  5
38EA
330
1E
100
AcDbEntity
  8
7
100
AcDbLine
 10
-1.701529509861991
 20
7.657540579458503
 30
0.0
 11
-1.701529509861991
 21
7.64179254796244
 31
0.0
  0
LINE
  5
38EB
330
1E
100
AcDbEntity
  8
7
100
AcDbLine
 10
-1.701529509861991
 20
7.64179254796244
 30
0.0
 11
-1.701529509861991
 21
7.629981524340392
 31
0.0
  0
LINE
  5
38EC
330
1E
100
AcDbEntity
  8
7
100
AcDbLine
 10
-1.187749982302936
 20
7.063052390482123
 30
0.0
 11
-1.199561005924983
 21
7.301241366860077
 31
0.0
  0
LINE
  5
38ED
330
1E
100
AcDbEntity
  8
7
100
AcDbLine
 10
-1.199561005924983
 20
7.301241366860077
 30
0.0
 11
-1.201529509861991
 21
7.356359477096297
 31
0.0
  0
LINE
  5
38EE
330
1E
100
AcDbEntity
  8
7
100
AcDbLine
 10
-1.701529509861991
 20
7.657540579458503
 30
0.0
 11
-1.701529509861991
 21
7.675257114891573
 31
0.0
  0
LINE
  5
38EF
330
1E
100
AcDbEntity
  8
7
100
AcDbLine
 10
-1.701529509861991
 20
7.675257114891573
 30
0.0
 11
-1.701529509861991
 21
7.689036642450629
 31
0.0
  0
LINE
  5
38F0
330
1E
100
AcDbEntity
  8
7
100
AcDbLine
 10
-2.014521635846243
 20
7.689036642450629
 30
0.0
 11
-2.014521635846243
 21
7.671320107017557
 31
0.0
  0
LINE
  5
38F1
330
1E
100
AcDbEntity
  8
7
100
AcDbLine
 10
-2.014521635846243
 20
7.671320107017557
 30
0.0
 11
-2.014521635846243
 21
7.657540579458503
 31
0.0
  0
LINE
  5
38F2
330
1E
100
AcDbEntity
  8
7
100
AcDbLine
 10
-2.014521635846243
 20
7.657540579458503
 30
0.0
 11
-1.839324785452541
 21
7.657540579458503
 31
0.0
  0
LINE
  5
38F3
330
1E
100
AcDbEntity
  8
7
100
AcDbLine
 10
-1.839324785452541
 20
7.657540579458503
 30
0.0
 11
-1.701529509861991
 21
7.657540579458503
 31
0.0
  0
LINE
  5
38F4
330
1E
100
AcDbEntity
  8
7
100
AcDbLine
 10
-2.014521635846243
 20
7.657540579458503
 30
0.0
 11
-2.065702738208447
 21
7.649666563710471
 31
0.0
  0
LINE
  5
38F5
330
1E
100
AcDbEntity
  8
7
100
AcDbLine
 10
-2.065702738208447
 20
7.649666563710471
 30
0.0
 11
-2.110978328759628
 21
7.629981524340392
 31
0.0
  0
LINE
  5
38F6
330
1E
100
AcDbEntity
  8
7
100
AcDbLine
 10
-2.110978328759628
 20
7.629981524340392
 30
0.0
 11
-2.150348407499786
 21
7.596516957411258
 31
0.0
  0
LINE
  5
38F7
330
1E
100
AcDbEntity
  8
7
100
AcDbLine
 10
-2.150348407499786
 20
7.596516957411258
 30
0.0
 11
-2.181844470491911
 21
7.545335855049053
 31
0.0
  0
LINE
  5
38F8
330
1E
100
AcDbEntity
  8
7
100
AcDbLine
 10
-2.181844470491911
 20
7.545335855049053
 30
0.0
 11
-2.195623998050967
 21
7.486280736938818
 31
0.0
  0
LINE
  5
38F9
330
1E
100
AcDbEntity
  8
7
100
AcDbLine
 10
-2.205466517736006
 20
7.301241366860077
 30
0.0
 11
-2.195623998050967
 21
7.486280736938818
 31
0.0
  0
LINE
  5
38FA
330
1E
100
AcDbEntity
  8
7
100
AcDbLine
 10
-2.195623998050967
 20
7.486280736938818
 30
0.0
 11
-2.21137202954703
 21
7.498091760560864
 31
0.0
  0
LINE
  5
38FB
330
1E
100
AcDbEntity
  8
7
100
AcDbLine
 10
-2.21137202954703
 20
7.498091760560864
 30
0.0
 11
-2.223183053169077
 21
7.507934280245903
 31
0.0
  0
LINE
  5
38FC
330
1E
100
AcDbEntity
  8
7
100
AcDbLine
 10
-2.014521635846243
 20
7.629981524340392
 30
0.0
 11
-2.026332659468289
 21
7.629981524340392
 31
0.0
  0
LINE
  5
38FD
330
1E
100
AcDbEntity
  8
7
100
AcDbLine
 10
-2.026332659468289
 20
7.629981524340392
 30
0.0
 11
-2.075545257893486
 21
7.618170500718346
 31
0.0
  0
LINE
  5
38FE
330
1E
100
AcDbEntity
  8
7
100
AcDbLine
 10
-2.075545257893486
 20
7.618170500718346
 30
0.0
 11
-2.114915336633644
 21
7.594548453474249
 31
0.0
  0
LINE
  5
38FF
330
1E
100
AcDbEntity
  8
7
100
AcDbLine
 10
-2.114915336633644
 20
7.594548453474249
 30
0.0
 11
-2.144442895688762
 21
7.561083886545116
 31
0.0
  0
LINE
  5
3900
330
1E
100
AcDbEntity
  8
7
100
AcDbLine
 10
-2.144442895688762
 20
7.561083886545116
 30
0.0
 11
-2.162159431121833
 21
7.517776799930944
 31
0.0
  0
LINE
  5
3901
330
1E
100
AcDbEntity
  8
7
100
AcDbLine
 10
-2.162159431121833
 20
7.517776799930944
 30
0.0
 11
-2.164127935058841
 21
7.502028768434881
 31
0.0
  0
LINE
  5
3902
330
1E
100
AcDbEntity
  8
7
100
AcDbLine
 10
-2.164127935058841
 20
7.502028768434881
 30
0.0
 11
-2.172001950806873
 21
7.342579949537242
 31
0.0
  0
LINE
  5
3903
330
1E
100
AcDbEntity
  8
7
100
AcDbLine
 10
-2.172001950806873
 20
7.342579949537242
 30
0.0
 11
-2.179875966554904
 21
7.218564201505746
 31
0.0
  0
LINE
  5
3904
330
1E
100
AcDbEntity
  8
7
100
AcDbLine
 10
-2.179875966554904
 20
7.218564201505746
 30
0.0
 11
-2.185781478365928
 21
7.094548453474251
 31
0.0
  0
LINE
  5
3905
330
1E
100
AcDbEntity
  8
7
100
AcDbLine
 10
-2.185781478365928
 20
7.094548453474251
 30
0.0
 11
-2.187749982302936
 21
7.063052390482123
 31
0.0
  0
LINE
  5
3906
330
1E
100
AcDbEntity
  8
7
100
AcDbLine
 10
-2.014521635846243
 20
7.629981524340392
 30
0.0
 11
-1.955466517736006
 21
7.629981524340392
 31
0.0
  0
LINE
  5
3907
330
1E
100
AcDbEntity
  8
7
100
AcDbLine
 10
-1.955466517736006
 20
7.629981524340392
 30
0.0
 11
-1.827513761830495
 21
7.629981524340392
 31
0.0
  0
LINE
  5
3908
330
1E
100
AcDbEntity
  8
7
100
AcDbLine
 10
-1.827513761830495
 20
7.629981524340392
 30
0.0
 11
-1.701529509861991
 21
7.629981524340392
 31
0.0
  0
LINE
  5
3909
330
1E
100
AcDbEntity
  8
7
100
AcDbLine
 10
-1.217277541358054
 20
7.063052390482123
 30
0.0
 11
-1.223183053169077
 21
7.200847666072675
 31
0.0
  0
LINE
  5
390A
330
1E
100
AcDbEntity
  8
7
100
AcDbLine
 10
-1.223183053169077
 20
7.200847666072675
 30
0.0
 11
-1.231057068917109
 21
7.356359477096297
 31
0.0
  0
LINE
  5
390B
330
1E
100
AcDbEntity
  8
7
100
AcDbLine
 10
-1.290112187027345
 20
7.356359477096297
 30
0.0
 11
-1.288143683090337
 21
7.326831918041179
 31
0.0
  0
LINE
  5
390C
330
1E
100
AcDbEntity
  8
7
100
AcDbLine
 10
-1.288143683090337
 20
7.326831918041179
 30
0.0
 11
-1.284206675216321
 21
7.226438217253777
 31
0.0
  0
LINE
  5
390D
330
1E
100
AcDbEntity
  8
7
100
AcDbLine
 10
-1.284206675216321
 20
7.226438217253777
 30
0.0
 11
-1.276332659468289
 21
7.094548453474251
 31
0.0
  0
LINE
  5
390E
330
1E
100
AcDbEntity
  8
7
100
AcDbLine
 10
-1.276332659468289
 20
7.094548453474251
 30
0.0
 11
-1.274364155531282
 21
7.063052390482123
 31
0.0
  0
LINE
  5
390F
330
1E
100
AcDbEntity
  8
7
100
AcDbLine
 10
-1.701529509861991
 20
7.551241366860077
 30
0.0
 11
-1.770427147657266
 21
7.551241366860077
 31
0.0
  0
LINE
  5
3910
330
1E
100
AcDbEntity
  8
7
100
AcDbLine
 10
-1.770427147657266
 20
7.551241366860077
 30
0.0
 11
-1.839324785452541
 21
7.551241366860077
 31
0.0
  0
LINE
  5
3911
330
1E
100
AcDbEntity
  8
7
100
AcDbLine
 10
-1.839324785452541
 20
7.551241366860077
 30
0.0
 11
-1.969246045295061
 21
7.551241366860077
 31
0.0
  0
LINE
  5
3912
330
1E
100
AcDbEntity
  8
7
100
AcDbLine
 10
-2.122789352381675
 20
7.161477587332518
 30
0.0
 11
-2.11885234450766
 21
7.259902784182912
 31
0.0
  0
LINE
  5
3913
330
1E
100
AcDbEntity
  8
7
100
AcDbLine
 10
-2.11885234450766
 20
7.259902784182912
 30
0.0
 11
-2.110978328759628
 21
7.393761051899447
 31
0.0
  0
LINE
  5
3914
330
1E
100
AcDbEntity
  8
7
100
AcDbLine
 10
-2.110978328759628
 20
7.393761051899447
 30
0.0
 11
-2.109009824822621
 21
7.427225618828581
 31
0.0
  0
LINE
  5
3915
330
1E
100
AcDbEntity
  8
7
100
AcDbLine
 10
-2.109009824822621
 20
7.427225618828581
 30
0.0
 11
-2.099167305137581
 21
7.468564201505746
 31
0.0
  0
LINE
  5
3916
330
1E
100
AcDbEntity
  8
7
100
AcDbLine
 10
-2.099167305137581
 20
7.468564201505746
 30
0.0
 11
-2.071608250019471
 21
7.507934280245903
 31
0.0
  0
LINE
  5
3917
330
1E
100
AcDbEntity
  8
7
100
AcDbLine
 10
-2.071608250019471
 20
7.507934280245903
 30
0.0
 11
-2.032238171279313
 21
7.535493335364014
 31
0.0
  0
LINE
  5
3918
330
1E
100
AcDbEntity
  8
7
100
AcDbLine
 10
-2.032238171279313
 20
7.535493335364014
 30
0.0
 11
-1.986962580728132
 21
7.54927286292307
 31
0.0
  0
LINE
  5
3919
330
1E
100
AcDbEntity
  8
7
100
AcDbLine
 10
-1.986962580728132
 20
7.54927286292307
 30
0.0
 11
-1.969246045295061
 21
7.551241366860077
 31
0.0
  0
LINE
  5
391A
330
1E
100
AcDbEntity
  8
7
100
AcDbLine
 10
-1.701529509861991
 20
7.486280736938818
 30
0.0
 11
-1.8038917145864
 21
7.486280736938818
 31
0.0
  0
LINE
  5
391B
330
1E
100
AcDbEntity
  8
7
100
AcDbLine
 10
-1.8038917145864
 20
7.486280736938818
 30
0.0
 11
-1.90625391931081
 21
7.486280736938818
 31
0.0
  0
LINE
  5
391C
330
1E
100
AcDbEntity
  8
7
100
AcDbLine
 10
-1.90625391931081
 20
7.486280736938818
 30
0.0
 11
-1.969246045295061
 21
7.486280736938818
 31
0.0
  0
LINE
  5
391D
330
1E
100
AcDbEntity
  8
7
100
AcDbLine
 10
-1.969246045295061
 20
7.486280736938818
 30
0.0
 11
-1.984994076791124
 21
7.486280736938818
 31
0.0
  0
LINE
  5
391E
330
1E
100
AcDbEntity
  8
7
100
AcDbLine
 10
-1.984994076791124
 20
7.486280736938818
 30
0.0
 11
-2.010584627972226
 21
7.476438217253777
 31
0.0
  0
LINE
  5
391F
330
1E
100
AcDbEntity
  8
7
100
AcDbLine
 10
-2.010584627972226
 20
7.476438217253777
 30
0.0
 11
-2.028301163405298
 21
7.462658689694723
 31
0.0
  0
LINE
  5
3920
330
1E
100
AcDbEntity
  8
7
100
AcDbLine
 10
-2.028301163405298
 20
7.462658689694723
 30
0.0
 11
-2.040112187027345
 21
7.44691065819866
 31
0.0
  0
LINE
  5
3921
330
1E
100
AcDbEntity
  8
7
100
AcDbLine
 10
-2.040112187027345
 20
7.44691065819866
 30
0.0
 11
-2.046017698838369
 21
7.429194122765588
 31
0.0
  0
LINE
  5
3922
330
1E
100
AcDbEntity
  8
7
100
AcDbLine
 10
-2.046017698838369
 20
7.429194122765588
 30
0.0
 11
-2.046017698838369
 21
7.421320107017557
 31
0.0
  0
LINE
  5
3923
330
1E
100
AcDbEntity
  8
7
100
AcDbLine
 10
-2.046017698838369
 20
7.421320107017557
 30
0.0
 11
-2.051923210649392
 21
7.322894910167164
 31
0.0
  0
LINE
  5
3924
330
1E
100
AcDbEntity
  8
7
100
AcDbLine
 10
-2.051923210649392
 20
7.322894910167164
 30
0.0
 11
-2.055860218523408
 21
7.226438217253777
 31
0.0
  0
LINE
  5
3925
330
1E
100
AcDbEntity
  8
7
100
AcDbLine
 10
-2.055860218523408
 20
7.226438217253777
 30
0.0
 11
-2.063734234271439
 21
7.094548453474251
 31
0.0
  0
LINE
  5
3926
330
1E
100
AcDbEntity
  8
7
100
AcDbLine
 10
-2.063734234271439
 20
7.094548453474251
 30
0.0
 11
-2.065702738208447
 21
7.063052390482123
 31
0.0
  0
LINE
  5
3927
330
1E
100
AcDbEntity
  8
7
100
AcDbLine
 10
-1.339324785452541
 20
7.063052390482123
 30
0.0
 11
-1.343261793326558
 21
7.15950908339551
 31
0.0
  0
LINE
  5
3928
330
1E
100
AcDbEntity
  8
7
100
AcDbLine
 10
-1.343261793326558
 20
7.15950908339551
 30
0.0
 11
-1.355072816948604
 21
7.356359477096297
 31
0.0
  0
LINE
  5
3929
330
1E
100
AcDbEntity
  8
7
100
AcDbLine
 10
-1.172001950806873
 20
7.356359477096297
 30
0.0
 11
-1.172001950806873
 21
7.342579949537242
 31
0.0
  0
LINE
  5
392A
330
1E
100
AcDbEntity
  8
7
100
AcDbLine
 10
-1.172001950806873
 20
7.342579949537242
 30
0.0
 11
-1.166096438995849
 21
7.218564201505746
 31
0.0
  0
LINE
  5
392B
330
1E
100
AcDbEntity
  8
7
100
AcDbLine
 10
-1.166096438995849
 20
7.218564201505746
 30
0.0
 11
-1.158222423247817
 21
7.094548453474251
 31
0.0
  0
LINE
  5
392C
330
1E
100
AcDbEntity
  8
7
100
AcDbLine
 10
-1.158222423247817
 20
7.094548453474251
 30
0.0
 11
-1.158222423247817
 21
7.063052390482123
 31
0.0
  0
LINE
  5
392D
330
1E
100
AcDbEntity
  8
7
100
AcDbLine
 10
-1.890505887814747
 20
7.689036642450629
 30
0.0
 11
-1.76649013978325
 21
7.689036642450629
 31
0.0
  0
LINE
  5
392E
330
1E
100
AcDbEntity
  8
7
100
AcDbLine
 10
-1.76649013978325
 20
7.689036642450629
 30
0.0
 11
-1.701529509861991
 21
7.689036642450629
 31
0.0
  0
LINE
  5
392F
330
1E
100
AcDbEntity
  8
7
100
AcDbLine
 10
-1.701529509861991
 20
7.689036642450629
 30
0.0
 11
-1.662159431121833
 21
7.689036642450629
 31
0.0
  0
LINE
  5
3930
330
1E
100
AcDbEntity
  8
7
100
AcDbLine
 10
-2.014521635846243
 20
7.689036642450629
 30
0.0
 11
-2.040112187027345
 21
7.68706813851362
 31
0.0
  0
LINE
  5
3931
330
1E
100
AcDbEntity
  8
7
100
AcDbLine
 10
-2.040112187027345
 20
7.68706813851362
 30
0.0
 11
-2.110978328759628
 21
7.667383099143542
 31
0.0
  0
LINE
  5
3932
330
1E
100
AcDbEntity
  8
7
100
AcDbLine
 10
-2.110978328759628
 20
7.667383099143542
 30
0.0
 11
-2.168064942932856
 21
7.626044516466377
 31
0.0
  0
LINE
  5
3933
330
1E
100
AcDbEntity
  8
7
100
AcDbLine
 10
-2.168064942932856
 20
7.626044516466377
 30
0.0
 11
-2.207435021673014
 21
7.568957902293147
 31
0.0
  0
LINE
  5
3934
330
1E
100
AcDbEntity
  8
7
100
AcDbLine
 10
-2.207435021673014
 20
7.568957902293147
 30
0.0
 11
-2.223183053169077
 21
7.507934280245903
 31
0.0
  0
LINE
  5
3935
330
1E
100
AcDbEntity
  8
7
100
AcDbLine
 10
-2.223183053169077
 20
7.507934280245903
 30
0.0
 11
-2.231057068917109
 21
7.342579949537242
 31
0.0
  0
LINE
  5
3936
330
1E
100
AcDbEntity
  8
7
100
AcDbLine
 10
-2.231057068917109
 20
7.342579949537242
 30
0.0
 11
-2.23893108466514
 21
7.218564201505746
 31
0.0
  0
LINE
  5
3937
330
1E
100
AcDbEntity
  8
7
100
AcDbLine
 10
-2.23893108466514
 20
7.218564201505746
 30
0.0
 11
-2.244836596476163
 21
7.094548453474251
 31
0.0
  0
LINE
  5
3938
330
1E
100
AcDbEntity
  8
7
100
AcDbLine
 10
-2.244836596476163
 20
7.094548453474251
 30
0.0
 11
-2.246805100413172
 21
7.063052390482123
 31
0.0
  0
LINE
  5
3939
330
1E
100
AcDbEntity
  8
7
100
AcDbLine
 10
-1.664127935058841
 20
7.777619319615983
 30
0.0
 11
-1.884600376003723
 21
7.773682311741966
 31
0.0
  0
LINE
  5
393A
330
1E
100
AcDbEntity
  8
7
100
AcDbLine
 10
-1.884600376003723
 20
7.773682311741966
 30
0.0
 11
-2.105072816948604
 21
7.750060264497871
 31
0.0
  0
LINE
  5
393B
330
1E
100
AcDbEntity
  8
7
100
AcDbLine
 10
-2.105072816948604
 20
7.750060264497871
 30
0.0
 11
-2.321608250019471
 21
7.710690185757714
 31
0.0
  0
LINE
  5
393C
330
1E
100
AcDbEntity
  8
7
100
AcDbLine
 10
-2.246805100413172
 20
7.063052390482123
 30
0.0
 11
-2.2290885649801
 21
7.063052390482123
 31
0.0
  0
LINE
  5
393D
330
1E
100
AcDbEntity
  8
7
100
AcDbLine
 10
-2.2290885649801
 20
7.063052390482123
 30
0.0
 11
-2.217277541358054
 21
7.063052390482123
 31
0.0
  0
LINE
  5
393E
330
1E
100
AcDbEntity
  8
7
100
AcDbLine
 10
-2.128694864192699
 20
7.063052390482123
 30
0.0
 11
-2.187749982302936
 21
7.063052390482123
 31
0.0
  0
LINE
  5
393F
330
1E
100
AcDbEntity
  8
7
100
AcDbLine
 10
-2.187749982302936
 20
7.063052390482123
 30
0.0
 11
-2.203498013798999
 21
7.063052390482123
 31
0.0
  0
LINE
  5
3940
330
1E
100
AcDbEntity
  8
7
100
AcDbLine
 10
-2.203498013798999
 20
7.063052390482123
 30
0.0
 11
-2.217277541358054
 21
7.063052390482123
 31
0.0
  0
LINE
  5
3941
330
1E
100
AcDbEntity
  8
7
100
AcDbLine
 10
-2.128694864192699
 20
7.063052390482123
 30
0.0
 11
-2.110978328759628
 21
7.063052390482123
 31
0.0
  0
LINE
  5
3942
330
1E
100
AcDbEntity
  8
7
100
AcDbLine
 10
-2.110978328759628
 20
7.063052390482123
 30
0.0
 11
-2.097198801200573
 21
7.063052390482123
 31
0.0
  0
LINE
  5
3943
330
1E
100
AcDbEntity
  8
7
100
AcDbLine
 10
-1.339324785452541
 20
7.063052390482123
 30
0.0
 11
-2.065702738208447
 21
7.063052390482123
 31
0.0
  0
LINE
  5
3944
330
1E
100
AcDbEntity
  8
7
100
AcDbLine
 10
-2.065702738208447
 20
7.063052390482123
 30
0.0
 11
-2.083419273641518
 21
7.063052390482123
 31
0.0
  0
LINE
  5
3945
330
1E
100
AcDbEntity
  8
7
100
AcDbLine
 10
-2.083419273641518
 20
7.063052390482123
 30
0.0
 11
-2.097198801200573
 21
7.063052390482123
 31
0.0
  0
LINE
  5
3946
330
1E
100
AcDbEntity
  8
7
100
AcDbLine
 10
-0.9672775413580545
 20
7.063052390482123
 30
0.0
 11
-0.9928680925391564
 21
7.063052390482123
 31
0.0
  0
LINE
  5
3947
330
1E
100
AcDbEntity
  8
7
100
AcDbLine
 10
-0.9928680925391564
 20
7.063052390482123
 30
0.0
 11
-1.158222423247817
 21
7.063052390482123
 31
0.0
  0
LINE
  5
3948
330
1E
100
AcDbEntity
  8
7
100
AcDbLine
 10
-1.158222423247817
 20
7.063052390482123
 30
0.0
 11
-1.17397045474388
 21
7.063052390482123
 31
0.0
  0
LINE
  5
3949
330
1E
100
AcDbEntity
  8
7
100
AcDbLine
 10
-1.17397045474388
 20
7.063052390482123
 30
0.0
 11
-1.187749982302936
 21
7.063052390482123
 31
0.0
  0
LINE
  5
394A
330
1E
100
AcDbEntity
  8
7
100
AcDbLine
 10
-1.187749982302936
 20
7.063052390482123
 30
0.0
 11
-1.203498013798999
 21
7.063052390482123
 31
0.0
  0
LINE
  5
394B
330
1E
100
AcDbEntity
  8
7
100
AcDbLine
 10
-1.203498013798999
 20
7.063052390482123
 30
0.0
 11
-1.217277541358054
 21
7.063052390482123
 31
0.0
  0
LINE
  5
394C
330
1E
100
AcDbEntity
  8
7
100
AcDbLine
 10
-1.217277541358054
 20
7.063052390482123
 30
0.0
 11
-1.274364155531282
 21
7.063052390482123
 31
0.0
  0
LINE
  5
394D
330
1E
100
AcDbEntity
  8
7
100
AcDbLine
 10
-1.274364155531282
 20
7.063052390482123
 30
0.0
 11
-1.292080690964352
 21
7.063052390482123
 31
0.0
  0
LINE
  5
394E
330
1E
100
AcDbEntity
  8
7
100
AcDbLine
 10
-1.292080690964352
 20
7.063052390482123
 30
0.0
 11
-1.307828722460415
 21
7.063052390482123
 31
0.0
  0
LINE
  5
394F
330
1E
100
AcDbEntity
  8
7
100
AcDbLine
 10
-1.307828722460415
 20
7.063052390482123
 30
0.0
 11
-1.325545257893486
 21
7.063052390482123
 31
0.0
  0
LINE
  5
3950
330
1E
100
AcDbEntity
  8
7
100
AcDbLine
 10
-1.325545257893486
 20
7.063052390482123
 30
0.0
 11
-1.339324785452541
 21
7.063052390482123
 31
0.0
  0
LINE
  5
3951
330
1E
100
AcDbEntity
  8
7
100
AcDbLine
 10
-2.319639746082463
 20
7.807146878671101
 30
0.0
 11
-2.103104313011597
 21
7.846516957411258
 31
0.0
  0
LINE
  5
3952
330
1E
100
AcDbEntity
  8
7
100
AcDbLine
 10
-2.103104313011597
 20
7.846516957411258
 30
0.0
 11
-1.884600376003723
 21
7.868170500718346
 31
0.0
  0
LINE
  5
3953
330
1E
100
AcDbEntity
  8
7
100
AcDbLine
 10
-1.884600376003723
 20
7.868170500718346
 30
0.0
 11
-1.664127935058841
 21
7.87210750859236
 31
0.0
  0
LINE
  5
3954
330
1E
100
AcDbEntity
  8
7
100
AcDbLine
 10
-2.675938958680887
 20
7.063052390482123
 30
0.0
 11
-2.437749982302936
 21
7.063052390482123
 31
0.0
  0
LINE
  5
3955
330
1E
100
AcDbEntity
  8
7
100
AcDbLine
 10
-2.437749982302936
 20
7.063052390482123
 30
0.0
 11
-2.431844470491911
 21
7.356359477096297
 31
0.0
  0
LINE
  5
3956
330
1E
100
AcDbEntity
  8
7
100
AcDbLine
 10
-2.036175179153329
 20
8.171320107017557
 30
0.0
 11
-2.258616124035219
 21
8.14179254796244
 31
0.0
  0
LINE
  5
3957
330
1E
100
AcDbEntity
  8
7
100
AcDbLine
 10
-2.258616124035219
 20
8.14179254796244
 30
0.0
 11
-2.477120061043093
 21
8.096516957411258
 31
0.0
  0
LINE
  5
3958
330
1E
100
AcDbEntity
  8
7
100
AcDbLine
 10
-2.477120061043093
 20
8.096516957411258
 30
0.0
 11
-2.530269667342306
 21
8.074863414104171
 31
0.0
  0
LINE
  5
3959
330
1E
100
AcDbEntity
  8
7
100
AcDbLine
 10
-2.530269667342306
 20
8.074863414104171
 30
0.0
 11
-2.573576753956478
 21
8.039430343238029
 31
0.0
  0
LINE
  5
395A
330
1E
100
AcDbEntity
  8
7
100
AcDbLine
 10
-2.573576753956478
 20
8.039430343238029
 30
0.0
 11
-2.603104313011597
 21
7.990217744812833
 31
0.0
  0
LINE
  5
395B
330
1E
100
AcDbEntity
  8
7
100
AcDbLine
 10
-2.603104313011597
 20
7.990217744812833
 30
0.0
 11
-2.614915336633644
 21
7.935099634576612
 31
0.0
  0
LINE
  5
395C
330
1E
100
AcDbEntity
  8
7
100
AcDbLine
 10
-0.7271200610430935
 20
7.063052390482123
 30
0.0
 11
-0.788143683090337
 21
7.935099634576612
 31
0.0
  0
LINE
  5
395D
330
1E
100
AcDbEntity
  8
7
100
AcDbLine
 10
-0.788143683090337
 20
7.935099634576612
 30
0.0
 11
-0.8019232106493925
 21
7.990217744812833
 31
0.0
  0
LINE
  5
395E
330
1E
100
AcDbEntity
  8
7
100
AcDbLine
 10
-0.8019232106493925
 20
7.990217744812833
 30
0.0
 11
-0.8314507697045101
 21
8.039430343238029
 31
0.0
  0
LINE
  5
395F
330
1E
100
AcDbEntity
  8
7
100
AcDbLine
 10
-0.8314507697045101
 20
8.039430343238029
 30
0.0
 11
-0.8747578563186841
 21
8.074863414104171
 31
0.0
  0
LINE
  5
3960
330
1E
100
AcDbEntity
  8
7
100
AcDbLine
 10
-0.8747578563186841
 20
8.074863414104171
 30
0.0
 11
-0.9279074626178971
 21
8.096516957411258
 31
0.0
  0
LINE
  5
3961
330
1E
100
AcDbEntity
  8
7
100
AcDbLine
 10
-0.9279074626178971
 20
8.096516957411258
 30
0.0
 11
-1.14641139962577
 21
8.14179254796244
 31
0.0
  0
LINE
  5
3962
330
1E
100
AcDbEntity
  8
7
100
AcDbLine
 10
-1.14641139962577
 20
8.14179254796244
 30
0.0
 11
-1.366883840570652
 21
8.171320107017557
 31
0.0
  0
LINE
  5
3963
330
1E
100
AcDbEntity
  8
7
100
AcDbLine
 10
-1.366883840570652
 20
8.171320107017557
 30
0.0
 11
-1.591293289389549
 21
8.185099634576612
 31
0.0
  0
LINE
  5
3964
330
1E
100
AcDbEntity
  8
7
100
AcDbLine
 10
-1.591293289389549
 20
8.185099634576612
 30
0.0
 11
-1.813734234271439
 21
8.185099634576612
 31
0.0
  0
LINE
  5
3965
330
1E
100
AcDbEntity
  8
7
100
AcDbLine
 10
-1.813734234271439
 20
8.185099634576612
 30
0.0
 11
-2.036175179153329
 21
8.171320107017557
 31
0.0
  0
LINE
  5
3966
330
1E
100
AcDbEntity
  8
7
100
AcDbLine
 10
-2.276332659468289
 20
8.147698059773462
 30
0.0
 11
-2.282238171279313
 21
8.147698059773462
 31
0.0
  0
LINE
  5
3967
330
1E
100
AcDbEntity
  8
7
100
AcDbLine
 10
-2.282238171279313
 20
8.147698059773462
 30
0.0
 11
-2.286175179153329
 21
8.145729555836455
 31
0.0
  0
LINE
  5
3968
330
1E
100
AcDbEntity
  8
7
100
AcDbLine
 10
-2.286175179153329
 20
8.145729555836455
 30
0.0
 11
-2.290112187027345
 21
8.145729555836455
 31
0.0
  0
LINE
  5
3969
330
1E
100
AcDbEntity
  8
7
100
AcDbLine
 10
-2.290112187027345
 20
8.145729555836455
 30
0.0
 11
-2.292080690964352
 21
8.145729555836455
 31
0.0
  0
LINE
  5
396A
330
1E
100
AcDbEntity
  8
7
100
AcDbLine
 10
-1.126726360255691
 20
8.147698059773462
 30
0.0
 11
-1.414127935058841
 21
8.185099634576612
 31
0.0
  0
LINE
  5
396B
330
1E
100
AcDbEntity
  8
7
100
AcDbLine
 10
-1.414127935058841
 20
8.185099634576612
 30
0.0
 11
-1.701529509861991
 21
8.19691065819866
 31
0.0
  0
LINE
  5
396C
330
1E
100
AcDbEntity
  8
7
100
AcDbLine
 10
-1.701529509861991
 20
8.19691065819866
 30
0.0
 11
-1.990899588602148
 21
8.185099634576612
 31
0.0
  0
LINE
  5
396D
330
1E
100
AcDbEntity
  8
7
100
AcDbLine
 10
-1.990899588602148
 20
8.185099634576612
 30
0.0
 11
-2.276332659468289
 21
8.147698059773462
 31
0.0
  0
LINE
  5
396E
330
1E
100
AcDbEntity
  8
7
100
AcDbLine
 10
-2.276332659468289
 20
8.147698059773462
 30
0.0
 11
-2.276332659468289
 21
8.137855540088423
 31
0.0
  0
LINE
  5
396F
330
1E
100
AcDbEntity
  8
7
100
AcDbLine
 10
-1.112946832696636
 20
8.135887036151416
 30
0.0
 11
-1.112946832696636
 21
8.145729555836455
 31
0.0
  0
LINE
  5
3970
330
1E
100
AcDbEntity
  8
7
100
AcDbLine
 10
-1.112946832696636
 20
8.145729555836455
 30
0.0
 11
-1.114915336633644
 21
8.145729555836455
 31
0.0
  0
LINE
  5
3971
330
1E
100
AcDbEntity
  8
7
100
AcDbLine
 10
-1.114915336633644
 20
8.145729555836455
 30
0.0
 11
-1.116883840570652
 21
8.145729555836455
 31
0.0
  0
LINE
  5
3972
330
1E
100
AcDbEntity
  8
7
100
AcDbLine
 10
-1.116883840570652
 20
8.145729555836455
 30
0.0
 11
-1.122789352381675
 21
8.147698059773462
 31
0.0
  0
LINE
  5
3973
330
1E
100
AcDbEntity
  8
7
100
AcDbLine
 10
-1.122789352381675
 20
8.147698059773462
 30
0.0
 11
-1.126726360255691
 21
8.147698059773462
 31
0.0
  0
LINE
  5
3974
330
1E
100
AcDbEntity
  8
7
100
AcDbLine
 10
-1.126726360255691
 20
8.147698059773462
 30
0.0
 11
-1.126726360255691
 21
8.137855540088423
 31
0.0
  0
LINE
  5
3975
330
1E
100
AcDbEntity
  8
7
100
AcDbLine
 10
1.369336631870292
 20
2.77958782355299
 30
0.0
 11
1.357525608248245
 21
2.893761051899447
 31
0.0
  0
LINE
  5
3976
330
1E
100
AcDbEntity
  8
7
100
AcDbLine
 10
1.357525608248245
 20
2.893761051899447
 30
0.0
 11
1.320124033445095
 21
2.893761051899447
 31
0.0
  0
LINE
  5
3977
330
1E
100
AcDbEntity
  8
7
100
AcDbLine
 10
1.357525608248245
 20
2.923288610954566
 30
0.0
 11
1.357525608248245
 21
2.903603571584486
 31
0.0
  0
LINE
  5
3978
330
1E
100
AcDbEntity
  8
7
100
AcDbLine
 10
1.357525608248245
 20
2.903603571584486
 30
0.0
 11
1.357525608248245
 21
2.893761051899447
 31
0.0
  0
LINE
  5
3979
330
1E
100
AcDbEntity
  8
7
100
AcDbLine
 10
1.308313009823048
 20
2.77958782355299
 30
0.0
 11
1.320124033445095
 21
2.893761051899447
 31
0.0
  0
LINE
  5
397A
330
1E
100
AcDbEntity
  8
7
100
AcDbLine
 10
1.320124033445095
 20
2.893761051899447
 30
0.0
 11
1.320124033445095
 21
2.903603571584486
 31
0.0
  0
LINE
  5
397B
330
1E
100
AcDbEntity
  8
7
100
AcDbLine
 10
1.320124033445095
 20
2.903603571584486
 30
0.0
 11
1.320124033445095
 21
2.923288610954566
 31
0.0
  0
LINE
  5
397C
330
1E
100
AcDbEntity
  8
7
100
AcDbLine
 10
1.369336631870292
 20
4.464627193631731
 30
0.0
 11
1.357525608248245
 21
4.350453965285273
 31
0.0
  0
LINE
  5
397D
330
1E
100
AcDbEntity
  8
7
100
AcDbLine
 10
1.357525608248245
 20
4.350453965285273
 30
0.0
 11
1.357525608248245
 21
4.340611445600234
 31
0.0
  0
LINE
  5
397E
330
1E
100
AcDbEntity
  8
7
100
AcDbLine
 10
1.357525608248245
 20
4.340611445600234
 30
0.0
 11
1.357525608248245
 21
4.320926406230157
 31
0.0
  0
LINE
  5
397F
330
1E
100
AcDbEntity
  8
7
100
AcDbLine
 10
1.357525608248245
 20
4.320926406230157
 30
0.0
 11
1.357525608248245
 21
4.301241366860077
 31
0.0
  0
LINE
  5
3980
330
1E
100
AcDbEntity
  8
7
100
AcDbLine
 10
1.320124033445095
 20
4.301241366860077
 30
0.0
 11
1.320124033445095
 21
4.320926406230157
 31
0.0
  0
LINE
  5
3981
330
1E
100
AcDbEntity
  8
7
100
AcDbLine
 10
1.320124033445095
 20
4.320926406230157
 30
0.0
 11
1.320124033445095
 21
4.340611445600234
 31
0.0
  0
LINE
  5
3982
330
1E
100
AcDbEntity
  8
7
100
AcDbLine
 10
1.320124033445095
 20
4.340611445600234
 30
0.0
 11
1.320124033445095
 21
4.350453965285273
 31
0.0
  0
LINE
  5
3983
330
1E
100
AcDbEntity
  8
7
100
AcDbLine
 10
3.705950805098638
 20
3.500060264497871
 30
0.0
 11
3.696108285413599
 21
3.502028768434881
 31
0.0
  0
LINE
  5
3984
330
1E
100
AcDbEntity
  8
7
100
AcDbLine
 10
3.696108285413599
 20
3.502028768434881
 30
0.0
 11
3.680360253917536
 21
3.502028768434881
 31
0.0
  0
LINE
  5
3985
330
1E
100
AcDbEntity
  8
7
100
AcDbLine
 10
3.705950805098638
 20
3.744154752686849
 30
0.0
 11
3.696108285413599
 21
3.74218624874984
 31
0.0
  0
LINE
  5
3986
330
1E
100
AcDbEntity
  8
7
100
AcDbLine
 10
3.696108285413599
 20
3.74218624874984
 30
0.0
 11
3.680360253917536
 21
3.74218624874984
 31
0.0
  0
LINE
  5
3987
330
1E
100
AcDbEntity
  8
7
100
AcDbLine
 10
3.755163403523834
 20
3.500060264497871
 30
0.0
 11
3.743352379901788
 21
3.503997272371888
 31
0.0
  0
LINE
  5
3988
330
1E
100
AcDbEntity
  8
7
100
AcDbLine
 10
3.743352379901788
 20
3.503997272371888
 30
0.0
 11
3.715793324783676
 21
3.505965776308896
 31
0.0
  0
LINE
  5
3989
330
1E
100
AcDbEntity
  8
7
100
AcDbLine
 10
3.715793324783676
 20
3.505965776308896
 30
0.0
 11
3.680360253917536
 21
3.505965776308896
 31
0.0
  0
LINE
  5
398A
330
1E
100
AcDbEntity
  8
7
100
AcDbLine
 10
3.755163403523834
 20
3.500060264497871
 30
0.0
 11
3.755163403523834
 21
3.744154752686849
 31
0.0
  0
LINE
  5
398B
330
1E
100
AcDbEntity
  8
7
100
AcDbLine
 10
3.755163403523834
 20
3.744154752686849
 30
0.0
 11
3.743352379901788
 21
3.740217744812833
 31
0.0
  0
LINE
  5
398C
330
1E
100
AcDbEntity
  8
7
100
AcDbLine
 10
3.743352379901788
 20
3.740217744812833
 30
0.0
 11
3.715793324783676
 21
3.738249240875825
 31
0.0
  0
LINE
  5
398D
330
1E
100
AcDbEntity
  8
7
100
AcDbLine
 10
3.715793324783676
 20
3.738249240875825
 30
0.0
 11
3.680360253917536
 21
3.736280736938818
 31
0.0
  0
LINE
  5
398E
330
1E
100
AcDbEntity
  8
7
100
AcDbLine
 10
3.57406104131911
 20
3.505965776308896
 30
0.0
 11
3.538627970452969
 21
3.505965776308896
 31
0.0
  0
LINE
  5
398F
330
1E
100
AcDbEntity
  8
7
100
AcDbLine
 10
3.538627970452969
 20
3.505965776308896
 30
0.0
 11
3.511068915334858
 21
3.503997272371888
 31
0.0
  0
LINE
  5
3990
330
1E
100
AcDbEntity
  8
7
100
AcDbLine
 10
3.511068915334858
 20
3.503997272371888
 30
0.0
 11
3.499257891712812
 21
3.500060264497871
 31
0.0
  0
LINE
  5
3991
330
1E
100
AcDbEntity
  8
7
100
AcDbLine
 10
3.57406104131911
 20
3.505965776308896
 30
0.0
 11
3.57406104131911
 21
3.736280736938818
 31
0.0
  0
LINE
  5
3992
330
1E
100
AcDbEntity
  8
7
100
AcDbLine
 10
3.57406104131911
 20
3.736280736938818
 30
0.0
 11
3.538627970452969
 21
3.738249240875825
 31
0.0
  0
LINE
  5
3993
330
1E
100
AcDbEntity
  8
7
100
AcDbLine
 10
3.538627970452969
 20
3.738249240875825
 30
0.0
 11
3.511068915334858
 21
3.740217744812833
 31
0.0
  0
LINE
  5
3994
330
1E
100
AcDbEntity
  8
7
100
AcDbLine
 10
3.511068915334858
 20
3.740217744812833
 30
0.0
 11
3.499257891712812
 21
3.744154752686849
 31
0.0
  0
LINE
  5
3995
330
1E
100
AcDbEntity
  8
7
100
AcDbLine
 10
3.57406104131911
 20
3.502028768434881
 30
0.0
 11
3.556344505886039
 21
3.502028768434881
 31
0.0
  0
LINE
  5
3996
330
1E
100
AcDbEntity
  8
7
100
AcDbLine
 10
3.556344505886039
 20
3.502028768434881
 30
0.0
 11
3.548470490138008
 21
3.500060264497871
 31
0.0
  0
LINE
  5
3997
330
1E
100
AcDbEntity
  8
7
100
AcDbLine
 10
3.57406104131911
 20
3.74218624874984
 30
0.0
 11
3.556344505886039
 21
3.74218624874984
 31
0.0
  0
LINE
  5
3998
330
1E
100
AcDbEntity
  8
7
100
AcDbLine
 10
3.556344505886039
 20
3.74218624874984
 30
0.0
 11
3.548470490138008
 21
3.744154752686849
 31
0.0
  0
LINE
  5
3999
330
1E
100
AcDbEntity
  8
7
100
AcDbLine
 10
3.715793324783676
 20
3.85439097315929
 30
0.0
 11
3.711856316909662
 21
3.771713807804959
 31
0.0
  0
LINE
  5
399A
330
1E
100
AcDbEntity
  8
7
100
AcDbLine
 10
3.711856316909662
 20
3.771713807804959
 30
0.0
 11
3.711856316909662
 21
3.752028768434881
 31
0.0
  0
LINE
  5
399B
330
1E
100
AcDbEntity
  8
7
100
AcDbLine
 10
2.83390356100415
 20
3.858327981033305
 30
0.0
 11
2.786659466515962
 21
3.848485461348266
 31
0.0
  0
LINE
  5
399C
330
1E
100
AcDbEntity
  8
7
100
AcDbLine
 10
2.786659466515962
 20
3.848485461348266
 30
0.0
 11
2.747289387775804
 21
3.822894910167164
 31
0.0
  0
LINE
  5
399D
330
1E
100
AcDbEntity
  8
7
100
AcDbLine
 10
2.747289387775804
 20
3.822894910167164
 30
0.0
 11
2.719730332657693
 21
3.783524831427007
 31
0.0
  0
LINE
  5
399E
330
1E
100
AcDbEntity
  8
7
100
AcDbLine
 10
2.719730332657693
 20
3.783524831427007
 30
0.0
 11
2.709887812972654
 21
3.736280736938818
 31
0.0
  0
LINE
  5
399F
330
1E
100
AcDbEntity
  8
7
100
AcDbLine
 10
2.709887812972654
 20
3.736280736938818
 30
0.0
 11
2.709887812972654
 21
3.673288610954566
 31
0.0
  0
LINE
  5
39A0
330
1E
100
AcDbEntity
  8
7
100
AcDbLine
 10
3.434297261791551
 20
3.673288610954566
 30
0.0
 11
3.434297261791551
 21
3.736280736938818
 31
0.0
  0
LINE
  5
39A1
330
1E
100
AcDbEntity
  8
7
100
AcDbLine
 10
3.434297261791551
 20
3.736280736938818
 30
0.0
 11
3.424454742106512
 21
3.783524831427007
 31
0.0
  0
LINE
  5
39A2
330
1E
100
AcDbEntity
  8
7
100
AcDbLine
 10
3.424454742106512
 20
3.783524831427007
 30
0.0
 11
3.39886419092541
 21
3.822894910167164
 31
0.0
  0
LINE
  5
39A3
330
1E
100
AcDbEntity
  8
7
100
AcDbLine
 10
3.39886419092541
 20
3.822894910167164
 30
0.0
 11
3.359494112185252
 21
3.848485461348266
 31
0.0
  0
LINE
  5
39A4
330
1E
100
AcDbEntity
  8
7
100
AcDbLine
 10
3.359494112185252
 20
3.848485461348266
 30
0.0
 11
3.310281513760054
 21
3.858327981033305
 31
0.0
  0
LINE
  5
39A5
330
1E
100
AcDbEntity
  8
7
100
AcDbLine
 10
3.39886419092541
 20
3.421320107017557
 30
0.0
 11
3.424454742106512
 21
3.460690185757714
 31
0.0
  0
LINE
  5
39A6
330
1E
100
AcDbEntity
  8
7
100
AcDbLine
 10
3.424454742106512
 20
3.460690185757714
 30
0.0
 11
3.434297261791551
 21
3.507934280245903
 31
0.0
  0
LINE
  5
39A7
330
1E
100
AcDbEntity
  8
7
100
AcDbLine
 10
3.434297261791551
 20
3.507934280245903
 30
0.0
 11
3.434297261791551
 21
3.570926406230157
 31
0.0
  0
LINE
  5
39A8
330
1E
100
AcDbEntity
  8
7
100
AcDbLine
 10
3.123273639744308
 20
3.385887036151416
 30
0.0
 11
3.310281513760054
 21
3.385887036151416
 31
0.0
  0
LINE
  5
39A9
330
1E
100
AcDbEntity
  8
7
100
AcDbLine
 10
3.310281513760054
 20
3.385887036151416
 30
0.0
 11
3.359494112185252
 21
3.393761051899447
 31
0.0
  0
LINE
  5
39AA
330
1E
100
AcDbEntity
  8
7
100
AcDbLine
 10
3.359494112185252
 20
3.393761051899447
 30
0.0
 11
3.39886419092541
 21
3.421320107017557
 31
0.0
  0
LINE
  5
39AB
330
1E
100
AcDbEntity
  8
7
100
AcDbLine
 10
2.83390356100415
 20
3.385887036151416
 30
0.0
 11
2.786659466515962
 21
3.393761051899447
 31
0.0
  0
LINE
  5
39AC
330
1E
100
AcDbEntity
  8
7
100
AcDbLine
 10
2.786659466515962
 20
3.393761051899447
 30
0.0
 11
2.747289387775804
 21
3.421320107017557
 31
0.0
  0
LINE
  5
39AD
330
1E
100
AcDbEntity
  8
7
100
AcDbLine
 10
2.747289387775804
 20
3.421320107017557
 30
0.0
 11
2.719730332657693
 21
3.460690185757714
 31
0.0
  0
LINE
  5
39AE
330
1E
100
AcDbEntity
  8
7
100
AcDbLine
 10
2.719730332657693
 20
3.460690185757714
 30
0.0
 11
2.709887812972654
 21
3.507934280245903
 31
0.0
  0
LINE
  5
39AF
330
1E
100
AcDbEntity
  8
7
100
AcDbLine
 10
2.753194899586827
 20
3.935099634576612
 30
0.0
 11
2.753194899586827
 21
3.895729555836455
 31
0.0
  0
LINE
  5
39B0
330
1E
100
AcDbEntity
  8
7
100
AcDbLine
 10
2.753194899586827
 20
3.895729555836455
 30
0.0
 11
2.967761828720686
 21
3.895729555836455
 31
0.0
  0
LINE
  5
39B1
330
1E
100
AcDbEntity
  8
7
100
AcDbLine
 10
2.967761828720686
 20
3.895729555836455
 30
0.0
 11
2.967761828720686
 21
3.935099634576612
 31
0.0
  0
LINE
  5
39B2
330
1E
100
AcDbEntity
  8
7
100
AcDbLine
 10
2.967761828720686
 20
3.309115382608109
 30
0.0
 11
2.967761828720686
 21
3.348485461348266
 31
0.0
  0
LINE
  5
39B3
330
1E
100
AcDbEntity
  8
7
100
AcDbLine
 10
2.967761828720686
 20
3.348485461348266
 30
0.0
 11
2.753194899586827
 21
3.348485461348266
 31
0.0
  0
LINE
  5
39B4
330
1E
100
AcDbEntity
  8
7
100
AcDbLine
 10
2.753194899586827
 20
3.348485461348266
 30
0.0
 11
2.753194899586827
 21
3.309115382608109
 31
0.0
  0
LINE
  5
39B5
330
1E
100
AcDbEntity
  8
7
100
AcDbLine
 10
3.59177757675218
 20
3.309115382608109
 30
0.0
 11
3.59177757675218
 21
3.348485461348266
 31
0.0
  0
LINE
  5
39B6
330
1E
100
AcDbEntity
  8
7
100
AcDbLine
 10
3.59177757675218
 20
3.348485461348266
 30
0.0
 11
3.375242143681315
 21
3.348485461348266
 31
0.0
  0
LINE
  5
39B7
330
1E
100
AcDbEntity
  8
7
100
AcDbLine
 10
3.375242143681315
 20
3.348485461348266
 30
0.0
 11
3.375242143681315
 21
3.309115382608109
 31
0.0
  0
LINE
  5
39B8
330
1E
100
AcDbEntity
  8
7
100
AcDbLine
 10
3.375242143681315
 20
3.935099634576612
 30
0.0
 11
3.375242143681315
 21
3.895729555836455
 31
0.0
  0
LINE
  5
39B9
330
1E
100
AcDbEntity
  8
7
100
AcDbLine
 10
3.375242143681315
 20
3.895729555836455
 30
0.0
 11
3.59177757675218
 21
3.895729555836455
 31
0.0
  0
LINE
  5
39BA
330
1E
100
AcDbEntity
  8
7
100
AcDbLine
 10
3.123273639744308
 20
3.832737429852203
 30
0.0
 11
3.123273639744308
 21
3.858327981033305
 31
0.0
  0
LINE
  5
39BB
330
1E
100
AcDbEntity
  8
7
100
AcDbLine
 10
3.123273639744308
 20
3.858327981033305
 30
0.0
 11
3.123273639744308
 21
3.864233492844329
 31
0.0
  0
LINE
  5
39BC
330
1E
100
AcDbEntity
  8
7
100
AcDbLine
 10
3.406738206673441
 20
3.570926406230157
 30
0.0
 11
3.434297261791551
 21
3.570926406230157
 31
0.0
  0
LINE
  5
39BD
330
1E
100
AcDbEntity
  8
7
100
AcDbLine
 10
3.434297261791551
 20
3.570926406230157
 30
0.0
 11
3.440202773602575
 21
3.570926406230157
 31
0.0
  0
LINE
  5
39BE
330
1E
100
AcDbEntity
  8
7
100
AcDbLine
 10
3.123273639744308
 20
3.378013020403384
 30
0.0
 11
3.123273639744308
 21
3.385887036151416
 31
0.0
  0
LINE
  5
39BF
330
1E
100
AcDbEntity
  8
7
100
AcDbLine
 10
3.123273639744308
 20
3.385887036151416
 30
0.0
 11
3.123273639744308
 21
3.411477587332518
 31
0.0
  0
LINE
  5
39C0
330
1E
100
AcDbEntity
  8
7
100
AcDbLine
 10
2.70398230116163
 20
3.570926406230157
 30
0.0
 11
2.709887812972654
 21
3.570926406230157
 31
0.0
  0
LINE
  5
39C1
330
1E
100
AcDbEntity
  8
7
100
AcDbLine
 10
2.709887812972654
 20
3.570926406230157
 30
0.0
 11
2.737446868090764
 21
3.570926406230157
 31
0.0
  0
LINE
  5
39C2
330
1E
100
AcDbEntity
  8
7
100
AcDbLine
 10
3.123273639744308
 20
3.417383099143542
 30
0.0
 11
3.123273639744308
 21
3.411477587332518
 31
0.0
  0
LINE
  5
39C3
330
1E
100
AcDbEntity
  8
7
100
AcDbLine
 10
3.123273639744308
 20
3.411477587332518
 30
0.0
 11
3.32406104131911
 21
3.411477587332518
 31
0.0
  0
LINE
  5
39C4
330
1E
100
AcDbEntity
  8
7
100
AcDbLine
 10
2.831935057067142
 20
3.423288610954566
 30
0.0
 11
2.822092537382103
 21
3.411477587332518
 31
0.0
  0
LINE
  5
39C5
330
1E
100
AcDbEntity
  8
7
100
AcDbLine
 10
2.822092537382103
 20
3.411477587332518
 30
0.0
 11
3.022879938956906
 21
3.411477587332518
 31
0.0
  0
LINE
  5
39C6
330
1E
100
AcDbEntity
  8
7
100
AcDbLine
 10
2.761068915334859
 20
3.43706813851362
 30
0.0
 11
2.743352379901788
 21
3.462658689694723
 31
0.0
  0
LINE
  5
39C7
330
1E
100
AcDbEntity
  8
7
100
AcDbLine
 10
2.743352379901788
 20
3.462658689694723
 30
0.0
 11
2.737446868090764
 21
3.496123256623857
 31
0.0
  0
LINE
  5
39C8
330
1E
100
AcDbEntity
  8
7
100
AcDbLine
 10
2.822092537382103
 20
3.411477587332518
 30
0.0
 11
2.788627970452969
 21
3.417383099143542
 31
0.0
  0
LINE
  5
39C9
330
1E
100
AcDbEntity
  8
7
100
AcDbLine
 10
2.788627970452969
 20
3.417383099143542
 30
0.0
 11
2.761068915334859
 21
3.43706813851362
 31
0.0
  0
LINE
  5
39CA
330
1E
100
AcDbEntity
  8
7
100
AcDbLine
 10
2.743352379901788
 20
3.570926406230157
 30
0.0
 11
2.737446868090764
 21
3.570926406230157
 31
0.0
  0
LINE
  5
39CB
330
1E
100
AcDbEntity
  8
7
100
AcDbLine
 10
2.737446868090764
 20
3.570926406230157
 30
0.0
 11
2.737446868090764
 21
3.496123256623857
 31
0.0
  0
LINE
  5
39CC
330
1E
100
AcDbEntity
  8
7
100
AcDbLine
 10
2.737446868090764
 20
3.496123256623857
 30
0.0
 11
2.749257891712812
 21
3.505965776308896
 31
0.0
  0
LINE
  5
39CD
330
1E
100
AcDbEntity
  8
7
100
AcDbLine
 10
3.396895686988401
 20
3.505965776308896
 30
0.0
 11
3.406738206673441
 21
3.496123256623857
 31
0.0
  0
LINE
  5
39CE
330
1E
100
AcDbEntity
  8
7
100
AcDbLine
 10
3.406738206673441
 20
3.496123256623857
 30
0.0
 11
3.406738206673441
 21
3.570926406230157
 31
0.0
  0
LINE
  5
39CF
330
1E
100
AcDbEntity
  8
7
100
AcDbLine
 10
3.406738206673441
 20
3.570926406230157
 30
0.0
 11
3.400832694862417
 21
3.570926406230157
 31
0.0
  0
LINE
  5
39D0
330
1E
100
AcDbEntity
  8
7
100
AcDbLine
 10
3.400832694862417
 20
3.462658689694723
 30
0.0
 11
3.383116159429347
 21
3.43706813851362
 31
0.0
  0
LINE
  5
39D1
330
1E
100
AcDbEntity
  8
7
100
AcDbLine
 10
3.383116159429347
 20
3.43706813851362
 30
0.0
 11
3.355557104311236
 21
3.417383099143542
 31
0.0
  0
LINE
  5
39D2
330
1E
100
AcDbEntity
  8
7
100
AcDbLine
 10
3.355557104311236
 20
3.417383099143542
 30
0.0
 11
3.32406104131911
 21
3.411477587332518
 31
0.0
  0
LINE
  5
39D3
330
1E
100
AcDbEntity
  8
7
100
AcDbLine
 10
3.312250017697063
 20
3.820926406230157
 30
0.0
 11
3.32406104131911
 21
3.832737429852203
 31
0.0
  0
LINE
  5
39D4
330
1E
100
AcDbEntity
  8
7
100
AcDbLine
 10
3.32406104131911
 20
3.832737429852203
 30
0.0
 11
3.123273639744308
 21
3.832737429852203
 31
0.0
  0
LINE
  5
39D5
330
1E
100
AcDbEntity
  8
7
100
AcDbLine
 10
3.123273639744308
 20
3.832737429852203
 30
0.0
 11
3.123273639744308
 21
3.824863414104171
 31
0.0
  0
LINE
  5
39D6
330
1E
100
AcDbEntity
  8
7
100
AcDbLine
 10
3.32406104131911
 20
3.832737429852203
 30
0.0
 11
3.355557104311236
 21
3.824863414104171
 31
0.0
  0
LINE
  5
39D7
330
1E
100
AcDbEntity
  8
7
100
AcDbLine
 10
3.355557104311236
 20
3.824863414104171
 30
0.0
 11
3.383116159429347
 21
3.807146878671101
 31
0.0
  0
LINE
  5
39D8
330
1E
100
AcDbEntity
  8
7
100
AcDbLine
 10
3.383116159429347
 20
3.807146878671101
 30
0.0
 11
3.400832694862417
 21
3.77958782355299
 31
0.0
  0
LINE
  5
39D9
330
1E
100
AcDbEntity
  8
7
100
AcDbLine
 10
3.400832694862417
 20
3.77958782355299
 30
0.0
 11
3.406738206673441
 21
3.748091760560864
 31
0.0
  0
LINE
  5
39DA
330
1E
100
AcDbEntity
  8
7
100
AcDbLine
 10
3.01894293108289
 20
3.653603571584486
 30
0.0
 11
3.011068915334859
 21
3.62210750859236
 31
0.0
  0
LINE
  5
39DB
330
1E
100
AcDbEntity
  8
7
100
AcDbLine
 10
3.011068915334859
 20
3.62210750859236
 30
0.0
 11
3.01894293108289
 21
3.592579949537242
 31
0.0
  0
LINE
  5
39DC
330
1E
100
AcDbEntity
  8
7
100
AcDbLine
 10
3.01894293108289
 20
3.592579949537242
 30
0.0
 11
3.040596474389977
 21
3.568957902293147
 31
0.0
  0
LINE
  5
39DD
330
1E
100
AcDbEntity
  8
7
100
AcDbLine
 10
3.040596474389977
 20
3.568957902293147
 30
0.0
 11
3.072092537382103
 21
3.561083886545116
 31
0.0
  0
LINE
  5
39DE
330
1E
100
AcDbEntity
  8
7
100
AcDbLine
 10
3.072092537382103
 20
3.561083886545116
 30
0.0
 11
3.101620096437221
 21
3.568957902293147
 31
0.0
  0
LINE
  5
39DF
330
1E
100
AcDbEntity
  8
7
100
AcDbLine
 10
3.101620096437221
 20
3.568957902293147
 30
0.0
 11
3.125242143681315
 21
3.590611445600234
 31
0.0
  0
LINE
  5
39E0
330
1E
100
AcDbEntity
  8
7
100
AcDbLine
 10
3.125242143681315
 20
3.590611445600234
 30
0.0
 11
3.133116159429347
 21
3.62210750859236
 31
0.0
  0
LINE
  5
39E1
330
1E
100
AcDbEntity
  8
7
100
AcDbLine
 10
3.133116159429347
 20
3.62210750859236
 30
0.0
 11
3.125242143681315
 21
3.651635067647479
 31
0.0
  0
LINE
  5
39E2
330
1E
100
AcDbEntity
  8
7
100
AcDbLine
 10
3.125242143681315
 20
3.651635067647479
 30
0.0
 11
3.103588600374229
 21
3.675257114891573
 31
0.0
  0
LINE
  5
39E3
330
1E
100
AcDbEntity
  8
7
100
AcDbLine
 10
3.103588600374229
 20
3.675257114891573
 30
0.0
 11
3.072092537382103
 21
3.683131130639605
 31
0.0
  0
LINE
  5
39E4
330
1E
100
AcDbEntity
  8
7
100
AcDbLine
 10
3.072092537382103
 20
3.683131130639605
 30
0.0
 11
3.042564978326985
 21
3.675257114891573
 31
0.0
  0
LINE
  5
39E5
330
1E
100
AcDbEntity
  8
7
100
AcDbLine
 10
3.042564978326985
 20
3.675257114891573
 30
0.0
 11
3.01894293108289
 21
3.653603571584486
 31
0.0
  0
LINE
  5
39E6
330
1E
100
AcDbEntity
  8
7
100
AcDbLine
 10
2.761068915334859
 20
3.807146878671101
 30
0.0
 11
2.788627970452969
 21
3.824863414104171
 31
0.0
  0
LINE
  5
39E7
330
1E
100
AcDbEntity
  8
7
100
AcDbLine
 10
2.788627970452969
 20
3.824863414104171
 30
0.0
 11
2.822092537382103
 21
3.832737429852203
 31
0.0
  0
LINE
  5
39E8
330
1E
100
AcDbEntity
  8
7
100
AcDbLine
 10
2.737446868090764
 20
3.748091760560864
 30
0.0
 11
2.743352379901788
 21
3.77958782355299
 31
0.0
  0
LINE
  5
39E9
330
1E
100
AcDbEntity
  8
7
100
AcDbLine
 10
2.743352379901788
 20
3.77958782355299
 30
0.0
 11
2.761068915334859
 21
3.807146878671101
 31
0.0
  0
LINE
  5
39EA
330
1E
100
AcDbEntity
  8
7
100
AcDbLine
 10
2.749257891712812
 20
3.505965776308896
 30
0.0
 11
2.755163403523836
 21
3.47446971331677
 31
0.0
  0
LINE
  5
39EB
330
1E
100
AcDbEntity
  8
7
100
AcDbLine
 10
2.755163403523836
 20
3.47446971331677
 30
0.0
 11
2.772879938956906
 21
3.44691065819866
 31
0.0
  0
LINE
  5
39EC
330
1E
100
AcDbEntity
  8
7
100
AcDbLine
 10
2.772879938956906
 20
3.44691065819866
 30
0.0
 11
2.800438994075016
 21
3.429194122765588
 31
0.0
  0
LINE
  5
39ED
330
1E
100
AcDbEntity
  8
7
100
AcDbLine
 10
2.800438994075016
 20
3.429194122765588
 30
0.0
 11
2.831935057067142
 21
3.423288610954566
 31
0.0
  0
LINE
  5
39EE
330
1E
100
AcDbEntity
  8
7
100
AcDbLine
 10
2.831935057067142
 20
3.423288610954566
 30
0.0
 11
3.312250017697063
 21
3.423288610954566
 31
0.0
  0
LINE
  5
39EF
330
1E
100
AcDbEntity
  8
7
100
AcDbLine
 10
3.312250017697063
 20
3.423288610954566
 30
0.0
 11
3.345714584626197
 21
3.429194122765588
 31
0.0
  0
LINE
  5
39F0
330
1E
100
AcDbEntity
  8
7
100
AcDbLine
 10
3.345714584626197
 20
3.429194122765588
 30
0.0
 11
3.371305135807299
 21
3.44691065819866
 31
0.0
  0
LINE
  5
39F1
330
1E
100
AcDbEntity
  8
7
100
AcDbLine
 10
3.371305135807299
 20
3.44691065819866
 30
0.0
 11
3.390990175177378
 21
3.47446971331677
 31
0.0
  0
LINE
  5
39F2
330
1E
100
AcDbEntity
  8
7
100
AcDbLine
 10
3.390990175177378
 20
3.47446971331677
 30
0.0
 11
3.396895686988401
 21
3.505965776308896
 31
0.0
  0
LINE
  5
39F3
330
1E
100
AcDbEntity
  8
7
100
AcDbLine
 10
3.396895686988401
 20
3.505965776308896
 30
0.0
 11
3.396895686988401
 21
3.736280736938818
 31
0.0
  0
LINE
  5
39F4
330
1E
100
AcDbEntity
  8
7
100
AcDbLine
 10
3.396895686988401
 20
3.736280736938818
 30
0.0
 11
3.390990175177378
 21
3.769745303867951
 31
0.0
  0
LINE
  5
39F5
330
1E
100
AcDbEntity
  8
7
100
AcDbLine
 10
3.390990175177378
 20
3.769745303867951
 30
0.0
 11
3.371305135807299
 21
3.79730435898606
 31
0.0
  0
LINE
  5
39F6
330
1E
100
AcDbEntity
  8
7
100
AcDbLine
 10
3.371305135807299
 20
3.79730435898606
 30
0.0
 11
3.345714584626197
 21
3.815020894419133
 31
0.0
  0
LINE
  5
39F7
330
1E
100
AcDbEntity
  8
7
100
AcDbLine
 10
3.345714584626197
 20
3.815020894419133
 30
0.0
 11
3.312250017697063
 21
3.820926406230157
 31
0.0
  0
LINE
  5
39F8
330
1E
100
AcDbEntity
  8
7
100
AcDbLine
 10
3.312250017697063
 20
3.820926406230157
 30
0.0
 11
2.831935057067142
 21
3.820926406230157
 31
0.0
  0
LINE
  5
39F9
330
1E
100
AcDbEntity
  8
7
100
AcDbLine
 10
2.831935057067142
 20
3.820926406230157
 30
0.0
 11
2.800438994075016
 21
3.815020894419133
 31
0.0
  0
LINE
  5
39FA
330
1E
100
AcDbEntity
  8
7
100
AcDbLine
 10
2.800438994075016
 20
3.815020894419133
 30
0.0
 11
2.772879938956906
 21
3.79730435898606
 31
0.0
  0
LINE
  5
39FB
330
1E
100
AcDbEntity
  8
7
100
AcDbLine
 10
2.772879938956906
 20
3.79730435898606
 30
0.0
 11
2.755163403523836
 21
3.769745303867951
 31
0.0
  0
LINE
  5
39FC
330
1E
100
AcDbEntity
  8
7
100
AcDbLine
 10
2.755163403523836
 20
3.769745303867951
 30
0.0
 11
2.749257891712812
 21
3.736280736938818
 31
0.0
  0
LINE
  5
39FD
330
1E
100
AcDbEntity
  8
7
100
AcDbLine
 10
2.749257891712812
 20
3.736280736938818
 30
0.0
 11
2.749257891712812
 21
3.505965776308896
 31
0.0
  0
LINE
  5
39FE
330
1E
100
AcDbEntity
  8
7
100
AcDbLine
 10
3.016974427145883
 20
3.590611445600234
 30
0.0
 11
3.040596474389977
 21
3.56698939835614
 31
0.0
  0
LINE
  5
39FF
330
1E
100
AcDbEntity
  8
7
100
AcDbLine
 10
3.040596474389977
 20
3.56698939835614
 30
0.0
 11
3.072092537382103
 21
3.559115382608109
 31
0.0
  0
LINE
  5
3A00
330
1E
100
AcDbEntity
  8
7
100
AcDbLine
 10
3.072092537382103
 20
3.559115382608109
 30
0.0
 11
3.103588600374229
 21
3.56698939835614
 31
0.0
  0
LINE
  5
3A01
330
1E
100
AcDbEntity
  8
7
100
AcDbLine
 10
3.103588600374229
 20
3.56698939835614
 30
0.0
 11
3.127210647618324
 21
3.590611445600234
 31
0.0
  0
LINE
  5
3A02
330
1E
100
AcDbEntity
  8
7
100
AcDbLine
 10
3.127210647618324
 20
3.590611445600234
 30
0.0
 11
3.135084663366355
 21
3.62210750859236
 31
0.0
  0
LINE
  5
3A03
330
1E
100
AcDbEntity
  8
7
100
AcDbLine
 10
3.135084663366355
 20
3.62210750859236
 30
0.0
 11
3.127210647618324
 21
3.653603571584486
 31
0.0
  0
LINE
  5
3A04
330
1E
100
AcDbEntity
  8
7
100
AcDbLine
 10
3.127210647618324
 20
3.653603571584486
 30
0.0
 11
3.103588600374229
 21
3.677225618828581
 31
0.0
  0
LINE
  5
3A05
330
1E
100
AcDbEntity
  8
7
100
AcDbLine
 10
3.103588600374229
 20
3.677225618828581
 30
0.0
 11
3.072092537382103
 21
3.685099634576612
 31
0.0
  0
LINE
  5
3A06
330
1E
100
AcDbEntity
  8
7
100
AcDbLine
 10
3.072092537382103
 20
3.685099634576612
 30
0.0
 11
3.040596474389977
 21
3.677225618828581
 31
0.0
  0
LINE
  5
3A07
330
1E
100
AcDbEntity
  8
7
100
AcDbLine
 10
3.040596474389977
 20
3.677225618828581
 30
0.0
 11
3.016974427145883
 21
3.653603571584486
 31
0.0
  0
LINE
  5
3A08
330
1E
100
AcDbEntity
  8
7
100
AcDbLine
 10
3.016974427145883
 20
3.653603571584486
 30
0.0
 11
3.009100411397851
 21
3.62210750859236
 31
0.0
  0
LINE
  5
3A09
330
1E
100
AcDbEntity
  8
7
100
AcDbLine
 10
3.009100411397851
 20
3.62210750859236
 30
0.0
 11
3.016974427145883
 21
3.590611445600234
 31
0.0
  0
LINE
  5
3A0A
330
1E
100
AcDbEntity
  8
7
100
AcDbLine
 10
2.707919309035646
 20
2.950847666072675
 30
0.0
 11
2.707919309035646
 21
2.952816170009683
 31
0.0
  0
LINE
  5
3A0B
330
1E
100
AcDbEntity
  8
7
100
AcDbLine
 10
2.707919309035646
 20
2.952816170009683
 30
0.0
 11
2.707919309035646
 21
2.954784673946692
 31
0.0
  0
LINE
  5
3A0C
330
1E
100
AcDbEntity
  8
7
100
AcDbLine
 10
2.707919309035646
 20
2.954784673946692
 30
0.0
 11
2.707919309035646
 21
2.956753177883699
 31
0.0
  0
LINE
  5
3A0D
330
1E
100
AcDbEntity
  8
7
100
AcDbLine
 10
2.707919309035646
 20
4.291398847175038
 30
0.0
 11
2.707919309035646
 21
4.289430343238029
 31
0.0
  0
LINE
  5
3A0E
330
1E
100
AcDbEntity
  8
7
100
AcDbLine
 10
2.707919309035646
 20
4.289430343238029
 30
0.0
 11
2.707919309035646
 21
4.287461839301021
 31
0.0
  0
LINE
  5
3A0F
330
1E
100
AcDbEntity
  8
7
100
AcDbLine
 10
1.308313009823048
 20
2.77958782355299
 30
0.0
 11
1.369336631870292
 21
2.77958782355299
 31
0.0
  0
LINE
  5
3A10
330
1E
100
AcDbEntity
  8
7
100
AcDbLine
 10
1.369336631870292
 20
2.77958782355299
 30
0.0
 11
1.369336631870292
 21
2.781556327489997
 31
0.0
  0
LINE
  5
3A11
330
1E
100
AcDbEntity
  8
7
100
AcDbLine
 10
2.705950805098638
 20
4.287461839301021
 30
0.0
 11
2.680360253917536
 21
4.289430343238029
 31
0.0
  0
LINE
  5
3A12
330
1E
100
AcDbEntity
  8
7
100
AcDbLine
 10
2.680360253917536
 20
4.289430343238029
 30
0.0
 11
2.662643718484465
 21
4.271713807804959
 31
0.0
  0
LINE
  5
3A13
330
1E
100
AcDbEntity
  8
7
100
AcDbLine
 10
2.662643718484465
 20
4.271713807804959
 30
0.0
 11
2.660675214547457
 21
4.246123256623857
 31
0.0
  0
LINE
  5
3A14
330
1E
100
AcDbEntity
  8
7
100
AcDbLine
 10
2.660675214547457
 20
4.246123256623857
 30
0.0
 11
2.678391749980528
 21
4.228406721190786
 31
0.0
  0
LINE
  5
3A15
330
1E
100
AcDbEntity
  8
7
100
AcDbLine
 10
2.678391749980528
 20
4.228406721190786
 30
0.0
 11
2.70398230116163
 21
4.226438217253777
 31
0.0
  0
LINE
  5
3A16
330
1E
100
AcDbEntity
  8
7
100
AcDbLine
 10
2.707919309035646
 20
4.287461839301021
 30
0.0
 11
2.717761828720686
 21
4.283524831427007
 31
0.0
  0
LINE
  5
3A17
330
1E
100
AcDbEntity
  8
7
100
AcDbLine
 10
2.717761828720686
 20
4.283524831427007
 30
0.0
 11
2.729572852342733
 21
4.285493335364014
 31
0.0
  0
LINE
  5
3A18
330
1E
100
AcDbEntity
  8
7
100
AcDbLine
 10
2.729572852342733
 20
4.285493335364014
 30
0.0
 11
2.735478364153757
 21
4.287461839301021
 31
0.0
  0
LINE
  5
3A19
330
1E
100
AcDbEntity
  8
7
100
AcDbLine
 10
2.660675214547457
 20
2.998091760560864
 30
0.0
 11
2.662643718484465
 21
2.972501209379762
 31
0.0
  0
LINE
  5
3A1A
330
1E
100
AcDbEntity
  8
7
100
AcDbLine
 10
2.662643718484465
 20
2.972501209379762
 30
0.0
 11
2.680360253917536
 21
2.954784673946692
 31
0.0
  0
LINE
  5
3A1B
330
1E
100
AcDbEntity
  8
7
100
AcDbLine
 10
2.680360253917536
 20
2.954784673946692
 30
0.0
 11
2.705950805098638
 21
2.956753177883699
 31
0.0
  0
LINE
  5
3A1C
330
1E
100
AcDbEntity
  8
7
100
AcDbLine
 10
2.70398230116163
 20
3.017776799930944
 30
0.0
 11
2.678391749980528
 21
3.015808295993934
 31
0.0
  0
LINE
  5
3A1D
330
1E
100
AcDbEntity
  8
7
100
AcDbLine
 10
2.678391749980528
 20
3.015808295993934
 30
0.0
 11
2.660675214547457
 21
2.998091760560864
 31
0.0
  0
LINE
  5
3A1E
330
1E
100
AcDbEntity
  8
7
100
AcDbLine
 10
2.707919309035646
 20
2.956753177883699
 30
0.0
 11
2.717761828720686
 21
2.958721681820707
 31
0.0
  0
LINE
  5
3A1F
330
1E
100
AcDbEntity
  8
7
100
AcDbLine
 10
2.717761828720686
 20
2.958721681820707
 30
0.0
 11
2.729572852342733
 21
2.958721681820707
 31
0.0
  0
LINE
  5
3A20
330
1E
100
AcDbEntity
  8
7
100
AcDbLine
 10
2.729572852342733
 20
2.958721681820707
 30
0.0
 11
2.735478364153757
 21
2.956753177883699
 31
0.0
  0
LINE
  5
3A21
330
1E
100
AcDbEntity
  8
7
100
AcDbLine
 10
3.495320883838795
 20
3.496123256623857
 30
0.0
 11
3.495320883838795
 21
3.746123256623857
 31
0.0
  0
LINE
  5
3A22
330
1E
100
AcDbEntity
  8
7
100
AcDbLine
 10
3.495320883838795
 20
3.746123256623857
 30
0.0
 11
3.53665946651596
 21
3.746123256623857
 31
0.0
  0
LINE
  5
3A23
330
1E
100
AcDbEntity
  8
7
100
AcDbLine
 10
3.53665946651596
 20
3.746123256623857
 30
0.0
 11
3.53665946651596
 21
3.85439097315929
 31
0.0
  0
LINE
  5
3A24
330
1E
100
AcDbEntity
  8
7
100
AcDbLine
 10
3.53665946651596
 20
3.85439097315929
 30
0.0
 11
3.715793324783676
 21
3.85439097315929
 31
0.0
  0
LINE
  5
3A25
330
1E
100
AcDbEntity
  8
7
100
AcDbLine
 10
2.822092537382103
 20
3.870139004655353
 30
0.0
 11
2.774848442893914
 21
3.860296484970314
 31
0.0
  0
LINE
  5
3A26
330
1E
100
AcDbEntity
  8
7
100
AcDbLine
 10
2.774848442893914
 20
3.860296484970314
 30
0.0
 11
2.735478364153757
 21
3.83470593378921
 31
0.0
  0
LINE
  5
3A27
330
1E
100
AcDbEntity
  8
7
100
AcDbLine
 10
2.735478364153757
 20
3.83470593378921
 30
0.0
 11
2.709887812972654
 21
3.793367351112046
 31
0.0
  0
LINE
  5
3A28
330
1E
100
AcDbEntity
  8
7
100
AcDbLine
 10
2.709887812972654
 20
3.793367351112046
 30
0.0
 11
2.700045293287614
 21
3.746123256623857
 31
0.0
  0
LINE
  5
3A29
330
1E
100
AcDbEntity
  8
7
100
AcDbLine
 10
2.735478364153757
 20
3.40950908339551
 30
0.0
 11
2.774848442893914
 21
3.383918532214408
 31
0.0
  0
LINE
  5
3A2A
330
1E
100
AcDbEntity
  8
7
100
AcDbLine
 10
2.774848442893914
 20
3.383918532214408
 30
0.0
 11
2.822092537382103
 21
3.374076012529368
 31
0.0
  0
LINE
  5
3A2B
330
1E
100
AcDbEntity
  8
7
100
AcDbLine
 10
2.700045293287614
 20
3.498091760560864
 30
0.0
 11
2.709887812972654
 21
3.448879162135668
 31
0.0
  0
LINE
  5
3A2C
330
1E
100
AcDbEntity
  8
7
100
AcDbLine
 10
2.709887812972654
 20
3.448879162135668
 30
0.0
 11
2.735478364153757
 21
3.40950908339551
 31
0.0
  0
LINE
  5
3A2D
330
1E
100
AcDbEntity
  8
7
100
AcDbLine
 10
3.322092537382102
 20
3.374076012529368
 30
0.0
 11
3.369336631870291
 21
3.383918532214408
 31
0.0
  0
LINE
  5
3A2E
330
1E
100
AcDbEntity
  8
7
100
AcDbLine
 10
3.369336631870291
 20
3.383918532214408
 30
0.0
 11
3.408706710610449
 21
3.40950908339551
 31
0.0
  0
LINE
  5
3A2F
330
1E
100
AcDbEntity
  8
7
100
AcDbLine
 10
3.408706710610449
 20
3.40950908339551
 30
0.0
 11
3.436265765728558
 21
3.448879162135668
 31
0.0
  0
LINE
  5
3A30
330
1E
100
AcDbEntity
  8
7
100
AcDbLine
 10
3.436265765728558
 20
3.448879162135668
 30
0.0
 11
3.446108285413599
 21
3.498091760560864
 31
0.0
  0
LINE
  5
3A31
330
1E
100
AcDbEntity
  8
7
100
AcDbLine
 10
3.446108285413599
 20
3.746123256623857
 30
0.0
 11
3.436265765728558
 21
3.793367351112046
 31
0.0
  0
LINE
  5
3A32
330
1E
100
AcDbEntity
  8
7
100
AcDbLine
 10
3.436265765728558
 20
3.793367351112046
 30
0.0
 11
3.408706710610449
 21
3.83470593378921
 31
0.0
  0
LINE
  5
3A33
330
1E
100
AcDbEntity
  8
7
100
AcDbLine
 10
3.408706710610449
 20
3.83470593378921
 30
0.0
 11
3.369336631870291
 21
3.860296484970314
 31
0.0
  0
LINE
  5
3A34
330
1E
100
AcDbEntity
  8
7
100
AcDbLine
 10
3.369336631870291
 20
3.860296484970314
 30
0.0
 11
3.322092537382102
 21
3.870139004655353
 31
0.0
  0
LINE
  5
3A35
330
1E
100
AcDbEntity
  8
7
100
AcDbLine
 10
1.011068915334859
 20
4.464627193631731
 30
0.0
 11
2.52878545076793
 21
4.464627193631731
 31
0.0
  0
LINE
  5
3A36
330
1E
100
AcDbEntity
  8
7
100
AcDbLine
 10
2.52878545076793
 20
4.464627193631731
 30
0.0
 11
2.52878545076793
 21
2.77958782355299
 31
0.0
  0
LINE
  5
3A37
330
1E
100
AcDbEntity
  8
7
100
AcDbLine
 10
4.495320883838795
 20
4.326831918041179
 30
0.0
 11
4.477604348405725
 21
4.309115382608109
 31
0.0
  0
LINE
  5
3A38
330
1E
100
AcDbEntity
  8
7
100
AcDbLine
 10
4.477604348405725
 20
4.309115382608109
 30
0.0
 11
4.477604348405725
 21
4.19691065819866
 31
0.0
  0
LINE
  5
3A39
330
1E
100
AcDbEntity
  8
7
100
AcDbLine
 10
4.477604348405725
 20
4.309115382608109
 30
0.0
 11
4.467761828720684
 21
4.370139004655353
 31
0.0
  0
LINE
  5
3A3A
330
1E
100
AcDbEntity
  8
7
100
AcDbLine
 10
4.467761828720684
 20
4.370139004655353
 30
0.0
 11
4.440202773602575
 21
4.423288610954566
 31
0.0
  0
LINE
  5
3A3B
330
1E
100
AcDbEntity
  8
7
100
AcDbLine
 10
4.440202773602575
 20
4.423288610954566
 30
0.0
 11
4.396895686988401
 21
4.466595697568738
 31
0.0
  0
LINE
  5
3A3C
330
1E
100
AcDbEntity
  8
7
100
AcDbLine
 10
4.396895686988401
 20
4.466595697568738
 30
0.0
 11
4.343746080689189
 21
4.494154752686849
 31
0.0
  0
LINE
  5
3A3D
330
1E
100
AcDbEntity
  8
7
100
AcDbLine
 10
4.343746080689189
 20
4.494154752686849
 30
0.0
 11
4.282722458641945
 21
4.503997272371888
 31
0.0
  0
LINE
  5
3A3E
330
1E
100
AcDbEntity
  8
7
100
AcDbLine
 10
4.428391749980526
 20
4.192973650324644
 30
0.0
 11
4.432328757854543
 21
4.19691065819866
 31
0.0
  0
LINE
  5
3A3F
330
1E
100
AcDbEntity
  8
7
100
AcDbLine
 10
4.432328757854543
 20
4.19691065819866
 30
0.0
 11
4.432328757854543
 21
4.29927286292307
 31
0.0
  0
LINE
  5
3A40
330
1E
100
AcDbEntity
  8
7
100
AcDbLine
 10
4.270911435019897
 20
4.458721681820707
 30
0.0
 11
4.320124033445095
 21
4.450847666072675
 31
0.0
  0
LINE
  5
3A41
330
1E
100
AcDbEntity
  8
7
100
AcDbLine
 10
4.320124033445095
 20
4.450847666072675
 30
0.0
 11
4.365399623996275
 21
4.427225618828581
 31
0.0
  0
LINE
  5
3A42
330
1E
100
AcDbEntity
  8
7
100
AcDbLine
 10
4.365399623996275
 20
4.427225618828581
 30
0.0
 11
4.400832694862417
 21
4.39179254796244
 31
0.0
  0
LINE
  5
3A43
330
1E
100
AcDbEntity
  8
7
100
AcDbLine
 10
4.400832694862417
 20
4.39179254796244
 30
0.0
 11
4.424454742106512
 21
4.348485461348266
 31
0.0
  0
LINE
  5
3A44
330
1E
100
AcDbEntity
  8
7
100
AcDbLine
 10
4.424454742106512
 20
4.348485461348266
 30
0.0
 11
4.432328757854543
 21
4.29927286292307
 31
0.0
  0
LINE
  5
3A45
330
1E
100
AcDbEntity
  8
7
100
AcDbLine
 10
3.875242143681315
 20
4.456753177883699
 30
0.0
 11
3.877210647618323
 21
4.458721681820707
 31
0.0
  0
LINE
  5
3A46
330
1E
100
AcDbEntity
  8
7
100
AcDbLine
 10
3.877210647618323
 20
4.458721681820707
 30
0.0
 11
3.877210647618323
 21
4.503997272371888
 31
0.0
  0
LINE
  5
3A47
330
1E
100
AcDbEntity
  8
7
100
AcDbLine
 10
3.877210647618323
 20
4.503997272371888
 30
0.0
 11
3.875242143681315
 21
4.513839792056927
 31
0.0
  0
LINE
  5
3A48
330
1E
100
AcDbEntity
  8
7
100
AcDbLine
 10
3.863431120059267
 20
4.442973650324644
 30
0.0
 11
3.873273639744306
 21
4.442973650324644
 31
0.0
  0
LINE
  5
3A49
330
1E
100
AcDbEntity
  8
7
100
AcDbLine
 10
3.873273639744306
 20
4.442973650324644
 30
0.0
 11
3.875242143681315
 21
4.44691065819866
 31
0.0
  0
LINE
  5
3A4A
330
1E
100
AcDbEntity
  8
7
100
AcDbLine
 10
3.875242143681315
 20
4.44691065819866
 30
0.0
 11
3.875242143681315
 21
4.513839792056927
 31
0.0
  0
LINE
  5
3A4B
330
1E
100
AcDbEntity
  8
7
100
AcDbLine
 10
4.428391749980526
 20
4.192973650324644
 30
0.0
 11
4.428391749980526
 21
4.295335855049053
 31
0.0
  0
LINE
  5
3A4C
330
1E
100
AcDbEntity
  8
7
100
AcDbLine
 10
4.428391749980526
 20
4.295335855049053
 30
0.0
 11
4.420517734232495
 21
4.344548453474251
 31
0.0
  0
LINE
  5
3A4D
330
1E
100
AcDbEntity
  8
7
100
AcDbLine
 10
4.420517734232495
 20
4.344548453474251
 30
0.0
 11
4.39886419092541
 21
4.389824044025431
 31
0.0
  0
LINE
  5
3A4E
330
1E
100
AcDbEntity
  8
7
100
AcDbLine
 10
4.39886419092541
 20
4.389824044025431
 30
0.0
 11
4.363431120059267
 21
4.425257114891573
 31
0.0
  0
LINE
  5
3A4F
330
1E
100
AcDbEntity
  8
7
100
AcDbLine
 10
4.363431120059267
 20
4.425257114891573
 30
0.0
 11
4.318155529508086
 21
4.44691065819866
 31
0.0
  0
LINE
  5
3A50
330
1E
100
AcDbEntity
  8
7
100
AcDbLine
 10
4.318155529508086
 20
4.44691065819866
 30
0.0
 11
4.268942931082889
 21
4.454784673946692
 31
0.0
  0
LINE
  5
3A51
330
1E
100
AcDbEntity
  8
7
100
AcDbLine
 10
2.735478364153757
 20
4.291398847175038
 30
0.0
 11
2.723667340531709
 21
4.289430343238029
 31
0.0
  0
LINE
  5
3A52
330
1E
100
AcDbEntity
  8
7
100
AcDbLine
 10
2.723667340531709
 20
4.289430343238029
 30
0.0
 11
2.711856316909662
 21
4.291398847175038
 31
0.0
  0
LINE
  5
3A53
330
1E
100
AcDbEntity
  8
7
100
AcDbLine
 10
2.711856316909662
 20
4.291398847175038
 30
0.0
 11
2.707919309035646
 21
4.293367351112046
 31
0.0
  0
LINE
  5
3A54
330
1E
100
AcDbEntity
  8
7
100
AcDbLine
 10
2.654769702736434
 20
4.259902784182912
 30
0.0
 11
2.660675214547457
 21
4.236280736938818
 31
0.0
  0
LINE
  5
3A55
330
1E
100
AcDbEntity
  8
7
100
AcDbLine
 10
2.660675214547457
 20
4.236280736938818
 30
0.0
 11
2.680360253917536
 21
4.222501209379762
 31
0.0
  0
LINE
  5
3A56
330
1E
100
AcDbEntity
  8
7
100
AcDbLine
 10
2.680360253917536
 20
4.222501209379762
 30
0.0
 11
2.70398230116163
 21
4.222501209379762
 31
0.0
  0
LINE
  5
3A57
330
1E
100
AcDbEntity
  8
7
100
AcDbLine
 10
2.707919309035646
 20
4.291398847175038
 30
0.0
 11
2.684297261791551
 21
4.293367351112046
 31
0.0
  0
LINE
  5
3A58
330
1E
100
AcDbEntity
  8
7
100
AcDbLine
 10
2.684297261791551
 20
4.293367351112046
 30
0.0
 11
2.662643718484465
 21
4.281556327489997
 31
0.0
  0
LINE
  5
3A59
330
1E
100
AcDbEntity
  8
7
100
AcDbLine
 10
2.662643718484465
 20
4.281556327489997
 30
0.0
 11
2.654769702736434
 21
4.259902784182912
 31
0.0
  0
LINE
  5
3A5A
330
1E
100
AcDbEntity
  8
7
100
AcDbLine
 10
2.735478364153757
 20
2.950847666072675
 30
0.0
 11
2.723667340531709
 21
2.954784673946692
 31
0.0
  0
LINE
  5
3A5B
330
1E
100
AcDbEntity
  8
7
100
AcDbLine
 10
2.723667340531709
 20
2.954784673946692
 30
0.0
 11
2.711856316909662
 21
2.952816170009683
 31
0.0
  0
LINE
  5
3A5C
330
1E
100
AcDbEntity
  8
7
100
AcDbLine
 10
2.711856316909662
 20
2.952816170009683
 30
0.0
 11
2.707919309035646
 21
2.950847666072675
 31
0.0
  0
LINE
  5
3A5D
330
1E
100
AcDbEntity
  8
7
100
AcDbLine
 10
2.660675214547457
 20
3.007934280245903
 30
0.0
 11
2.654769702736434
 21
2.984312233001809
 31
0.0
  0
LINE
  5
3A5E
330
1E
100
AcDbEntity
  8
7
100
AcDbLine
 10
2.654769702736434
 20
2.984312233001809
 30
0.0
 11
2.662643718484465
 21
2.962658689694723
 31
0.0
  0
LINE
  5
3A5F
330
1E
100
AcDbEntity
  8
7
100
AcDbLine
 10
2.662643718484465
 20
2.962658689694723
 30
0.0
 11
2.684297261791551
 21
2.950847666072675
 31
0.0
  0
LINE
  5
3A60
330
1E
100
AcDbEntity
  8
7
100
AcDbLine
 10
2.684297261791551
 20
2.950847666072675
 30
0.0
 11
2.707919309035646
 21
2.952816170009683
 31
0.0
  0
LINE
  5
3A61
330
1E
100
AcDbEntity
  8
7
100
AcDbLine
 10
2.70398230116163
 20
3.021713807804959
 30
0.0
 11
2.680360253917536
 21
3.021713807804959
 31
0.0
  0
LINE
  5
3A62
330
1E
100
AcDbEntity
  8
7
100
AcDbLine
 10
2.680360253917536
 20
3.021713807804959
 30
0.0
 11
2.660675214547457
 21
3.007934280245903
 31
0.0
  0
LINE
  5
3A63
330
1E
100
AcDbEntity
  8
7
100
AcDbLine
 10
2.766974427145883
 20
2.787461839301021
 30
0.0
 11
2.763037419271867
 21
2.785493335364014
 31
0.0
  0
LINE
  5
3A64
330
1E
100
AcDbEntity
  8
7
100
AcDbLine
 10
2.763037419271867
 20
2.785493335364014
 30
0.0
 11
2.763037419271867
 21
2.740217744812833
 31
0.0
  0
LINE
  5
3A65
330
1E
100
AcDbEntity
  8
7
100
AcDbLine
 10
2.883116159429347
 20
2.935099634576612
 30
0.0
 11
2.794533482263993
 21
2.980375225127794
 31
0.0
  0
LINE
  5
3A66
330
1E
100
AcDbEntity
  8
7
100
AcDbLine
 10
2.794533482263993
 20
2.980375225127794
 30
0.0
 11
2.70398230116163
 21
3.017776799930944
 31
0.0
  0
LINE
  5
3A67
330
1E
100
AcDbEntity
  8
7
100
AcDbLine
 10
2.885084663366355
 20
2.939036642450629
 30
0.0
 11
2.796501986201
 21
2.986280736938818
 31
0.0
  0
LINE
  5
3A68
330
1E
100
AcDbEntity
  8
7
100
AcDbLine
 10
2.796501986201
 20
2.986280736938818
 30
0.0
 11
2.705950805098638
 21
3.023682311741966
 31
0.0
  0
LINE
  5
3A69
330
1E
100
AcDbEntity
  8
7
100
AcDbLine
 10
2.900832694862418
 20
2.895729555836455
 30
0.0
 11
2.900832694862418
 21
2.919351603080549
 31
0.0
  0
LINE
  5
3A6A
330
1E
100
AcDbEntity
  8
7
100
AcDbLine
 10
2.900832694862418
 20
2.919351603080549
 30
0.0
 11
2.885084663366355
 21
2.93706813851362
 31
0.0
  0
LINE
  5
3A6B
330
1E
100
AcDbEntity
  8
7
100
AcDbLine
 10
2.829966553130135
 20
2.895729555836455
 30
0.0
 11
2.843746080689189
 21
2.876044516466377
 31
0.0
  0
LINE
  5
3A6C
330
1E
100
AcDbEntity
  8
7
100
AcDbLine
 10
2.843746080689189
 20
2.876044516466377
 30
0.0
 11
2.865399623996276
 21
2.868170500718346
 31
0.0
  0
LINE
  5
3A6D
330
1E
100
AcDbEntity
  8
7
100
AcDbLine
 10
2.865399623996276
 20
2.868170500718346
 30
0.0
 11
2.889021671240371
 21
2.876044516466377
 31
0.0
  0
LINE
  5
3A6E
330
1E
100
AcDbEntity
  8
7
100
AcDbLine
 10
2.889021671240371
 20
2.876044516466377
 30
0.0
 11
2.900832694862418
 21
2.895729555836455
 31
0.0
  0
LINE
  5
3A6F
330
1E
100
AcDbEntity
  8
7
100
AcDbLine
 10
2.83390356100415
 20
2.897698059773462
 30
0.0
 11
2.847683088563205
 21
2.876044516466377
 31
0.0
  0
LINE
  5
3A70
330
1E
100
AcDbEntity
  8
7
100
AcDbLine
 10
2.847683088563205
 20
2.876044516466377
 30
0.0
 11
2.873273639744308
 21
2.874076012529368
 31
0.0
  0
LINE
  5
3A71
330
1E
100
AcDbEntity
  8
7
100
AcDbLine
 10
2.873273639744308
 20
2.874076012529368
 30
0.0
 11
2.894927183051394
 21
2.887855540088423
 31
0.0
  0
LINE
  5
3A72
330
1E
100
AcDbEntity
  8
7
100
AcDbLine
 10
2.894927183051394
 20
2.887855540088423
 30
0.0
 11
2.896895686988402
 21
2.913446091269525
 31
0.0
  0
LINE
  5
3A73
330
1E
100
AcDbEntity
  8
7
100
AcDbLine
 10
2.896895686988402
 20
2.913446091269525
 30
0.0
 11
2.883116159429347
 21
2.935099634576612
 31
0.0
  0
LINE
  5
3A74
330
1E
100
AcDbEntity
  8
7
100
AcDbLine
 10
2.827998049193126
 20
2.895729555836455
 30
0.0
 11
2.822092537382103
 21
2.905572075521494
 31
0.0
  0
LINE
  5
3A75
330
1E
100
AcDbEntity
  8
7
100
AcDbLine
 10
2.822092537382103
 20
2.905572075521494
 30
0.0
 11
2.814218521634072
 21
2.913446091269525
 31
0.0
  0
LINE
  5
3A76
330
1E
100
AcDbEntity
  8
7
100
AcDbLine
 10
2.814218521634072
 20
2.913446091269525
 30
0.0
 11
2.810281513760056
 21
2.917383099143542
 31
0.0
  0
LINE
  5
3A77
330
1E
100
AcDbEntity
  8
7
100
AcDbLine
 10
2.814218521634072
 20
2.919351603080549
 30
0.0
 11
2.824061041319111
 21
2.913446091269525
 31
0.0
  0
LINE
  5
3A78
330
1E
100
AcDbEntity
  8
7
100
AcDbLine
 10
2.824061041319111
 20
2.913446091269525
 30
0.0
 11
2.829966553130135
 21
2.903603571584486
 31
0.0
  0
LINE
  5
3A79
330
1E
100
AcDbEntity
  8
7
100
AcDbLine
 10
2.829966553130135
 20
2.903603571584486
 30
0.0
 11
2.831935057067142
 21
2.897698059773462
 31
0.0
  0
LINE
  5
3A7A
330
1E
100
AcDbEntity
  8
7
100
AcDbLine
 10
2.831935057067142
 20
2.897698059773462
 30
0.0
 11
2.829966553130135
 21
2.895729555836455
 31
0.0
  0
LINE
  5
3A7B
330
1E
100
AcDbEntity
  8
7
100
AcDbLine
 10
2.829966553130135
 20
2.895729555836455
 30
0.0
 11
2.827998049193126
 21
2.895729555836455
 31
0.0
  0
LINE
  5
3A7C
330
1E
100
AcDbEntity
  8
7
100
AcDbLine
 10
0.9933523799017889
 20
2.722501209379762
 30
0.0
 11
1.011068915334859
 21
2.740217744812833
 31
0.0
  0
LINE
  5
3A7D
330
1E
100
AcDbEntity
  8
7
100
AcDbLine
 10
1.011068915334859
 20
2.740217744812833
 30
0.0
 11
1.011068915334859
 21
2.77958782355299
 31
0.0
  0
LINE
  5
3A7E
330
1E
100
AcDbEntity
  8
7
100
AcDbLine
 10
2.400832694862418
 20
2.722501209379762
 30
0.0
 11
2.404769702736434
 21
2.740217744812833
 31
0.0
  0
LINE
  5
3A7F
330
1E
100
AcDbEntity
  8
7
100
AcDbLine
 10
2.404769702736434
 20
2.740217744812833
 30
0.0
 11
2.404769702736434
 21
2.77958782355299
 31
0.0
  0
LINE
  5
3A80
330
1E
100
AcDbEntity
  8
7
100
AcDbLine
 10
2.404769702736434
 20
2.77958782355299
 30
0.0
 11
2.402801198799425
 21
2.781556327489997
 31
0.0
  0
LINE
  5
3A81
330
1E
100
AcDbEntity
  8
7
100
AcDbLine
 10
2.766974427145883
 20
4.515808295993934
 30
0.0
 11
2.763037419271867
 21
4.503997272371888
 31
0.0
  0
LINE
  5
3A82
330
1E
100
AcDbEntity
  8
7
100
AcDbLine
 10
2.763037419271867
 20
4.503997272371888
 30
0.0
 11
2.763037419271867
 21
4.458721681820707
 31
0.0
  0
LINE
  5
3A83
330
1E
100
AcDbEntity
  8
7
100
AcDbLine
 10
3.826029545256117
 20
4.002028768434881
 30
0.0
 11
3.82406104131911
 21
3.998091760560864
 31
0.0
  0
LINE
  5
3A84
330
1E
100
AcDbEntity
  8
7
100
AcDbLine
 10
3.82406104131911
 20
3.998091760560864
 30
0.0
 11
3.82406104131911
 21
3.244154752686849
 31
0.0
  0
LINE
  5
3A85
330
1E
100
AcDbEntity
  8
7
100
AcDbLine
 10
3.82406104131911
 20
3.244154752686849
 30
0.0
 11
3.826029545256117
 21
3.24218624874984
 31
0.0
  0
LINE
  5
3A86
330
1E
100
AcDbEntity
  8
7
100
AcDbLine
 10
3.826029545256117
 20
3.24218624874984
 30
0.0
 11
3.826029545256117
 21
4.002028768434881
 31
0.0
  0
LINE
  5
3A87
330
1E
100
AcDbEntity
  8
7
100
AcDbLine
 10
2.814218521634072
 20
4.324863414104171
 30
0.0
 11
2.774848442893914
 21
4.305178374734092
 31
0.0
  0
LINE
  5
3A88
330
1E
100
AcDbEntity
  8
7
100
AcDbLine
 10
2.774848442893914
 20
4.305178374734092
 30
0.0
 11
2.735478364153757
 21
4.287461839301021
 31
0.0
  0
LINE
  5
3A89
330
1E
100
AcDbEntity
  8
7
100
AcDbLine
 10
2.810281513760056
 20
4.326831918041179
 30
0.0
 11
2.772879938956906
 21
4.309115382608109
 31
0.0
  0
LINE
  5
3A8A
330
1E
100
AcDbEntity
  8
7
100
AcDbLine
 10
2.772879938956906
 20
4.309115382608109
 30
0.0
 11
2.735478364153757
 21
4.291398847175038
 31
0.0
  0
LINE
  5
3A8B
330
1E
100
AcDbEntity
  8
7
100
AcDbLine
 10
2.885084663366355
 20
4.305178374734092
 30
0.0
 11
2.796501986201
 21
4.257934280245903
 31
0.0
  0
LINE
  5
3A8C
330
1E
100
AcDbEntity
  8
7
100
AcDbLine
 10
2.796501986201
 20
4.257934280245903
 30
0.0
 11
2.705950805098638
 21
4.220532705442755
 31
0.0
  0
LINE
  5
3A8D
330
1E
100
AcDbEntity
  8
7
100
AcDbLine
 10
2.883116159429347
 20
4.309115382608109
 30
0.0
 11
2.794533482263993
 21
4.26187128811992
 31
0.0
  0
LINE
  5
3A8E
330
1E
100
AcDbEntity
  8
7
100
AcDbLine
 10
2.794533482263993
 20
4.26187128811992
 30
0.0
 11
2.70398230116163
 21
4.22446971331677
 31
0.0
  0
LINE
  5
3A8F
330
1E
100
AcDbEntity
  8
7
100
AcDbLine
 10
2.70398230116163
 20
4.22446971331677
 30
0.0
 11
2.705950805098638
 21
4.220532705442755
 31
0.0
  0
LINE
  5
3A90
330
1E
100
AcDbEntity
  8
7
100
AcDbLine
 10
2.889021671240371
 20
4.366201996781336
 30
0.0
 11
2.865399623996276
 21
4.374076012529368
 31
0.0
  0
LINE
  5
3A91
330
1E
100
AcDbEntity
  8
7
100
AcDbLine
 10
2.865399623996276
 20
4.374076012529368
 30
0.0
 11
2.843746080689189
 21
4.366201996781336
 31
0.0
  0
LINE
  5
3A92
330
1E
100
AcDbEntity
  8
7
100
AcDbLine
 10
2.843746080689189
 20
4.366201996781336
 30
0.0
 11
2.829966553130135
 21
4.346516957411258
 31
0.0
  0
LINE
  5
3A93
330
1E
100
AcDbEntity
  8
7
100
AcDbLine
 10
2.885084663366355
 20
4.305178374734092
 30
0.0
 11
2.900832694862418
 21
4.322894910167164
 31
0.0
  0
LINE
  5
3A94
330
1E
100
AcDbEntity
  8
7
100
AcDbLine
 10
2.900832694862418
 20
4.322894910167164
 30
0.0
 11
2.900832694862418
 21
4.346516957411258
 31
0.0
  0
LINE
  5
3A95
330
1E
100
AcDbEntity
  8
7
100
AcDbLine
 10
2.900832694862418
 20
4.346516957411258
 30
0.0
 11
2.889021671240371
 21
4.366201996781336
 31
0.0
  0
LINE
  5
3A96
330
1E
100
AcDbEntity
  8
7
100
AcDbLine
 10
2.883116159429347
 20
4.307146878671101
 30
0.0
 11
2.896895686988402
 21
4.328800421978188
 31
0.0
  0
LINE
  5
3A97
330
1E
100
AcDbEntity
  8
7
100
AcDbLine
 10
2.896895686988402
 20
4.328800421978188
 30
0.0
 11
2.894927183051394
 21
4.35439097315929
 31
0.0
  0
LINE
  5
3A98
330
1E
100
AcDbEntity
  8
7
100
AcDbLine
 10
2.894927183051394
 20
4.35439097315929
 30
0.0
 11
2.873273639744308
 21
4.368170500718346
 31
0.0
  0
LINE
  5
3A99
330
1E
100
AcDbEntity
  8
7
100
AcDbLine
 10
2.873273639744308
 20
4.368170500718346
 30
0.0
 11
2.847683088563205
 21
4.366201996781336
 31
0.0
  0
LINE
  5
3A9A
330
1E
100
AcDbEntity
  8
7
100
AcDbLine
 10
2.847683088563205
 20
4.366201996781336
 30
0.0
 11
2.83390356100415
 21
4.344548453474251
 31
0.0
  0
LINE
  5
3A9B
330
1E
100
AcDbEntity
  8
7
100
AcDbLine
 10
2.810281513760056
 20
4.326831918041179
 30
0.0
 11
2.820124033445095
 21
4.33470593378921
 31
0.0
  0
LINE
  5
3A9C
330
1E
100
AcDbEntity
  8
7
100
AcDbLine
 10
2.820124033445095
 20
4.33470593378921
 30
0.0
 11
2.826029545256119
 21
4.344548453474251
 31
0.0
  0
LINE
  5
3A9D
330
1E
100
AcDbEntity
  8
7
100
AcDbLine
 10
2.826029545256119
 20
4.344548453474251
 30
0.0
 11
2.827998049193126
 21
4.348485461348266
 31
0.0
  0
LINE
  5
3A9E
330
1E
100
AcDbEntity
  8
7
100
AcDbLine
 10
2.831935057067142
 20
4.346516957411258
 30
0.0
 11
2.827998049193126
 21
4.33470593378921
 31
0.0
  0
LINE
  5
3A9F
330
1E
100
AcDbEntity
  8
7
100
AcDbLine
 10
2.827998049193126
 20
4.33470593378921
 30
0.0
 11
2.820124033445095
 21
4.326831918041179
 31
0.0
  0
LINE
  5
3AA0
330
1E
100
AcDbEntity
  8
7
100
AcDbLine
 10
2.820124033445095
 20
4.326831918041179
 30
0.0
 11
2.814218521634072
 21
4.324863414104171
 31
0.0
  0
LINE
  5
3AA1
330
1E
100
AcDbEntity
  8
7
100
AcDbLine
 10
4.268942931082889
 20
2.787461839301021
 30
0.0
 11
4.318155529508086
 21
2.795335855049053
 31
0.0
  0
LINE
  5
3AA2
330
1E
100
AcDbEntity
  8
7
100
AcDbLine
 10
4.318155529508086
 20
2.795335855049053
 30
0.0
 11
4.363431120059267
 21
2.818957902293147
 31
0.0
  0
LINE
  5
3AA3
330
1E
100
AcDbEntity
  8
7
100
AcDbLine
 10
4.363431120059267
 20
2.818957902293147
 30
0.0
 11
4.39886419092541
 21
2.85439097315929
 31
0.0
  0
LINE
  5
3AA4
330
1E
100
AcDbEntity
  8
7
100
AcDbLine
 10
4.39886419092541
 20
2.85439097315929
 30
0.0
 11
4.420517734232495
 21
2.899666563710471
 31
0.0
  0
LINE
  5
3AA5
330
1E
100
AcDbEntity
  8
7
100
AcDbLine
 10
4.432328757854543
 20
2.944942154261651
 30
0.0
 11
4.424454742106512
 21
2.895729555836455
 31
0.0
  0
LINE
  5
3AA6
330
1E
100
AcDbEntity
  8
7
100
AcDbLine
 10
4.424454742106512
 20
2.895729555836455
 30
0.0
 11
4.400832694862417
 21
2.850453965285273
 31
0.0
  0
LINE
  5
3AA7
330
1E
100
AcDbEntity
  8
7
100
AcDbLine
 10
4.400832694862417
 20
2.850453965285273
 30
0.0
 11
4.365399623996275
 21
2.815020894419133
 31
0.0
  0
LINE
  5
3AA8
330
1E
100
AcDbEntity
  8
7
100
AcDbLine
 10
4.365399623996275
 20
2.815020894419133
 30
0.0
 11
4.320124033445095
 21
2.793367351112046
 31
0.0
  0
LINE
  5
3AA9
330
1E
100
AcDbEntity
  8
7
100
AcDbLine
 10
4.320124033445095
 20
2.793367351112046
 30
0.0
 11
4.270911435019897
 21
2.785493335364014
 31
0.0
  0
LINE
  5
3AAA
330
1E
100
AcDbEntity
  8
7
100
AcDbLine
 10
4.428391749980526
 20
3.051241366860077
 30
0.0
 11
4.432328757854543
 21
3.04730435898606
 31
0.0
  0
LINE
  5
3AAB
330
1E
100
AcDbEntity
  8
7
100
AcDbLine
 10
4.432328757854543
 20
3.04730435898606
 30
0.0
 11
4.477604348405725
 21
3.04730435898606
 31
0.0
  0
LINE
  5
3AAC
330
1E
100
AcDbEntity
  8
7
100
AcDbLine
 10
4.282722458641945
 20
2.740217744812833
 30
0.0
 11
4.343746080689189
 21
2.748091760560864
 31
0.0
  0
LINE
  5
3AAD
330
1E
100
AcDbEntity
  8
7
100
AcDbLine
 10
4.343746080689189
 20
2.748091760560864
 30
0.0
 11
4.396895686988401
 21
2.777619319615983
 31
0.0
  0
LINE
  5
3AAE
330
1E
100
AcDbEntity
  8
7
100
AcDbLine
 10
4.396895686988401
 20
2.777619319615983
 30
0.0
 11
4.440202773602575
 21
2.818957902293147
 31
0.0
  0
LINE
  5
3AAF
330
1E
100
AcDbEntity
  8
7
100
AcDbLine
 10
4.440202773602575
 20
2.818957902293147
 30
0.0
 11
4.467761828720684
 21
2.874076012529368
 31
0.0
  0
LINE
  5
3AB0
330
1E
100
AcDbEntity
  8
7
100
AcDbLine
 10
4.072092537382102
 20
2.838642941663227
 30
0.0
 11
3.873273639744306
 21
2.838642941663227
 31
0.0
  0
LINE
  5
3AB1
330
1E
100
AcDbEntity
  8
7
100
AcDbLine
 10
3.873273639744306
 20
2.838642941663227
 30
0.0
 11
3.875242143681315
 21
2.83667443772622
 31
0.0
  0
LINE
  5
3AB2
330
1E
100
AcDbEntity
  8
7
100
AcDbLine
 10
3.875242143681315
 20
2.83667443772622
 30
0.0
 11
4.070124033445095
 21
2.83667443772622
 31
0.0
  0
LINE
  5
3AB3
330
1E
100
AcDbEntity
  8
7
100
AcDbLine
 10
4.032722458641945
 20
2.730375225127794
 30
0.0
 11
3.875242143681315
 21
2.730375225127794
 31
0.0
  0
LINE
  5
3AB4
330
1E
100
AcDbEntity
  8
7
100
AcDbLine
 10
3.875242143681315
 20
2.730375225127794
 30
0.0
 11
3.875242143681315
 21
2.79730435898606
 31
0.0
  0
LINE
  5
3AB5
330
1E
100
AcDbEntity
  8
7
100
AcDbLine
 10
3.875242143681315
 20
2.79730435898606
 30
0.0
 11
3.873273639744306
 21
2.79927286292307
 31
0.0
  0
LINE
  5
3AB6
330
1E
100
AcDbEntity
  8
7
100
AcDbLine
 10
3.873273639744306
 20
2.79927286292307
 30
0.0
 11
3.863431120059267
 21
2.79927286292307
 31
0.0
  0
LINE
  5
3AB7
330
1E
100
AcDbEntity
  8
7
100
AcDbLine
 10
4.495320883838795
 20
2.917383099143542
 30
0.0
 11
4.485478364153756
 21
2.856359477096297
 31
0.0
  0
LINE
  5
3AB8
330
1E
100
AcDbEntity
  8
7
100
AcDbLine
 10
4.485478364153756
 20
2.856359477096297
 30
0.0
 11
4.457919309035645
 21
2.801241366860077
 31
0.0
  0
LINE
  5
3AB9
330
1E
100
AcDbEntity
  8
7
100
AcDbLine
 10
4.457919309035645
 20
2.801241366860077
 30
0.0
 11
4.414612222421473
 21
2.759902784182912
 31
0.0
  0
LINE
  5
3ABA
330
1E
100
AcDbEntity
  8
7
100
AcDbLine
 10
4.414612222421473
 20
2.759902784182912
 30
0.0
 11
4.36146261612226
 21
2.732343729064801
 31
0.0
  0
LINE
  5
3ABB
330
1E
100
AcDbEntity
  8
7
100
AcDbLine
 10
4.36146261612226
 20
2.732343729064801
 30
0.0
 11
4.300438994075015
 21
2.722501209379762
 31
0.0
  0
LINE
  5
3ABC
330
1E
100
AcDbEntity
  8
7
100
AcDbLine
 10
4.300438994075015
 20
4.521713807804959
 30
0.0
 11
4.36146261612226
 21
4.51187128811992
 31
0.0
  0
LINE
  5
3ABD
330
1E
100
AcDbEntity
  8
7
100
AcDbLine
 10
4.36146261612226
 20
4.51187128811992
 30
0.0
 11
4.414612222421473
 21
4.484312233001809
 31
0.0
  0
LINE
  5
3ABE
330
1E
100
AcDbEntity
  8
7
100
AcDbLine
 10
4.414612222421473
 20
4.484312233001809
 30
0.0
 11
4.457919309035645
 21
4.441005146387636
 31
0.0
  0
LINE
  5
3ABF
330
1E
100
AcDbEntity
  8
7
100
AcDbLine
 10
4.457919309035645
 20
4.441005146387636
 30
0.0
 11
4.485478364153756
 21
4.387855540088423
 31
0.0
  0
LINE
  5
3AC0
330
1E
100
AcDbEntity
  8
7
100
AcDbLine
 10
4.485478364153756
 20
4.387855540088423
 30
0.0
 11
4.495320883838795
 21
4.326831918041179
 31
0.0
  0
LINE
  5
3AC1
330
1E
100
AcDbEntity
  8
7
100
AcDbLine
 10
0.9185492302954889
 20
4.352422469222283
 30
0.0
 11
0.9933523799017889
 21
4.352422469222283
 31
0.0
  0
LINE
  5
3AC2
330
1E
100
AcDbEntity
  8
7
100
AcDbLine
 10
0.9933523799017889
 20
4.352422469222283
 30
0.0
 11
0.9933523799017889
 21
4.521713807804959
 31
0.0
  0
LINE
  5
3AC3
330
1E
100
AcDbEntity
  8
7
100
AcDbLine
 10
2.390990175177378
 20
2.811083886545116
 30
0.0
 11
2.367368127933284
 21
2.828800421978188
 31
0.0
  0
LINE
  5
3AC4
330
1E
100
AcDbEntity
  8
7
100
AcDbLine
 10
2.367368127933284
 20
2.828800421978188
 30
0.0
 11
2.335872064941158
 21
2.828800421978188
 31
0.0
  0
LINE
  5
3AC5
330
1E
100
AcDbEntity
  8
7
100
AcDbLine
 10
2.335872064941158
 20
2.828800421978188
 30
0.0
 11
2.312250017697063
 21
2.811083886545116
 31
0.0
  0
LINE
  5
3AC6
330
1E
100
AcDbEntity
  8
7
100
AcDbLine
 10
2.312250017697063
 20
2.811083886545116
 30
0.0
 11
2.302407498012025
 21
2.781556327489997
 31
0.0
  0
LINE
  5
3AC7
330
1E
100
AcDbEntity
  8
7
100
AcDbLine
 10
4.072092537382102
 20
4.454784673946692
 30
0.0
 11
4.070124033445095
 21
4.456753177883699
 31
0.0
  0
LINE
  5
3AC8
330
1E
100
AcDbEntity
  8
7
100
AcDbLine
 10
4.070124033445095
 20
4.456753177883699
 30
0.0
 11
4.070124033445095
 21
4.407540579458503
 31
0.0
  0
LINE
  5
3AC9
330
1E
100
AcDbEntity
  8
7
100
AcDbLine
 10
4.072092537382102
 20
2.838642941663227
 30
0.0
 11
4.070124033445095
 21
2.83667443772622
 31
0.0
  0
LINE
  5
3ACA
330
1E
100
AcDbEntity
  8
7
100
AcDbLine
 10
4.070124033445095
 20
2.83667443772622
 30
0.0
 11
4.070124033445095
 21
2.787461839301021
 31
0.0
  0
LINE
  5
3ACB
330
1E
100
AcDbEntity
  8
7
100
AcDbLine
 10
1.642958679114387
 20
4.521713807804959
 30
0.0
 11
1.650832694862418
 21
4.515808295993934
 31
0.0
  0
LINE
  5
3ACC
330
1E
100
AcDbEntity
  8
7
100
AcDbLine
 10
1.650832694862418
 20
4.515808295993934
 30
0.0
 11
1.650832694862418
 21
4.58470593378921
 31
0.0
  0
LINE
  5
3ACD
330
1E
100
AcDbEntity
  8
7
100
AcDbLine
 10
1.892958679114387
 20
2.722501209379762
 30
0.0
 11
1.885084663366355
 21
2.728406721190785
 31
0.0
  0
LINE
  5
3ACE
330
1E
100
AcDbEntity
  8
7
100
AcDbLine
 10
1.885084663366355
 20
2.728406721190785
 30
0.0
 11
1.885084663366355
 21
2.65950908339551
 31
0.0
  0
LINE
  5
3ACF
330
1E
100
AcDbEntity
  8
7
100
AcDbLine
 10
3.863431120059267
 20
4.413446091269525
 30
0.0
 11
3.859494112185252
 21
4.401635067647479
 31
0.0
  0
LINE
  5
3AD0
330
1E
100
AcDbEntity
  8
7
100
AcDbLine
 10
3.859494112185252
 20
4.401635067647479
 30
0.0
 11
3.847683088563204
 21
4.397698059773462
 31
0.0
  0
LINE
  5
3AD1
330
1E
100
AcDbEntity
  8
7
100
AcDbLine
 10
3.759100411397851
 20
4.397698059773462
 30
0.0
 11
3.749257891712812
 21
4.39179254796244
 31
0.0
  0
LINE
  5
3AD2
330
1E
100
AcDbEntity
  8
7
100
AcDbLine
 10
3.749257891712812
 20
4.39179254796244
 30
0.0
 11
3.743352379901788
 21
4.379981524340392
 31
0.0
  0
LINE
  5
3AD3
330
1E
100
AcDbEntity
  8
7
100
AcDbLine
 10
3.743352379901788
 20
4.346516957411258
 30
0.0
 11
3.739415372027771
 21
4.33470593378921
 31
0.0
  0
LINE
  5
3AD4
330
1E
100
AcDbEntity
  8
7
100
AcDbLine
 10
3.739415372027771
 20
4.33470593378921
 30
0.0
 11
3.727604348405725
 21
4.328800421978188
 31
0.0
  0
LINE
  5
3AD5
330
1E
100
AcDbEntity
  8
7
100
AcDbLine
 10
3.322092537382102
 20
4.328800421978188
 30
0.0
 11
3.32406104131911
 21
4.307146878671101
 31
0.0
  0
LINE
  5
3AD6
330
1E
100
AcDbEntity
  8
7
100
AcDbLine
 10
3.32406104131911
 20
4.307146878671101
 30
0.0
 11
3.343746080689189
 21
4.29730435898606
 31
0.0
  0
LINE
  5
3AD7
330
1E
100
AcDbEntity
  8
7
100
AcDbLine
 10
3.343746080689189
 20
4.29730435898606
 30
0.0
 11
3.363431120059267
 21
4.307146878671101
 31
0.0
  0
LINE
  5
3AD8
330
1E
100
AcDbEntity
  8
7
100
AcDbLine
 10
3.363431120059267
 20
4.307146878671101
 30
0.0
 11
3.365399623996275
 21
4.328800421978188
 31
0.0
  0
LINE
  5
3AD9
330
1E
100
AcDbEntity
  8
7
100
AcDbLine
 10
2.959887812972654
 20
4.328800421978188
 30
0.0
 11
2.948076789350607
 21
4.33470593378921
 31
0.0
  0
LINE
  5
3ADA
330
1E
100
AcDbEntity
  8
7
100
AcDbLine
 10
2.948076789350607
 20
4.33470593378921
 30
0.0
 11
2.944139781476591
 21
4.346516957411258
 31
0.0
  0
LINE
  5
3ADB
330
1E
100
AcDbEntity
  8
7
100
AcDbLine
 10
2.944139781476591
 20
4.379981524340392
 30
0.0
 11
2.940202773602575
 21
4.39179254796244
 31
0.0
  0
LINE
  5
3ADC
330
1E
100
AcDbEntity
  8
7
100
AcDbLine
 10
2.940202773602575
 20
4.39179254796244
 30
0.0
 11
2.928391749980528
 21
4.397698059773462
 31
0.0
  0
LINE
  5
3ADD
330
1E
100
AcDbEntity
  8
7
100
AcDbLine
 10
2.839809072815174
 20
4.397698059773462
 30
0.0
 11
2.827998049193126
 21
4.401635067647479
 31
0.0
  0
LINE
  5
3ADE
330
1E
100
AcDbEntity
  8
7
100
AcDbLine
 10
2.827998049193126
 20
4.401635067647479
 30
0.0
 11
2.824061041319111
 21
4.413446091269525
 31
0.0
  0
LINE
  5
3ADF
330
1E
100
AcDbEntity
  8
7
100
AcDbLine
 10
2.824061041319111
 20
2.830768925915196
 30
0.0
 11
2.827998049193126
 21
2.842579949537242
 31
0.0
  0
LINE
  5
3AE0
330
1E
100
AcDbEntity
  8
7
100
AcDbLine
 10
2.827998049193126
 20
2.842579949537242
 30
0.0
 11
2.839809072815174
 21
2.846516957411258
 31
0.0
  0
LINE
  5
3AE1
330
1E
100
AcDbEntity
  8
7
100
AcDbLine
 10
2.928391749980528
 20
2.846516957411258
 30
0.0
 11
2.940202773602575
 21
2.852422469222283
 31
0.0
  0
LINE
  5
3AE2
330
1E
100
AcDbEntity
  8
7
100
AcDbLine
 10
2.940202773602575
 20
2.852422469222283
 30
0.0
 11
2.944139781476591
 21
2.862264988907321
 31
0.0
  0
LINE
  5
3AE3
330
1E
100
AcDbEntity
  8
7
100
AcDbLine
 10
3.365399623996275
 20
2.913446091269525
 30
0.0
 11
3.363431120059267
 21
2.935099634576612
 31
0.0
  0
LINE
  5
3AE4
330
1E
100
AcDbEntity
  8
7
100
AcDbLine
 10
3.363431120059267
 20
2.935099634576612
 30
0.0
 11
3.343746080689189
 21
2.944942154261651
 31
0.0
  0
LINE
  5
3AE5
330
1E
100
AcDbEntity
  8
7
100
AcDbLine
 10
3.343746080689189
 20
2.944942154261651
 30
0.0
 11
3.32406104131911
 21
2.935099634576612
 31
0.0
  0
LINE
  5
3AE6
330
1E
100
AcDbEntity
  8
7
100
AcDbLine
 10
3.32406104131911
 20
2.935099634576612
 30
0.0
 11
3.322092537382102
 21
2.913446091269525
 31
0.0
  0
LINE
  5
3AE7
330
1E
100
AcDbEntity
  8
7
100
AcDbLine
 10
3.727604348405725
 20
2.913446091269525
 30
0.0
 11
3.739415372027771
 21
2.90950908339551
 31
0.0
  0
LINE
  5
3AE8
330
1E
100
AcDbEntity
  8
7
100
AcDbLine
 10
3.739415372027771
 20
2.90950908339551
 30
0.0
 11
3.743352379901788
 21
2.897698059773462
 31
0.0
  0
LINE
  5
3AE9
330
1E
100
AcDbEntity
  8
7
100
AcDbLine
 10
3.743352379901788
 20
2.862264988907321
 30
0.0
 11
3.749257891712812
 21
2.852422469222283
 31
0.0
  0
LINE
  5
3AEA
330
1E
100
AcDbEntity
  8
7
100
AcDbLine
 10
3.749257891712812
 20
2.852422469222283
 30
0.0
 11
3.759100411397851
 21
2.846516957411258
 31
0.0
  0
LINE
  5
3AEB
330
1E
100
AcDbEntity
  8
7
100
AcDbLine
 10
3.847683088563204
 20
2.846516957411258
 30
0.0
 11
3.859494112185252
 21
2.842579949537242
 31
0.0
  0
LINE
  5
3AEC
330
1E
100
AcDbEntity
  8
7
100
AcDbLine
 10
3.859494112185252
 20
2.842579949537242
 30
0.0
 11
3.863431120059267
 21
2.830768925915196
 31
0.0
  0
LINE
  5
3AED
330
1E
100
AcDbEntity
  8
7
100
AcDbLine
 10
4.385084663366354
 20
3.102422469222283
 30
0.0
 11
4.375242143681315
 21
3.106359477096297
 31
0.0
  0
LINE
  5
3AEE
330
1E
100
AcDbEntity
  8
7
100
AcDbLine
 10
4.375242143681315
 20
3.106359477096297
 30
0.0
 11
4.369336631870291
 21
3.118170500718346
 31
0.0
  0
LINE
  5
3AEF
330
1E
100
AcDbEntity
  8
7
100
AcDbLine
 10
4.369336631870291
 20
3.206753177883699
 30
0.0
 11
4.365399623996275
 21
3.216595697568738
 31
0.0
  0
LINE
  5
3AF0
330
1E
100
AcDbEntity
  8
7
100
AcDbLine
 10
4.365399623996275
 20
3.216595697568738
 30
0.0
 11
4.353588600374228
 21
3.222501209379762
 31
0.0
  0
LINE
  5
3AF1
330
1E
100
AcDbEntity
  8
7
100
AcDbLine
 10
4.318155529508086
 20
3.222501209379762
 30
0.0
 11
4.308313009823047
 21
3.226438217253777
 31
0.0
  0
LINE
  5
3AF2
330
1E
100
AcDbEntity
  8
7
100
AcDbLine
 10
4.308313009823047
 20
3.226438217253777
 30
0.0
 11
4.302407498012023
 21
3.238249240875825
 31
0.0
  0
LINE
  5
3AF3
330
1E
100
AcDbEntity
  8
7
100
AcDbLine
 10
4.302407498012023
 20
3.643761051899447
 30
0.0
 11
4.280753954704938
 21
3.64179254796244
 31
0.0
  0
LINE
  5
3AF4
330
1E
100
AcDbEntity
  8
7
100
AcDbLine
 10
4.280753954704938
 20
3.64179254796244
 30
0.0
 11
4.270911435019897
 21
3.62210750859236
 31
0.0
  0
LINE
  5
3AF5
330
1E
100
AcDbEntity
  8
7
100
AcDbLine
 10
4.270911435019897
 20
3.62210750859236
 30
0.0
 11
4.280753954704938
 21
3.602422469222283
 31
0.0
  0
LINE
  5
3AF6
330
1E
100
AcDbEntity
  8
7
100
AcDbLine
 10
4.280753954704938
 20
3.602422469222283
 30
0.0
 11
4.302407498012023
 21
3.600453965285273
 31
0.0
  0
LINE
  5
3AF7
330
1E
100
AcDbEntity
  8
7
100
AcDbLine
 10
4.302407498012023
 20
4.013839792056927
 30
0.0
 11
4.308313009823047
 21
4.025650815678975
 31
0.0
  0
LINE
  5
3AF8
330
1E
100
AcDbEntity
  8
7
100
AcDbLine
 10
4.308313009823047
 20
4.025650815678975
 30
0.0
 11
4.318155529508086
 21
4.02958782355299
 31
0.0
  0
LINE
  5
3AF9
330
1E
100
AcDbEntity
  8
7
100
AcDbLine
 10
4.353588600374228
 20
4.02958782355299
 30
0.0
 11
4.365399623996275
 21
4.033524831427007
 31
0.0
  0
LINE
  5
3AFA
330
1E
100
AcDbEntity
  8
7
100
AcDbLine
 10
4.365399623996275
 20
4.033524831427007
 30
0.0
 11
4.369336631870291
 21
4.045335855049053
 31
0.0
  0
LINE
  5
3AFB
330
1E
100
AcDbEntity
  8
7
100
AcDbLine
 10
4.369336631870291
 20
4.126044516466377
 30
0.0
 11
4.375242143681315
 21
4.137855540088423
 31
0.0
  0
LINE
  5
3AFC
330
1E
100
AcDbEntity
  8
7
100
AcDbLine
 10
4.375242143681315
 20
4.137855540088423
 30
0.0
 11
4.385084663366354
 21
4.14179254796244
 31
0.0
  0
LINE
  5
3AFD
330
1E
100
AcDbEntity
  8
7
100
AcDbLine
 10
3.934297261791551
 20
3.559115382608109
 30
0.0
 11
3.944139781476589
 21
3.521713807804959
 31
0.0
  0
LINE
  5
3AFE
330
1E
100
AcDbEntity
  8
7
100
AcDbLine
 10
3.944139781476589
 20
3.521713807804959
 30
0.0
 11
3.971698836594701
 21
3.49218624874984
 31
0.0
  0
LINE
  5
3AFF
330
1E
100
AcDbEntity
  8
7
100
AcDbLine
 10
3.971698836594701
 20
3.49218624874984
 30
0.0
 11
4.011068915334858
 21
3.482343729064801
 31
0.0
  0
LINE
  5
3B00
330
1E
100
AcDbEntity
  8
7
100
AcDbLine
 10
4.011068915334858
 20
3.482343729064801
 30
0.0
 11
4.048470490138008
 21
3.49218624874984
 31
0.0
  0
LINE
  5
3B01
330
1E
100
AcDbEntity
  8
7
100
AcDbLine
 10
4.048470490138008
 20
3.49218624874984
 30
0.0
 11
4.077998049193126
 21
3.519745303867951
 31
0.0
  0
LINE
  5
3B02
330
1E
100
AcDbEntity
  8
7
100
AcDbLine
 10
4.077998049193126
 20
3.519745303867951
 30
0.0
 11
4.087840568878165
 21
3.559115382608109
 31
0.0
  0
LINE
  5
3B03
330
1E
100
AcDbEntity
  8
7
100
AcDbLine
 10
4.087840568878165
 20
3.685099634576612
 30
0.0
 11
4.077998049193126
 21
3.722501209379762
 31
0.0
  0
LINE
  5
3B04
330
1E
100
AcDbEntity
  8
7
100
AcDbLine
 10
4.077998049193126
 20
3.722501209379762
 30
0.0
 11
4.050438994075015
 21
3.752028768434881
 31
0.0
  0
LINE
  5
3B05
330
1E
100
AcDbEntity
  8
7
100
AcDbLine
 10
4.050438994075015
 20
3.752028768434881
 30
0.0
 11
4.011068915334858
 21
3.76187128811992
 31
0.0
  0
LINE
  5
3B06
330
1E
100
AcDbEntity
  8
7
100
AcDbLine
 10
4.011068915334858
 20
3.76187128811992
 30
0.0
 11
3.973667340531708
 21
3.752028768434881
 31
0.0
  0
LINE
  5
3B07
330
1E
100
AcDbEntity
  8
7
100
AcDbLine
 10
3.973667340531708
 20
3.752028768434881
 30
0.0
 11
3.944139781476589
 21
3.72446971331677
 31
0.0
  0
LINE
  5
3B08
330
1E
100
AcDbEntity
  8
7
100
AcDbLine
 10
1.642958679114387
 20
2.653603571584486
 30
0.0
 11
1.892958679114387
 21
2.653603571584486
 31
0.0
  0
LINE
  5
3B09
330
1E
100
AcDbEntity
  8
7
100
AcDbLine
 10
1.892958679114387
 20
2.653603571584486
 30
0.0
 11
1.885084663366355
 21
2.65950908339551
 31
0.0
  0
LINE
  5
3B0A
330
1E
100
AcDbEntity
  8
7
100
AcDbLine
 10
1.892958679114387
 20
4.590611445600234
 30
0.0
 11
1.642958679114387
 21
4.590611445600234
 31
0.0
  0
LINE
  5
3B0B
330
1E
100
AcDbEntity
  8
7
100
AcDbLine
 10
1.642958679114387
 20
4.590611445600234
 30
0.0
 11
1.650832694862418
 21
4.58470593378921
 31
0.0
  0
LINE
  5
3B0C
330
1E
100
AcDbEntity
  8
7
100
AcDbLine
 10
2.51894293108289
 20
4.401635067647479
 30
0.0
 11
1.381147655492339
 21
4.401635067647479
 31
0.0
  0
LINE
  5
3B0D
330
1E
100
AcDbEntity
  8
7
100
AcDbLine
 10
1.381147655492339
 20
4.401635067647479
 30
0.0
 11
1.381147655492339
 21
3.976438217253777
 31
0.0
  0
LINE
  5
3B0E
330
1E
100
AcDbEntity
  8
7
100
AcDbLine
 10
2.51894293108289
 20
3.267776799930944
 30
0.0
 11
1.381147655492339
 21
3.267776799930944
 31
0.0
  0
LINE
  5
3B0F
330
1E
100
AcDbEntity
  8
7
100
AcDbLine
 10
1.381147655492339
 20
3.267776799930944
 30
0.0
 11
1.381147655492339
 21
2.842579949537242
 31
0.0
  0
LINE
  5
3B10
330
1E
100
AcDbEntity
  8
7
100
AcDbLine
 10
2.420517734232497
 20
2.840611445600234
 30
0.0
 11
2.389021671240371
 21
2.864233492844329
 31
0.0
  0
LINE
  5
3B11
330
1E
100
AcDbEntity
  8
7
100
AcDbLine
 10
2.389021671240371
 20
2.864233492844329
 30
0.0
 11
2.351620096437221
 21
2.87210750859236
 31
0.0
  0
LINE
  5
3B12
330
1E
100
AcDbEntity
  8
7
100
AcDbLine
 10
2.351620096437221
 20
2.87210750859236
 30
0.0
 11
2.314218521634072
 21
2.864233492844329
 31
0.0
  0
LINE
  5
3B13
330
1E
100
AcDbEntity
  8
7
100
AcDbLine
 10
2.314218521634072
 20
2.864233492844329
 30
0.0
 11
2.282722458641946
 21
2.840611445600234
 31
0.0
  0
LINE
  5
3B14
330
1E
100
AcDbEntity
  8
7
100
AcDbLine
 10
1.511068915334859
 20
3.62210750859236
 30
0.0
 11
1.520911435019899
 21
3.58470593378921
 31
0.0
  0
LINE
  5
3B15
330
1E
100
AcDbEntity
  8
7
100
AcDbLine
 10
1.520911435019899
 20
3.58470593378921
 30
0.0
 11
1.548470490138009
 21
3.555178374734092
 31
0.0
  0
LINE
  5
3B16
330
1E
100
AcDbEntity
  8
7
100
AcDbLine
 10
1.548470490138009
 20
3.555178374734092
 30
0.0
 11
1.587840568878166
 21
3.545335855049053
 31
0.0
  0
LINE
  5
3B17
330
1E
100
AcDbEntity
  8
7
100
AcDbLine
 10
1.587840568878166
 20
3.698879162135668
 30
0.0
 11
1.550438994075016
 21
3.689036642450629
 31
0.0
  0
LINE
  5
3B18
330
1E
100
AcDbEntity
  8
7
100
AcDbLine
 10
1.550438994075016
 20
3.689036642450629
 30
0.0
 11
1.520911435019899
 21
3.661477587332518
 31
0.0
  0
LINE
  5
3B19
330
1E
100
AcDbEntity
  8
7
100
AcDbLine
 10
1.520911435019899
 20
3.661477587332518
 30
0.0
 11
1.511068915334859
 21
3.62210750859236
 31
0.0
  0
LINE
  5
3B1A
330
1E
100
AcDbEntity
  8
7
100
AcDbLine
 10
1.749257891712812
 20
3.555178374734092
 30
0.0
 11
1.77878545076793
 21
3.582737429852203
 31
0.0
  0
LINE
  5
3B1B
330
1E
100
AcDbEntity
  8
7
100
AcDbLine
 10
1.77878545076793
 20
3.582737429852203
 30
0.0
 11
1.788627970452969
 21
3.62210750859236
 31
0.0
  0
LINE
  5
3B1C
330
1E
100
AcDbEntity
  8
7
100
AcDbLine
 10
1.788627970452969
 20
3.62210750859236
 30
0.0
 11
1.77878545076793
 21
3.65950908339551
 31
0.0
  0
LINE
  5
3B1D
330
1E
100
AcDbEntity
  8
7
100
AcDbLine
 10
1.77878545076793
 20
3.65950908339551
 30
0.0
 11
1.75122639564982
 21
3.689036642450629
 31
0.0
  0
LINE
  5
3B1E
330
1E
100
AcDbEntity
  8
7
100
AcDbLine
 10
1.75122639564982
 20
3.689036642450629
 30
0.0
 11
1.711856316909662
 21
3.698879162135668
 31
0.0
  0
LINE
  5
3B1F
330
1E
100
AcDbEntity
  8
7
100
AcDbLine
 10
2.51894293108289
 20
3.917383099143542
 30
0.0
 11
1.381147655492339
 21
3.917383099143542
 31
0.0
  0
LINE
  5
3B20
330
1E
100
AcDbEntity
  8
7
100
AcDbLine
 10
1.381147655492339
 20
3.917383099143542
 30
0.0
 11
1.381147655492339
 21
3.326831918041179
 31
0.0
  0
LINE
  5
3B21
330
1E
100
AcDbEntity
  8
7
100
AcDbLine
 10
2.810281513760056
 20
2.917383099143542
 30
0.0
 11
2.772879938956906
 21
2.935099634576612
 31
0.0
  0
LINE
  5
3B22
330
1E
100
AcDbEntity
  8
7
100
AcDbLine
 10
2.772879938956906
 20
2.935099634576612
 30
0.0
 11
2.735478364153757
 21
2.950847666072675
 31
0.0
  0
LINE
  5
3B23
330
1E
100
AcDbEntity
  8
7
100
AcDbLine
 10
2.814218521634072
 20
2.919351603080549
 30
0.0
 11
2.774848442893914
 21
2.939036642450629
 31
0.0
  0
LINE
  5
3B24
330
1E
100
AcDbEntity
  8
7
100
AcDbLine
 10
2.774848442893914
 20
2.939036642450629
 30
0.0
 11
2.735478364153757
 21
2.956753177883699
 31
0.0
  0
LINE
  5
3B25
330
1E
100
AcDbEntity
  8
7
100
AcDbLine
 10
2.735478364153757
 20
2.956753177883699
 30
0.0
 11
2.735478364153757
 21
2.954784673946692
 31
0.0
  0
LINE
  5
3B26
330
1E
100
AcDbEntity
  8
7
100
AcDbLine
 10
2.735478364153757
 20
2.954784673946692
 30
0.0
 11
2.735478364153757
 21
2.950847666072675
 31
0.0
  0
LINE
  5
3B27
330
1E
100
AcDbEntity
  8
7
100
AcDbLine
 10
2.520911435019899
 20
3.919351603080549
 30
0.0
 11
2.520911435019899
 21
3.324863414104171
 31
0.0
  0
LINE
  5
3B28
330
1E
100
AcDbEntity
  8
7
100
AcDbLine
 10
2.520911435019899
 20
3.324863414104171
 30
0.0
 11
1.379179151555331
 21
3.324863414104171
 31
0.0
  0
LINE
  5
3B29
330
1E
100
AcDbEntity
  8
7
100
AcDbLine
 10
2.418549230295488
 20
2.838642941663227
 30
0.0
 11
2.389021671240371
 21
2.862264988907321
 31
0.0
  0
LINE
  5
3B2A
330
1E
100
AcDbEntity
  8
7
100
AcDbLine
 10
2.389021671240371
 20
2.862264988907321
 30
0.0
 11
2.351620096437221
 21
2.870139004655353
 31
0.0
  0
LINE
  5
3B2B
330
1E
100
AcDbEntity
  8
7
100
AcDbLine
 10
2.351620096437221
 20
2.870139004655353
 30
0.0
 11
2.314218521634072
 21
2.862264988907321
 31
0.0
  0
LINE
  5
3B2C
330
1E
100
AcDbEntity
  8
7
100
AcDbLine
 10
2.314218521634072
 20
2.862264988907321
 30
0.0
 11
2.284690962578953
 21
2.838642941663227
 31
0.0
  0
LINE
  5
3B2D
330
1E
100
AcDbEntity
  8
7
100
AcDbLine
 10
2.520911435019899
 20
3.267776799930944
 30
0.0
 11
2.520911435019899
 21
2.840611445600234
 31
0.0
  0
LINE
  5
3B2E
330
1E
100
AcDbEntity
  8
7
100
AcDbLine
 10
2.520911435019899
 20
2.840611445600234
 30
0.0
 11
2.418549230295488
 21
2.840611445600234
 31
0.0
  0
LINE
  5
3B2F
330
1E
100
AcDbEntity
  8
7
100
AcDbLine
 10
2.520911435019899
 20
4.403603571584486
 30
0.0
 11
2.520911435019899
 21
3.97446971331677
 31
0.0
  0
LINE
  5
3B30
330
1E
100
AcDbEntity
  8
7
100
AcDbLine
 10
2.520911435019899
 20
3.97446971331677
 30
0.0
 11
1.379179151555331
 21
3.97446971331677
 31
0.0
  0
LINE
  5
3B31
330
1E
100
AcDbEntity
  8
7
100
AcDbLine
 10
2.402801198799425
 20
2.781556327489997
 30
0.0
 11
2.392958679114387
 21
2.811083886545116
 31
0.0
  0
LINE
  5
3B32
330
1E
100
AcDbEntity
  8
7
100
AcDbLine
 10
2.392958679114387
 20
2.811083886545116
 30
0.0
 11
2.367368127933284
 21
2.830768925915196
 31
0.0
  0
LINE
  5
3B33
330
1E
100
AcDbEntity
  8
7
100
AcDbLine
 10
2.367368127933284
 20
2.830768925915196
 30
0.0
 11
2.335872064941158
 21
2.830768925915196
 31
0.0
  0
LINE
  5
3B34
330
1E
100
AcDbEntity
  8
7
100
AcDbLine
 10
2.335872064941158
 20
2.830768925915196
 30
0.0
 11
2.310281513760056
 21
2.811083886545116
 31
0.0
  0
LINE
  5
3B35
330
1E
100
AcDbEntity
  8
7
100
AcDbLine
 10
2.310281513760056
 20
2.811083886545116
 30
0.0
 11
2.300438994075016
 21
2.781556327489997
 31
0.0
  0
LINE
  5
3B36
330
1E
100
AcDbEntity
  8
7
100
AcDbLine
 10
1.227604348405725
 20
3.027619319615983
 30
0.0
 11
1.227604348405725
 21
3.009902784182912
 31
0.0
  0
LINE
  5
3B37
330
1E
100
AcDbEntity
  8
7
100
AcDbLine
 10
1.227604348405725
 20
3.009902784182912
 30
0.0
 11
1.227604348405725
 21
2.998091760560864
 31
0.0
  0
LINE
  5
3B38
330
1E
100
AcDbEntity
  8
7
100
AcDbLine
 10
1.227604348405725
 20
3.65950908339551
 30
0.0
 11
1.227604348405725
 21
3.681162626702597
 31
0.0
  0
LINE
  5
3B39
330
1E
100
AcDbEntity
  8
7
100
AcDbLine
 10
1.227604348405725
 20
3.681162626702597
 30
0.0
 11
1.227604348405725
 21
3.665414595206534
 31
0.0
  0
LINE
  5
3B3A
330
1E
100
AcDbEntity
  8
7
100
AcDbLine
 10
1.369336631870292
 20
4.240217744812833
 30
0.0
 11
1.369336631870292
 21
4.315020894419133
 31
0.0
  0
LINE
  5
3B3B
330
1E
100
AcDbEntity
  8
7
100
AcDbLine
 10
1.369336631870292
 20
4.315020894419133
 30
0.0
 11
1.357525608248245
 21
4.301241366860077
 31
0.0
  0
LINE
  5
3B3C
330
1E
100
AcDbEntity
  8
7
100
AcDbLine
 10
1.357525608248245
 20
4.301241366860077
 30
0.0
 11
1.320124033445095
 21
4.301241366860077
 31
0.0
  0
LINE
  5
3B3D
330
1E
100
AcDbEntity
  8
7
100
AcDbLine
 10
1.231541356279741
 20
4.244154752686849
 30
0.0
 11
1.227604348405725
 21
4.246123256623857
 31
0.0
  0
LINE
  5
3B3E
330
1E
100
AcDbEntity
  8
7
100
AcDbLine
 10
1.227604348405725
 20
4.246123256623857
 30
0.0
 11
1.227604348405725
 21
4.234312233001809
 31
0.0
  0
LINE
  5
3B3F
330
1E
100
AcDbEntity
  8
7
100
AcDbLine
 10
1.077998049193126
 20
4.240217744812833
 30
0.0
 11
1.077998049193126
 21
4.216595697568738
 31
0.0
  0
LINE
  5
3B40
330
1E
100
AcDbEntity
  8
7
100
AcDbLine
 10
1.077998049193126
 20
4.216595697568738
 30
0.0
 11
1.077998049193126
 21
4.234312233001809
 31
0.0
  0
LINE
  5
3B41
330
1E
100
AcDbEntity
  8
7
100
AcDbLine
 10
1.077998049193126
 20
4.234312233001809
 30
0.0
 11
1.077998049193126
 21
4.301241366860077
 31
0.0
  0
LINE
  5
3B42
330
1E
100
AcDbEntity
  8
7
100
AcDbLine
 10
1.077998049193126
 20
4.301241366860077
 30
0.0
 11
1.064218521634072
 21
4.315020894419133
 31
0.0
  0
LINE
  5
3B43
330
1E
100
AcDbEntity
  8
7
100
AcDbLine
 10
1.231541356279741
 20
3.588642941663227
 30
0.0
 11
1.227604348405725
 21
3.590611445600234
 31
0.0
  0
LINE
  5
3B44
330
1E
100
AcDbEntity
  8
7
100
AcDbLine
 10
1.227604348405725
 20
3.590611445600234
 30
0.0
 11
1.227604348405725
 21
3.578800421978188
 31
0.0
  0
LINE
  5
3B45
330
1E
100
AcDbEntity
  8
7
100
AcDbLine
 10
1.077998049193126
 20
3.58470593378921
 30
0.0
 11
1.077998049193126
 21
3.561083886545116
 31
0.0
  0
LINE
  5
3B46
330
1E
100
AcDbEntity
  8
7
100
AcDbLine
 10
1.077998049193126
 20
3.561083886545116
 30
0.0
 11
1.077998049193126
 21
3.578800421978188
 31
0.0
  0
LINE
  5
3B47
330
1E
100
AcDbEntity
  8
7
100
AcDbLine
 10
1.077998049193126
 20
3.578800421978188
 30
0.0
 11
1.077998049193126
 21
3.665414595206534
 31
0.0
  0
LINE
  5
3B48
330
1E
100
AcDbEntity
  8
7
100
AcDbLine
 10
1.072092537382103
 20
3.655572075521494
 30
0.0
 11
1.077998049193126
 21
3.653603571584486
 31
0.0
  0
LINE
  5
3B49
330
1E
100
AcDbEntity
  8
7
100
AcDbLine
 10
1.077998049193126
 20
3.653603571584486
 30
0.0
 11
1.077998049193126
 21
3.590611445600234
 31
0.0
  0
LINE
  5
3B4A
330
1E
100
AcDbEntity
  8
7
100
AcDbLine
 10
0.9913838759647806
 20
3.58470593378921
 30
0.0
 11
0.9402027736025759
 21
3.58470593378921
 31
0.0
  0
LINE
  5
3B4B
330
1E
100
AcDbEntity
  8
7
100
AcDbLine
 10
0.9402027736025759
 20
3.58470593378921
 30
0.0
 11
0.9402027736025759
 21
2.895729555836455
 31
0.0
  0
LINE
  5
3B4C
330
1E
100
AcDbEntity
  8
7
100
AcDbLine
 10
0.9402027736025759
 20
2.895729555836455
 30
0.0
 11
0.9913838759647806
 21
2.895729555836455
 31
0.0
  0
LINE
  5
3B4D
330
1E
100
AcDbEntity
  8
7
100
AcDbLine
 10
1.007131907460843
 20
4.350453965285273
 30
0.0
 11
1.007131907460843
 21
3.65950908339551
 31
0.0
  0
LINE
  5
3B4E
330
1E
100
AcDbEntity
  8
7
100
AcDbLine
 10
1.007131907460843
 20
3.65950908339551
 30
0.0
 11
1.064218521634072
 21
3.65950908339551
 31
0.0
  0
LINE
  5
3B4F
330
1E
100
AcDbEntity
  8
7
100
AcDbLine
 10
1.005163403523836
 20
2.781556327489997
 30
0.0
 11
1.30634450588604
 21
2.781556327489997
 31
0.0
  0
LINE
  5
3B50
330
1E
100
AcDbEntity
  8
7
100
AcDbLine
 10
1.30634450588604
 20
2.781556327489997
 30
0.0
 11
1.308313009823048
 21
2.77958782355299
 31
0.0
  0
LINE
  5
3B51
330
1E
100
AcDbEntity
  8
7
100
AcDbLine
 10
1.007131907460843
 20
3.58470593378921
 30
0.0
 11
1.007131907460843
 21
2.893761051899447
 31
0.0
  0
LINE
  5
3B52
330
1E
100
AcDbEntity
  8
7
100
AcDbLine
 10
1.007131907460843
 20
2.893761051899447
 30
0.0
 11
1.005163403523836
 21
2.893761051899447
 31
0.0
  0
LINE
  5
3B53
330
1E
100
AcDbEntity
  8
7
100
AcDbLine
 10
1.064218521634072
 20
4.252028768434881
 30
0.0
 11
1.064218521634072
 21
3.65950908339551
 31
0.0
  0
LINE
  5
3B54
330
1E
100
AcDbEntity
  8
7
100
AcDbLine
 10
1.064218521634072
 20
3.65950908339551
 30
0.0
 11
1.072092537382103
 21
3.655572075521494
 31
0.0
  0
ENDSEC
  0
SECTION
  2
OBJECTS
  0
DICTIONARY
  5
C
330
0
100
AcDbDictionary
  3
ACAD_GROUP
350
D
  3
ACAD_MLINESTYLE
350
16
  3
ACAD_PLOTSETTINGS
350
18
  3
ACAD_LAYOUT
350
19
1001
ACAD
1000
TREAT_AS_HARD
1070
     0
  0
DICTIONARY
  5
4F1C
330
1E
100
AcDbDictionary
  3
ACAD_LAYOUTSELFREF
350
4F1D
  0
DICTIONARY
  5
4F1A
330
1A
100
AcDbDictionary
  3
ACAD_LAYOUTSELFREF
350
4F1B
  0
DICTIONARY
  5
D
102
{ACAD_REACTORS
330
C
102
}
330
C
100
AcDbDictionary
1001
ACAD
1000
TREAT_AS_HARD
1070
     0
  0
DICTIONARY
  5
16
102
{ACAD_REACTORS
330
C
102
}
330
C
100
AcDbDictionary
  3
STANDARD
350
17
1001
ACAD
1000
TREAT_AS_HARD
1070
     0
  0
DICTIONARY
  5
18
102
{ACAD_REACTORS
330
C
102
}
330
C
100
AcDbDictionary
1001
ACAD
1000
TREAT_AS_HARD
1070
     0
  0
DICTIONARY
  5
19
102
{ACAD_REACTORS
330
C
102
}
330
C
100
AcDbDictionary
1001
ACAD
1000
TREAT_AS_HARD
1070
     0
  0
XRECORD
  5
4F1D
102
{ACAD_REACTORS
330
4F1C
102
}
330
4F1C
100
AcDbXrecord
340
1E
  0
XRECORD
  5
4F1B
102
{ACAD_REACTORS
330
4F1A
102
}
330
4F1A
100
AcDbXrecord
340
1A
  0
MLINESTYLE
  5
17
102
{ACAD_REACTORS
330
16
102
}
330
16
100
AcDbMlineStyle
  2
STANDARD
 70
     0
  3

 62
   256
 51
90.0
 52
90.0
 71
     2
 49
0.5
 62
   256
  6
BYLAYER
 49
-0.5
 62
   256
  6
BYLAYER
  0
ENDSEC
  0
EOF
