999
DXF file: C:\Users\sesa63760\Dev\_Creo\CAD\MCADID0005329_3D-CAD\drw0001_6.dxf
999
Pro/ENGINEER 2019471 by Parametric Technology Corporation
  0
SECTION
  2
HEADER
  9
$ACADVER
  1
AC1024
  9
$DWGCODEPAGE
  3
ANSI_1252
  9
$EXTMAX
 10
138.8762535982
 20
196.4107015175
 30
0.0
  9
$EXTMIN
 10
0.0
 20
0.0
 30
0.0
  9
$LIMMIN
 10
0.0
 20
0.0
  9
$LIMMAX
 10
138.8762535982
 20
196.4107015175
  9
$VIEWCTR
 10
69.4381267991
 20
98.2053507587
  9
$VIEWSIZE
 40
196.4107015175
  9
$CLAYER
  8
0
  9
$LTSCALE
 40
12.8030679508
  9
$CELTYPE
  6
BYLAYER
  9
$DIMSCALE
 40
1.0
  9
$DIMASZ
 40
1.6532887333
  9
$DIMEXO
 40
1.0
  9
$DIMDLI
 40
8.8457560387
  9
$DIMEXE
 40
1.0
  9
$DIMCEN
 40
2.0950474829
  9
$DIMLFAC
 40
1.0
  9
$DIMBLK
  1
_FILLED
  9
$DIMALT
 70
0
  9
$DIMALTF
 40
0.0393700787
  9
$DIMTXT
 40
2.3146042266
  9
$DIMTOL
 70
1
  9
$DIMLIM
 70
0
  9
$DIMTFAC
 40
1.0
  9
$DIMTP
 40
0.01
  9
$DIMTM
 40
0.01
  9
$DIMGAP
 40
0.625
  9
$DIMDSEP
 70
46
  9
$AUNITS
 70
0
  9
$PDMODE
 70
3
  9
$PDSIZE
 40
0.3125
  9
$HANDSEED
  5
2D3
  9
$TILEMODE
 70
1
  9
$MEASUREMENT
 70
1
  9
$INSUNITS
 70
4
  0
ENDSEC
  0
SECTION
  2
CLASSES
  0
CLASS
  1
ACDBDICTIONARYWDFLT
  2
AcDbDictionaryWithDefault
  3
AutoCAD 2000
 90
0
 91
1
280
0
281
0
  0
CLASS
  1
ACDBPLACEHOLDER
  2
AcDbPlaceHolder
  3
AutoCAD 2000
 90
0
 91
1
280
0
281
0
  0
CLASS
  1
LAYOUT
  2
AcDbLayout
  3
AutoCAD 2000
 90
0
 91
0
280
0
281
0
  0
ENDSEC
  0
SECTION
  2
TABLES
  0
TABLE
  2
VPORT
  5
8
100
AcDbSymbolTable
 70
2
  0
VPORT
  5
1F4
100
AcDbSymbolTableRecord
100
AcDbViewportTableRecord
  2
*ACTIVE
 70
0
 10
0.0
 20
0.0
 11
1.0
 21
1.0
 12
69.4381267991
 22
98.2053507587
 13
0.0
 23
0.0
 14
1.0
 24
1.0
 15
0.0
 25
0.0
 16
0.0
 26
0.0
 36
1.0
 17
0.0
 27
0.0
 37
0.0
 40
196.4107015175
 41
0.7070707071
 42
50.0
 43
0.0
 44
0.0
 50
0.0
 51
0.0
 71
0
 72
100
 73
1
 74
1
 75
0
 76
0
 77
0
 78
0
  0
ENDTAB
  0
TABLE
  2
LTYPE
  5
5
100
AcDbSymbolTable
 70
6
  0
LTYPE
  5
14
100
AcDbSymbolTableRecord
100
AcDbLinetypeTableRecord
  2
BYBLOCK
 70
0
  3

 72
65
 73
0
 40
0.0
  0
LTYPE
  5
15
100
AcDbSymbolTableRecord
100
AcDbLinetypeTableRecord
  2
BYLAYER
 70
0
  3

 72
65
 73
0
 40
0.0
  0
LTYPE
  5
16
100
AcDbSymbolTableRecord
100
AcDbLinetypeTableRecord
  2
CONTINUOUS
 70
64
  3
Solid line
 72
65
 73
0
 40
0.0
  0
LTYPE
  5
1F5
100
AcDbSymbolTableRecord
100
AcDbLinetypeTableRecord
  2
CENTER
 70
64
  3
____ _ ____ _ ____ _ ____ _ ____ _ ____ _ ____
 72
65
 73
4
 40
0.6
 49
0.375
 74
0
 49
-0.075
 74
0
 49
0.075
 74
0
 49
-0.075
 74
0
  0
LTYPE
  5
1F6
100
AcDbSymbolTableRecord
100
AcDbLinetypeTableRecord
  2
HIDDEN
 70
64
  3
- - - - - - - - - - - - - - - - - - - -
 72
65
 73
2
 40
0.2
 49
0.1
 74
0
 49
-0.1
 74
0
  0
LTYPE
  5
1F7
100
AcDbSymbolTableRecord
100
AcDbLinetypeTableRecord
  2
PHANTOM
 70
64
  3
_____ _ _ _____ _ _ _____ _ _ _____
 72
65
 73
6
 40
0.8
 49
0.45
 74
0
 49
-0.05
 74
0
 49
0.1
 74
0
 49
-0.05
 74
0
 49
0.1
 74
0
 49
-0.05
 74
0
  0
LTYPE
  5
1F8
100
AcDbSymbolTableRecord
100
AcDbLinetypeTableRecord
  2
DOT
 70
64
  3
. . . . . . . . . . . . . . . . . . . .
 72
65
 73
2
 40
0.2
 49
0.1
 74
0
 49
-0.1
 74
0
  0
LTYPE
  5
1F9
100
AcDbSymbolTableRecord
100
AcDbLinetypeTableRecord
  2
DASHED
 70
64
  3
- - - - - - - - - - - - - - - - - - - -
 72
65
 73
2
 40
0.2
 49
0.1
 74
0
 49
-0.1
 74
0
  0
ENDTAB
  0
TABLE
  2
LAYER
  5
2
100
AcDbSymbolTable
 70
36
  0
LAYER
  5
10
100
AcDbSymbolTableRecord
100
AcDbLayerTableRecord
  2
0
 70
0
 62
7
  6
CONTINUOUS
370
-3
390
F
  0
LAYER
  5
1FA
100
AcDbSymbolTableRecord
100
AcDbLayerTableRecord
  2
DEFAULT_1
 70
0
 62
7
  6
CENTER
370
-3
390
F
  0
LAYER
  5
1FB
100
AcDbSymbolTableRecord
100
AcDbLayerTableRecord
  2
DEFAULT_2
 70
0
 62
7
  6
HIDDEN
370
-3
390
F
  0
LAYER
  5
1FC
100
AcDbSymbolTableRecord
100
AcDbLayerTableRecord
  2
DEFAULT_3
 70
0
 62
7
  6
PHANTOM
370
-3
390
F
  0
LAYER
  5
1FD
100
AcDbSymbolTableRecord
100
AcDbLayerTableRecord
  2
00_COMPONENTS
 70
0
 62
7
  6
CONTINUOUS
370
-3
390
F
  0
LAYER
  5
1FE
100
AcDbSymbolTableRecord
100
AcDbLayerTableRecord
  2
01_1_DEFAULT_DATUMS
 70
0
 62
7
  6
CONTINUOUS
370
-3
390
F
  0
LAYER
  5
1FF
100
AcDbSymbolTableRecord
100
AcDbLayerTableRecord
  2
01_PLANES
 70
0
 62
7
  6
CONTINUOUS
370
-3
390
F
  0
LAYER
  5
200
100
AcDbSymbolTableRecord
100
AcDbLayerTableRecord
  2
02_COORD_SYS
 70
0
 62
7
  6
CONTINUOUS
370
-3
390
F
  0
LAYER
  5
201
100
AcDbSymbolTableRecord
100
AcDbLayerTableRecord
  2
03_AXES
 70
0
 62
7
  6
CONTINUOUS
370
-3
390
F
  0
LAYER
  5
202
100
AcDbSymbolTableRecord
100
AcDbLayerTableRecord
  2
04_POINTS
 70
0
 62
7
  6
CONTINUOUS
370
-3
390
F
  0
LAYER
  5
203
100
AcDbSymbolTableRecord
100
AcDbLayerTableRecord
  2
05_CURVES
 70
0
 62
7
  6
CONTINUOUS
370
-3
390
F
  0
LAYER
  5
204
100
AcDbSymbolTableRecord
100
AcDbLayerTableRecord
  2
06_SURFS
 70
0
 62
7
  6
CONTINUOUS
370
-3
390
F
  0
LAYER
  5
205
100
AcDbSymbolTableRecord
100
AcDbLayerTableRecord
  2
07_COSMETICS
 70
0
 62
7
  6
CONTINUOUS
370
-3
390
F
  0
LAYER
  5
206
100
AcDbSymbolTableRecord
100
AcDbLayerTableRecord
  2
10_NOTES
 70
0
 62
7
  6
CONTINUOUS
370
-3
390
F
  0
LAYER
  5
207
100
AcDbSymbolTableRecord
100
AcDbLayerTableRecord
  2
11_NOTES_PUB
 70
0
 62
7
  6
CONTINUOUS
370
-3
390
F
  0
LAYER
  5
208
100
AcDbSymbolTableRecord
100
AcDbLayerTableRecord
  2
13_REF_GTOL
 70
0
 62
7
  6
CONTINUOUS
370
-3
390
F
  0
LAYER
  5
209
100
AcDbSymbolTableRecord
100
AcDbLayerTableRecord
  2
16_MISC
 70
0
 62
7
  6
CONTINUOUS
370
-3
390
F
  0
LAYER
  5
20A
100
AcDbSymbolTableRecord
100
AcDbLayerTableRecord
  2
17_NO_PRINT
 70
0
 62
7
  6
CONTINUOUS
370
-3
390
F
  0
LAYER
  5
20B
100
AcDbSymbolTableRecord
100
AcDbLayerTableRecord
  2
18_DATUM_CAMS_JOINTS
 70
0
 62
7
  6
CONTINUOUS
370
-3
390
F
  0
LAYER
  5
20C
100
AcDbSymbolTableRecord
100
AcDbLayerTableRecord
  2
19_DATUM_FUNCTIONAL
 70
0
 62
7
  6
CONTINUOUS
370
-3
390
F
  0
LAYER
  5
20D
100
AcDbSymbolTableRecord
100
AcDbLayerTableRecord
  2
20_DATUM_KINEMATIC_SCHEME
 70
0
 62
7
  6
CONTINUOUS
370
-3
390
F
  0
LAYER
  5
20E
100
AcDbSymbolTableRecord
100
AcDbLayerTableRecord
  2
INTFCLR_4
 70
0
 62
7
  6
CONTINUOUS
370
-3
390
F
  0
ENDTAB
  0
TABLE
  2
STYLE
  5
3
100
AcDbSymbolTable
 70
1
  0
STYLE
  5
11
100
AcDbSymbolTableRecord
100
AcDbTextStyleTableRecord
  2
STANDARD
 70
0
 40
0.0
 41
1.0
 50
0.0
 71
0
 42
0.2
  3
ARIAL.TTF
  4

  0
STYLE
  5
20F
100
AcDbSymbolTableRecord
100
AcDbTextStyleTableRecord
  2
TEXTSTYLE_1
 70
0
 40
0.0
 41
0.8
 50
0.0
 71
0
 42
0.2
  3
gdt
  4

  0
ENDTAB
  0
TABLE
  2
VIEW
  5
6
100
AcDbSymbolTable
 70
0
  0
ENDTAB
  0
TABLE
  2
UCS
  5
7
100
AcDbSymbolTable
 70
0
  0
ENDTAB
  0
TABLE
  2
APPID
  5
9
100
AcDbSymbolTable
 70
1
  0
APPID
  5
210
100
AcDbSymbolTableRecord
100
AcDbRegAppTableRecord
  2
ACAD
 70
0
  0
ENDTAB
  0
TABLE
  2
BLOCK_RECORD
  5
1
100
AcDbSymbolTable
 70
0
  0
BLOCK_RECORD
  5
211
100
AcDbSymbolTableRecord
100
AcDbBlockTableRecord
  2
*Model_Space
  0
BLOCK_RECORD
  5
212
100
AcDbSymbolTableRecord
100
AcDbBlockTableRecord
  2
*Paper_Space
  0
BLOCK_RECORD
  5
213
100
AcDbSymbolTableRecord
100
AcDbBlockTableRecord
  2
_FILLED
  0
ENDTAB
  0
TABLE
  2
DIMSTYLE
  5
A
100
AcDbSymbolTable
 70
1
100
AcDbDimStyleTable
 71
0
  0
DIMSTYLE
105
214
100
AcDbSymbolTableRecord
100
AcDbDimStyleTableRecord
  2
STANDARD
 70
0
  3

  4

 40
1.0
 41
1.6532887333
 42
1.0
 43
0.38
 44
1.0
 45
0.0
 46
0.0
 47
0.01
 48
0.01
140
2.3146042266
141
0.09
142
0.0
143
25.4
144
1.0
145
0.0
146
1.0
147
0.625
 71
1
 72
0
 73
0
 74
0
 75
0
 76
0
 77
1
 78
8
 79
2
170
0
171
1
172
0
173
0
174
0
175
0
176
0
177
0
178
0
270
2
179
2
271
2
272
2
273
2
274
2
275
0
280
0
281
0
282
0
283
1
284
8
285
0
286
0
287
3
288
0
340
11
278
46
341
213
342
213
343
213
344
213
  0
ENDTAB
  0
ENDSEC
  0
SECTION
  2
BLOCKS
  0
BLOCK
  5
20
100
AcDbEntity
  8
0
100
AcDbBlockBegin
  2
*Model_Space
 70
0
 10
0.0
 20
0.0
 30
0.0
  3
*Model_Space
  1

  0
ENDBLK
  5
21
100
AcDbEntity
  8
0
100
AcDbBlockEnd
  0
BLOCK
  5
1C
100
AcDbEntity
  8
0
100
AcDbBlockBegin
  2
*Paper_Space
 70
0
 10
0.0
 20
0.0
 30
0.0
  3
*Paper_Space
  1

  0
ENDBLK
  5
1D
100
AcDbEntity
  8
0
100
AcDbBlockEnd
  0
BLOCK
  5
215
100
AcDbEntity
  8
0
100
AcDbBlockBegin
  2
_FILLED
 70
64
 10
0.0
 20
0.0
  3
_FILLED
  1

  0
SOLID
  5
216
100
AcDbEntity
  8
0
  6
BYBLOCK
 62
0
100
AcDbTrace
 10
0.0
 20
0.0
 11
-1.0
 21
0.25
 12
-1.0
 22
-0.25
 13
-1.0
 23
-0.25
  0
ENDBLK
  5
217
100
AcDbEntity
  8
0
  6
BYBLOCK
 62
0
100
AcDbBlockEnd
  0
ENDSEC
  0
SECTION
  2
ENTITIES
  0
LINE
  5
218
100
AcDbEntity
  8
0
100
AcDbLine
 62
7
  6
BYLAYER
 10
15.7076594929
 20
95.2727836656
 11
15.7076594929
 21
85.2727836656
  0
LINE
  5
219
100
AcDbEntity
  8
0
100
AcDbLine
 62
7
  6
BYLAYER
 10
17.7076594929
 20
85.2727836656
 11
17.7076594929
 21
89.2727836656
  0
LINE
  5
21A
100
AcDbEntity
  8
0
100
AcDbLine
 62
7
  6
BYLAYER
 10
17.7076594929
 20
91.2727836656
 11
17.7076594929
 21
95.2727836656
  0
LINE
  5
21B
100
AcDbEntity
  8
0
100
AcDbLine
 62
7
  6
BYLAYER
 10
20.0677647558
 20
106.8727836656
 11
20.0677647558
 21
116.8728030327
  0
LINE
  5
21C
100
AcDbEntity
  8
0
100
AcDbLine
 62
7
  6
BYLAYER
 10
20.1208084668
 20
91.8727836671
 11
20.1208084668
 21
106.8727836656
  0
LINE
  5
21D
100
AcDbEntity
  8
0
100
AcDbLine
 62
7
  6
BYLAYER
 10
21.6376594674
 20
87.5727843966
 11
22.3709955908
 21
66.572785425
  0
LINE
  5
21E
100
AcDbEntity
  8
0
100
AcDbLine
 62
7
  6
BYLAYER
 10
21.6376594929
 20
87.5727837508
 11
21.6376594929
 21
99.0727836656
  0
LINE
  5
21F
100
AcDbEntity
  8
0
100
AcDbLine
 62
7
  6
BYLAYER
 10
22.1551198777
 20
88.0727836656
 11
22.1551198777
 21
87.5727836656
  0
LINE
  5
220
100
AcDbEntity
  8
0
100
AcDbLine
 62
7
  6
BYLAYER
 10
23.1376594929
 20
90.6727836656
 11
23.1376594929
 21
91.2727836656
  0
LINE
  5
221
100
AcDbEntity
  8
0
100
AcDbLine
 62
7
  6
BYLAYER
 10
24.2876594929
 20
92.7230808532
 11
24.2876594929
 21
92.7314028916
  0
LINE
  5
222
100
AcDbEntity
  8
0
100
AcDbLine
 62
7
  6
BYLAYER
 10
21.7376594929
 20
99.8727836656
 11
21.709635108
 21
99.0702702222
  0
LINE
  5
223
100
AcDbEntity
  8
0
100
AcDbLine
 62
7
  6
BYLAYER
 10
21.6376594143
 20
97.0091556441
 11
21.4582933349
 21
91.8727836071
  0
LINE
  5
224
100
AcDbEntity
  8
0
100
AcDbLine
 62
7
  6
BYLAYER
 10
26.3749686629
 20
66.5727532779
 11
25.6416324769
 21
87.5727517626
  0
LINE
  5
225
100
AcDbEntity
  8
0
100
AcDbLine
 62
7
  6
BYLAYER
 10
25.0677647558
 20
117.0369491455
 11
25.0677647558
 21
106.8727836656
  0
LINE
  5
226
100
AcDbEntity
  8
0
100
AcDbLine
 62
7
  6
BYLAYER
 10
25.1208084668
 20
106.8727836656
 11
25.1208084668
 21
99.8727836656
  0
LINE
  5
227
100
AcDbEntity
  8
0
100
AcDbLine
 62
7
  6
BYLAYER
 10
25.3376594929
 20
91.2727814629
 11
25.3376594929
 21
92.7727836656
  0
LINE
  5
228
100
AcDbEntity
  8
0
100
AcDbLine
 62
7
  6
BYLAYER
 10
25.6376594931
 20
91.7727836656
 11
25.6376594944
 21
99.0727836656
  0
LINE
  5
229
100
AcDbEntity
  8
0
100
AcDbLine
 62
7
  6
BYLAYER
 10
25.6530166694
 20
87.5727836656
 11
25.6530166584
 21
88.0727836656
  0
LINE
  5
22A
100
AcDbEntity
  8
0
100
AcDbLine
 62
7
  6
BYLAYER
 10
25.9376594929
 20
91.2728112386
 11
25.9376594929
 21
92.7727836656
  0
LINE
  5
22B
100
AcDbEntity
  8
0
100
AcDbLine
 62
7
  6
BYLAYER
 10
26.9876594929
 20
92.7314028916
 11
26.9876594929
 21
92.7230808532
  0
LINE
  5
22C
100
AcDbEntity
  8
0
100
AcDbLine
 62
7
  6
BYLAYER
 10
28.1376594929
 20
90.6727836656
 11
28.1376594929
 21
91.2727836656
  0
LINE
  5
22D
100
AcDbEntity
  8
0
100
AcDbLine
 62
7
  6
BYLAYER
 10
25.6338536174
 20
88.0727836656
 11
25.6349839316
 21
90.6727836656
  0
LINE
  5
22E
100
AcDbEntity
  8
0
100
AcDbLine
 62
7
  6
BYLAYER
 10
29.6410895793
 20
90.6727836656
 11
29.6410895793
 21
99.0727836656
  0
LINE
  5
22F
100
AcDbEntity
  8
0
100
AcDbLine
 62
7
  6
BYLAYER
 10
26.2984424937
 20
117.5434582888
 11
47.6376594929
 21
129.8727836656
  0
LINE
  5
230
100
AcDbEntity
  8
0
100
AcDbLine
 62
7
  6
BYLAYER
 10
34.4956593878
 20
129.8727836656
 11
34.4956593878
 21
122.2796280493
  0
LINE
  5
231
100
AcDbEntity
  8
0
100
AcDbLine
 62
7
  6
BYLAYER
 10
50.8207562454
 20
123.8727836656
 11
52.381134967
 21
124.8727836656
  0
LINE
  5
232
100
AcDbEntity
  8
0
100
AcDbLine
 62
7
  6
BYLAYER
 10
84.1736907048
 20
66.5378628977
 11
61.101628281
 21
66.5378628977
  0
LINE
  5
233
100
AcDbEntity
  8
0
100
AcDbLine
 62
7
  6
BYLAYER
 10
63.8043232604
 20
66.5727826175
 11
22.3709956665
 21
66.5727836656
  0
LINE
  5
234
100
AcDbEntity
  8
0
100
AcDbLine
 62
7
  6
BYLAYER
 10
122.9043232911
 20
66.5727836656
 11
81.470995722
 21
66.5727826665
  0
LINE
  5
235
100
AcDbEntity
  8
0
100
AcDbLine
 62
7
  6
BYLAYER
 10
64.2526234954
 20
66.583260628
 11
63.8043233029
 21
66.5832593139
  0
LINE
  5
236
100
AcDbEntity
  8
0
100
AcDbLine
 62
7
  6
BYLAYER
 10
81.470995683
 20
66.583259314
 11
81.0226954896
 21
66.5832606281
  0
LINE
  5
237
100
AcDbEntity
  8
0
100
AcDbLine
 62
7
  6
BYLAYER
 10
78.0153053654
 20
66.7159394195
 11
67.2600151897
 21
66.715941707
  0
LINE
  5
238
100
AcDbEntity
  8
0
100
AcDbLine
 62
7
  6
BYLAYER
 10
77.954958925
 20
68.4296521465
 11
67.3203613169
 21
68.4296521471
  0
LINE
  5
239
100
AcDbEntity
  8
0
100
AcDbLine
 62
7
  6
BYLAYER
 10
80.9567742056
 20
68.4810699834
 11
64.3185447347
 21
68.4810708141
  0
LINE
  5
23A
100
AcDbEntity
  8
0
100
AcDbLine
 62
7
  6
BYLAYER
 10
80.8812957779
 20
70.6644959236
 11
64.3940230965
 21
70.6644959234
  0
LINE
  5
23B
100
AcDbEntity
  8
0
100
AcDbLine
 62
7
  6
BYLAYER
 10
77.8768500174
 20
70.7159409087
 11
67.3984670627
 21
70.7159391846
  0
LINE
  5
23C
100
AcDbEntity
  8
0
100
AcDbLine
 62
7
  6
BYLAYER
 10
77.8167191819
 20
72.4296521484
 11
67.4585985646
 21
72.4296521478
  0
LINE
  5
23D
100
AcDbEntity
  8
0
100
AcDbLine
 62
7
  6
BYLAYER
 10
66.4826502329
 20
72.5169274533
 11
64.457663722
 21
72.516924361
  0
LINE
  5
23E
100
AcDbEntity
  8
0
100
AcDbLine
 62
7
  6
BYLAYER
 10
80.8176552645
 20
72.516924361
 11
78.7926687529
 21
72.5169274533
  0
LINE
  5
23F
100
AcDbEntity
  8
0
100
AcDbLine
 62
7
  6
BYLAYER
 10
66.4826502335
 20
72.6058556433
 11
78.7926687523
 21
72.6058556433
  0
LINE
  5
240
100
AcDbEntity
  8
0
100
AcDbLine
 62
7
  6
BYLAYER
 10
49.163640716
 20
123.8727836656
 11
49.163640716
 21
129.8727836656
  0
LINE
  5
241
100
AcDbEntity
  8
0
100
AcDbLine
 62
7
  6
BYLAYER
 10
74.25289531
 20
76.4720996168
 11
66.586932769
 21
75.530406647
  0
LINE
  5
242
100
AcDbEntity
  8
0
100
AcDbLine
 62
7
  6
BYLAYER
 10
52.6761707731
 20
129.8727836656
 11
52.6761707731
 21
126.667918929
  0
LINE
  5
243
100
AcDbEntity
  8
0
100
AcDbLine
 62
7
  6
BYLAYER
 10
71.5923632755
 20
80.7421579628
 11
78.4787757425
 21
81.5875743402
  0
LINE
  5
244
100
AcDbEntity
  8
0
100
AcDbLine
 62
7
  6
BYLAYER
 10
74.2488414934
 20
77.669390217
 11
66.6609561384
 21
77.6695464786
  0
LINE
  5
245
100
AcDbEntity
  8
0
100
AcDbLine
 62
7
  6
BYLAYER
 10
71.6436493716
 20
79.4767154245
 11
78.551822783
 21
79.4767152264
  0
LINE
  5
246
100
AcDbEntity
  8
0
100
AcDbLine
 62
7
  6
BYLAYER
 10
56.242782454
 20
99.8727836656
 11
56.242782454
 21
99.0727836656
  0
LINE
  5
247
100
AcDbEntity
  8
0
100
AcDbLine
 62
7
  6
BYLAYER
 10
78.3785422561
 20
84.5139110122
 11
66.8958773619
 21
84.5139141925
  0
LINE
  5
248
100
AcDbEntity
  8
0
100
AcDbLine
 62
7
  6
BYLAYER
 10
17.7076594929
 20
85.2727836656
 11
15.7076594929
 21
85.2727836656
  0
LINE
  5
249
100
AcDbEntity
  8
0
100
AcDbLine
 62
7
  6
BYLAYER
 10
15.7076594929
 20
86.069739424
 11
17.7076594929
 21
86.069739424
  0
LINE
  5
24A
100
AcDbEntity
  8
0
100
AcDbLine
 62
7
  6
BYLAYER
 10
61.102749104
 20
66.5727804999
 11
61.1015088832
 21
66.5378671372
  0
LINE
  5
24B
100
AcDbEntity
  8
0
100
AcDbLine
 62
7
  6
BYLAYER
 10
78.3072793787
 20
86.6286398734
 11
66.9680084467
 21
86.6286398734
  0
LINE
  5
24C
100
AcDbEntity
  8
0
100
AcDbLine
 62
7
  6
BYLAYER
 10
21.6376595456
 20
87.5727836656
 11
64.5192874584
 21
87.5727826669
  0
LINE
  5
24D
100
AcDbEntity
  8
0
100
AcDbLine
 62
7
  6
BYLAYER
 10
80.7376594929
 20
87.5727836656
 11
123.6376594675
 21
87.5727836656
  0
LINE
  5
24E
100
AcDbEntity
  8
0
100
AcDbLine
 62
7
  6
BYLAYER
 10
21.6376552405
 20
88.0727836656
 11
64.9388833373
 21
88.0727836656
  0
LINE
  5
24F
100
AcDbEntity
  8
0
100
AcDbLine
 62
7
  6
BYLAYER
 10
80.3364356485
 20
88.0727836656
 11
123.6376632299
 21
88.0727836656
  0
LINE
  5
250
100
AcDbEntity
  8
0
100
AcDbLine
 62
7
  6
BYLAYER
 10
67.0333533201
 20
88.5169274578
 11
78.2419345053
 21
88.5169274578
  0
LINE
  5
251
100
AcDbEntity
  8
0
100
AcDbLine
 62
7
  6
BYLAYER
 10
17.7076594929
 20
89.2727836656
 11
21.6376594929
 21
89.2727836656
  0
LINE
  5
252
100
AcDbEntity
  8
0
100
AcDbLine
 62
7
  6
BYLAYER
 10
64.5192874584
 20
87.0466774308
 11
64.5192874584
 21
87.5727826669
  0
LINE
  5
253
100
AcDbEntity
  8
0
100
AcDbLine
 62
7
  6
BYLAYER
 10
64.9388833373
 20
88.0727836656
 11
64.9388833373
 21
99.0727836656
  0
LINE
  5
254
100
AcDbEntity
  8
0
100
AcDbLine
 62
7
  6
BYLAYER
 10
66.8958773567
 20
84.544249247
 11
66.8958773567
 21
84.4580577162
  0
LINE
  5
255
100
AcDbEntity
  8
0
100
AcDbLine
 62
7
  6
BYLAYER
 10
64.2551954198
 20
66.6635333596
 11
64.252417811
 21
66.583267748
  0
LINE
  5
256
100
AcDbEntity
  8
0
100
AcDbLine
 62
7
  6
BYLAYER
 10
64.4565436456
 20
72.4819692546
 11
65.4044086703
 21
99.8727836656
  0
LINE
  5
257
100
AcDbEntity
  8
0
100
AcDbLine
 62
7
  6
BYLAYER
 10
64.3185447347
 20
68.4810708141
 11
64.3940947224
 21
70.6644939046
  0
LINE
  5
258
100
AcDbEntity
  8
0
100
AcDbLine
 62
7
  6
BYLAYER
 10
64.5551198777
 20
88.0727836656
 11
64.5376594929
 21
87.5727836656
  0
LINE
  5
259
100
AcDbEntity
  8
0
100
AcDbLine
 62
7
  6
BYLAYER
 10
64.5192874584
 20
87.0466774308
 11
63.8043232604
 21
66.5727826175
  0
LINE
  5
25A
100
AcDbEntity
  8
0
100
AcDbLine
 62
7
  6
BYLAYER
 10
65.3308382396
 20
98.5972282042
 11
65.3757567451
 21
99.8727836656
  0
LINE
  5
25B
100
AcDbEntity
  8
0
100
AcDbLine
 62
7
  6
BYLAYER
 10
21.525706506
 20
93.8032432097
 11
20.1208084668
 21
93.8030350223
  0
LINE
  5
25C
100
AcDbEntity
  8
0
100
AcDbLine
 62
7
  6
BYLAYER
 10
29.6410895793
 20
90.6727836656
 11
21.6376552379
 21
90.6727836656
  0
LINE
  5
25D
100
AcDbEntity
  8
0
100
AcDbLine
 62
7
  6
BYLAYER
 10
115.6342294065
 20
90.6727836656
 11
123.6376631476
 21
90.6727836656
  0
LINE
  5
25E
100
AcDbEntity
  8
0
100
AcDbLine
 62
7
  6
BYLAYER
 10
122.1376594929
 20
91.2727836656
 11
119.9376595091
 21
91.2727836656
  0
LINE
  5
25F
100
AcDbEntity
  8
0
100
AcDbLine
 62
7
  6
BYLAYER
 10
119.3376594643
 20
91.2727836656
 11
117.1376594929
 21
91.2727836656
  0
LINE
  5
260
100
AcDbEntity
  8
0
100
AcDbLine
 62
7
  6
BYLAYER
 10
28.1376594929
 20
91.2727836656
 11
25.9376595148
 21
91.2727836656
  0
LINE
  5
261
100
AcDbEntity
  8
0
100
AcDbLine
 62
7
  6
BYLAYER
 10
25.3376594613
 20
91.2727836656
 11
23.1376594929
 21
91.2727836656
  0
LINE
  5
262
100
AcDbEntity
  8
0
100
AcDbLine
 62
7
  6
BYLAYER
 10
17.7076594929
 20
91.2727836656
 11
21.6376591959
 21
91.2727836656
  0
LINE
  5
263
100
AcDbEntity
  8
0
100
AcDbLine
 62
7
  6
BYLAYER
 10
119.9376595003
 20
91.7727836656
 11
119.3376594749
 21
91.7727836656
  0
LINE
  5
264
100
AcDbEntity
  8
0
100
AcDbLine
 62
7
  6
BYLAYER
 10
25.937659506
 20
91.7727836656
 11
25.3376594717
 21
91.7727836656
  0
LINE
  5
265
100
AcDbEntity
  8
0
100
AcDbLine
 62
7
  6
BYLAYER
 10
20.1208084668
 20
91.8727836656
 11
21.4582920646
 21
91.8727836656
  0
LINE
  5
266
100
AcDbEntity
  8
0
100
AcDbLine
 62
7
  6
BYLAYER
 10
123.8170266543
 20
91.8727836656
 11
125.154510519
 21
91.8727836656
  0
LINE
  5
267
100
AcDbEntity
  8
0
100
AcDbLine
 62
7
  6
BYLAYER
 10
80.1215954697
 20
92.6286398734
 11
65.1537235161
 21
92.6286398734
  0
LINE
  5
268
100
AcDbEntity
  8
0
100
AcDbLine
 62
7
  6
BYLAYER
 10
120.5915896971
 20
92.7727836656
 11
119.937659489
 21
92.7727836656
  0
LINE
  5
269
100
AcDbEntity
  8
0
100
AcDbLine
 62
7
  6
BYLAYER
 10
119.3376595664
 20
92.7727836656
 11
118.6837284972
 21
92.7727836656
  0
LINE
  5
26A
100
AcDbEntity
  8
0
100
AcDbLine
 62
7
  6
BYLAYER
 10
26.5915897026
 20
92.7727836656
 11
25.937659489
 21
92.7727836656
  0
LINE
  5
26B
100
AcDbEntity
  8
0
100
AcDbLine
 62
7
  6
BYLAYER
 10
25.3376595664
 20
92.7727836656
 11
24.6837284972
 21
92.7727836656
  0
LINE
  5
26C
100
AcDbEntity
  8
0
100
AcDbLine
 62
7
  6
BYLAYER
 10
67.161097672
 20
92.7822444501
 11
78.1140743915
 21
92.7822444503
  0
LINE
  5
26D
100
AcDbEntity
  8
0
100
AcDbLine
 62
7
  6
BYLAYER
 10
17.7076594929
 20
94.4758279071
 11
15.7076594929
 21
94.4758279071
  0
LINE
  5
26E
100
AcDbEntity
  8
0
100
AcDbLine
 62
7
  6
BYLAYER
 10
125.154510519
 20
93.8030558493
 11
123.7496123022
 21
93.8032479823
  0
LINE
  5
26F
100
AcDbEntity
  8
0
100
AcDbLine
 62
7
  6
BYLAYER
 10
67.1609527544
 20
92.7822591504
 11
67.4063541917
 21
99.8727836656
  0
LINE
  5
270
100
AcDbEntity
  8
0
100
AcDbLine
 62
7
  6
BYLAYER
 10
67.1756406124
 20
92.6286398734
 11
67.0333533201
 21
88.5169274578
  0
LINE
  5
271
100
AcDbEntity
  8
0
100
AcDbLine
 62
7
  6
BYLAYER
 10
66.9680084467
 20
86.6286398734
 11
66.8958773567
 21
84.544249247
  0
LINE
  5
272
100
AcDbEntity
  8
0
100
AcDbLine
 62
7
  6
BYLAYER
 10
66.4826502338
 20
72.5169274533
 11
66.586932769
 21
75.530406647
  0
LINE
  5
273
100
AcDbEntity
  8
0
100
AcDbLine
 62
7
  6
BYLAYER
 10
66.6609577404
 20
77.669525251
 11
66.8958773567
 21
84.4580577162
  0
LINE
  5
274
100
AcDbEntity
  8
0
100
AcDbLine
 62
7
  6
BYLAYER
 10
67.2600151897
 20
66.715941707
 11
67.319501547
 21
68.4296817653
  0
LINE
  5
275
100
AcDbEntity
  8
0
100
AcDbLine
 62
7
  6
BYLAYER
 10
66.2899968816
 20
70.664495882
 11
66.2137467798
 21
68.4810713204
  0
LINE
  5
276
100
AcDbEntity
  8
0
100
AcDbLine
 62
7
  6
BYLAYER
 10
67.3984670627
 20
70.7159391846
 11
67.4581958173
 21
72.4296822787
  0
LINE
  5
277
100
AcDbEntity
  8
0
100
AcDbLine
 62
7
  6
BYLAYER
 10
17.7076594929
 20
95.2727836656
 11
15.7076594929
 21
95.2727836656
  0
LINE
  5
278
100
AcDbEntity
  8
0
100
AcDbLine
 62
7
  6
BYLAYER
 10
64.9388833373
 20
98.5972282042
 11
65.3308382396
 21
98.5972282042
  0
LINE
  5
279
100
AcDbEntity
  8
0
100
AcDbLine
 62
7
  6
BYLAYER
 10
79.9444807463
 20
98.5972282042
 11
80.3364356485
 21
98.5972282042
  0
LINE
  5
27A
100
AcDbEntity
  8
0
100
AcDbLine
 62
7
  6
BYLAYER
 10
64.9388833373
 20
98.6230891236
 11
65.3308382396
 21
98.6230891236
  0
LINE
  5
27B
100
AcDbEntity
  8
0
100
AcDbLine
 62
7
  6
BYLAYER
 10
79.9444807463
 20
98.6230891236
 11
80.3364356485
 21
98.6230891236
  0
LINE
  5
27C
100
AcDbEntity
  8
0
100
AcDbLine
 62
7
  6
BYLAYER
 10
21.6376594929
 20
99.0727836656
 11
65.347584858
 21
99.0727836656
  0
LINE
  5
27D
100
AcDbEntity
  8
0
100
AcDbLine
 62
7
  6
BYLAYER
 10
79.9277341278
 20
99.0727836656
 11
123.6376594929
 21
99.0727836656
  0
LINE
  5
27E
100
AcDbEntity
  8
0
100
AcDbLine
 62
7
  6
BYLAYER
 10
125.154510519
 20
99.3902333956
 11
123.5545105197
 21
99.3902333955
  0
LINE
  5
27F
100
AcDbEntity
  8
0
100
AcDbLine
 62
7
  6
BYLAYER
 10
20.1208084668
 20
99.3902333955
 11
21.7208084662
 21
99.3902333955
  0
LINE
  5
280
100
AcDbEntity
  8
0
100
AcDbLine
 62
7
  6
BYLAYER
 10
20.1208084668
 20
99.8727836656
 11
125.154510519
 21
99.8727836656
  0
LINE
  5
281
100
AcDbEntity
  8
0
100
AcDbLine
 62
7
  6
BYLAYER
 10
79.0615721083
 20
68.4810713999
 11
78.9853158203
 21
70.6644959434
  0
LINE
  5
282
100
AcDbEntity
  8
0
100
AcDbLine
 62
7
  6
BYLAYER
 10
77.8171224157
 20
72.4296843467
 11
77.8768500174
 21
70.7159409087
  0
LINE
  5
283
100
AcDbEntity
  8
0
100
AcDbLine
 62
7
  6
BYLAYER
 10
77.9558186138
 20
68.4296797961
 11
78.0153053654
 21
66.7159394195
  0
LINE
  5
284
100
AcDbEntity
  8
0
100
AcDbLine
 62
7
  6
BYLAYER
 10
78.3794414219
 20
84.4580637053
 11
78.4787757425
 21
81.5875743402
  0
LINE
  5
285
100
AcDbEntity
  8
0
100
AcDbLine
 62
7
  6
BYLAYER
 10
78.5518227835
 20
79.476715241
 11
78.792668752
 21
72.5169274533
  0
LINE
  5
286
100
AcDbEntity
  8
0
100
AcDbLine
 62
7
  6
BYLAYER
 10
78.2419345053
 20
88.5169274578
 11
78.099647213
 21
92.6286398734
  0
LINE
  5
287
100
AcDbEntity
  8
0
100
AcDbLine
 62
7
  6
BYLAYER
 10
77.8688479433
 20
99.8727836656
 11
78.1142844562
 21
92.7822599477
  0
LINE
  5
288
100
AcDbEntity
  8
0
100
AcDbLine
 62
7
  6
BYLAYER
 10
78.3794414255
 20
84.4580637056
 11
78.3072793787
 21
86.6286398734
  0
LINE
  5
289
100
AcDbEntity
  8
0
100
AcDbLine
 62
7
  6
BYLAYER
 10
20.0677647558
 20
106.8727836656
 11
125.154510519
 21
106.8727836656
  0
LINE
  5
28A
100
AcDbEntity
  8
0
100
AcDbLine
 62
7
  6
BYLAYER
 10
125.154510519
 20
102.3457657584
 11
125.2056607868
 21
102.3448729272
  0
LINE
  5
28B
100
AcDbEntity
  8
0
100
AcDbLine
 62
7
  6
BYLAYER
 10
84.1738101026
 20
66.5378671372
 11
84.1725698842
 21
66.5727804359
  0
LINE
  5
28C
100
AcDbEntity
  8
0
100
AcDbLine
 62
7
  6
BYLAYER
 10
79.8995622407
 20
99.8727836656
 11
79.9444807463
 21
98.5972282042
  0
LINE
  5
28D
100
AcDbEntity
  8
0
100
AcDbLine
 62
7
  6
BYLAYER
 10
80.7201991082
 20
88.0727836656
 11
80.7376594929
 21
87.5727836656
  0
LINE
  5
28E
100
AcDbEntity
  8
0
100
AcDbLine
 62
7
  6
BYLAYER
 10
81.470995722
 20
66.5727826665
 11
80.7753865551
 21
86.4924219562
  0
LINE
  5
28F
100
AcDbEntity
  8
0
100
AcDbLine
 62
7
  6
BYLAYER
 10
80.8812242438
 20
70.6644947032
 11
80.9567742056
 21
68.4810699834
  0
LINE
  5
290
100
AcDbEntity
  8
0
100
AcDbLine
 62
7
  6
BYLAYER
 10
81.0229011748
 20
66.583267748
 11
81.0201236178
 21
66.6635318633
  0
LINE
  5
291
100
AcDbEntity
  8
0
100
AcDbLine
 62
7
  6
BYLAYER
 10
80.8187753242
 20
72.4819697204
 11
79.8709103155
 21
99.8727836656
  0
LINE
  5
292
100
AcDbEntity
  8
0
100
AcDbLine
 62
7
  6
BYLAYER
 10
80.3364356485
 20
88.0727836656
 11
80.3364356485
 21
99.0727836656
  0
LINE
  5
293
100
AcDbEntity
  8
0
100
AcDbLine
 62
7
  6
BYLAYER
 10
80.7753865551
 20
86.4924219562
 11
80.7753865551
 21
87.5727826176
  0
LINE
  5
294
100
AcDbEntity
  8
0
100
AcDbLine
 62
7
  6
BYLAYER
 10
85.9803526694
 20
124.8727836656
 11
86.1112822773
 21
129.8727836656
  0
LINE
  5
295
100
AcDbEntity
  8
0
100
AcDbLine
 62
7
  6
BYLAYER
 10
125.154510519
 20
116.8727836656
 11
106.0072247104
 21
116.8727836656
  0
LINE
  5
296
100
AcDbEntity
  8
0
100
AcDbLine
 62
7
  6
BYLAYER
 10
23.7973820625
 20
116.872803035
 11
20.0677647558
 21
116.8728030322
  0
LINE
  5
297
100
AcDbEntity
  8
0
100
AcDbLine
 62
7
  6
BYLAYER
 10
112.5908654922
 20
119.4727836656
 11
102.3333116669
 21
119.4727836656
  0
LINE
  5
298
100
AcDbEntity
  8
0
100
AcDbLine
 62
7
  6
BYLAYER
 10
95.2914425007
 20
124.4562603063
 11
95.1022942937
 21
129.8727562679
  0
LINE
  5
299
100
AcDbEntity
  8
0
100
AcDbLine
 62
7
  6
BYLAYER
 10
95.4587367194
 20
129.8727836656
 11
95.4587382823
 21
124.3378663685
  0
LINE
  5
29A
100
AcDbEntity
  8
0
100
AcDbLine
 62
7
  6
BYLAYER
 10
112.929116655
 20
123.3692044996
 11
125.5726418595
 21
123.3692045018
  0
LINE
  5
29B
100
AcDbEntity
  8
0
100
AcDbLine
 62
7
  6
BYLAYER
 10
49.163640716
 20
123.8727836656
 11
50.8207562454
 21
123.8727836656
  0
LINE
  5
29C
100
AcDbEntity
  8
0
100
AcDbLine
 62
7
  6
BYLAYER
 10
99.4551385554
 20
121.5096446368
 11
99.4547836971
 21
129.8727836656
  0
LINE
  5
29D
100
AcDbEntity
  8
0
100
AcDbLine
 62
7
  6
BYLAYER
 10
52.6761707731
 20
126.667918929
 11
49.163640716
 21
126.3648765287
  0
LINE
  5
29E
100
AcDbEntity
  8
0
100
AcDbLine
 62
7
  6
BYLAYER
 10
49.163640716
 20
124.8727836656
 11
85.9803526694
 21
124.8727836656
  0
LINE
  5
29F
100
AcDbEntity
  8
0
100
AcDbLine
 62
7
  6
BYLAYER
 10
34.4956593878
 20
129.8727836656
 11
52.6761707731
 21
129.8727836656
  0
LINE
  5
2A0
100
AcDbEntity
  8
0
100
AcDbLine
 62
7
  6
BYLAYER
 10
86.1112822773
 20
129.8727836656
 11
109.7783091764
 21
129.8727836656
  0
LINE
  5
2A1
100
AcDbEntity
  8
0
100
AcDbLine
 62
7
  6
BYLAYER
 10
87.637659493
 20
129.8727836656
 11
118.8395756626
 21
107.791427607
  0
LINE
  5
2A2
100
AcDbEntity
  8
0
100
AcDbLine
 62
7
  6
BYLAYER
 10
112.6816594929
 20
116.8727836656
 11
112.5908654922
 21
119.4727836656
  0
LINE
  5
2A3
100
AcDbEntity
  8
0
100
AcDbLine
 62
7
  6
BYLAYER
 10
112.5908654922
 20
119.4727836656
 11
112.5908654922
 21
126.5711905678
  0
LINE
  5
2A4
100
AcDbEntity
  8
0
100
AcDbLine
 62
7
  6
BYLAYER
 10
112.815718182
 20
116.8727836507
 11
112.929116655
 21
123.3692044996
  0
LINE
  5
2A5
100
AcDbEntity
  8
0
100
AcDbLine
 62
7
  6
BYLAYER
 10
115.6342294065
 20
90.6727836656
 11
115.6342294065
 21
99.0727836656
  0
LINE
  5
2A6
100
AcDbEntity
  8
0
100
AcDbLine
 62
7
  6
BYLAYER
 10
117.1376594929
 20
91.2727836656
 11
117.1376594929
 21
90.6727836656
  0
LINE
  5
2A7
100
AcDbEntity
  8
0
100
AcDbLine
 62
7
  6
BYLAYER
 10
118.2876594929
 20
92.7230808532
 11
118.2876594929
 21
92.7314028917
  0
LINE
  5
2A8
100
AcDbEntity
  8
0
100
AcDbLine
 62
7
  6
BYLAYER
 10
119.3376594929
 20
91.2727790709
 11
119.3376594929
 21
92.7727836656
  0
LINE
  5
2A9
100
AcDbEntity
  8
0
100
AcDbLine
 62
7
  6
BYLAYER
 10
119.6376594915
 20
99.0727836656
 11
119.6376594927
 21
91.7727836656
  0
LINE
  5
2AA
100
AcDbEntity
  8
0
100
AcDbLine
 62
7
  6
BYLAYER
 10
119.9376594929
 20
91.2728033873
 11
119.9376594929
 21
92.7727836656
  0
LINE
  5
2AB
100
AcDbEntity
  8
0
100
AcDbLine
 62
7
  6
BYLAYER
 10
120.154510519
 20
99.8727836656
 11
120.154510519
 21
106.8727836656
  0
LINE
  5
2AC
100
AcDbEntity
  8
0
100
AcDbLine
 62
7
  6
BYLAYER
 10
120.9876594929
 20
92.7314028917
 11
120.9876594929
 21
92.7230808532
  0
LINE
  5
2AD
100
AcDbEntity
  8
0
100
AcDbLine
 62
7
  6
BYLAYER
 10
119.6226210005
 20
88.0727836656
 11
119.6225405589
 21
87.5727836656
  0
LINE
  5
2AE
100
AcDbEntity
  8
0
100
AcDbLine
 62
7
  6
BYLAYER
 10
119.6416171848
 20
90.6727836656
 11
119.6402312529
 21
88.0727836656
  0
LINE
  5
2AF
100
AcDbEntity
  8
0
100
AcDbLine
 62
7
  6
BYLAYER
 10
119.6336848151
 20
87.5727532598
 11
118.9003488382
 21
66.5727517628
  0
LINE
  5
2B0
100
AcDbEntity
  8
0
100
AcDbLine
 62
7
  6
BYLAYER
 10
109.7783091752
 20
129.8727836657
 11
112.5908654913
 21
126.5711905678
  0
LINE
  5
2B1
100
AcDbEntity
  8
0
100
AcDbLine
 62
7
  6
BYLAYER
 10
123.5376594929
 20
99.8727836656
 11
123.5656838799
 21
99.0702702218
  0
LINE
  5
2B2
100
AcDbEntity
  8
0
100
AcDbLine
 62
7
  6
BYLAYER
 10
123.6376594929
 20
97.0091583373
 11
123.8170256506
 21
91.8727836142
  0
LINE
  5
2B3
100
AcDbEntity
  8
0
100
AcDbLine
 62
7
  6
BYLAYER
 10
122.1376594929
 20
91.2727836656
 11
122.1376594929
 21
90.6727836656
  0
LINE
  5
2B4
100
AcDbEntity
  8
0
100
AcDbLine
 62
7
  6
BYLAYER
 10
123.1201991082
 20
87.5727836656
 11
123.1201991082
 21
88.0727836656
  0
LINE
  5
2B5
100
AcDbEntity
  8
0
100
AcDbLine
 62
7
  6
BYLAYER
 10
123.6376594929
 20
88.0727836656
 11
123.6376594929
 21
99.0727836656
  0
LINE
  5
2B6
100
AcDbEntity
  8
0
100
AcDbLine
 62
7
  6
BYLAYER
 10
125.154510519
 20
91.8727836677
 11
125.154510519
 21
116.8727836653
  0
LINE
  5
2B7
100
AcDbEntity
  8
0
100
AcDbLine
 62
7
  6
BYLAYER
 10
125.5726418595
 20
123.3692045018
 11
125.2056607868
 21
102.3448729272
  0
LINE
  5
2B8
100
AcDbEntity
  8
0
100
AcDbLine
 62
7
  6
BYLAYER
 10
122.904323364
 20
66.5727845351
 11
123.6376595491
 21
87.5727852748
  0
ARC
  5
2B9
100
AcDbEntity
  8
0
100
AcDbCircle
 62
7
  6
BYLAYER
 10
121.7279199501
 20
111.8727836656
 40
5.0
100
AcDbArc
 50
234.7132510256
 51
270.0
  0
ARC
  5
2BA
100
AcDbEntity
  8
0
100
AcDbCircle
 62
7
  6
BYLAYER
 10
23.7970545235
 20
121.8727836656
 40
5.0
100
AcDbArc
 50
270.0036087142
 51
300.0183671762
  0
ARC
  5
2BB
100
AcDbEntity
  8
0
100
AcDbCircle
 62
7
  6
BYLAYER
 10
118.6376602245
 20
91.2727836656
 40
1.5
100
AcDbArc
 50
103.493427561
 51
180.0
  0
ARC
  5
2BC
100
AcDbEntity
  8
0
100
AcDbCircle
 62
7
  6
BYLAYER
 10
120.6376587613
 20
91.2727836656
 40
1.5
100
AcDbArc
 50
0.0
 51
76.5065724391
  0
ARC
  5
2BD
100
AcDbEntity
  8
0
100
AcDbCircle
 62
7
  6
BYLAYER
 10
26.6376587613
 20
91.2727836656
 40
1.5
100
AcDbArc
 50
0.0
 51
76.5065724395
  0
ARC
  5
2BE
100
AcDbEntity
  8
0
100
AcDbCircle
 62
7
  6
BYLAYER
 10
24.6376602245
 20
91.2727836656
 40
1.5
100
AcDbArc
 50
103.4934275604
 51
180.0
  0
ARC
  5
2BF
100
AcDbEntity
  8
0
100
AcDbCircle
 62
7
  6
BYLAYER
 10
74.7766563772
 20
77.0724611684
 40
0.7967180722
100
AcDbArc
 50
228.8982493061
 51
131.4906884599
  0
ARC
  5
2C0
100
AcDbEntity
  8
0
100
AcDbCircle
 62
7
  6
BYLAYER
 10
70.4986572599
 20
80.0724811791
 40
0.7958238782
100
AcDbArc
 50
49.5763324615
 51
310.7209660623
  0
SPLINE
  5
2C1
100
AcDbEntity
  8
0
100
AcDbSpline
 62
7
  6
BYLAYER
 70
0
 71
3
 72
9
 73
5
 74
0
 42
0.0000001
 43
0.0000001
 44
0.0000000001
 40
0.0
 40
0.0
 40
0.0
 40
0.0
 40
0.5000081711
 40
1.0
 40
1.0
 40
1.0
 40
1.0
 10
120.5915886165
 20
92.7727836656
 30
0.0
 10
120.6582521895
 20
92.7727839371
 30
0.0
 10
120.7917136865
 20
92.7646616871
 30
0.0
 10
120.9231079704
 20
92.7397190248
 30
0.0
 10
120.9876595988
 20
92.7230808532
 30
0.0
  0
SPLINE
  5
2C2
100
AcDbEntity
  8
0
100
AcDbSpline
 62
7
  6
BYLAYER
 70
0
 71
3
 72
9
 73
5
 74
0
 42
0.0000001
 43
0.0000001
 44
0.0000000001
 40
0.0
 40
0.0
 40
0.0
 40
0.0
 40
0.4999918473
 40
1.0
 40
1.0
 40
1.0
 40
1.0
 10
118.2876593871
 20
92.7230808532
 30
0.0
 10
118.3522112861
 20
92.7397190946
 30
0.0
 10
118.4836061284
 20
92.7646617773
 30
0.0
 10
118.6170681884
 20
92.7727840766
 30
0.0
 10
118.6837320361
 20
92.7727836656
 30
0.0
  0
SPLINE
  5
2C3
100
AcDbEntity
  8
0
100
AcDbSpline
 62
7
  6
BYLAYER
 70
0
 71
3
 72
9
 73
5
 74
0
 42
0.0000001
 43
0.0000001
 44
0.0000000001
 40
0.0
 40
0.0
 40
0.0
 40
0.0
 40
0.4999918635
 40
1.0
 40
1.0
 40
1.0
 40
1.0
 10
24.2876593871
 20
92.7230808532
 30
0.0
 10
24.3522112983
 20
92.7397190977
 30
0.0
 10
24.4836061618
 20
92.764661781
 30
0.0
 10
24.6170682427
 20
92.7727840791
 30
0.0
 10
24.6837320987
 20
92.7727836656
 30
0.0
  0
SPLINE
  5
2C4
100
AcDbEntity
  8
0
100
AcDbSpline
 62
7
  6
BYLAYER
 70
0
 71
3
 72
9
 73
5
 74
0
 42
0.0000001
 43
0.0000001
 44
0.0000000001
 40
0.0
 40
0.0
 40
0.0
 40
0.0
 40
0.5000081553
 40
1.0
 40
1.0
 40
1.0
 40
1.0
 10
26.5915886259
 20
92.7727836656
 30
0.0
 10
26.6582521953
 20
92.7727839371
 30
0.0
 10
26.7917136888
 20
92.7646616845
 30
0.0
 10
26.9231079699
 20
92.739719025
 30
0.0
 10
26.9876595988
 20
92.7230808532
 30
0.0
  0
SPLINE
  5
2C5
100
AcDbEntity
  8
0
100
AcDbSpline
 62
7
  6
BYLAYER
 70
0
 71
3
 72
16
 73
12
 74
0
 42
0.0000001
 43
0.0000001
 44
0.0000000001
 40
0.0
 40
0.0
 40
0.0
 40
0.0
 40
0.1530836676
 40
0.3100110412
 40
0.465078061
 40
0.6122161542
 40
0.7425339176
 40
0.8476508477
 40
0.9256686688
 40
0.9789425288
 40
1.0
 40
1.0
 40
1.0
 40
1.0
 10
71.6436493715
 20
79.4767154226
 30
0.0
 10
71.611708878
 20
79.4767154242
 30
0.0
 10
71.5470259324
 20
79.4766297339
 30
0.0
 10
71.449989064
 20
79.4762501757
 30
0.0
 10
71.3541951023
 20
79.4756107077
 30
0.0
 10
71.26395168
 20
79.4747490665
 30
0.0
 10
71.1841439543
 20
79.4736804224
 30
0.0
 10
71.1187295009
 20
79.4726181523
 30
0.0
 10
71.0694717272
 20
79.4713231612
 30
0.0
 10
71.037588144
 20
79.4706526806
 30
0.0
 10
71.0222266859
 20
79.4695611406
 30
0.0
 10
71.0178335855
 20
79.4693284129
 30
0.0
  0
SPLINE
  5
2C6
100
AcDbEntity
  8
0
100
AcDbSpline
 62
7
  6
BYLAYER
 70
0
 71
3
 72
16
 73
12
 74
0
 42
0.0000001
 43
0.0000001
 44
0.0000000001
 40
0.0
 40
0.0
 40
0.0
 40
0.0
 40
0.0251903146
 40
0.0805018325
 40
0.1598635766
 40
0.2640826114
 40
0.3902897839
 40
0.5328896763
 40
0.6859413275
 40
0.8435268843
 40
1.0
 40
1.0
 40
1.0
 40
1.0
 10
71.0147005655
 20
80.6784356092
 30
0.0
 10
71.0195953075
 20
80.6788002123
 30
0.0
 10
71.0350154778
 20
80.6794099665
 30
0.0
 10
71.0659716521
 20
80.6825926442
 30
0.0
 10
71.1119838646
 20
80.6869501197
 30
0.0
 10
71.1716988073
 20
80.693298785
 30
0.0
 10
71.2435384957
 20
80.7011349634
 30
0.0
 10
71.324761187
 20
80.7103238227
 30
0.0
 10
71.4119920329
 20
80.7204462512
 30
0.0
 10
71.5018650353
 20
80.7311273236
 30
0.0
 10
71.5622717016
 20
80.7384637139
 30
0.0
 10
71.592363279
 20
80.7421579346
 30
0.0
  0
SPLINE
  5
2C7
100
AcDbEntity
  8
0
100
AcDbSpline
 62
7
  6
BYLAYER
 70
0
 71
3
 72
26
 73
22
 74
0
 42
0.0000001
 43
0.0000001
 44
0.0000000001
 40
0.0
 40
0.0
 40
0.0
 40
0.0
 40
0.0005297829
 40
0.0015424801
 40
0.005284025
 40
0.011382311
 40
0.0198436182
 40
0.0306568383
 40
0.0437949295
 40
0.0592263544
 40
0.0769188241
 40
0.1189245762
 40
0.1693953536
 40
0.2278566866
 40
0.293732909
 40
0.3664016886
 40
0.4451561721
 40
0.5292485746
 40
0.6178524331
 40
0.8051968073
 40
1.0
 40
1.0
 40
1.0
 40
1.0
 10
81.0201586021
 20
66.6635494852
 30
0.0
 10
81.0201456281
 20
66.664080408
 30
0.0
 10
81.0188030813
 20
66.6652987794
 30
0.0
 10
81.0139860953
 20
66.6670497575
 30
0.0
 10
81.00312109
 20
66.6692767867
 30
0.0
 10
80.9850303208
 20
66.671618077
 30
0.0
 10
80.9596643714
 20
66.6740815974
 30
0.0
 10
80.9272809713
 20
66.6765223894
 30
0.0
 10
80.8878698119
 20
66.6789620485
 30
0.0
 10
80.841558786
 20
66.6813724311
 30
0.0
 10
80.766318682
 20
66.684735202
 30
0.0
 10
80.6559491781
 20
66.6886894413
 30
0.0
 10
80.5047021695
 20
66.6930115458
 30
0.0
 10
80.329511764
 20
66.697069885
 30
0.0
 10
80.1320578799
 20
66.7008267347
 30
0.0
 10
79.9142521485
 20
66.7042354675
 30
0.0
 10
79.6781784222
 20
66.7072641774
 30
0.0
 10
79.4261247311
 20
66.7098784952
 30
0.0
 10
79.065213549
 20
66.7128347205
 30
0.0
 10
78.5933134976
 20
66.7152738113
 30
0.0
 10
78.2102290339
 20
66.7159166821
 30
0.0
 10
78.0149484015
 20
66.7159152067
 30
0.0
  0
SPLINE
  5
2C8
100
AcDbEntity
  8
0
100
AcDbSpline
 62
7
  6
BYLAYER
 70
0
 71
3
 72
26
 73
22
 74
0
 42
0.0000001
 43
0.0000001
 44
0.0000000001
 40
0.0
 40
0.0
 40
0.0
 40
0.0
 40
0.1948245515
 40
0.382201476
 40
0.470823599
 40
0.5549335163
 40
0.633702727
 40
0.7063817603
 40
0.7722623403
 40
0.8307208727
 40
0.881181405
 40
0.9231724266
 40
0.9408568637
 40
0.9562793423
 40
0.969406737
 40
0.9802066789
 40
0.988652013
 40
0.9947342394
 40
0.998462967
 40
0.9994716511
 40
1.0
 40
1.0
 40
1.0
 40
1.0
 10
77.8167191819
 20
72.4296521484
 30
0.0
 10
78.0118154929
 20
72.4296504988
 30
0.0
 10
78.3945503984
 20
72.4302904855
 30
0.0
 10
78.8660256347
 20
72.4327247689
 30
0.0
 10
79.2266250698
 20
72.4356763904
 30
0.0
 10
79.4784638339
 20
72.4382871499
 30
0.0
 10
79.7143314426
 20
72.4413122569
 30
0.0
 10
79.9319371202
 20
72.4447173491
 30
0.0
 10
80.1291948298
 20
72.4484705004
 30
0.0
 10
80.304191977
 20
72.4525250486
 30
0.0
 10
80.4552518119
 20
72.4568433695
 30
0.0
 10
80.5654719547
 20
72.4607943109
 30
0.0
 10
80.6406009773
 20
72.4641541623
 30
0.0
 10
80.6868354812
 20
72.4665622493
 30
0.0
 10
80.7261720088
 20
72.4689995422
 30
0.0
 10
80.7584814135
 20
72.4714376962
 30
0.0
 10
80.7837744241
 20
72.4738990558
 30
0.0
 10
80.8018023828
 20
72.4762377768
 30
0.0
 10
80.812619484
 20
72.4784635718
 30
0.0
 10
80.8174149609
 20
72.4802130337
 30
0.0
 10
80.8187456915
 20
72.4814317826
 30
0.0
 10
80.818756929
 20
72.4819607491
 30
0.0
  0
SPLINE
  5
2C9
100
AcDbEntity
  8
0
100
AcDbSpline
 62
7
  6
BYLAYER
 70
0
 71
3
 72
26
 73
22
 74
0
 42
0.0000001
 43
0.0000001
 44
0.0000000001
 40
0.0
 40
0.0
 40
0.0
 40
0.0
 40
0.1947196202
 40
0.3820328134
 40
0.4706017641
 40
0.554666844
 40
0.6334152729
 40
0.7060706241
 40
0.7719519918
 40
0.8304108422
 40
0.8809014219
 40
0.9229246569
 40
0.9406319399
 40
0.9560842493
 40
0.969243673
 40
0.9800737759
 40
0.988552133
 40
0.9946707854
 40
0.9984361619
 40
0.9994613931
 40
1.0
 40
1.0
 40
1.0
 40
1.0
 10
67.161097672
 20
92.7822444501
 30
0.0
 10
67.0309811026
 20
92.7822452818
 30
0.0
 10
66.7756969282
 20
92.7818162956
 30
0.0
 10
66.4612323593
 20
92.7801914269
 30
0.0
 10
66.2207144332
 20
92.7782222013
 30
0.0
 10
66.0527432127
 20
92.7764795241
 30
0.0
 10
65.8954097121
 20
92.7744632124
 30
0.0
 10
65.7502318433
 20
92.7721908702
 30
0.0
 10
65.6186178943
 20
92.7696895537
 30
0.0
 10
65.5018224513
 20
92.7669839202
 30
0.0
 10
65.4009791276
 20
92.7641057726
 30
0.0
 10
65.3273728857
 20
92.7614710033
 30
0.0
 10
65.2771828306
 20
92.7592307352
 30
0.0
 10
65.2462741244
 20
92.7576246993
 30
0.0
 10
65.2199632622
 20
92.7559997187
 30
0.0
 10
65.1983400171
 20
92.7543712781
 30
0.0
 10
65.1813941776
 20
92.7527316005
 30
0.0
 10
65.1692956012
 20
92.7511640415
 30
0.0
 10
65.1620111047
 20
92.7496906144
 30
0.0
 10
65.1587726268
 20
92.7485127152
 30
0.0
 10
65.1578537427
 20
92.747714264
 30
0.0
 10
65.1578317055
 20
92.7473550286
 30
0.0
  0
SPLINE
  5
2CA
100
AcDbEntity
  8
0
100
AcDbSpline
 62
7
  6
BYLAYER
 70
0
 71
3
 72
26
 73
22
 74
0
 42
0.0000001
 43
0.0000001
 44
0.0000000001
 40
0.0
 40
0.0
 40
0.0
 40
0.0
 40
0.0005379106
 40
0.0015619678
 40
0.005324541
 40
0.0114401828
 40
0.019915627
 40
0.0307431888
 40
0.0439005419
 40
0.0593511972
 40
0.0770571835
 40
0.1190786402
 40
0.1695682262
 40
0.2280270106
 40
0.2939091954
 40
0.3665661335
 40
0.4453167723
 40
0.5293844356
 40
0.6179562599
 40
0.8052755792
 40
1.0
 40
1.0
 40
1.0
 40
1.0
 10
80.1174873799
 20
92.7473526005
 30
0.0
 10
80.117466266
 20
92.747711452
 30
0.0
 10
80.1165493945
 20
92.7485108462
 30
0.0
 10
80.113313568
 20
92.7496881821
 30
0.0
 10
80.1060336189
 20
92.7511624141
 30
0.0
 10
80.0939398457
 20
92.7527296647
 30
0.0
 10
80.0769985021
 20
92.7543696591
 30
0.0
 10
80.0553786723
 20
92.7559981664
 30
0.0
 10
80.0290700646
 20
92.7576233159
 30
0.0
 10
79.9981624264
 20
92.7592294959
 30
0.0
 10
79.9479718191
 20
92.7614700128
 30
0.0
 10
79.8743628437
 20
92.7641050447
 30
0.0
 10
79.7735139454
 20
92.766983489
 30
0.0
 10
79.6567100087
 20
92.7696893795
 30
0.0
 10
79.5250847425
 20
92.7721909259
 30
0.0
 10
79.3798930295
 20
92.7744634558
 30
0.0
 10
79.222543603
 20
92.7764799032
 30
0.0
 10
79.0545548082
 20
92.7782226714
 30
0.0
 10
78.8140113132
 20
92.780191949
 30
0.0
 10
78.4995142121
 20
92.7818167071
 30
0.0
 10
78.2442038133
 20
92.782245396
 30
0.0
 10
78.1140743915
 20
92.7822444503
 30
0.0
  0
SPLINE
  5
2CB
100
AcDbEntity
  8
0
100
AcDbSpline
 62
7
  6
BYLAYER
 70
0
 71
3
 72
26
 73
22
 74
0
 42
0.0000001
 43
0.0000001
 44
0.0000000001
 40
0.0
 40
0.0
 40
0.0
 40
0.0
 40
0.0005283585
 40
0.0015370558
 40
0.0052658073
 40
0.0113480556
 40
0.0197934129
 40
0.0305933598
 40
0.0437207339
 40
0.0591431876
 40
0.0768276165
 40
0.1188186018
 40
0.1692791033
 40
0.2277376152
 40
0.2936181792
 40
0.3662972177
 40
0.4450664421
 40
0.5291763819
 40
0.6177985165
 40
0.8051754885
 40
1.0
 40
1.0
 40
1.0
 40
1.0
 10
64.4565620475
 20
72.4819607148
 30
0.0
 10
64.4565733075
 20
72.4814317393
 30
0.0
 10
64.4579040766
 20
72.4802130143
 30
0.0
 10
64.4626995936
 20
72.4784635348
 30
0.0
 10
64.4735167571
 20
72.4762377631
 30
0.0
 10
64.4915447752
 20
72.4738990361
 30
0.0
 10
64.5168378279
 20
72.4714376935
 30
0.0
 10
64.5491472266
 20
72.4689995445
 30
0.0
 10
64.5884836972
 20
72.466562255
 30
0.0
 10
64.6347181277
 20
72.4641541699
 30
0.0
 10
64.7098470494
 20
72.4607943253
 30
0.0
 10
64.8200670702
 20
72.4568433828
 30
0.0
 10
64.971126754
 20
72.4525250664
 30
0.0
 10
65.1461237602
 20
72.4484705191
 30
0.0
 10
65.3433813554
 20
72.444717367
 30
0.0
 10
65.5609869443
 20
72.4413122741
 30
0.0
 10
65.7968544952
 20
72.4382871651
 30
0.0
 10
66.0486932013
 20
72.4356764041
 30
0.0
 10
66.4092925665
 20
72.4327247789
 30
0.0
 10
66.8807676237
 20
72.4302904954
 30
0.0
 10
67.2635023758
 20
72.4296504997
 30
0.0
 10
67.4585985646
 20
72.4296521478
 30
0.0
  0
SPLINE
  5
2CC
100
AcDbEntity
  8
0
100
AcDbSpline
 62
7
  6
BYLAYER
 70
0
 71
3
 72
26
 73
22
 74
0
 42
0.0000001
 43
0.0000001
 44
0.0000000001
 40
0.0
 40
0.0
 40
0.0
 40
0.0
 40
0.1948029723
 40
0.3821471497
 40
0.4707509489
 40
0.5548433039
 40
0.6335977661
 40
0.706266549
 40
0.7721428082
 40
0.830604197
 40
0.8810750499
 40
0.9230808942
 40
0.9407734105
 40
0.9562048987
 40
0.9693430515
 40
0.9801563126
 40
0.9886176406
 40
0.9947159431
 40
0.9984575045
 40
0.9994702106
 40
1.0
 40
1.0
 40
1.0
 40
1.0
 10
67.2603775981
 20
66.7159152073
 30
0.0
 10
67.0650967354
 20
66.7159166842
 30
0.0
 10
66.6820118047
 20
66.7152738332
 30
0.0
 10
66.2101111405
 20
66.7128347562
 30
0.0
 10
65.8491994285
 20
66.7098785436
 30
0.0
 10
65.5971452832
 20
66.7072642332
 30
0.0
 10
65.3610710768
 20
66.7042355301
 30
0.0
 10
65.1432648231
 20
66.7008268022
 30
0.0
 10
64.9458103864
 20
66.6970699566
 30
0.0
 10
64.7706194072
 20
66.6930116191
 30
0.0
 10
64.6193718247
 20
66.6886895126
 30
0.0
 10
64.5090018505
 20
66.6847352743
 30
0.0
 10
64.4337613696
 20
66.6813724991
 30
0.0
 10
64.3874500646
 20
66.6789621146
 30
0.0
 10
64.3480386471
 20
66.6765224535
 30
0.0
 10
64.3156550484
 20
66.6740816547
 30
0.0
 10
64.2902889608
 20
66.671618128
 30
0.0
 10
64.272198098
 20
66.6692768221
 30
0.0
 10
64.2613330208
 20
66.6670498006
 30
0.0
 10
64.2565159954
 20
66.6652988043
 30
0.0
 10
64.2551734188
 20
66.6640804473
 30
0.0
 10
64.2551604288
 20
66.6635495171
 30
0.0
  0
SPLINE
  5
2CD
100
AcDbEntity
  8
0
100
AcDbSpline
 62
7
  6
BYLAYER
 70
0
 71
3
 72
26
 73
22
 74
0
 42
0.0000001
 43
0.0000001
 44
0.0000000001
 40
0.0
 40
0.0
 40
0.0
 40
0.0
 40
0.0008592056
 40
0.0022639104
 40
0.0067877694
 40
0.013622022
 40
0.0227618257
 40
0.0341915006
 40
0.0478827998
 40
0.0638037847
 40
0.0819219324
 40
0.1245889266
 40
0.1754722785
 40
0.2341054048
 40
0.2999258388
 40
0.3723266187
 40
0.4506200714
 40
0.5340794555
 40
0.6219033478
 40
0.807350082
 40
1.0
 40
1.0
 40
1.0
 40
1.0
 10
64.3940230965
 20
70.6644959234
 30
0.0
 10
64.3946522815
 20
70.6650838032
 30
0.0
 10
64.3967806495
 20
70.6660427508
 30
0.0
 10
64.4032711814
 20
70.667949553
 30
0.0
 10
64.4159641677
 20
70.6700190394
 30
0.0
 10
64.4363335888
 20
70.6724474097
 30
0.0
 10
64.4637083779
 20
70.6748534821
 30
0.0
 10
64.4979541395
 20
70.6772796599
 30
0.0
 10
64.5390186414
 20
70.6796806619
 30
0.0
 10
64.5867945415
 20
70.6820563259
 30
0.0
 10
64.6635988448
 20
70.6853547174
 30
0.0
 10
64.7754463207
 20
70.6892394511
 30
0.0
 10
64.9279052411
 20
70.6934856187
 30
0.0
 10
65.1035822342
 20
70.6974686499
 30
0.0
 10
65.3008343881
 20
70.7011519718
 30
0.0
 10
65.5177986003
 20
70.7044915134
 30
0.0
 10
65.7524473438
 20
70.7074567288
 30
0.0
 10
66.0025586478
 20
70.7100148388
 30
0.0
 10
66.3600596816
 20
70.7129046036
 30
0.0
 10
66.8269972503
 20
70.7152885683
 30
0.0
 10
67.2059235333
 20
70.7159168371
 30
0.0
 10
67.3989960223
 20
70.715915206
 30
0.0
  0
SPLINE
  5
2CE
100
AcDbEntity
  8
0
100
AcDbSpline
 62
7
  6
BYLAYER
 70
0
 71
3
 72
26
 73
22
 74
0
 42
0.0000001
 43
0.0000001
 44
0.0000000001
 40
0.0
 40
0.0
 40
0.0
 40
0.0
 40
0.1926498984
 40
0.3780966318
 40
0.465920522
 40
0.5493799076
 40
0.6276733624
 40
0.7000741447
 40
0.7658945806
 40
0.8245277089
 40
0.8754110629
 40
0.9180780589
 40
0.9361962081
 40
0.9521171931
 40
0.965808492
 40
0.9772381681
 40
0.986377974
 40
0.9932122287
 40
0.9977360892
 40
0.9991407944
 40
1.0
 40
1.0
 40
1.0
 40
1.0
 10
77.8763208582
 20
70.7159152065
 30
0.0
 10
78.0693934557
 20
70.7159168389
 30
0.0
 10
78.4483199694
 20
70.7152885738
 30
0.0
 10
78.9152578252
 20
70.7129046119
 30
0.0
 10
79.2727590946
 20
70.7100148482
 30
0.0
 10
79.522870566
 20
70.7074567388
 30
0.0
 10
79.7575194711
 20
70.7044915235
 30
0.0
 10
79.9744838336
 20
70.7011519817
 30
0.0
 10
80.1717361245
 20
70.6974686592
 30
0.0
 10
80.3474132401
 20
70.6934856271
 30
0.0
 10
80.4998722677
 20
70.6892394586
 30
0.0
 10
80.6117198234
 20
70.6853547236
 30
0.0
 10
80.688524181
 20
70.6820563313
 30
0.0
 10
80.7363001141
 20
70.6796806665
 30
0.0
 10
80.7773646441
 20
70.6772796637
 30
0.0
 10
80.8116104317
 20
70.6748534852
 30
0.0
 10
80.8389852445
 20
70.6724474125
 30
0.0
 10
80.8593546851
 20
70.6700190415
 30
0.0
 10
80.8720476841
 20
70.6679495546
 30
0.0
 10
80.8785382223
 20
70.6660427517
 30
0.0
 10
80.8806665925
 20
70.6650838038
 30
0.0
 10
80.8812957779
 20
70.6644959236
 30
0.0
  0
SPLINE
  5
2CF
100
AcDbEntity
  8
0
100
AcDbSpline
 62
7
  6
BYLAYER
 70
0
 71
3
 72
26
 73
22
 74
0
 42
0.0000001
 43
0.0000001
 44
0.0000000001
 40
0.0
 40
0.0
 40
0.0
 40
0.0
 40
0.0008338541
 40
0.0022098178
 40
0.0066734187
 40
0.0134480965
 40
0.0225325589
 40
0.033913736
 40
0.0475633038
 40
0.0634485523
 40
0.0815361734
 40
0.1241557813
 40
0.175010445
 40
0.2336341549
 40
0.2994630809
 40
0.371888402
 40
0.4502205693
 40
0.5337308614
 40
0.6216155021
 40
0.807202942
 40
1.0
 40
1.0
 40
1.0
 40
1.0
 10
80.9568253181
 20
68.4810714063
 30
0.0
 10
80.9562346969
 20
68.4804814051
 30
0.0
 10
80.9541624566
 20
68.4795194552
 30
0.0
 10
80.9478044647
 20
68.4776120572
 30
0.0
 10
80.9352683348
 20
68.4755451982
 30
0.0
 10
80.9151001788
 20
68.4731179179
 30
0.0
 10
80.8879161398
 20
68.4707132287
 30
0.0
 10
80.8538523361
 20
68.4682876137
 30
0.0
 10
80.8129561571
 20
68.4658870032
 30
0.0
 10
80.7653376866
 20
68.4635114005
 30
0.0
 10
80.6887261665
 20
68.4602121806
 30
0.0
 10
80.577100332
 20
68.4563267232
 30
0.0
 10
80.4248834861
 20
68.4520799576
 30
0.0
 10
80.2494163846
 20
68.4480962569
 30
0.0
 10
80.0523429168
 20
68.4444122061
 30
0.0
 10
79.8355293906
 20
68.4410720126
 30
0.0
 10
79.6010069816
 20
68.4381063492
 30
0.0
 10
79.3510016026
 20
68.4355481187
 30
0.0
 10
78.9936144912
 20
68.4326584719
 30
0.0
 10
78.5268066937
 20
68.4302754092
 30
0.0
 10
78.1479807584
 20
68.4296506881
 30
0.0
 10
77.954958925
 20
68.4296521465
 30
0.0
  0
SPLINE
  5
2D0
100
AcDbEntity
  8
0
100
AcDbSpline
 62
7
  6
BYLAYER
 70
0
 71
3
 72
26
 73
22
 74
0
 42
0.0000001
 43
0.0000001
 44
0.0000000001
 40
0.0
 40
0.0
 40
0.0
 40
0.0
 40
0.1927970385
 40
0.378384467
 40
0.4662690983
 40
0.5497793842
 40
0.6281115463
 40
0.7005368632
 40
0.7663657861
 40
0.8249894954
 40
0.8758441614
 40
0.9184637733
 40
0.9365513975
 40
0.9524366488
 40
0.9660862211
 40
0.9774674062
 40
0.98655188
 40
0.9933265693
 40
0.9977901791
 40
0.9991661451
 40
1.0
 40
1.0
 40
1.0
 40
1.0
 10
67.3203613169
 20
68.4296521471
 30
0.0
 10
67.1273394231
 20
68.4296506872
 30
0.0
 10
66.7485133619
 20
68.4302754089
 30
0.0
 10
66.2817054116
 20
68.4326584702
 30
0.0
 10
65.9243181794
 20
68.4355481169
 30
0.0
 10
65.6743127177
 20
68.4381063473
 30
0.0
 10
65.4397902273
 20
68.4410720108
 30
0.0
 10
65.2229766239
 20
68.4444122043
 30
0.0
 10
65.0259030825
 20
68.4480962553
 30
0.0
 10
64.8504359097
 20
68.4520799563
 30
0.0
 10
64.698218995
 20
68.4563267219
 30
0.0
 10
64.5865931049
 20
68.4602121798
 30
0.0
 10
64.509981543
 20
68.4635113998
 30
0.0
 10
64.4623630425
 20
68.4658870027
 30
0.0
 10
64.4214668312
 20
68.4682876136
 30
0.0
 10
64.3874029893
 20
68.4707132289
 30
0.0
 10
64.3602189078
 20
68.4731179178
 30
0.0
 10
64.3400507115
 20
68.4755451982
 30
0.0
 10
64.3275145527
 20
68.4776120566
 30
0.0
 10
64.3211565461
 20
68.4795194549
 30
0.0
 10
64.3190843007
 20
68.4804814045
 30
0.0
 10
64.3184936787
 20
68.4810714066
 30
0.0
  0
ENDSEC
  0
SECTION
  2
OBJECTS
  0
DICTIONARY
  5
C
100
AcDbDictionary
280
0
281
1
  3
ACAD_GROUP
350
D
  3
ACAD_MLINESTYLE
350
17
  3
ACAD_LAYOUT
350
1A
  3
ACAD_PLOTSETTINGS
350
19
  3
ACAD_PLOTSTYLENAME
350
E
  0
DICTIONARY
  5
D
102
{ACAD_REACTORS
330
C
102
}
100
AcDbDictionary
280
0
281
1
  0
ACDBDICTIONARYWDFLT
  5
E
102
{ACAD_REACTORS
330
C
102
}
100
AcDbDictionary
281
1
  3
Normal
350
F
100
AcDbDictionaryWithDefault
340
F
  0
DICTIONARY
  5
17
102
{ACAD_REACTORS
330
C
102
}
100
AcDbDictionary
280
0
281
1
  3
Standard
350
18
  0
DICTIONARY
  5
19
102
{ACAD_REACTORS
330
C
102
}
100
AcDbDictionary
281
1
  0
DICTIONARY
  5
1A
102
{ACAD_REACTORS
330
C
102
}
100
AcDbDictionary
281
1
  3
Model
350
2D1
  3
Layout1
350
2D2
  0
ACDBPLACEHOLDER
  5
F
102
{ACAD_REACTORS
330
E
102
}
  0
MLINESTYLE
  5
18
102
{ACAD_REACTORS
330
17
102
}
100
AcDbMlineStyle
  2
STANDARD
 70
0
  3

 62
256
 51
90.0
 52
90.0
 71
2
 49
0.5
 62
256
  6
BYLAYER
 49
-0.5
 62
256
  6
BYLAYER
  0
LAYOUT
  5
2D1
102
{ACAD_REACTORS
330
1A
102
}
100
AcDbPlotSettings
  1

  2
none_device
  4

  6

 40
0.0
 41
0.0
 42
0.0
 43
0.0
 44
210.0
 45
297.0
 46
0.0
 47
0.0
 48
0.0
 49
0.0
140
0.0
141
0.0
142
1.0
143
1.0
 70
1024
 72
1
 73
0
 74
0
  7

 75
0
147
1.0
148
0.0
149
0.0
100
AcDbLayout
  1
Model
 70
0
 71
0
 10
0.0
 20
0.0
 11
210.0
 21
297.0
 12
0.0
 22
0.0
 32
0.0
 14
0.0
 24
0.0
 34
0.0
 15
0.0
 25
0.0
 35
0.0
146
0.0
 13
0.0
 23
0.0
 33
0.0
 16
1.0
 26
0.0
 36
0.0
 17
0.0
 27
1.0
 37
0.0
 76
0
330
211
345
0
346
0
  0
LAYOUT
  5
2D2
102
{ACAD_REACTORS
330
1A
102
}
100
AcDbPlotSettings
  1

  2
none_device
  4

  6

 40
0.0
 41
0.0
 42
0.0
 43
0.0
 44
210.0
 45
297.0
 46
0.0
 47
0.0
 48
0.0
 49
0.0
140
0.0
141
0.0
142
1.0
143
1.0
 70
0
 72
1
 73
0
 74
0
  7

 75
0
147
1.0
148
0.0
149
0.0
100
AcDbLayout
  1
Layout1
 70
0
 71
1
 10
0.0
 20
0.0
 11
210.0
 21
297.0
 12
0.0
 22
0.0
 32
0.0
 14
0.0
 24
0.0
 34
0.0
 15
0.0
 25
0.0
 35
0.0
146
0.0
 13
0.0
 23
0.0
 33
0.0
 16
1.0
 26
0.0
 36
0.0
 17
0.0
 27
1.0
 37
0.0
 76
0
330
212
345
0
346
0
  0
ENDSEC
  0
EOF
