999
DXF file: C:\Users\sesa63760\Dev\_Creo\CAD\MCADID0000500_3D-CAD\drw0001_1.dxf
999
Pro/ENGINEER 2019471 by Parametric Technology Corporation
  0
SECTION
  2
HEADER
  9
$ACADVER
  1
AC1024
  9
$DWGCODEPAGE
  3
ANSI_1252
  9
$EXTMAX
 10
467.6051380993
 20
661.3272667404
 30
0.0
  9
$EXTMIN
 10
0.0
 20
0.0
 30
0.0
  9
$LIMMIN
 10
0.0
 20
0.0
  9
$LIMMAX
 10
467.6051380993
 20
661.3272667404
  9
$VIEWCTR
 10
233.8025690496
 20
330.6636333702
  9
$VIEWSIZE
 40
661.3272667404
  9
$CLAYER
  8
0
  9
$LTSCALE
 40
43.1087403505
  9
$CELTYPE
  6
BYLAYER
  9
$DIMSCALE
 40
1.0
  9
$DIMASZ
 40
5.5667278345
  9
$DIMEXO
 40
1.0
  9
$DIMDLI
 40
29.7842206058
  9
$DIMEXE
 40
1.0
  9
$DIMCEN
 40
7.0541575119
  9
$DIMLFAC
 40
1.0
  9
$DIMBLK
  1
_FILLED
  9
$DIMALT
 70
0
  9
$DIMALTF
 40
0.0393700787
  9
$DIMTXT
 40
7.7934189683
  9
$DIMTOL
 70
1
  9
$DIMLIM
 70
0
  9
$DIMTFAC
 40
1.0
  9
$DIMTP
 40
0.01
  9
$DIMTM
 40
0.01
  9
$DIMGAP
 40
0.625
  9
$DIMDSEP
 70
46
  9
$AUNITS
 70
0
  9
$PDMODE
 70
3
  9
$PDSIZE
 40
0.3125
  9
$HANDSEED
  5
269
  9
$TILEMODE
 70
1
  9
$MEASUREMENT
 70
1
  9
$INSUNITS
 70
4
  0
ENDSEC
  0
SECTION
  2
CLASSES
  0
CLASS
  1
ACDBDICTIONARYWDFLT
  2
AcDbDictionaryWithDefault
  3
AutoCAD 2000
 90
0
 91
1
280
0
281
0
  0
CLASS
  1
ACDBPLACEHOLDER
  2
AcDbPlaceHolder
  3
AutoCAD 2000
 90
0
 91
1
280
0
281
0
  0
CLASS
  1
LAYOUT
  2
AcDbLayout
  3
AutoCAD 2000
 90
0
 91
0
280
0
281
0
  0
ENDSEC
  0
SECTION
  2
TABLES
  0
TABLE
  2
VPORT
  5
8
100
AcDbSymbolTable
 70
2
  0
VPORT
  5
1F4
100
AcDbSymbolTableRecord
100
AcDbViewportTableRecord
  2
*ACTIVE
 70
0
 10
0.0
 20
0.0
 11
1.0
 21
1.0
 12
233.8025690496
 22
330.6636333702
 13
0.0
 23
0.0
 14
1.0
 24
1.0
 15
0.0
 25
0.0
 16
0.0
 26
0.0
 36
1.0
 17
0.0
 27
0.0
 37
0.0
 40
661.3272667404
 41
0.7070707071
 42
50.0
 43
0.0
 44
0.0
 50
0.0
 51
0.0
 71
0
 72
100
 73
1
 74
1
 75
0
 76
0
 77
0
 78
0
  0
ENDTAB
  0
TABLE
  2
LTYPE
  5
5
100
AcDbSymbolTable
 70
6
  0
LTYPE
  5
14
100
AcDbSymbolTableRecord
100
AcDbLinetypeTableRecord
  2
BYBLOCK
 70
0
  3

 72
65
 73
0
 40
0.0
  0
LTYPE
  5
15
100
AcDbSymbolTableRecord
100
AcDbLinetypeTableRecord
  2
BYLAYER
 70
0
  3

 72
65
 73
0
 40
0.0
  0
LTYPE
  5
16
100
AcDbSymbolTableRecord
100
AcDbLinetypeTableRecord
  2
CONTINUOUS
 70
64
  3
Solid line
 72
65
 73
0
 40
0.0
  0
LTYPE
  5
1F5
100
AcDbSymbolTableRecord
100
AcDbLinetypeTableRecord
  2
CENTER
 70
64
  3
____ _ ____ _ ____ _ ____ _ ____ _ ____ _ ____
 72
65
 73
4
 40
0.6
 49
0.375
 74
0
 49
-0.075
 74
0
 49
0.075
 74
0
 49
-0.075
 74
0
  0
LTYPE
  5
1F6
100
AcDbSymbolTableRecord
100
AcDbLinetypeTableRecord
  2
HIDDEN
 70
64
  3
- - - - - - - - - - - - - - - - - - - -
 72
65
 73
2
 40
0.2
 49
0.1
 74
0
 49
-0.1
 74
0
  0
LTYPE
  5
1F7
100
AcDbSymbolTableRecord
100
AcDbLinetypeTableRecord
  2
PHANTOM
 70
64
  3
_____ _ _ _____ _ _ _____ _ _ _____
 72
65
 73
6
 40
0.8
 49
0.45
 74
0
 49
-0.05
 74
0
 49
0.1
 74
0
 49
-0.05
 74
0
 49
0.1
 74
0
 49
-0.05
 74
0
  0
LTYPE
  5
1F8
100
AcDbSymbolTableRecord
100
AcDbLinetypeTableRecord
  2
DOT
 70
64
  3
. . . . . . . . . . . . . . . . . . . .
 72
65
 73
2
 40
0.2
 49
0.1
 74
0
 49
-0.1
 74
0
  0
LTYPE
  5
1F9
100
AcDbSymbolTableRecord
100
AcDbLinetypeTableRecord
  2
DASHED
 70
64
  3
- - - - - - - - - - - - - - - - - - - -
 72
65
 73
2
 40
0.2
 49
0.1
 74
0
 49
-0.1
 74
0
  0
ENDTAB
  0
TABLE
  2
LAYER
  5
2
100
AcDbSymbolTable
 70
36
  0
LAYER
  5
10
100
AcDbSymbolTableRecord
100
AcDbLayerTableRecord
  2
0
 70
0
 62
7
  6
CONTINUOUS
370
-3
390
F
  0
LAYER
  5
1FA
100
AcDbSymbolTableRecord
100
AcDbLayerTableRecord
  2
DEFAULT_1
 70
0
 62
7
  6
CENTER
370
-3
390
F
  0
LAYER
  5
1FB
100
AcDbSymbolTableRecord
100
AcDbLayerTableRecord
  2
DEFAULT_2
 70
0
 62
8
  6
HIDDEN
370
-3
390
F
  0
LAYER
  5
1FC
100
AcDbSymbolTableRecord
100
AcDbLayerTableRecord
  2
DEFAULT_3
 70
0
 62
7
  6
PHANTOM
370
-3
390
F
  0
LAYER
  5
1FD
100
AcDbSymbolTableRecord
100
AcDbLayerTableRecord
  2
00_COMPONENTS
 70
0
 62
7
  6
CONTINUOUS
370
-3
390
F
  0
LAYER
  5
1FE
100
AcDbSymbolTableRecord
100
AcDbLayerTableRecord
  2
01_1_DEFAULT_DATUMS
 70
0
 62
7
  6
CONTINUOUS
370
-3
390
F
  0
LAYER
  5
1FF
100
AcDbSymbolTableRecord
100
AcDbLayerTableRecord
  2
01_PLANES
 70
0
 62
7
  6
CONTINUOUS
370
-3
390
F
  0
LAYER
  5
200
100
AcDbSymbolTableRecord
100
AcDbLayerTableRecord
  2
02_COORD_SYS
 70
0
 62
7
  6
CONTINUOUS
370
-3
390
F
  0
LAYER
  5
201
100
AcDbSymbolTableRecord
100
AcDbLayerTableRecord
  2
03_AXES
 70
0
 62
7
  6
CONTINUOUS
370
-3
390
F
  0
LAYER
  5
202
100
AcDbSymbolTableRecord
100
AcDbLayerTableRecord
  2
04_POINTS
 70
0
 62
7
  6
CONTINUOUS
370
-3
390
F
  0
LAYER
  5
203
100
AcDbSymbolTableRecord
100
AcDbLayerTableRecord
  2
05_CURVES
 70
0
 62
7
  6
CONTINUOUS
370
-3
390
F
  0
LAYER
  5
204
100
AcDbSymbolTableRecord
100
AcDbLayerTableRecord
  2
06_SURFS
 70
0
 62
7
  6
CONTINUOUS
370
-3
390
F
  0
LAYER
  5
205
100
AcDbSymbolTableRecord
100
AcDbLayerTableRecord
  2
07_COSMETICS
 70
0
 62
7
  6
CONTINUOUS
370
-3
390
F
  0
LAYER
  5
206
100
AcDbSymbolTableRecord
100
AcDbLayerTableRecord
  2
10_NOTES
 70
0
 62
7
  6
CONTINUOUS
370
-3
390
F
  0
LAYER
  5
207
100
AcDbSymbolTableRecord
100
AcDbLayerTableRecord
  2
11_NOTES_PUB
 70
0
 62
7
  6
CONTINUOUS
370
-3
390
F
  0
LAYER
  5
208
100
AcDbSymbolTableRecord
100
AcDbLayerTableRecord
  2
13_REF_GTOL
 70
0
 62
7
  6
CONTINUOUS
370
-3
390
F
  0
LAYER
  5
209
100
AcDbSymbolTableRecord
100
AcDbLayerTableRecord
  2
16_MISC
 70
0
 62
7
  6
CONTINUOUS
370
-3
390
F
  0
LAYER
  5
20A
100
AcDbSymbolTableRecord
100
AcDbLayerTableRecord
  2
17_NO_PRINT
 70
0
 62
7
  6
CONTINUOUS
370
-3
390
F
  0
LAYER
  5
20B
100
AcDbSymbolTableRecord
100
AcDbLayerTableRecord
  2
18_DATUM_CAMS_JOINTS
 70
0
 62
7
  6
CONTINUOUS
370
-3
390
F
  0
LAYER
  5
20C
100
AcDbSymbolTableRecord
100
AcDbLayerTableRecord
  2
19_DATUM_FUNCTIONAL
 70
0
 62
7
  6
CONTINUOUS
370
-3
390
F
  0
LAYER
  5
20D
100
AcDbSymbolTableRecord
100
AcDbLayerTableRecord
  2
20_DATUM_KINEMATIC_SCHEME
 70
0
 62
7
  6
CONTINUOUS
370
-3
390
F
  0
ENDTAB
  0
TABLE
  2
STYLE
  5
3
100
AcDbSymbolTable
 70
1
  0
STYLE
  5
11
100
AcDbSymbolTableRecord
100
AcDbTextStyleTableRecord
  2
STANDARD
 70
0
 40
0.0
 41
0.8
 50
0.0
 71
0
 42
0.2
  3
txt
  4

  0
STYLE
  5
20E
100
AcDbSymbolTableRecord
100
AcDbTextStyleTableRecord
  2
TEXTSTYLE_1
 70
0
 40
0.0
 41
0.8
 50
0.0
 71
0
 42
0.2
  3
gdt
  4

  0
ENDTAB
  0
TABLE
  2
VIEW
  5
6
100
AcDbSymbolTable
 70
0
  0
ENDTAB
  0
TABLE
  2
UCS
  5
7
100
AcDbSymbolTable
 70
0
  0
ENDTAB
  0
TABLE
  2
APPID
  5
9
100
AcDbSymbolTable
 70
1
  0
APPID
  5
20F
100
AcDbSymbolTableRecord
100
AcDbRegAppTableRecord
  2
ACAD
 70
0
  0
ENDTAB
  0
TABLE
  2
BLOCK_RECORD
  5
1
100
AcDbSymbolTable
 70
0
  0
BLOCK_RECORD
  5
210
100
AcDbSymbolTableRecord
100
AcDbBlockTableRecord
  2
*Model_Space
  0
BLOCK_RECORD
  5
211
100
AcDbSymbolTableRecord
100
AcDbBlockTableRecord
  2
*Paper_Space
  0
BLOCK_RECORD
  5
212
100
AcDbSymbolTableRecord
100
AcDbBlockTableRecord
  2
_FILLED
  0
ENDTAB
  0
TABLE
  2
DIMSTYLE
  5
A
100
AcDbSymbolTable
 70
1
100
AcDbDimStyleTable
 71
0
  0
DIMSTYLE
105
213
100
AcDbSymbolTableRecord
100
AcDbDimStyleTableRecord
  2
STANDARD
 70
0
  3

  4

 40
1.0
 41
5.5667278345
 42
1.0
 43
0.38
 44
1.0
 45
0.0
 46
0.0
 47
0.01
 48
0.01
140
7.7934189683
141
0.09
142
0.0
143
25.4
144
1.0
145
0.0
146
1.0
147
0.625
 71
1
 72
0
 73
0
 74
0
 75
0
 76
0
 77
1
 78
8
 79
2
170
0
171
1
172
0
173
0
174
0
175
0
176
0
177
0
178
0
270
2
179
2
271
2
272
2
273
2
274
2
275
0
280
0
281
0
282
0
283
1
284
8
285
0
286
0
287
3
288
0
340
11
278
46
341
212
342
212
343
212
344
212
  0
ENDTAB
  0
ENDSEC
  0
SECTION
  2
BLOCKS
  0
BLOCK
  5
20
100
AcDbEntity
  8
0
100
AcDbBlockBegin
  2
*Model_Space
 70
0
 10
0.0
 20
0.0
 30
0.0
  3
*Model_Space
  1

  0
ENDBLK
  5
21
100
AcDbEntity
  8
0
100
AcDbBlockEnd
  0
BLOCK
  5
1C
100
AcDbEntity
  8
0
100
AcDbBlockBegin
  2
*Paper_Space
 70
0
 10
0.0
 20
0.0
 30
0.0
  3
*Paper_Space
  1

  0
ENDBLK
  5
1D
100
AcDbEntity
  8
0
100
AcDbBlockEnd
  0
BLOCK
  5
214
100
AcDbEntity
  8
0
100
AcDbBlockBegin
  2
_FILLED
 70
64
 10
0.0
 20
0.0
  3
_FILLED
  1

  0
SOLID
  5
215
100
AcDbEntity
  8
0
  6
BYBLOCK
 62
0
100
AcDbTrace
 10
0.0
 20
0.0
 11
-1.0
 21
0.25
 12
-1.0
 22
-0.25
 13
-1.0
 23
-0.25
  0
ENDBLK
  5
216
100
AcDbEntity
  8
0
  6
BYBLOCK
 62
0
100
AcDbBlockEnd
  0
ENDSEC
  0
SECTION
  2
ENTITIES
  0
LINE
  5
217
100
AcDbEntity
  8
0
100
AcDbLine
 62
7
  6
CONTINUOUS
 10
59.6052253846
 20
555.4519697423
 11
54.817508336
 21
552.3255559542
  0
LINE
  5
218
100
AcDbEntity
  8
0
100
AcDbLine
 62
7
  6
CONTINUOUS
 10
56.3517869851
 20
552.2067920854
 11
61.3071585555
 21
555.3202282442
  0
LINE
  5
219
100
AcDbEntity
  8
0
100
AcDbLine
 62
7
  6
CONTINUOUS
 10
55.9378939173
 20
549.2268002968
 11
57.0352675512
 21
549.8603654778
  0
LINE
  5
21A
100
AcDbEntity
  8
0
100
AcDbLine
 62
7
  6
CONTINUOUS
 10
55.633873074
 20
548.882473976
 11
57.1814649486
 21
549.7759712279
  0
LINE
  5
21B
100
AcDbEntity
  8
0
100
AcDbLine
 62
7
  6
CONTINUOUS
 10
56.6358999574
 20
548.7832242141
 11
57.7684366061
 21
549.43709065
  0
LINE
  5
21C
100
AcDbEntity
  8
0
100
AcDbLine
 62
7
  6
CONTINUOUS
 10
88.1680349049
 20
558.954560632
 11
71.0440852531
 21
549.698738169
  0
LINE
  5
21D
100
AcDbEntity
  8
0
100
AcDbLine
 62
7
  6
CONTINUOUS
 10
85.9556626126
 20
559.2086569233
 11
69.5070698046
 21
550.5861143768
  0
LINE
  5
21E
100
AcDbEntity
  8
0
100
AcDbLine
 62
7
  6
CONTINUOUS
 10
54.2475759448
 20
550.9920510592
 11
54.8175711298
 21
552.3254520368
  0
LINE
  5
21F
100
AcDbEntity
  8
0
100
AcDbLine
 62
7
  6
CONTINUOUS
 10
55.6338948109
 20
548.8824363263
 11
55.2188077048
 21
547.9650422268
  0
LINE
  5
220
100
AcDbEntity
  8
0
100
AcDbLine
 62
7
  6
CONTINUOUS
 10
55.9378939173
 20
549.2268002948
 11
56.2593279731
 21
549.9372095127
  0
LINE
  5
221
100
AcDbEntity
  8
0
100
AcDbLine
 62
7
  6
CONTINUOUS
 10
394.6435669198
 20
106.2385890712
 11
395.6349912791
 21
106.1404246004
  0
LINE
  5
222
100
AcDbEntity
  8
0
100
AcDbLine
 62
7
  6
CONTINUOUS
 10
396.8670963134
 20
106.1444264211
 11
396.11603503
 21
106.218791685
  0
LINE
  5
223
100
AcDbEntity
  8
0
100
AcDbLine
 62
7
  6
CONTINUOUS
 10
398.2171937847
 20
103.7013580983
 11
396.8021031341
 21
103.8708821432
  0
LINE
  5
224
100
AcDbEntity
  8
0
100
AcDbLine
 62
7
  6
CONTINUOUS
 10
54.2475759444
 20
304.0188535476
 11
54.2475759444
 21
550.9918905398
  0
LINE
  5
225
100
AcDbEntity
  8
0
100
AcDbLine
 62
7
  6
CONTINUOUS
 10
55.2188077048
 20
547.9650422268
 11
55.2188077048
 21
303.83107155
  0
LINE
  5
226
100
AcDbEntity
  8
0
100
AcDbLine
 62
7
  6
CONTINUOUS
 10
55.9378939173
 20
549.0579994439
 11
55.9378939173
 21
549.2268002948
  0
LINE
  5
227
100
AcDbEntity
  8
0
100
AcDbLine
 62
7
  6
CONTINUOUS
 10
396.8021555029
 20
103.8708519084
 11
56.3074086763
 21
300.4511384061
  0
LINE
  5
228
100
AcDbEntity
  8
0
100
AcDbLine
 62
7
  6
CONTINUOUS
 10
56.6303726282
 20
301.3861829566
 11
394.6435669198
 21
106.2385890712
  0
LINE
  5
229
100
AcDbEntity
  8
0
100
AcDbLine
 62
7
  6
CONTINUOUS
 10
396.11603503
 20
106.218791685
 11
395.9434230236
 21
106.3184470189
  0
LINE
  5
22A
100
AcDbEntity
  8
0
100
AcDbLine
 62
7
  6
CONTINUOUS
 10
395.7556871652
 20
354.3044750467
 11
394.6231505165
 21
353.6506086107
  0
LINE
  5
22B
100
AcDbEntity
  8
0
100
AcDbLine
 62
7
  6
CONTINUOUS
 10
398.8685462749
 20
351.944512509
 11
404.0425609064
 21
354.7579104723
  0
LINE
  5
22C
100
AcDbEntity
  8
0
100
AcDbLine
 62
7
  6
CONTINUOUS
 10
417.42800959
 20
368.8605261159
 11
400.243695616
 21
359.6395542221
  0
LINE
  5
22D
100
AcDbEntity
  8
0
100
AcDbLine
 62
7
  6
CONTINUOUS
 10
420.6204377391
 20
363.3311090572
 11
404.0425609061
 21
353.0595957765
  0
LINE
  5
22E
100
AcDbEntity
  8
0
100
AcDbLine
 62
7
  6
CONTINUOUS
 10
396.6908365919
 20
355.7163953859
 11
401.7143300306
 21
358.7905022555
  0
LINE
  5
22F
100
AcDbEntity
  8
0
100
AcDbLine
 62
7
  6
CONTINUOUS
 10
396.0456952257
 20
351.1867025761
 11
397.1782283021
 21
351.8405669496
  0
LINE
  5
230
100
AcDbEntity
  8
0
100
AcDbLine
 62
7
  6
CONTINUOUS
 10
394.6231505155
 20
353.6506086113
 11
56.6358999587
 21
548.7832242133
  0
LINE
  5
231
100
AcDbEntity
  8
0
100
AcDbLine
 62
7
  6
CONTINUOUS
 10
57.0352580707
 20
549.8603818987
 11
396.1092780559
 21
354.100333869
  0
LINE
  5
232
100
AcDbEntity
  8
0
100
AcDbLine
 62
7
  6
CONTINUOUS
 10
56.3517869851
 20
552.2067920854
 11
396.6908365919
 21
355.7163953859
  0
LINE
  5
233
100
AcDbEntity
  8
0
100
AcDbLine
 62
7
  6
CONTINUOUS
 10
61.3071585555
 20
555.3202282438
 11
401.7143300306
 21
358.7905022551
  0
LINE
  5
234
100
AcDbEntity
  8
0
100
AcDbLine
 62
7
  6
CONTINUOUS
 10
417.42800959
 20
368.8605261159
 11
88.1680349049
 21
558.954560632
  0
LINE
  5
235
100
AcDbEntity
  8
0
100
AcDbLine
 62
7
  6
CONTINUOUS
 10
396.0456952257
 20
107.0481313713
 11
396.0456952257
 21
351.186702575
  0
LINE
  5
236
100
AcDbEntity
  8
0
100
AcDbLine
 62
7
  6
CONTINUOUS
 10
397.1782283021
 20
352.2488680098
 11
397.1782283021
 21
106.8320667905
  0
LINE
  5
237
100
AcDbEntity
  8
0
100
AcDbLine
 62
7
  6
CONTINUOUS
 10
398.8685462749
 20
351.944512509
 11
398.8685462749
 21
105.0639172875
  0
LINE
  5
238
100
AcDbEntity
  8
0
100
AcDbLine
 62
7
  6
CONTINUOUS
 10
404.0425609061
 20
354.7579104729
 11
404.0425609061
 21
107.8123580755
  0
LINE
  5
239
100
AcDbEntity
  8
0
100
AcDbLine
 62
7
  6
CONTINUOUS
 10
420.6204377391
 20
129.2877119673
 11
420.6204377391
 21
363.3311090572
  0
LINE
  5
23A
100
AcDbEntity
  8
0
100
AcDbLine
 62
7
  6
CONTINUOUS
 10
54.8175711298
 20
552.3254520368
 11
56.3518416723
 21
552.206760512
  0
LINE
  5
23B
100
AcDbEntity
  8
0
100
AcDbLine
 62
7
  6
CONTINUOUS
 10
56.6358999587
 20
548.7832242133
 11
55.6338948109
 21
548.8824363263
  0
LINE
  5
23C
100
AcDbEntity
  8
0
100
AcDbLine
 62
7
  6
CONTINUOUS
 10
56.2593279731
 20
549.9372095127
 11
57.0352580707
 21
549.8603818987
  0
LINE
  5
23D
100
AcDbEntity
  8
0
100
AcDbLine
 62
7
  6
CONTINUOUS
 10
395.6349912791
 20
106.1404246004
 11
396.0456952257
 21
107.0481313713
  0
LINE
  5
23E
100
AcDbEntity
  8
0
100
AcDbLine
 62
7
  6
CONTINUOUS
 10
397.1782283021
 20
106.8320667905
 11
396.8670963134
 21
106.1444264211
  0
LINE
  5
23F
100
AcDbEntity
  8
0
100
AcDbLine
 62
7
  6
CONTINUOUS
 10
398.8685462746
 20
105.0637567337
 11
398.2171937847
 21
103.7013580983
  0
LINE
  5
240
100
AcDbEntity
  8
0
100
AcDbLine
 62
7
  6
CONTINUOUS
 10
404.0425609061
 20
117.2943811838
 11
419.7351398787
 21
127.2449790698
  0
LINE
  5
241
100
AcDbEntity
  8
0
100
AcDbLine
 62
7
  6
CONTINUOUS
 10
420.6204377391
 20
129.2877119673
 11
404.0425609061
 21
119.0565565251
  0
LINE
  5
242
100
AcDbEntity
  8
0
100
AcDbLine
 62
7
  6
CONTINUOUS
 10
397.1782283021
 20
107.7019957458
 11
396.0456952257
 21
107.0481313723
  0
LINE
  5
243
100
AcDbEntity
  8
0
100
AcDbLine
 62
7
  6
CONTINUOUS
 10
395.6350127865
 20
106.1403873483
 11
397.1782283021
 21
107.0313579233
  0
LINE
  5
244
100
AcDbEntity
  8
0
100
AcDbLine
 62
7
  6
CONTINUOUS
 10
397.1782374807
 20
106.8320508926
 11
396.1160350322
 21
106.2187916837
  0
LINE
  5
245
100
AcDbEntity
  8
0
100
AcDbLine
 62
7
  6
CONTINUOUS
 10
398.8685462749
 20
105.0639172875
 11
404.0425609064
 21
107.8123580753
  0
LINE
  5
246
100
AcDbEntity
  8
0
100
AcDbLine
 62
7
  6
CONTINUOUS
 10
398.2172488004
 20
103.7012583593
 11
403.3150514681
 21
106.2902467972
  0
SPLINE
  5
247
100
AcDbEntity
  8
0
100
AcDbSpline
 62
7
  6
CONTINUOUS
 70
0
 71
3
 72
9
 73
5
 74
0
 42
0.0000001
 43
0.0000001
 44
0.0000000001
 40
0.0
 40
0.0
 40
0.0
 40
0.0
 40
0.4485568988
 40
1.0
 40
1.0
 40
1.0
 40
1.0
 10
59.6052681158
 20
555.4518971164
 30
0.0
 10
59.8268105563
 20
555.5974129644
 30
0.0
 10
60.457994391
 20
555.7107261399
 30
0.0
 10
61.0249482556
 20
555.4831360019
 30
0.0
 10
61.3071585555
 20
555.3202282438
 30
0.0
  0
SPLINE
  5
248
100
AcDbEntity
  8
0
100
AcDbSpline
 62
7
  6
CONTINUOUS
 70
0
 71
3
 72
9
 73
5
 74
0
 42
0.0000001
 43
0.0000001
 44
0.0000000001
 40
0.0
 40
0.0
 40
0.0
 40
0.0
 40
0.5495674405
 40
1.0
 40
1.0
 40
1.0
 40
1.0
 10
420.6204377389
 20
129.2877119674
 30
0.0
 10
420.6204123102
 20
128.8671107254
 30
0.0
 10
420.5123341893
 20
128.0884236003
 30
0.0
 10
420.0258550255
 20
127.4302509611
 30
0.0
 10
419.7351061998
 20
127.2450374843
 30
0.0
  0
SPLINE
  5
249
100
AcDbEntity
  8
0
100
AcDbSpline
 62
7
  6
CONTINUOUS
 70
0
 71
3
 72
9
 73
5
 74
0
 42
0.0000001
 43
0.0000001
 44
0.0000000001
 40
0.0
 40
0.0
 40
0.0
 40
0.0
 40
0.5495828641
 40
1.0
 40
1.0
 40
1.0
 40
1.0
 10
88.1680349049
 20
558.9545606316
 30
0.0
 10
87.8036431793
 20
559.1649081602
 30
0.0
 10
87.0749652762
 20
559.4607255837
 30
0.0
 10
86.2614320059
 20
559.3680724396
 30
0.0
 10
85.9556955115
 20
559.208600657
 30
0.0
  0
SPLINE
  5
24A
100
AcDbEntity
  8
0
100
AcDbSpline
 62
7
  6
CONTINUOUS
 70
0
 71
3
 72
11
 73
7
 74
0
 42
0.0000001
 43
0.0000001
 44
0.0000000001
 40
0.0
 40
0.0
 40
0.0
 40
0.0
 40
0.2372512618
 40
0.5000011658
 40
0.7627504166
 40
1.0
 40
1.0
 40
1.0
 40
1.0
 10
420.6204377389
 20
363.3311090575
 30
0.0
 10
420.6203907385
 20
363.8544764043
 30
0.0
 10
420.4241519075
 20
364.958193335
 30
0.0
 10
419.7396715324
 20
366.5088915811
 30
0.0
 10
418.7389633
 20
367.8770102226
 30
0.0
 10
417.881234865
 20
368.598808029
 30
0.0
 10
417.4280095903
 20
368.8605261153
 30
0.0
  0
SPLINE
  5
24B
100
AcDbEntity
  8
0
100
AcDbSpline
 62
7
  6
CONTINUOUS
 70
0
 71
3
 72
9
 73
5
 74
0
 42
0.0000001
 43
0.0000001
 44
0.0000000001
 40
0.0
 40
0.0
 40
0.0
 40
0.0
 40
0.5514249708
 40
1.0
 40
1.0
 40
1.0
 40
1.0
 10
404.0425609061
 20
107.8123580755
 30
0.0
 10
404.0425414386
 20
107.4903587047
 30
0.0
 10
403.9572209705
 20
106.8927572667
 30
0.0
 10
403.5488706313
 20
106.4083133794
 30
0.0
 10
403.3150120384
 20
106.2903162958
 30
0.0
  0
SPLINE
  5
24C
100
AcDbEntity
  8
0
100
AcDbSpline
 62
7
  6
CONTINUOUS
 70
0
 71
3
 72
11
 73
7
 74
0
 42
0.0000001
 43
0.0000001
 44
0.0000000001
 40
0.0
 40
0.0
 40
0.0
 40
0.0
 40
0.2375778134
 40
0.4999989072
 40
0.7624206023
 40
1.0
 40
1.0
 40
1.0
 40
1.0
 10
401.7143300306
 20
358.7905022551
 30
0.0
 10
402.0452547416
 20
358.599420431
 30
0.0
 10
402.6675398126
 20
358.0698042977
 30
0.0
 10
403.4022185146
 20
357.0766138429
 30
0.0
 10
403.8950135079
 20
355.9437680706
 30
0.0
 10
404.0425378046
 20
355.1400431395
 30
0.0
 10
404.0425609061
 20
354.7579104729
 30
0.0
  0
SPLINE
  5
24D
100
AcDbEntity
  8
0
100
AcDbSpline
 62
7
  6
CONTINUOUS
 70
0
 71
3
 72
8
 73
4
 74
0
 42
0.0000001
 43
0.0000001
 44
0.0000000001
 40
0.0
 40
0.0
 40
0.0
 40
0.0
 40
1.0
 40
1.0
 40
1.0
 40
1.0
 10
56.3072710835
 20
300.4512178606
 30
0.0
 10
56.1919915153
 20
300.5177917067
 30
0.0
 10
56.0815815581
 20
300.593216782
 30
0.0
 10
55.9761422756
 20
300.6744818639
 30
0.0
  0
SPLINE
  5
24E
100
AcDbEntity
  8
0
100
AcDbSpline
 62
7
  6
CONTINUOUS
 70
0
 71
3
 72
9
 73
5
 74
0
 42
0.0000001
 43
0.0000001
 44
0.0000000001
 40
0.0
 40
0.0
 40
0.0
 40
0.0
 40
0.500001227
 40
1.0
 40
1.0
 40
1.0
 40
1.0
 10
55.9761422756
 20
300.6744818639
 30
0.0
 10
55.5193461286
 20
301.0265477676
 30
0.0
 10
54.7662065888
 20
301.9398670497
 30
0.0
 10
54.3518387081
 20
303.0487733844
 30
0.0
 10
54.2753529778
 20
303.6204024498
 30
0.0
  0
SPLINE
  5
24F
100
AcDbEntity
  8
0
100
AcDbSpline
 62
7
  6
CONTINUOUS
 70
0
 71
3
 72
8
 73
4
 74
0
 42
0.0000001
 43
0.0000001
 44
0.0000000001
 40
0.0
 40
0.0
 40
0.0
 40
0.0
 40
1.0
 40
1.0
 40
1.0
 40
1.0
 10
54.2753529778
 20
303.6204024498
 30
0.0
 10
54.2576932091
 20
303.7523857235
 30
0.0
 10
54.2475809005
 20
303.8857545625
 30
0.0
 10
54.2475759418
 20
304.0189140606
 30
0.0
  0
SPLINE
  5
250
100
AcDbEntity
  8
0
100
AcDbSpline
 62
7
  6
CONTINUOUS
 70
0
 71
3
 72
9
 73
5
 74
0
 42
0.0000001
 43
0.0000001
 44
0.0000000001
 40
0.0
 40
0.0
 40
0.0
 40
0.0
 40
0.4999988717
 40
1.0
 40
1.0
 40
1.0
 40
1.0
 10
396.1092780559
 20
354.100333869
 30
0.0
 10
396.4265573878
 20
353.9171567053
 30
0.0
 10
396.927856105
 20
353.3386293685
 30
0.0
 10
397.1782283021
 20
352.6152302067
 30
0.0
 10
397.1782283021
 20
352.2488680098
 30
0.0
  0
SPLINE
  5
251
100
AcDbEntity
  8
0
100
AcDbSpline
 62
7
  6
CONTINUOUS
 70
0
 71
3
 72
9
 73
5
 74
0
 42
0.0000001
 43
0.0000001
 44
0.0000000001
 40
0.0
 40
0.0
 40
0.0
 40
0.0
 40
0.5000011283
 40
1.0
 40
1.0
 40
1.0
 40
1.0
 10
55.2188077048
 20
303.83107155
 30
0.0
 10
55.2188077048
 20
303.347284743
 30
0.0
 10
55.5494279671
 20
302.3920252383
 30
0.0
 10
56.2114004848
 20
301.6280711641
 30
0.0
 10
56.6303726282
 20
301.3861829566
 30
0.0
  0
SPLINE
  5
252
100
AcDbEntity
  8
0
100
AcDbSpline
 62
7
  6
CONTINUOUS
 70
0
 71
3
 72
10
 73
6
 74
0
 42
0.0000001
 43
0.0000001
 44
0.0000000001
 40
0.0
 40
0.0
 40
0.0
 40
0.0
 40
0.2382134616
 40
0.5052328264
 40
1.0
 40
1.0
 40
1.0
 40
1.0
 10
84.2380767484
 20
516.5819752893
 30
0.0
 10
84.2429942145
 20
516.6672848902
 30
0.0
 10
84.2289883426
 20
516.8523300794
 30
0.0
 10
84.0664852029
 20
517.1783119698
 30
0.0
 10
83.8529172992
 20
517.371850691
 30
0.0
 10
83.6935795971
 20
517.4500244552
 30
0.0
  0
SPLINE
  5
253
100
AcDbEntity
  8
0
100
AcDbSpline
 62
7
  6
CONTINUOUS
 70
0
 71
3
 72
10
 73
6
 74
0
 42
0.0000001
 43
0.0000001
 44
0.0000000001
 40
0.0
 40
0.0
 40
0.0
 40
0.0
 40
0.4997814501
 40
0.7616391796
 40
1.0
 40
1.0
 40
1.0
 40
1.0
 10
86.5109132483
 20
513.8764286859
 30
0.0
 10
86.7000512244
 20
513.7805359255
 30
0.0
 10
86.9688017104
 20
513.5484660907
 30
0.0
 10
87.0791122292
 20
513.1322399779
 30
0.0
 10
87.1052599503
 20
512.9208949674
 30
0.0
 10
87.1045907888
 20
512.8197603364
 30
0.0
  0
SPLINE
  5
254
100
AcDbEntity
  8
0
100
AcDbSpline
 62
7
  6
CONTINUOUS
 70
0
 71
3
 72
10
 73
6
 74
0
 42
0.0000001
 43
0.0000001
 44
0.0000000001
 40
0.0
 40
0.0
 40
0.0
 40
0.0
 40
0.5511406696
 40
0.7818290158
 40
1.0
 40
1.0
 40
1.0
 40
1.0
 10
86.2712493943
 20
511.564869157
 30
0.0
 10
86.3977552233
 20
511.4921892646
 30
0.0
 10
86.5966041833
 20
511.4075031741
 30
0.0
 10
86.8680456601
 20
511.4242349622
 30
0.0
 10
86.9726447021
 20
511.4948334625
 30
0.0
 10
87.0098334346
 20
511.5390208953
 30
0.0
  0
SPLINE
  5
255
100
AcDbEntity
  8
0
100
AcDbSpline
 62
7
  6
CONTINUOUS
 70
0
 71
3
 72
12
 73
8
 74
0
 42
0.0000001
 43
0.0000001
 44
0.0000000001
 40
0.0
 40
0.0
 40
0.0
 40
0.0
 40
0.2767166938
 40
0.5034140185
 40
0.6069760393
 40
0.7262940183
 40
1.0
 40
1.0
 40
1.0
 40
1.0
 10
90.0387278607
 20
507.2965868543
 30
0.0
 10
90.239217502
 20
507.1699082515
 30
0.0
 10
90.6118104649
 20
506.9789269044
 30
0.0
 10
91.1944286119
 20
506.8811949673
 30
0.0
 10
91.4885689265
 20
507.1665936829
 30
0.0
 10
91.640182308
 20
507.5686257243
 30
0.0
 10
91.6700718345
 20
507.9116789781
 30
0.0
 10
91.6572895573
 20
508.1459074179
 30
0.0
  0
SPLINE
  5
256
100
AcDbEntity
  8
0
100
AcDbSpline
 62
7
  6
CONTINUOUS
 70
0
 71
3
 72
11
 73
7
 74
0
 42
0.0000001
 43
0.0000001
 44
0.0000000001
 40
0.0
 40
0.0
 40
0.0
 40
0.0
 40
0.232016728
 40
0.4896926524
 40
0.7580372532
 40
1.0
 40
1.0
 40
1.0
 40
1.0
 10
88.5097447297
 20
511.5744840745
 30
0.0
 10
88.504276761
 20
511.3337563768
 30
0.0
 10
88.559684286
 20
510.8238056879
 30
0.0
 10
88.7954867352
 20
510.0680016575
 30
0.0
 10
89.2163888228
 20
509.3774903702
 30
0.0
 10
89.6297156945
 20
509.0292652511
 30
0.0
 10
89.8455191948
 20
508.9008673128
 30
0.0
  0
SPLINE
  5
257
100
AcDbEntity
  8
0
100
AcDbSpline
 62
7
  6
CONTINUOUS
 70
0
 71
3
 72
9
 73
5
 74
0
 42
0.0000001
 43
0.0000001
 44
0.0000000001
 40
0.0
 40
0.0
 40
0.0
 40
0.0
 40
0.5029795981
 40
1.0
 40
1.0
 40
1.0
 40
1.0
 10
98.1815949493
 20
509.1504555966
 30
0.0
 10
98.0976855752
 20
509.1944244933
 30
0.0
 10
97.8580735309
 20
509.2607006856
 30
0.0
 10
97.7873090812
 20
509.0213997525
 30
0.0
 10
97.78376074
 20
508.9278579401
 30
0.0
  0
SPLINE
  5
258
100
AcDbEntity
  8
0
100
AcDbSpline
 62
7
  6
CONTINUOUS
 70
0
 71
3
 72
11
 73
7
 74
0
 42
0.0000001
 43
0.0000001
 44
0.0000000001
 40
0.0
 40
0.0
 40
0.0
 40
0.0
 40
0.2862766958
 40
0.5307899415
 40
0.7437328586
 40
1.0
 40
1.0
 40
1.0
 40
1.0
 10
100.5088811644
 20
506.4438957115
 30
0.0
 10
100.3731424148
 20
506.5244357616
 30
0.0
 10
100.1094153629
 20
506.6526051201
 30
0.0
 10
99.6948427528
 20
506.7377702018
 30
0.0
 10
99.3002458863
 20
506.5490531081
 30
0.0
 10
99.2467574785
 20
506.2621704138
 30
0.0
 10
99.2451208382
 20
506.1208907866
 30
0.0
  0
SPLINE
  5
259
100
AcDbEntity
  8
0
100
AcDbSpline
 62
7
  6
CONTINUOUS
 70
0
 71
3
 72
9
 73
5
 74
0
 42
0.0000001
 43
0.0000001
 44
0.0000000001
 40
0.0
 40
0.0
 40
0.0
 40
0.0
 40
0.4972701413
 40
1.0
 40
1.0
 40
1.0
 40
1.0
 10
224.7845477309
 20
214.1069175295
 30
0.0
 10
224.7872126573
 20
214.4453284272
 30
0.0
 10
224.6107074476
 20
215.1357882246
 30
0.0
 10
224.1183713586
 20
215.659041725
 30
0.0
 10
223.822528615
 20
215.8308987298
 30
0.0
  0
SPLINE
  5
25A
100
AcDbEntity
  8
0
100
AcDbSpline
 62
7
  6
CONTINUOUS
 70
0
 71
3
 72
18
 73
14
 74
0
 42
0.0000001
 43
0.0000001
 44
0.0000000001
 40
0.0
 40
0.0
 40
0.0
 40
0.0
 40
0.061751221
 40
0.1155115838
 40
0.1629344872
 40
0.2098681844
 40
0.2624151085
 40
0.3232585731
 40
0.4662112964
 40
0.6248122413
 40
0.7710436997
 40
0.8971675677
 40
1.0
 40
1.0
 40
1.0
 40
1.0
 10
226.5058459
 20
214.281022665
 30
0.0
 10
226.3929690248
 20
214.3462173244
 30
0.0
 10
226.1712192313
 20
214.4520278771
 30
0.0
 10
225.8270514817
 20
214.5163140524
 30
0.0
 10
225.5105975014
 20
214.4436652542
 30
0.0
 10
225.2726903683
 20
214.2253438178
 30
0.0
 10
225.1419694769
 20
213.9053286653
 30
0.0
 10
225.080487836
 20
213.3639368948
 30
0.0
 10
225.2276927345
 20
212.59412319
 30
0.0
 10
225.7162590209
 20
211.7618251425
 30
0.0
 10
226.4041027356
 20
211.1570047064
 30
0.0
 10
227.1043595614
 20
210.752510428
 30
0.0
 10
227.6070712457
 20
210.7282329536
 30
0.0
 10
227.8211809365
 20
210.7639631721
 30
0.0
  0
SPLINE
  5
25B
100
AcDbEntity
  8
0
100
AcDbSpline
 62
7
  6
CONTINUOUS
 70
0
 71
3
 72
13
 73
9
 74
0
 42
0.0000001
 43
0.0000001
 44
0.0000000001
 40
0.0
 40
0.0
 40
0.0
 40
0.0
 40
0.2930981357
 40
0.4470689556
 40
0.5864603802
 40
0.7024423831
 40
0.7956287159
 40
1.0
 40
1.0
 40
1.0
 40
1.0
 10
227.1495810074
 20
212.6857395902
 30
0.0
 10
227.1332442845
 20
212.8837024697
 30
0.0
 10
227.0509036608
 20
213.1877476534
 30
0.0
 10
226.8130239706
 20
213.5116488403
 30
0.0
 10
226.5960537688
 20
213.6878091077
 30
0.0
 10
226.3751629149
 20
213.7874330883
 30
0.0
 10
226.0709031348
 20
213.7355221246
 30
0.0
 10
226.015386822
 20
213.4851514604
 30
0.0
 10
226.0040211523
 20
213.3471139187
 30
0.0
  0
SPLINE
  5
25C
100
AcDbEntity
  8
0
100
AcDbSpline
 62
7
  6
CONTINUOUS
 70
0
 71
3
 72
9
 73
5
 74
0
 42
0.0000001
 43
0.0000001
 44
0.0000000001
 40
0.0
 40
0.0
 40
0.0
 40
0.0
 40
0.423604139
 40
1.0
 40
1.0
 40
1.0
 40
1.0
 10
236.4979485639
 20
206.72512203
 30
0.0
 10
236.5794504282
 20
206.9404556297
 30
0.0
 10
236.9388998653
 20
207.6135181427
 30
0.0
 10
237.486644691
 20
206.9654888106
 30
0.0
 10
237.6721262839
 20
206.713008886
 30
0.0
  0
SPLINE
  5
25D
100
AcDbEntity
  8
0
100
AcDbSpline
 62
7
  6
CONTINUOUS
 70
0
 71
3
 72
18
 73
14
 74
0
 42
0.0000001
 43
0.0000001
 44
0.0000000001
 40
0.0
 40
0.0
 40
0.0
 40
0.0
 40
0.0617456011
 40
0.1154905291
 40
0.1628991527
 40
0.2098432811
 40
0.2624206128
 40
0.3232894114
 40
0.4662663999
 40
0.624864435
 40
0.7710655794
 40
0.8971506325
 40
1.0
 40
1.0
 40
1.0
 40
1.0
 10
233.8949303513
 20
210.0150292777
 30
0.0
 10
233.7820633824
 20
210.0802125461
 30
0.0
 10
233.5603556309
 20
210.185997601
 30
0.0
 10
233.2162094056
 20
210.2501279024
 30
0.0
 10
232.8998618925
 20
210.1770016947
 30
0.0
 10
232.662401413
 20
209.9581136084
 30
0.0
 10
232.5321311861
 20
209.6378146522
 30
0.0
 10
232.4709840147
 20
209.0962426925
 30
0.0
 10
232.618450886
 20
208.3264166203
 30
0.0
 10
233.1071374077
 20
207.4942482039
 30
0.0
 10
233.7950584162
 20
206.889680422
 30
0.0
 10
234.495485638
 20
206.4858801776
 30
0.0
 10
234.9980192189
 20
206.4613424861
 30
0.0
 10
235.2121973955
 20
206.4968543649
 30
0.0
  0
SPLINE
  5
25E
100
AcDbEntity
  8
0
100
AcDbSpline
 62
7
  6
CONTINUOUS
 70
0
 71
3
 72
13
 73
9
 74
0
 42
0.0000001
 43
0.0000001
 44
0.0000000001
 40
0.0
 40
0.0
 40
0.0
 40
0.0
 40
0.2931396335
 40
0.4470648549
 40
0.5864912531
 40
0.7025100342
 40
0.7956641326
 40
1.0
 40
1.0
 40
1.0
 40
1.0
 10
234.5407182162
 20
208.4185610696
 30
0.0
 10
234.5241870815
 20
208.616686718
 30
0.0
 10
234.441272619
 20
208.9208225099
 30
0.0
 10
234.2029840183
 20
209.2447771047
 30
0.0
 10
233.9860144224
 20
209.4212008924
 30
0.0
 10
233.765097153
 20
209.5214095352
 30
0.0
 10
233.460549958
 20
209.4693810065
 30
0.0
 10
233.4052215033
 20
209.2188783175
 30
0.0
 10
233.3937093557
 20
209.0807719628
 30
0.0
  0
SPLINE
  5
25F
100
AcDbEntity
  8
0
100
AcDbSpline
 62
7
  6
CONTINUOUS
 70
0
 71
3
 72
11
 73
7
 74
0
 42
0.0000001
 43
0.0000001
 44
0.0000000001
 40
0.0
 40
0.0
 40
0.0
 40
0.0
 40
0.3217609397
 40
0.5841684321
 40
0.8028466877
 40
1.0
 40
1.0
 40
1.0
 40
1.0
 10
222.7960287381
 20
213.4203295604
 30
0.0
 10
222.6075109806
 20
213.6994098484
 30
0.0
 10
222.2180848984
 20
214.1933093823
 30
0.0
 10
221.4387639325
 20
214.5633828768
 30
0.0
 10
220.7172546942
 20
214.6431446082
 30
0.0
 10
220.2915937828
 20
214.5077278903
 30
0.0
 10
220.1054664231
 20
214.4186162181
 30
0.0
  0
SPLINE
  5
260
100
AcDbEntity
  8
0
100
AcDbSpline
 62
7
  6
CONTINUOUS
 70
0
 71
3
 72
12
 73
8
 74
0
 42
0.0000001
 43
0.0000001
 44
0.0000000001
 40
0.0
 40
0.0
 40
0.0
 40
0.0
 40
0.1860261463
 40
0.2849892801
 40
0.4091621068
 40
0.7156025609
 40
1.0
 40
1.0
 40
1.0
 40
1.0
 10
219.9280839608
 20
216.9131050931
 30
0.0
 10
219.993357282
 20
216.9937937595
 30
0.0
 10
220.1239791419
 20
217.1061749537
 30
0.0
 10
220.3615583701
 20
217.123645761
 30
0.0
 10
220.6336447939
 20
216.9837717702
 30
0.0
 10
220.8715183848
 20
216.6334621876
 30
0.0
 10
220.9136774028
 20
216.2991181676
 30
0.0
 10
220.9118381652
 20
216.1404623817
 30
0.0
  0
SPLINE
  5
261
100
AcDbEntity
  8
0
100
AcDbSpline
 62
7
  6
CONTINUOUS
 70
0
 71
3
 72
14
 73
10
 74
0
 42
0.0000001
 43
0.0000001
 44
0.0000000001
 40
0.0
 40
0.0
 40
0.0
 40
0.0
 40
0.2800939749
 40
0.4322091539
 40
0.5614818232
 40
0.661719641
 40
0.7526555961
 40
0.8651494039
 40
1.0
 40
1.0
 40
1.0
 40
1.0
 10
228.4301256343
 20
207.7230503287
 30
0.0
 10
228.4345773327
 20
208.0025049098
 30
0.0
 10
228.3523810689
 20
208.4497399004
 30
0.0
 10
228.0077826749
 20
208.907104469
 30
0.0
 10
227.6916163198
 20
209.1223157822
 30
0.0
 10
227.3426163801
 20
209.1821359793
 30
0.0
 10
227.1084083055
 20
208.9349712711
 30
0.0
 10
227.0665977616
 20
208.591134583
 30
0.0
 10
227.0951290924
 20
208.3444773219
 30
0.0
 10
227.1268301898
 20
208.213705044
 30
0.0
  0
SPLINE
  5
262
100
AcDbEntity
  8
0
100
AcDbSpline
 62
7
  6
CONTINUOUS
 70
0
 71
3
 72
9
 73
5
 74
0
 42
0.0000001
 43
0.0000001
 44
0.0000000001
 40
0.0
 40
0.0
 40
0.0
 40
0.0
 40
0.5092688088
 40
1.0
 40
1.0
 40
1.0
 40
1.0
 10
227.8009091252
 20
208.7583943682
 30
0.0
 10
227.719912286
 20
208.8037910984
 30
0.0
 10
227.4921424893
 20
208.873512151
 30
0.0
 10
227.4087508895
 20
208.6518496054
 30
0.0
 10
227.397844006
 20
208.5630454841
 30
0.0
  0
SPLINE
  5
263
100
AcDbEntity
  8
0
100
AcDbSpline
 62
7
  6
CONTINUOUS
 70
0
 71
3
 72
11
 73
7
 74
0
 42
0.0000001
 43
0.0000001
 44
0.0000000001
 40
0.0
 40
0.0
 40
0.0
 40
0.0
 40
0.2375807594
 40
0.5000009824
 40
0.7624206603
 40
1.0
 40
1.0
 40
1.0
 40
1.0
 10
398.8685462659
 20
351.9446205408
 30
0.0
 10
398.8685106485
 20
352.3020329387
 30
0.0
 10
398.7305171591
 20
353.053755505
 30
0.0
 10
398.2695995968
 20
354.1133060005
 30
0.0
 10
397.5824587253
 20
355.0422434049
 30
0.0
 10
397.0004440286
 20
355.5376056859
 30
0.0
 10
396.6909340096
 20
355.7163391321
 30
0.0
  0
SPLINE
  5
264
100
AcDbEntity
  8
0
100
AcDbSpline
 62
7
  6
CONTINUOUS
 70
0
 71
3
 72
9
 73
5
 74
0
 42
0.0000001
 43
0.0000001
 44
0.0000000001
 40
0.0
 40
0.0
 40
0.0
 40
0.0
 40
0.4815691207
 40
1.0
 40
1.0
 40
1.0
 40
1.0
 10
396.0456952257
 20
351.186702575
 30
0.0
 10
396.0456952257
 20
351.5527412009
 30
0.0
 10
395.8416965807
 20
352.3099254997
 30
0.0
 10
395.4155445859
 20
352.9568668488
 30
0.0
 10
395.140666599
 20
353.2392196124
 30
0.0
  0
SPLINE
  5
265
100
AcDbEntity
  8
0
100
AcDbSpline
 62
7
  6
CONTINUOUS
 70
0
 71
3
 72
9
 73
5
 74
0
 42
0.0000001
 43
0.0000001
 44
0.0000000001
 40
0.0
 40
0.0
 40
0.0
 40
0.0
 40
0.2639778065
 40
1.0
 40
1.0
 40
1.0
 40
1.0
 10
395.140666599
 20
353.2392196124
 30
0.0
 10
395.1000199855
 20
353.2809715321
 30
0.0
 10
394.9413665146
 20
353.4343708127
 30
0.0
 10
394.7638524714
 20
353.5693761369
 30
0.0
 10
394.6231505155
 20
353.6506086113
 30
0.0
  0
SPLINE
  5
266
100
AcDbEntity
  8
0
100
AcDbSpline
 62
7
  6
CONTINUOUS
 70
0
 71
3
 72
10
 73
6
 74
0
 42
0.0000001
 43
0.0000001
 44
0.0000000001
 40
0.0
 40
0.0
 40
0.0
 40
0.0
 40
0.5691084327
 40
0.8067941822
 40
1.0
 40
1.0
 40
1.0
 40
1.0
 10
227.1268301898
 20
208.213705044
 30
0.0
 10
227.2084535177
 20
207.8769952966
 30
0.0
 10
227.4757910314
 20
207.411064629
 30
0.0
 10
228.0169802386
 20
207.102036633
 30
0.0
 10
228.2874073423
 20
207.0804825209
 30
0.0
 10
228.4041642805
 20
207.0947038437
 30
0.0
  0
ENDSEC
  0
SECTION
  2
OBJECTS
  0
DICTIONARY
  5
C
100
AcDbDictionary
280
0
281
1
  3
ACAD_GROUP
350
D
  3
ACAD_MLINESTYLE
350
17
  3
ACAD_LAYOUT
350
1A
  3
ACAD_PLOTSETTINGS
350
19
  3
ACAD_PLOTSTYLENAME
350
E
  0
DICTIONARY
  5
D
102
{ACAD_REACTORS
330
C
102
}
100
AcDbDictionary
280
0
281
1
  0
ACDBDICTIONARYWDFLT
  5
E
102
{ACAD_REACTORS
330
C
102
}
100
AcDbDictionary
281
1
  3
Normal
350
F
100
AcDbDictionaryWithDefault
340
F
  0
DICTIONARY
  5
17
102
{ACAD_REACTORS
330
C
102
}
100
AcDbDictionary
280
0
281
1
  3
Standard
350
18
  0
DICTIONARY
  5
19
102
{ACAD_REACTORS
330
C
102
}
100
AcDbDictionary
281
1
  0
DICTIONARY
  5
1A
102
{ACAD_REACTORS
330
C
102
}
100
AcDbDictionary
281
1
  3
Model
350
267
  3
Layout1
350
268
  0
ACDBPLACEHOLDER
  5
F
102
{ACAD_REACTORS
330
E
102
}
  0
MLINESTYLE
  5
18
102
{ACAD_REACTORS
330
17
102
}
100
AcDbMlineStyle
  2
STANDARD
 70
0
  3

 62
256
 51
90.0
 52
90.0
 71
2
 49
0.5
 62
256
  6
BYLAYER
 49
-0.5
 62
256
  6
BYLAYER
  0
LAYOUT
  5
267
102
{ACAD_REACTORS
330
1A
102
}
100
AcDbPlotSettings
  1

  2
none_device
  4

  6

 40
0.0
 41
0.0
 42
0.0
 43
0.0
 44
210.0
 45
297.0
 46
0.0
 47
0.0
 48
0.0
 49
0.0
140
0.0
141
0.0
142
1.0
143
1.0
 70
1024
 72
1
 73
0
 74
0
  7

 75
0
147
1.0
148
0.0
149
0.0
100
AcDbLayout
  1
Model
 70
0
 71
0
 10
0.0
 20
0.0
 11
210.0
 21
297.0
 12
0.0
 22
0.0
 32
0.0
 14
0.0
 24
0.0
 34
0.0
 15
0.0
 25
0.0
 35
0.0
146
0.0
 13
0.0
 23
0.0
 33
0.0
 16
1.0
 26
0.0
 36
0.0
 17
0.0
 27
1.0
 37
0.0
 76
0
330
210
345
0
346
0
  0
LAYOUT
  5
268
102
{ACAD_REACTORS
330
1A
102
}
100
AcDbPlotSettings
  1

  2
none_device
  4

  6

 40
0.0
 41
0.0
 42
0.0
 43
0.0
 44
210.0
 45
297.0
 46
0.0
 47
0.0
 48
0.0
 49
0.0
140
0.0
141
0.0
142
1.0
143
1.0
 70
0
 72
1
 73
0
 74
0
  7

 75
0
147
1.0
148
0.0
149
0.0
100
AcDbLayout
  1
Layout1
 70
0
 71
1
 10
0.0
 20
0.0
 11
210.0
 21
297.0
 12
0.0
 22
0.0
 32
0.0
 14
0.0
 24
0.0
 34
0.0
 15
0.0
 25
0.0
 35
0.0
146
0.0
 13
0.0
 23
0.0
 33
0.0
 16
1.0
 26
0.0
 36
0.0
 17
0.0
 27
1.0
 37
0.0
 76
0
330
211
345
0
346
0
  0
ENDSEC
  0
EOF
