999
DXF file: C:\Users\sesa63760\OneDrive - Schneider Electric\Documents\7-Dev\_Creo\CAD\MCADPP0000135_3D-CAD\drw0001_1.dxf
999
Pro/ENGINEER 2019471 by Parametric Technology Corporation
  0
SECTION
  2
HEADER
  9
$ACADVER
  1
AC1024
  9
$DWGCODEPAGE
  3
ANSI_1252
  9
$EXTMAX
 10
106.9748447628
 20
151.2929947359
 30
0.0
  9
$EXTMIN
 10
0.0
 20
0.0
 30
0.0
  9
$LIMMIN
 10
0.0
 20
0.0
  9
$LIMMAX
 10
106.9748447628
 20
151.2929947359
  9
$VIEWCTR
 10
53.4874223814
 20
75.6464973679
  9
$VIEWSIZE
 40
151.2929947359
  9
$CLAYER
  8
0
  9
$LTSCALE
 40
9.8620618791
  9
$CELTYPE
  6
BYLAYER
  9
$DIMSCALE
 40
1.0
  9
$DIMASZ
 40
1.2735100567
  9
$DIMEXO
 40
1.0
  9
$DIMDLI
 40
6.8137882074
  9
$DIMEXE
 40
1.0
  9
$DIMCEN
 40
1.6137919438
  9
$DIMLFAC
 40
1.0
  9
$DIMBLK
  1
_FILLED
  9
$DIMALT
 70
0
  9
$DIMALTF
 40
0.0393700787
  9
$DIMTXT
 40
1.7829140794
  9
$DIMTOL
 70
1
  9
$DIMLIM
 70
0
  9
$DIMTFAC
 40
1.0
  9
$DIMTP
 40
0.01
  9
$DIMTM
 40
0.01
  9
$DIMGAP
 40
0.625
  9
$DIMDSEP
 70
46
  9
$AUNITS
 70
0
  9
$PDMODE
 70
3
  9
$PDSIZE
 40
0.3125
  9
$HANDSEED
  5
2B2
  9
$TILEMODE
 70
1
  9
$MEASUREMENT
 70
1
  9
$INSUNITS
 70
4
  0
ENDSEC
  0
SECTION
  2
CLASSES
  0
CLASS
  1
ACDBDICTIONARYWDFLT
  2
AcDbDictionaryWithDefault
  3
AutoCAD 2000
 90
0
 91
1
280
0
281
0
  0
CLASS
  1
ACDBPLACEHOLDER
  2
AcDbPlaceHolder
  3
AutoCAD 2000
 90
0
 91
1
280
0
281
0
  0
CLASS
  1
LAYOUT
  2
AcDbLayout
  3
AutoCAD 2000
 90
0
 91
0
280
0
281
0
  0
ENDSEC
  0
SECTION
  2
TABLES
  0
TABLE
  2
VPORT
  5
8
100
AcDbSymbolTable
 70
2
  0
VPORT
  5
1F4
100
AcDbSymbolTableRecord
100
AcDbViewportTableRecord
  2
*ACTIVE
 70
0
 10
0.0
 20
0.0
 11
1.0
 21
1.0
 12
53.4874223814
 22
75.6464973679
 13
0.0
 23
0.0
 14
1.0
 24
1.0
 15
0.0
 25
0.0
 16
0.0
 26
0.0
 36
1.0
 17
0.0
 27
0.0
 37
0.0
 40
151.2929947359
 41
0.7070707071
 42
50.0
 43
0.0
 44
0.0
 50
0.0
 51
0.0
 71
0
 72
100
 73
1
 74
1
 75
0
 76
0
 77
0
 78
0
  0
ENDTAB
  0
TABLE
  2
LTYPE
  5
5
100
AcDbSymbolTable
 70
6
  0
LTYPE
  5
14
100
AcDbSymbolTableRecord
100
AcDbLinetypeTableRecord
  2
BYBLOCK
 70
0
  3

 72
65
 73
0
 40
0.0
  0
LTYPE
  5
15
100
AcDbSymbolTableRecord
100
AcDbLinetypeTableRecord
  2
BYLAYER
 70
0
  3

 72
65
 73
0
 40
0.0
  0
LTYPE
  5
16
100
AcDbSymbolTableRecord
100
AcDbLinetypeTableRecord
  2
CONTINUOUS
 70
64
  3
Solid line
 72
65
 73
0
 40
0.0
  0
LTYPE
  5
1F5
100
AcDbSymbolTableRecord
100
AcDbLinetypeTableRecord
  2
CENTER
 70
64
  3
____ _ ____ _ ____ _ ____ _ ____ _ ____ _ ____
 72
65
 73
4
 40
0.6
 49
0.375
 74
0
 49
-0.075
 74
0
 49
0.075
 74
0
 49
-0.075
 74
0
  0
LTYPE
  5
1F6
100
AcDbSymbolTableRecord
100
AcDbLinetypeTableRecord
  2
HIDDEN
 70
64
  3
- - - - - - - - - - - - - - - - - - - -
 72
65
 73
2
 40
0.2
 49
0.1
 74
0
 49
-0.1
 74
0
  0
LTYPE
  5
1F7
100
AcDbSymbolTableRecord
100
AcDbLinetypeTableRecord
  2
PHANTOM
 70
64
  3
_____ _ _ _____ _ _ _____ _ _ _____
 72
65
 73
6
 40
0.8
 49
0.45
 74
0
 49
-0.05
 74
0
 49
0.1
 74
0
 49
-0.05
 74
0
 49
0.1
 74
0
 49
-0.05
 74
0
  0
LTYPE
  5
1F8
100
AcDbSymbolTableRecord
100
AcDbLinetypeTableRecord
  2
DOT
 70
64
  3
. . . . . . . . . . . . . . . . . . . .
 72
65
 73
2
 40
0.2
 49
0.1
 74
0
 49
-0.1
 74
0
  0
LTYPE
  5
1F9
100
AcDbSymbolTableRecord
100
AcDbLinetypeTableRecord
  2
DASHED
 70
64
  3
- - - - - - - - - - - - - - - - - - - -
 72
65
 73
2
 40
0.2
 49
0.1
 74
0
 49
-0.1
 74
0
  0
ENDTAB
  0
TABLE
  2
LAYER
  5
2
100
AcDbSymbolTable
 70
36
  0
LAYER
  5
10
100
AcDbSymbolTableRecord
100
AcDbLayerTableRecord
  2
0
 70
0
 62
7
  6
CONTINUOUS
370
-3
390
F
  0
LAYER
  5
1FA
100
AcDbSymbolTableRecord
100
AcDbLayerTableRecord
  2
DEFAULT_1
 70
0
 62
7
  6
CENTER
370
-3
390
F
  0
LAYER
  5
1FB
100
AcDbSymbolTableRecord
100
AcDbLayerTableRecord
  2
DEFAULT_2
 70
0
 62
8
  6
HIDDEN
370
-3
390
F
  0
LAYER
  5
1FC
100
AcDbSymbolTableRecord
100
AcDbLayerTableRecord
  2
DEFAULT_3
 70
0
 62
7
  6
PHANTOM
370
-3
390
F
  0
LAYER
  5
1FD
100
AcDbSymbolTableRecord
100
AcDbLayerTableRecord
  2
00_COMPONENTS
 70
0
 62
7
  6
CONTINUOUS
370
-3
390
F
  0
LAYER
  5
1FE
100
AcDbSymbolTableRecord
100
AcDbLayerTableRecord
  2
01_1_DEFAULT_DATUMS
 70
0
 62
7
  6
CONTINUOUS
370
-3
390
F
  0
LAYER
  5
1FF
100
AcDbSymbolTableRecord
100
AcDbLayerTableRecord
  2
01_PLANES
 70
0
 62
7
  6
CONTINUOUS
370
-3
390
F
  0
LAYER
  5
200
100
AcDbSymbolTableRecord
100
AcDbLayerTableRecord
  2
02_COORD_SYS
 70
0
 62
7
  6
CONTINUOUS
370
-3
390
F
  0
LAYER
  5
201
100
AcDbSymbolTableRecord
100
AcDbLayerTableRecord
  2
03_AXES
 70
0
 62
7
  6
CONTINUOUS
370
-3
390
F
  0
LAYER
  5
202
100
AcDbSymbolTableRecord
100
AcDbLayerTableRecord
  2
04_POINTS
 70
0
 62
7
  6
CONTINUOUS
370
-3
390
F
  0
LAYER
  5
203
100
AcDbSymbolTableRecord
100
AcDbLayerTableRecord
  2
05_CURVES
 70
0
 62
7
  6
CONTINUOUS
370
-3
390
F
  0
LAYER
  5
204
100
AcDbSymbolTableRecord
100
AcDbLayerTableRecord
  2
06_SURFS
 70
0
 62
7
  6
CONTINUOUS
370
-3
390
F
  0
LAYER
  5
205
100
AcDbSymbolTableRecord
100
AcDbLayerTableRecord
  2
07_COSMETICS
 70
0
 62
7
  6
CONTINUOUS
370
-3
390
F
  0
LAYER
  5
206
100
AcDbSymbolTableRecord
100
AcDbLayerTableRecord
  2
10_NOTES
 70
0
 62
7
  6
CONTINUOUS
370
-3
390
F
  0
LAYER
  5
207
100
AcDbSymbolTableRecord
100
AcDbLayerTableRecord
  2
11_NOTES_PUB
 70
0
 62
7
  6
CONTINUOUS
370
-3
390
F
  0
LAYER
  5
208
100
AcDbSymbolTableRecord
100
AcDbLayerTableRecord
  2
13_REF_GTOL
 70
0
 62
7
  6
CONTINUOUS
370
-3
390
F
  0
LAYER
  5
209
100
AcDbSymbolTableRecord
100
AcDbLayerTableRecord
  2
16_MISC
 70
0
 62
7
  6
CONTINUOUS
370
-3
390
F
  0
LAYER
  5
20A
100
AcDbSymbolTableRecord
100
AcDbLayerTableRecord
  2
17_NO_PRINT
 70
0
 62
7
  6
CONTINUOUS
370
-3
390
F
  0
LAYER
  5
20B
100
AcDbSymbolTableRecord
100
AcDbLayerTableRecord
  2
18_DATUM_CAMS_JOINTS
 70
0
 62
7
  6
CONTINUOUS
370
-3
390
F
  0
LAYER
  5
20C
100
AcDbSymbolTableRecord
100
AcDbLayerTableRecord
  2
19_DATUM_FUNCTIONAL
 70
0
 62
7
  6
CONTINUOUS
370
-3
390
F
  0
LAYER
  5
20D
100
AcDbSymbolTableRecord
100
AcDbLayerTableRecord
  2
20_DATUM_KINEMATIC_SCHEME
 70
0
 62
7
  6
CONTINUOUS
370
-3
390
F
  0
LAYER
  5
20E
100
AcDbSymbolTableRecord
100
AcDbLayerTableRecord
  2
INTFCLR_5294
 70
0
 62
7
  6
CONTINUOUS
370
-3
390
F
  0
LAYER
  5
20F
100
AcDbSymbolTableRecord
100
AcDbLayerTableRecord
  2
INTFCLR_74
 70
0
 62
7
  6
CONTINUOUS
370
-3
390
F
  0
ENDTAB
  0
TABLE
  2
STYLE
  5
3
100
AcDbSymbolTable
 70
1
  0
STYLE
  5
11
100
AcDbSymbolTableRecord
100
AcDbTextStyleTableRecord
  2
STANDARD
 70
0
 40
0.0
 41
0.8
 50
0.0
 71
0
 42
0.2
  3
txt
  4

  0
STYLE
  5
210
100
AcDbSymbolTableRecord
100
AcDbTextStyleTableRecord
  2
TEXTSTYLE_1
 70
0
 40
0.0
 41
0.8
 50
0.0
 71
0
 42
0.2
  3
gdt
  4

  0
ENDTAB
  0
TABLE
  2
VIEW
  5
6
100
AcDbSymbolTable
 70
0
  0
ENDTAB
  0
TABLE
  2
UCS
  5
7
100
AcDbSymbolTable
 70
0
  0
ENDTAB
  0
TABLE
  2
APPID
  5
9
100
AcDbSymbolTable
 70
1
  0
APPID
  5
211
100
AcDbSymbolTableRecord
100
AcDbRegAppTableRecord
  2
ACAD
 70
0
  0
ENDTAB
  0
TABLE
  2
BLOCK_RECORD
  5
1
100
AcDbSymbolTable
 70
0
  0
BLOCK_RECORD
  5
212
100
AcDbSymbolTableRecord
100
AcDbBlockTableRecord
  2
*Model_Space
  0
BLOCK_RECORD
  5
213
100
AcDbSymbolTableRecord
100
AcDbBlockTableRecord
  2
*Paper_Space
  0
BLOCK_RECORD
  5
214
100
AcDbSymbolTableRecord
100
AcDbBlockTableRecord
  2
_FILLED
  0
ENDTAB
  0
TABLE
  2
DIMSTYLE
  5
A
100
AcDbSymbolTable
 70
1
100
AcDbDimStyleTable
 71
0
  0
DIMSTYLE
105
215
100
AcDbSymbolTableRecord
100
AcDbDimStyleTableRecord
  2
STANDARD
 70
0
  3

  4

 40
1.0
 41
1.2735100567
 42
1.0
 43
0.38
 44
1.0
 45
0.0
 46
0.0
 47
0.01
 48
0.01
140
1.7829140794
141
0.09
142
0.0
143
25.4
144
1.0
145
0.0
146
1.0
147
0.625
 71
1
 72
0
 73
0
 74
0
 75
0
 76
0
 77
1
 78
8
 79
2
170
0
171
1
172
0
173
0
174
0
175
0
176
0
177
0
178
0
270
2
179
2
271
2
272
2
273
2
274
2
275
0
280
0
281
0
282
0
283
1
284
8
285
0
286
0
287
3
288
0
340
11
278
46
341
214
342
214
343
214
344
214
  0
ENDTAB
  0
ENDSEC
  0
SECTION
  2
BLOCKS
  0
BLOCK
  5
20
100
AcDbEntity
  8
0
100
AcDbBlockBegin
  2
*Model_Space
 70
0
 10
0.0
 20
0.0
 30
0.0
  3
*Model_Space
  1

  0
ENDBLK
  5
21
100
AcDbEntity
  8
0
100
AcDbBlockEnd
  0
BLOCK
  5
1C
100
AcDbEntity
  8
0
100
AcDbBlockBegin
  2
*Paper_Space
 70
0
 10
0.0
 20
0.0
 30
0.0
  3
*Paper_Space
  1

  0
ENDBLK
  5
1D
100
AcDbEntity
  8
0
100
AcDbBlockEnd
  0
BLOCK
  5
216
100
AcDbEntity
  8
0
100
AcDbBlockBegin
  2
_FILLED
 70
64
 10
0.0
 20
0.0
  3
_FILLED
  1

  0
SOLID
  5
217
100
AcDbEntity
  8
0
  6
BYBLOCK
 62
0
100
AcDbTrace
 10
0.0
 20
0.0
 11
-1.0
 21
0.25
 12
-1.0
 22
-0.25
 13
-1.0
 23
-0.25
  0
ENDBLK
  5
218
100
AcDbEntity
  8
0
  6
BYBLOCK
 62
0
100
AcDbBlockEnd
  0
ENDSEC
  0
SECTION
  2
ENTITIES
  0
LINE
  5
219
100
AcDbEntity
  8
0
100
AcDbLine
 62
7
  6
CONTINUOUS
 10
12.4103127673
 20
111.2582716938
 11
38.9501902654
 21
127.6698368861
  0
LINE
  5
21A
100
AcDbEntity
  8
0
100
AcDbLine
 62
7
  6
CONTINUOUS
 10
12.4103127673
 20
56.8249679756
 11
12.4103127673
 21
111.2582716938
  0
LINE
  5
21B
100
AcDbEntity
  8
0
100
AcDbLine
 62
7
  6
CONTINUOUS
 10
24.7870073898
 20
104.1127453752
 11
24.22132432
 21
103.7747483699
  0
LINE
  5
21C
100
AcDbEntity
  8
0
100
AcDbLine
 62
7
  6
CONTINUOUS
 10
68.1676651506
 20
23.9923902958
 11
40.8853300993
 21
39.7434974441
  0
LINE
  5
21D
100
AcDbEntity
  8
0
100
AcDbLine
 62
7
  6
CONTINUOUS
 10
12.4103127673
 20
56.8249679756
 11
19.7269318671
 21
52.6008115319
  0
LINE
  5
21E
100
AcDbEntity
  8
0
100
AcDbLine
 62
7
  6
CONTINUOUS
 10
32.525517269
 20
45.573301982
 11
33.8634342788
 21
44.6794145097
  0
LINE
  5
21F
100
AcDbEntity
  8
0
100
AcDbLine
 62
7
  6
CONTINUOUS
 10
20.1714862847
 20
75.5992697106
 11
20.1712762156
 21
75.551510674
  0
LINE
  5
220
100
AcDbEntity
  8
0
100
AcDbLine
 62
7
  6
CONTINUOUS
 10
19.7554818138
 20
64.1432011546
 11
19.9737936668
 21
75.4372876098
  0
LINE
  5
221
100
AcDbEntity
  8
0
100
AcDbLine
 62
7
  6
CONTINUOUS
 10
19.4671185351
 20
39.1596987638
 11
19.9329193769
 21
63.2573137441
  0
LINE
  5
222
100
AcDbEntity
  8
0
100
AcDbLine
 62
7
  6
CONTINUOUS
 10
20.2973075873
 20
36.1152866749
 11
20.7941631291
 21
61.819477122
  0
LINE
  5
223
100
AcDbEntity
  8
0
100
AcDbLine
 62
7
  6
CONTINUOUS
 10
53.5696987993
 20
44.8032878822
 11
55.8358689386
 21
45.1430908574
  0
LINE
  5
224
100
AcDbEntity
  8
0
100
AcDbLine
 62
7
  6
CONTINUOUS
 10
55.361259622
 20
36.2946478352
 11
49.2228417463
 21
39.8385848736
  0
LINE
  5
225
100
AcDbEntity
  8
0
100
AcDbLine
 62
7
  6
CONTINUOUS
 10
49.0370640534
 20
40.26650299
 11
55.2701811585
 21
36.6678925629
  0
LINE
  5
226
100
AcDbEntity
  8
0
100
AcDbLine
 62
7
  6
CONTINUOUS
 10
55.7148115406
 20
36.4987699122
 11
55.50341183
 21
36.6208188309
  0
LINE
  5
227
100
AcDbEntity
  8
0
100
AcDbLine
 62
7
  6
CONTINUOUS
 10
36.1285160425
 20
50.9119151043
 11
37.4664330524
 21
50.0180276328
  0
LINE
  5
228
100
AcDbEntity
  8
0
100
AcDbLine
 62
7
  6
CONTINUOUS
 10
24.22132432
 20
79.3929025133
 11
24.22132432
 21
103.7747483699
  0
LINE
  5
229
100
AcDbEntity
  8
0
100
AcDbLine
 62
7
  6
CONTINUOUS
 10
24.330557296
 20
59.6896607446
 11
23.833708471
 21
33.9858177845
  0
LINE
  5
22A
100
AcDbEntity
  8
0
100
AcDbLine
 62
7
  6
CONTINUOUS
 10
23.9807077971
 20
34.0706552752
 11
24.4751540858
 21
59.6502060694
  0
LINE
  5
22B
100
AcDbEntity
  8
0
100
AcDbLine
 62
7
  6
CONTINUOUS
 10
26.2285561869
 20
33.6194811689
 11
26.2342062765
 21
33.9126202835
  0
LINE
  5
22C
100
AcDbEntity
  8
0
100
AcDbLine
 62
7
  6
CONTINUOUS
 10
56.1894208573
 20
45.3472129344
 11
53.9232507179
 21
45.0074099591
  0
LINE
  5
22D
100
AcDbEntity
  8
0
100
AcDbLine
 62
7
  6
CONTINUOUS
 10
28.4571119835
 20
70.324243826
 11
28.2387836915
 21
59.0293069184
  0
LINE
  5
22E
100
AcDbEntity
  8
0
100
AcDbLine
 62
7
  6
CONTINUOUS
 10
28.6544460209
 20
70.4381952053
 11
28.4352047775
 21
59.1427268352
  0
LINE
  5
22F
100
AcDbEntity
  8
0
100
AcDbLine
 62
7
  6
CONTINUOUS
 10
29.9301300331
 20
84.8312360275
 11
29.8932844523
 21
82.9250766973
  0
LINE
  5
230
100
AcDbEntity
  8
0
100
AcDbLine
 62
7
  6
CONTINUOUS
 10
30.5766319097
 20
61.2082461107
 11
30.3036451842
 21
47.0807986543
  0
LWPOLYLINE
  5
231
100
AcDbEntity
  8
0
100
AcDbPolyline
 62
7
  6
CONTINUOUS
 90
3
 70
0
 10
30.5567628619
 20
85.4962183718
 10
31.2028506439
 20
86.5893753648
 10
32.6432986976
 20
87.7069246288
  0
LINE
  5
232
100
AcDbEntity
  8
0
100
AcDbLine
 62
7
  6
CONTINUOUS
 10
32.9334119949
 20
87.121317429
 11
32.9602366262
 21
87.1429072156
  0
LWPOLYLINE
  5
233
100
AcDbEntity
  8
0
100
AcDbPolyline
 62
7
  6
CONTINUOUS
 90
3
 70
0
 10
32.6093095197
 20
87.7507344604
 10
30.8513029964
 20
86.3872868359
 10
30.2019601711
 20
85.2913741655
  0
LINE
  5
234
100
AcDbEntity
  8
0
100
AcDbLine
 62
7
  6
CONTINUOUS
 10
69.0579769655
 20
110.5497773599
 11
70.967157326
 21
111.6520365754
  0
LINE
  5
235
100
AcDbEntity
  8
0
100
AcDbLine
 62
7
  6
CONTINUOUS
 10
34.3437233041
 20
70.9982929766
 11
34.2432303856
 21
65.799419452
  0
LINE
  5
236
100
AcDbEntity
  8
0
100
AcDbLine
 62
7
  6
CONTINUOUS
 10
33.8347548033
 20
44.6674539673
 11
33.6640167885
 21
35.8345396235
  0
LINE
  5
237
100
AcDbEntity
  8
0
100
AcDbLine
 62
7
  6
CONTINUOUS
 10
36.4016152355
 20
65.0436054147
 11
36.128448064
 21
50.9083975146
  0
LINE
  5
238
100
AcDbEntity
  8
0
100
AcDbLine
 62
7
  6
CONTINUOUS
 10
33.0724086384
 20
86.9486184683
 11
28.0519713942
 21
84.0500849758
  0
LINE
  5
239
100
AcDbEntity
  8
0
100
AcDbLine
 62
7
  6
CONTINUOUS
 10
32.9307501656
 20
87.1259127271
 11
32.9809127238
 21
87.1549137878
  0
LWPOLYLINE
  5
23A
100
AcDbEntity
  8
0
100
AcDbPolyline
 62
7
  6
CONTINUOUS
 90
4
 70
0
 10
32.9602366262
 20
87.1429072156
 10
34.5139321076
 20
87.8298601371
 10
36.6201557658
 20
88.2258075758
 10
41.3381590083
 20
87.5401421712
  0
LINE
  5
23B
100
AcDbEntity
  8
0
100
AcDbLine
 62
7
  6
CONTINUOUS
 10
28.0519839127
 20
84.0500632966
 11
29.9301300331
 21
84.8312360275
  0
LINE
  5
23C
100
AcDbEntity
  8
0
100
AcDbLine
 62
7
  6
CONTINUOUS
 10
37.7394638426
 20
64.1461783982
 11
36.4015468327
 21
65.0400658697
  0
LINE
  5
23D
100
AcDbEntity
  8
0
100
AcDbLine
 62
7
  6
CONTINUOUS
 10
37.7394638426
 20
64.1461783982
 11
37.4664330524
 21
50.0180276328
  0
LINE
  5
23E
100
AcDbEntity
  8
0
100
AcDbLine
 62
7
  6
CONTINUOUS
 10
19.9737936668
 20
75.4372876098
 11
20.1712781888
 21
75.5513172884
  0
LINE
  5
23F
100
AcDbEntity
  8
0
100
AcDbLine
 62
7
  6
CONTINUOUS
 10
42.4952490845
 20
75.0396323361
 11
41.8228029459
 21
40.2514851457
  0
LINE
  5
240
100
AcDbEntity
  8
0
100
AcDbLine
 62
7
  6
CONTINUOUS
 10
49.5448319198
 20
42.7835507704
 11
50.122358889
 21
72.6611750601
  0
LINE
  5
241
100
AcDbEntity
  8
0
100
AcDbLine
 62
7
  6
CONTINUOUS
 10
28.4571119835
 20
70.324243826
 11
28.6544460209
 21
70.4381952053
  0
LWPOLYLINE
  5
242
100
AcDbEntity
  8
0
100
AcDbPolyline
 62
7
  6
CONTINUOUS
 90
4
 70
0
 10
51.2552599886
 20
80.7039372954
 10
55.4165855204
 20
75.3796663285
 10
58.6667775836
 20
69.3241593943
 10
60.7351009247
 20
63.0462222767
  0
LINE
  5
243
100
AcDbEntity
  8
0
100
AcDbLine
 62
7
  6
CONTINUOUS
 10
55.8358689386
 20
36.994501893
 11
55.8358689386
 21
45.1430908574
  0
LINE
  5
244
100
AcDbEntity
  8
0
100
AcDbLine
 62
7
  6
CONTINUOUS
 10
56.1894208573
 20
37.1986239699
 11
56.1894208573
 21
45.3472129344
  0
LINE
  5
245
100
AcDbEntity
  8
0
100
AcDbLine
 62
7
  6
CONTINUOUS
 10
56.2097912922
 20
45.3020665351
 11
56.2097912922
 21
36.7845618304
  0
LINE
  5
246
100
AcDbEntity
  8
0
100
AcDbLine
 62
7
  6
CONTINUOUS
 10
28.4352047775
 20
59.1427268352
 11
28.2387836915
 21
59.0293069184
  0
LINE
  5
247
100
AcDbEntity
  8
0
100
AcDbLine
 62
7
  6
CONTINUOUS
 10
96.2260780023
 20
94.6023357699
 11
68.1676651506
 21
78.4028906496
  0
LINE
  5
248
100
AcDbEntity
  8
0
100
AcDbLine
 62
7
  6
CONTINUOUS
 10
41.3381590083
 20
87.5401421712
 11
46.3656693848
 21
84.9573830646
  0
LINE
  5
249
100
AcDbEntity
  8
0
100
AcDbLine
 62
7
  6
CONTINUOUS
 10
46.3656693848
 20
84.9573830646
 11
51.2552599886
 21
80.7039372954
  0
LWPOLYLINE
  5
24A
100
AcDbEntity
  8
0
100
AcDbPolyline
 62
7
  6
CONTINUOUS
 90
6
 70
0
 10
54.8367923062
 20
76.958487878
 10
50.0237417864
 20
82.5537263709
 10
44.7148588971
 20
86.5728509677
 10
39.423606237
 20
88.6469390611
 10
34.6516818701
 20
88.586937227
 10
32.6093095197
 20
87.7507344604
  0
LINE
  5
24B
100
AcDbEntity
  8
0
100
AcDbLine
 62
7
  6
CONTINUOUS
 10
60.7351009247
 20
63.0462222767
 11
61.4458093386
 21
57.0725213436
  0
LINE
  5
24C
100
AcDbEntity
  8
0
100
AcDbLine
 62
7
  6
CONTINUOUS
 10
61.4458093386
 20
57.0725213436
 11
61.2439373178
 21
54.2010178709
  0
LINE
  5
24D
100
AcDbEntity
  8
0
100
AcDbLine
 62
7
  6
CONTINUOUS
 10
68.1676651506
 20
78.4028906496
 11
24.22132432
 21
103.7747483699
  0
LWPOLYLINE
  5
24E
100
AcDbEntity
  8
0
100
AcDbPolyline
 62
7
  6
CONTINUOUS
 90
4
 70
0
 10
61.8784278582
 20
57.2866861566
 10
61.10220207
 20
63.3979225908
 10
58.6692042117
 20
70.3237867254
 10
54.8367923062
 20
76.958487878
  0
LWPOLYLINE
  5
24F
100
AcDbEntity
  8
0
100
AcDbPolyline
 62
7
  6
CONTINUOUS
 90
3
 70
0
 10
61.7993612573
 20
57.2766434206
 10
61.0886283678
 20
63.2504521883
 10
60.1018451372
 20
66.24557664
  0
LINE
  5
250
100
AcDbEntity
  8
0
100
AcDbLine
 62
7
  6
CONTINUOUS
 10
68.1676651506
 20
23.9923902958
 11
68.1676651506
 21
78.4028906496
  0
LINE
  5
251
100
AcDbEntity
  8
0
100
AcDbLine
 62
7
  6
CONTINUOUS
 10
61.2439373178
 20
54.2010178709
 11
59.6609398552
 21
49.4326620737
  0
LINE
  5
252
100
AcDbEntity
  8
0
100
AcDbLine
 62
7
  6
CONTINUOUS
 10
12.4103127673
 20
111.2582716938
 11
24.7870073898
 21
104.1127453752
  0
LINE
  5
253
100
AcDbEntity
  8
0
100
AcDbLine
 62
7
  6
CONTINUOUS
 10
59.6609398552
 20
49.4326620737
 11
56.6512517968
 21
46.3240910133
  0
LINE
  5
254
100
AcDbEntity
  8
0
100
AcDbLine
 62
7
  6
CONTINUOUS
 10
23.833708471
 20
33.9858177845
 11
23.9807077971
 21
34.0706552752
  0
LINE
  5
255
100
AcDbEntity
  8
0
100
AcDbLine
 62
7
  6
CONTINUOUS
 10
56.4460942987
 20
46.4639656852
 11
51.4256570545
 21
43.5654321927
  0
LINE
  5
256
100
AcDbEntity
  8
0
100
AcDbLine
 62
7
  6
CONTINUOUS
 10
56.5583188454
 20
46.2695859116
 11
56.5338285804
 21
46.2555059057
  0
LINE
  5
257
100
AcDbEntity
  8
0
100
AcDbLine
 62
7
  6
CONTINUOUS
 10
56.1894208573
 20
45.3472129343
 11
55.8358689386
 21
45.1430908574
  0
LINE
  5
258
100
AcDbEntity
  8
0
100
AcDbLine
 62
7
  6
CONTINUOUS
 10
56.2097912922
 20
45.3020665351
 11
56.5633432108
 21
45.5061886121
  0
LINE
  5
259
100
AcDbEntity
  8
0
100
AcDbLine
 62
7
  6
CONTINUOUS
 10
49.5005469307
 20
39.9989170796
 11
49.2228417463
 21
39.8385848736
  0
LINE
  5
25A
100
AcDbEntity
  8
0
100
AcDbLine
 62
7
  6
CONTINUOUS
 10
48.5477449059
 20
39.3429047747
 11
48.1941929873
 21
39.1387826978
  0
LINE
  5
25B
100
AcDbEntity
  8
0
100
AcDbLine
 62
7
  6
CONTINUOUS
 10
56.2097912922
 20
45.3020665352
 11
56.9090629716
 21
45.6620756699
  0
LINE
  5
25C
100
AcDbEntity
  8
0
100
AcDbLine
 62
7
  6
CONTINUOUS
 10
26.2285561868
 20
33.6194811688
 11
27.0048151023
 21
33.9503732452
  0
LINE
  5
25D
100
AcDbEntity
  8
0
100
AcDbLine
 62
7
  6
CONTINUOUS
 10
56.5583141029
 20
46.2695941261
 11
56.5320469599
 21
46.2586003946
  0
LINE
  5
25E
100
AcDbEntity
  8
0
100
AcDbLine
 62
7
  6
CONTINUOUS
 10
51.4256442677
 20
43.5654543363
 11
49.5448319198
 21
42.7835507704
  0
LINE
  5
25F
100
AcDbEntity
  8
0
100
AcDbLine
 62
7
  6
CONTINUOUS
 10
55.8358689386
 20
36.994501893
 11
56.1894208573
 21
37.1986239699
  0
LINE
  5
260
100
AcDbEntity
  8
0
100
AcDbLine
 62
7
  6
CONTINUOUS
 10
56.0237312864
 20
36.8323952166
 11
55.6701793678
 21
36.6282731397
  0
LINE
  5
261
100
AcDbEntity
  8
0
100
AcDbLine
 62
7
  6
CONTINUOUS
 10
55.361259622
 20
36.2946478352
 11
55.7148115406
 21
36.4987699122
  0
LINE
  5
262
100
AcDbEntity
  8
0
100
AcDbLine
 62
7
  6
CONTINUOUS
 10
96.2260780023
 20
94.6023357699
 11
38.9501902654
 21
127.6698368861
  0
LINE
  5
263
100
AcDbEntity
  8
0
100
AcDbLine
 62
7
  6
CONTINUOUS
 10
96.2260780023
 20
94.6023357699
 11
96.2260780023
 21
39.0801714051
  0
LINE
  5
264
100
AcDbEntity
  8
0
100
AcDbLine
 62
7
  6
CONTINUOUS
 10
96.2260780023
 20
39.0801714051
 11
68.1676651506
 21
23.9923902958
  0
ARC
  5
265
100
AcDbEntity
  8
0
100
AcDbCircle
 62
7
  6
CONTINUOUS
 10
26.3128931196
 20
57.1654678488
 40
34.6928545895
100
AcDbArc
 50
43.1857248904
 51
44.7121252171
  0
ARC
  5
266
100
AcDbEntity
  8
0
100
AcDbCircle
 62
7
  6
CONTINUOUS
 10
31.8049027023
 20
63.5125093351
 40
26.288888877
100
AcDbArc
 50
52.8586540039
 51
56.5703178643
  0
ARC
  5
267
100
AcDbEntity
  8
0
100
AcDbCircle
 62
7
  6
CONTINUOUS
 10
38.7587508151
 20
56.7852956535
 40
23.1832669866
100
AcDbArc
 50
0.0018439039
 51
1.1592179346
  0
ARC
  5
268
100
AcDbEntity
  8
0
100
AcDbCircle
 62
7
  6
CONTINUOUS
 10
53.1971459994
 20
52.9093965643
 40
8.1325747245
100
AcDbArc
 50
294.4510271237
 51
297.1224989504
  0
ARC
  5
269
100
AcDbEntity
  8
0
100
AcDbCircle
 62
7
  6
CONTINUOUS
 10
52.5695338435
 20
53.1914136164
 40
7.9888953262
100
AcDbArc
 50
287.2484767482
 51
299.75060328
  0
ARC
  5
26A
100
AcDbEntity
  8
0
100
AcDbCircle
 62
7
  6
CONTINUOUS
 10
36.9513498556
 20
80.2418879242
 40
7.9721401991
100
AcDbArc
 50
120.2869714545
 51
130.5221083412
  0
ARC
  5
26B
100
AcDbEntity
  8
0
100
AcDbCircle
 62
7
  6
CONTINUOUS
 10
52.6318696467
 20
53.0707874678
 40
7.8532379258
100
AcDbArc
 50
299.9985698352
 51
300.7846079902
  0
ARC
  5
26C
100
AcDbEntity
  8
0
100
AcDbCircle
 62
7
  6
CONTINUOUS
 10
52.544077523
 20
53.2220471796
 40
7.8036515477
100
AcDbArc
 50
300.0015044108
 51
302.5983431714
  0
ARC
  5
26D
100
AcDbEntity
  8
0
100
AcDbCircle
 62
7
  6
CONTINUOUS
 10
36.9734057614
 20
80.1919553248
 40
7.8019133908
100
AcDbArc
 50
117.0825976939
 51
120.0002278794
  0
ARC
  5
26E
100
AcDbEntity
  8
0
100
AcDbCircle
 62
7
  6
CONTINUOUS
 10
36.77958901
 20
61.738867859
 40
4.7876084124
100
AcDbArc
 50
121.5676114152
 51
121.9903014059
  0
ARC
  5
26F
100
AcDbEntity
  8
0
100
AcDbCircle
 62
7
  6
CONTINUOUS
 10
36.6365714193
 20
61.9813033325
 40
4.5061803246
100
AcDbArc
 50
117.5374355519
 51
121.6319712218
  0
ARC
  5
270
100
AcDbEntity
  8
0
100
AcDbCircle
 62
7
  6
CONTINUOUS
 10
30.946347483
 20
49.3046109512
 40
4.0517217156
100
AcDbArc
 50
292.9391162216
 51
297.3261605958
  0
ARC
  5
271
100
AcDbEntity
  8
0
100
AcDbCircle
 62
7
  6
CONTINUOUS
 10
32.3110510695
 20
48.3536256691
 40
3.988699815
100
AcDbArc
 50
292.9044366297
 51
297.3608569441
  0
ARC
  5
272
100
AcDbEntity
  8
0
100
AcDbCircle
 62
7
  6
CONTINUOUS
 10
32.4266260026
 20
48.0844786892
 40
3.6957928337
100
AcDbArc
 50
292.3961707767
 51
292.8778998056
  0
ARC
  5
273
100
AcDbEntity
  8
0
100
AcDbCircle
 62
7
  6
CONTINUOUS
 10
47.2297182201
 20
41.1168541247
 40
2.2533284259
100
AcDbArc
 50
333.1948422819
 51
333.5841904966
  0
ARC
  5
274
100
AcDbEntity
  8
0
100
AcDbCircle
 62
7
  6
CONTINUOUS
 10
47.7745731245
 20
40.5741681653
 40
1.8697928916
100
AcDbArc
 50
285.8361556664
 51
288.2692572416
  0
ARC
  5
275
100
AcDbEntity
  8
0
100
AcDbCircle
 62
7
  6
CONTINUOUS
 10
47.7882866659
 20
40.5332779836
 40
1.8266648774
100
AcDbArc
 50
288.2628610832
 51
293.1657910495
  0
ARC
  5
276
100
AcDbEntity
  8
0
100
AcDbCircle
 62
7
  6
CONTINUOUS
 10
55.1085129052
 20
36.7845351206
 40
1.1012783874
100
AcDbArc
 50
359.1777565352
 51
0.0013896207
  0
SPLINE
  5
277
100
AcDbEntity
  8
0
100
AcDbSpline
 62
7
  6
CONTINUOUS
 70
0
 71
3
 72
14
 73
10
 74
0
 42
0.0000001
 43
0.0000001
 44
0.0000000001
 40
0.0
 40
0.0
 40
0.0
 40
0.0
 40
0.0992700119
 40
0.2114761067
 40
0.3352169084
 40
0.467838944
 40
0.7433531795
 40
0.8765007211
 40
1.0
 40
1.0
 40
1.0
 40
1.0
 10
49.5448319198
 20
42.7835507704
 30
0.0
 10
49.2873179663
 20
42.7042041431
 30
0.0
 10
48.7354238569
 20
42.5459598335
 30
0.0
 10
47.856270114
 20
42.3113677029
 30
0.0
 10
46.8879454297
 20
42.0597012358
 30
0.0
 10
45.4948451897
 20
41.6812431121
 30
0.0
 10
44.0887775661
 20
41.2486131085
 30
0.0
 10
42.7459436173
 20
40.7140514375
 30
0.0
 10
42.1174962977
 20
40.411281278
 30
0.0
 10
41.822802937
 20
40.2514851478
 30
0.0
  0
SPLINE
  5
278
100
AcDbEntity
  8
0
100
AcDbSpline
 62
7
  6
CONTINUOUS
 70
0
 71
3
 72
25
 73
21
 74
0
 42
0.0000001
 43
0.0000001
 44
0.0000000001
 40
0.0
 40
0.0
 40
0.0
 40
0.0
 40
0.065168829
 40
0.1335655678
 40
0.2044671274
 40
0.2770420512
 40
0.3503932498
 40
0.4235924327
 40
0.4957173581
 40
0.5658878672
 40
0.6333037518
 40
0.6972859064
 40
0.7573233713
 40
0.8131296472
 40
0.8647086164
 40
0.9124269999
 40
0.9350987945
 40
0.957138635
 40
0.9787108757
 40
1.0
 40
1.0
 40
1.0
 40
1.0
 10
61.1730146327
 20
59.4683820574
 30
0.0
 10
61.081277
 20
60.4182907546
 30
0.0
 10
60.7864162741
 20
62.3558949575
 30
0.0
 10
60.0550066209
 20
65.2633689135
 30
0.0
 10
59.0361342007
 20
68.198002335
 30
0.0
 10
57.7489645538
 20
71.1044023767
 30
0.0
 10
56.2176595282
 20
73.9281580011
 30
0.0
 10
54.4709913878
 20
76.6161748764
 30
0.0
 10
52.541776344
 20
79.1179587487
 30
0.0
 10
50.4661815807
 20
81.3865705207
 30
0.0
 10
48.2829553338
 20
83.3795505125
 30
0.0
 10
46.0325117686
 20
85.0596736294
 30
0.0
 10
43.7560825434
 20
86.3955294582
 30
0.0
 10
41.4943083453
 20
87.3616562746
 30
0.0
 10
39.287862658
 20
87.938474016
 30
0.0
 10
37.4957753515
 20
88.0843221967
 30
0.0
 10
36.143647887
 20
87.9848731604
 30
0.0
 10
35.1868653191
 20
87.8095302603
 30
0.0
 10
34.2755635552
 20
87.5327105729
 30
0.0
 10
33.6989658846
 20
87.2803334076
 30
0.0
 10
33.4213935115
 20
87.1383976901
 30
0.0
  0
SPLINE
  5
279
100
AcDbEntity
  8
0
100
AcDbSpline
 62
7
  6
CONTINUOUS
 70
0
 71
3
 72
15
 73
11
 74
0
 42
0.0000001
 43
0.0000001
 44
0.0000000001
 40
0.0
 40
0.0
 40
0.0
 40
0.0
 40
0.1204351603
 40
0.2453667806
 40
0.3736581892
 40
0.5038406871
 40
0.6340204486
 40
0.7619134309
 40
0.8848694895
 40
1.0
 40
1.0
 40
1.0
 40
1.0
 10
23.9804157
 20
34.070982272
 30
0.0
 10
24.3728638746
 20
33.9805407648
 30
0.0
 10
25.1866852962
 20
33.8550967417
 30
0.0
 10
26.4380733768
 20
33.8168173625
 30
0.0
 10
27.7186625988
 20
33.9132739017
 30
0.0
 10
29.0019767951
 20
34.1281834003
 30
0.0
 10
30.2626107023
 20
34.443805272
 30
0.0
 10
31.4742202388
 20
34.8414758081
 30
0.0
 10
32.6091890614
 20
35.301621462
 30
0.0
 10
33.3253289432
 20
35.6514755913
 30
0.0
 10
33.6640167881
 20
35.8345396233
 30
0.0
  0
SPLINE
  5
27A
100
AcDbEntity
  8
0
100
AcDbSpline
 62
7
  6
CONTINUOUS
 70
0
 71
3
 72
9
 73
5
 74
0
 42
0.0000001
 43
0.0000001
 44
0.0000000001
 40
0.0
 40
0.0
 40
0.0
 40
0.0
 40
0.2289474708
 40
1.0
 40
1.0
 40
1.0
 40
1.0
 10
23.2600041493
 20
34.182371844
 30
0.0
 10
23.2846830099
 20
34.1419622284
 30
0.0
 10
23.4061653768
 20
33.9737683442
 30
0.0
 10
23.5730258033
 20
33.8422100396
 30
0.0
 10
23.7095950124
 20
33.7598825816
 30
0.0
  0
SPLINE
  5
27B
100
AcDbEntity
  8
0
100
AcDbSpline
 62
7
  6
CONTINUOUS
 70
0
 71
3
 72
11
 73
7
 74
0
 42
0.0000001
 43
0.0000001
 44
0.0000000001
 40
0.0
 40
0.0
 40
0.0
 40
0.0
 40
0.2660605622
 40
0.5188215433
 40
0.7619484129
 40
1.0
 40
1.0
 40
1.0
 40
1.0
 10
24.3133635073
 20
79.5666207973
 30
0.0
 10
24.5142371559
 20
80.0535241453
 30
0.0
 10
24.9695473688
 20
80.9787865494
 30
0.0
 10
25.8369539641
 20
82.2205595873
 30
0.0
 10
26.8607184686
 20
83.2614237923
 30
0.0
 10
27.643842681
 20
83.8144584225
 30
0.0
 10
28.0519697096
 20
84.0500878974
 30
0.0
  0
SPLINE
  5
27C
100
AcDbEntity
  8
0
100
AcDbSpline
 62
7
  6
CONTINUOUS
 70
0
 71
3
 72
14
 73
10
 74
0
 42
0.0000001
 43
0.0000001
 44
0.0000000001
 40
0.0
 40
0.0
 40
0.0
 40
0.0
 40
0.1080019101
 40
0.2180745533
 40
0.3320931084
 40
0.4515748477
 40
0.5776295637
 40
0.7109874375
 40
1.0
 40
1.0
 40
1.0
 40
1.0
 10
36.9211018285
 20
66.0887334893
 30
0.0
 10
36.8467223674
 20
66.1384281708
 30
0.0
 10
36.6873638657
 20
66.2257170661
 30
0.0
 10
36.4259252374
 20
66.3150619321
 30
0.0
 10
36.1441538486
 20
66.3625060892
 30
0.0
 10
35.8454194365
 20
66.367917626
 30
0.0
 10
35.5328489548
 20
66.3314241142
 30
0.0
 10
35.0904281987
 20
66.2249994871
 30
0.0
 10
34.7654595931
 20
66.0877115417
 30
0.0
 10
34.5532377932
 20
65.9769737544
 30
0.0
  0
SPLINE
  5
27D
100
AcDbEntity
  8
0
100
AcDbSpline
 62
7
  6
CONTINUOUS
 70
0
 71
3
 72
11
 73
7
 74
0
 42
0.0000001
 43
0.0000001
 44
0.0000000001
 40
0.0
 40
0.0
 40
0.0
 40
0.0
 40
0.2470726426
 40
0.4951622367
 40
0.7456718733
 40
1.0
 40
1.0
 40
1.0
 40
1.0
 10
19.4674086651
 20
39.1596573846
 30
0.0
 10
19.462710845
 20
38.9214892969
 30
0.0
 10
19.4896434225
 20
38.4426385217
 30
0.0
 10
19.6405081415
 20
37.7368689837
 30
0.0
 10
19.9009283967
 20
37.0562423719
 30
0.0
 10
20.1439657248
 20
36.6319297001
 30
0.0
 10
20.281480462
 20
36.4289086951
 30
0.0
  0
SPLINE
  5
27E
100
AcDbEntity
  8
0
100
AcDbSpline
 62
7
  6
CONTINUOUS
 70
0
 71
3
 72
15
 73
11
 74
0
 42
0.0000001
 43
0.0000001
 44
0.0000000001
 40
0.0
 40
0.0
 40
0.0
 40
0.0
 40
0.0717850797
 40
0.1567297475
 40
0.2569340701
 40
0.3734124034
 40
0.5064117603
 40
0.6556891901
 40
0.8206233689
 40
1.0
 40
1.0
 40
1.0
 40
1.0
 10
31.2102988295
 20
84.4278173764
 30
0.0
 10
31.209247942
 20
84.3727444376
 30
0.0
 10
31.1881679711
 20
84.2527530613
 30
0.0
 10
31.1124787476
 20
84.0696380062
 30
0.0
 10
30.9903937963
 20
83.8720633305
 30
0.0
 10
30.8216346035
 20
83.6627695945
 30
0.0
 10
30.6065216427
 20
83.4445904994
 30
0.0
 10
30.3461072467
 20
83.2206103673
 30
0.0
 10
30.0421644942
 20
82.9942046961
 30
0.0
 10
29.821159298
 20
82.8491457495
 30
0.0
 10
29.7042194563
 20
82.7765494716
 30
0.0
  0
SPLINE
  5
27F
100
AcDbEntity
  8
0
100
AcDbSpline
 62
7
  6
CONTINUOUS
 70
0
 71
3
 72
15
 73
11
 74
0
 42
0.0000001
 43
0.0000001
 44
0.0000000001
 40
0.0
 40
0.0
 40
0.0
 40
0.0
 40
0.1044688669
 40
0.2119208386
 40
0.3244222653
 40
0.4435545706
 40
0.5703657688
 40
0.7053768264
 40
0.8487022673
 40
1.0
 40
1.0
 40
1.0
 40
1.0
 10
56.7482668845
 20
46.647720652
 30
0.0
 10
57.1661001647
 20
46.91491622
 30
0.0
 10
57.9634298059
 20
47.5399732171
 30
0.0
 10
58.985464672
 20
48.7025055789
 30
0.0
 10
59.8316727073
 20
50.0803308107
 30
0.0
 10
60.49309189
 20
51.6545627132
 30
0.0
 10
60.9638884825
 20
53.4057755946
 30
0.0
 10
61.2400576199
 20
55.3133229291
 30
0.0
 10
61.319044652
 20
57.3546783263
 30
0.0
 10
61.2420614309
 20
58.7534284208
 30
0.0
 10
61.1730146327
 20
59.4683820574
 30
0.0
  0
SPLINE
  5
280
100
AcDbEntity
  8
0
100
AcDbSpline
 62
7
  6
CONTINUOUS
 70
0
 71
3
 72
15
 73
11
 74
0
 42
0.0000001
 43
0.0000001
 44
0.0000000001
 40
0.0
 40
0.0
 40
0.0
 40
0.0
 40
0.1654977221
 40
0.3184502141
 40
0.4584097477
 40
0.5857087938
 40
0.7013312328
 40
0.8070203524
 40
0.9054489167
 40
1.0
 40
1.0
 40
1.0
 40
1.0
 10
22.3306783433
 20
78.224720055
 30
0.0
 10
22.1651249929
 20
78.1220816757
 30
0.0
 10
21.8516277922
 20
77.9161973276
 30
0.0
 10
21.4199691056
 20
77.5918125703
 30
0.0
 10
21.0480100217
 20
77.2649485374
 30
0.0
 10
20.7383733324
 20
76.9364039689
 30
0.0
 10
20.4929126226
 20
76.6062014117
 30
0.0
 10
20.3133784086
 20
76.2736304353
 30
0.0
 10
20.201770169
 20
75.9382425414
 30
0.0
 10
20.1736543205
 20
75.7109908393
 30
0.0
 10
20.1714967491
 20
75.5997264724
 30
0.0
  0
SPLINE
  5
281
100
AcDbEntity
  8
0
100
AcDbSpline
 62
7
  6
CONTINUOUS
 70
0
 71
3
 72
11
 73
7
 74
0
 42
0.0000001
 43
0.0000001
 44
0.0000000001
 40
0.0
 40
0.0
 40
0.0
 40
0.0
 40
0.2342227003
 40
0.4759994288
 40
0.7301052746
 40
1.0
 40
1.0
 40
1.0
 40
1.0
 10
19.7554818138
 20
64.1432011546
 30
0.0
 10
19.7638047146
 20
63.940808624
 30
0.0
 10
19.8224708899
 20
63.5301740773
 30
0.0
 10
20.0307705035
 20
62.9304577806
 30
0.0
 10
20.3560003754
 20
62.3500838143
 30
0.0
 10
20.6377399614
 20
61.9927222118
 30
0.0
 10
20.7941631291
 20
61.819477122
 30
0.0
  0
SPLINE
  5
282
100
AcDbEntity
  8
0
100
AcDbSpline
 62
7
  6
CONTINUOUS
 70
0
 71
3
 72
11
 73
7
 74
0
 42
0.0000001
 43
0.0000001
 44
0.0000000001
 40
0.0
 40
0.0
 40
0.0
 40
0.0
 40
0.2663133791
 40
0.5210410248
 40
0.765034052
 40
1.0
 40
1.0
 40
1.0
 40
1.0
 10
23.833708471
 20
33.9858177845
 30
0.0
 10
23.4703949598
 20
34.0712400717
 30
0.0
 10
22.7694866767
 20
34.2865288482
 30
0.0
 10
21.8015476134
 20
34.7585923153
 30
0.0
 10
20.9643242457
 20
35.3645702443
 30
0.0
 10
20.4993274918
 20
35.8552493472
 30
0.0
 10
20.2973075873
 20
36.1152866749
 30
0.0
  0
SPLINE
  5
283
100
AcDbEntity
  8
0
100
AcDbSpline
 62
7
  6
CONTINUOUS
 70
0
 71
3
 72
9
 73
5
 74
0
 42
0.0000001
 43
0.0000001
 44
0.0000000001
 40
0.0
 40
0.0
 40
0.0
 40
0.0
 40
0.4905512622
 40
1.0
 40
1.0
 40
1.0
 40
1.0
 10
24.330557296
 20
59.6896607446
 30
0.0
 10
24.947629172
 20
59.4859930697
 30
0.0
 10
26.240865828
 20
59.17371115
 30
0.0
 10
27.5641838787
 20
59.0475608726
 30
0.0
 10
28.2387836915
 20
59.0293069183
 30
0.0
  0
SPLINE
  5
284
100
AcDbEntity
  8
0
100
AcDbSpline
 62
7
  6
CONTINUOUS
 70
0
 71
3
 72
11
 73
7
 74
0
 42
0.0000001
 43
0.0000001
 44
0.0000000001
 40
0.0
 40
0.0
 40
0.0
 40
0.0
 40
0.2557154052
 40
0.5057693262
 40
0.7534846205
 40
1.0
 40
1.0
 40
1.0
 40
1.0
 10
30.3036217887
 20
47.080795447
 30
0.0
 10
30.299432011
 20
46.8639681871
 30
0.0
 10
30.3474407543
 20
46.4315386673
 30
0.0
 10
30.5881840862
 20
45.8318800033
 30
0.0
 10
30.9653343482
 20
45.3183094892
 30
0.0
 10
31.2883732995
 20
45.0444790588
 30
0.0
 10
31.4621908381
 20
44.9283076925
 30
0.0
  0
SPLINE
  5
285
100
AcDbEntity
  8
0
100
AcDbSpline
 62
7
  6
CONTINUOUS
 70
0
 71
3
 72
15
 73
11
 74
0
 42
0.0000001
 43
0.0000001
 44
0.0000000001
 40
0.0
 40
0.0
 40
0.0
 40
0.0
 40
0.1105681244
 40
0.2272609963
 40
0.3505201259
 40
0.4795148676
 40
0.6123684972
 40
0.7462144518
 40
0.8770856559
 40
1.0
 40
1.0
 40
1.0
 40
1.0
 10
30.5766552771
 20
61.2082493032
 30
0.0
 10
30.580985865
 20
61.4323627826
 30
0.0
 10
30.6521444792
 20
61.8932169982
 30
0.0
 10
30.9172515134
 20
62.5572739537
 30
0.0
 10
31.3122098198
 20
63.1958265173
 30
0.0
 10
31.8062877114
 20
63.8023591793
 30
0.0
 10
32.3712479146
 20
64.3731937757
 30
0.0
 10
32.9801229358
 20
64.9022600306
 30
0.0
 10
33.6049323406
 20
65.3795995187
 30
0.0
 10
34.031886224
 20
65.6674090563
 30
0.0
 10
34.2432303856
 20
65.7994194518
 30
0.0
  0
SPLINE
  5
286
100
AcDbEntity
  8
0
100
AcDbSpline
 62
7
  6
CONTINUOUS
 70
0
 71
3
 72
12
 73
8
 74
0
 42
0.0000001
 43
0.0000001
 44
0.0000000001
 40
0.0
 40
0.0
 40
0.0
 40
0.0
 40
0.1135268264
 40
0.2350896923
 40
0.4933275621
 40
0.7552825601
 40
1.0
 40
1.0
 40
1.0
 40
1.0
 10
23.7095950124
 20
33.7598825816
 30
0.0
 10
23.7939188649
 20
33.7090499783
 30
0.0
 10
23.977097663
 20
33.6176111921
 30
0.0
 10
24.3823775339
 20
33.4777819061
 30
0.0
 10
24.9371201325
 20
33.3903400051
 30
0.0
 10
25.603714739
 20
33.421484096
 30
0.0
 10
26.0333166479
 20
33.5362491238
 30
0.0
 10
26.2285561868
 20
33.6194811688
 30
0.0
  0
SPLINE
  5
287
100
AcDbEntity
  8
0
100
AcDbSpline
 62
7
  6
CONTINUOUS
 70
0
 71
3
 72
19
 73
15
 74
0
 42
0.0000001
 43
0.0000001
 44
0.0000000001
 40
0.0
 40
0.0
 40
0.0
 40
0.0
 40
0.0350106093
 40
0.0722579687
 40
0.1129464153
 40
0.1579305303
 40
0.2077181947
 40
0.2624909062
 40
0.3221885072
 40
0.3865383007
 40
0.5272405745
 40
0.6798680939
 40
0.8390888266
 40
1.0
 40
1.0
 40
1.0
 40
1.0
 10
19.9737936668
 20
75.4372876098
 30
0.0
 10
19.9813595576
 20
75.3166514079
 30
0.0
 10
20.0247958582
 20
75.0687874115
 30
0.0
 10
20.1676149543
 20
74.7037239137
 30
0.0
 10
20.386830903
 20
74.3384385291
 30
0.0
 10
20.6801102006
 20
73.972720552
 30
0.0
 10
21.0452538232
 20
73.6065728674
 30
0.0
 10
21.4796004263
 20
73.2410619416
 30
0.0
 10
21.9795443362
 20
72.8780845435
 30
0.0
 10
22.7505909201
 20
72.3863925279
 30
0.0
 10
23.8432209729
 20
71.8065768701
 30
0.0
 10
25.2823948312
 20
71.1940688626
 30
0.0
 10
26.8331575766
 20
70.6792434516
 30
0.0
 10
27.9106340137
 20
70.4241856447
 30
0.0
 10
28.4571119835
 20
70.324243826
 30
0.0
  0
SPLINE
  5
288
100
AcDbEntity
  8
0
100
AcDbSpline
 62
7
  6
CONTINUOUS
 70
0
 71
3
 72
15
 73
11
 74
0
 42
0.0000001
 43
0.0000001
 44
0.0000000001
 40
0.0
 40
0.0
 40
0.0
 40
0.0
 40
0.1519400048
 40
0.2956041717
 40
0.430665931
 40
0.5572682179
 40
0.6760253895
 40
0.7881313462
 40
0.8953613384
 40
1.0
 40
1.0
 40
1.0
 40
1.0
 10
56.1525773885
 20
56.5698485649
 30
0.0
 10
56.2236332224
 20
55.8340921187
 30
0.0
 10
56.3010964612
 20
54.3957224421
 30
0.0
 10
56.2109617936
 20
52.2989603043
 30
0.0
 10
55.9118498106
 20
50.3453858464
 30
0.0
 10
55.4065241049
 20
48.5593907807
 30
0.0
 10
54.6995297691
 20
46.9633867363
 30
0.0
 10
53.7973874378
 20
45.5784929631
 30
0.0
 10
52.7103272049
 20
44.4252994174
 30
0.0
 10
51.8665199261
 20
43.8199577325
 30
0.0
 10
51.4256587431
 20
43.5654292641
 30
0.0
  0
SPLINE
  5
289
100
AcDbEntity
  8
0
100
AcDbSpline
 62
7
  6
CONTINUOUS
 70
0
 71
3
 72
15
 73
11
 74
0
 42
0.0000001
 43
0.0000001
 44
0.0000000001
 40
0.0
 40
0.0
 40
0.0
 40
0.0
 40
0.111527345
 40
0.2290668018
 40
0.3518260886
 40
0.4784590281
 40
0.6075684645
 40
0.7379831645
 40
0.8689486872
 40
1.0
 40
1.0
 40
1.0
 40
1.0
 10
42.4952490799
 20
75.0396323428
 30
0.0
 10
42.7819745603
 20
75.1815336105
 30
0.0
 10
43.4063612728
 20
75.4049048182
 30
0.0
 10
44.4116538972
 20
75.5462050702
 30
0.0
 10
45.4688943794
 20
75.4964435319
 30
0.0
 10
46.5329505107
 20
75.2551957805
 30
0.0
 10
47.5618602658
 20
74.8317172376
 30
0.0
 10
48.520834463
 20
74.2441840622
 30
0.0
 10
49.3850947943
 20
73.517017179
 30
0.0
 10
49.8893527527
 20
72.9561768042
 30
0.0
 10
50.122358889
 20
72.6611750601
 30
0.0
  0
SPLINE
  5
28A
100
AcDbEntity
  8
0
100
AcDbSpline
 62
7
  6
CONTINUOUS
 70
0
 71
3
 72
12
 73
8
 74
0
 42
0.0000001
 43
0.0000001
 44
0.0000000001
 40
0.0
 40
0.0
 40
0.0
 40
0.0
 40
0.2478919748
 40
0.4953712382
 40
0.6197620094
 40
0.7450196688
 40
1.0
 40
1.0
 40
1.0
 40
1.0
 10
31.4621908381
 20
44.9283076925
 30
0.0
 10
31.6326758522
 20
44.814363627
 30
0.0
 10
32.0002742051
 20
44.6241981186
 30
0.0
 10
32.5028672611
 20
44.4995310472
 30
0.0
 10
32.9143879956
 20
44.4753033594
 30
0.0
 10
33.3317222674
 20
44.5034443845
 30
0.0
 10
33.6397429878
 20
44.5870930858
 30
0.0
 10
33.8347548033
 20
44.6674539672
 30
0.0
  0
SPLINE
  5
28B
100
AcDbEntity
  8
0
100
AcDbSpline
 62
7
  6
CONTINUOUS
 70
0
 71
3
 72
11
 73
7
 74
0
 42
0.0000001
 43
0.0000001
 44
0.0000000001
 40
0.0
 40
0.0
 40
0.0
 40
0.0
 40
0.2665020086
 40
0.5237072097
 40
0.76858104
 40
1.0
 40
1.0
 40
1.0
 40
1.0
 10
28.6539917895
 20
70.4382699856
 30
0.0
 10
29.1625887196
 20
70.3538080079
 30
0.0
 10
30.1715223806
 20
70.2380608193
 30
0.0
 10
31.6629613476
 20
70.2521463998
 30
0.0
 10
33.0696104178
 20
70.4817015359
 30
0.0
 10
33.9427578684
 20
70.7991567697
 30
0.0
 10
34.3437233043
 20
70.9982929766
 30
0.0
  0
SPLINE
  5
28C
100
AcDbEntity
  8
0
100
AcDbSpline
 62
7
  6
CONTINUOUS
 70
0
 71
3
 72
15
 73
11
 74
0
 42
0.0000001
 43
0.0000001
 44
0.0000000001
 40
0.0
 40
0.0
 40
0.0
 40
0.0
 40
0.1162498363
 40
0.2408263946
 40
0.3711837858
 40
0.5042482454
 40
0.6367232037
 40
0.7653598913
 40
0.8872300304
 40
1.0
 40
1.0
 40
1.0
 40
1.0
 10
34.1442301579
 20
44.8111433975
 30
0.0
 10
34.3656007128
 20
44.9252363518
 30
0.0
 10
34.8043465459
 20
45.2012243903
 30
0.0
 10
35.4132466781
 20
45.7159331408
 30
0.0
 10
35.9773957424
 20
46.3292014985
 30
0.0
 10
36.475576734
 20
47.0179352276
 30
0.0
 10
36.8891982788
 20
47.7563406723
 30
0.0
 10
37.2027149545
 20
48.5168764145
 30
0.0
 10
37.4044299815
 20
49.2708383417
 30
0.0
 10
37.4615094984
 20
49.7729740821
 30
0.0
 10
37.4663651265
 20
50.0145127664
 30
0.0
  0
SPLINE
  5
28D
100
AcDbEntity
  8
0
100
AcDbSpline
 62
7
  6
CONTINUOUS
 70
0
 71
3
 72
12
 73
8
 74
0
 42
0.0000001
 43
0.0000001
 44
0.0000000001
 40
0.0
 40
0.0
 40
0.0
 40
0.0
 40
0.2849800816
 40
0.5426045759
 40
0.7775321504
 40
0.889629206
 40
1.0
 40
1.0
 40
1.0
 40
1.0
 10
37.7395322207
 20
64.1497166638
 30
0.0
 10
37.743346076
 20
64.357859956
 30
0.0
 10
37.718515988
 20
64.7561478797
 30
0.0
 10
37.5672983835
 20
65.3083561732
 30
0.0
 10
37.3443290982
 20
65.696970675
 30
0.0
 10
37.1163601141
 20
65.9427921189
 30
0.0
 10
36.9881415765
 20
66.043942644
 30
0.0
 10
36.9211018285
 20
66.0887334893
 30
0.0
  0
SPLINE
  5
28E
100
AcDbEntity
  8
0
100
AcDbSpline
 62
7
  6
CONTINUOUS
 70
0
 71
3
 72
15
 73
11
 74
0
 42
0.0000001
 43
0.0000001
 44
0.0000000001
 40
0.0
 40
0.0
 40
0.0
 40
0.0
 40
0.1803258791
 40
0.3421520036
 40
0.4848861797
 40
0.6088862789
 40
0.7161444228
 40
0.8113253785
 40
0.90248763
 40
1.0
 40
1.0
 40
1.0
 40
1.0
 10
29.9301300331
 20
84.8312360275
 30
0.0
 10
30.0203702958
 20
84.8519608708
 30
0.0
 10
30.193131181
 20
84.8851196723
 30
0.0
 10
30.4413679601
 20
84.9092563701
 30
0.0
 10
30.6620277662
 20
84.9042883812
 30
0.0
 10
30.8520096029
 20
84.8698440703
 30
0.0
 10
31.0083605132
 20
84.8047897456
 30
0.0
 10
31.1269077408
 20
84.7069826504
 30
0.0
 10
31.1991383689
 20
84.5763009053
 30
0.0
 10
31.2112540475
 20
84.4778766519
 30
0.0
 10
31.2102988295
 20
84.4278173764
 30
0.0
  0
SPLINE
  5
28F
100
AcDbEntity
  8
0
100
AcDbSpline
 62
7
  6
CONTINUOUS
 70
0
 71
3
 72
9
 73
5
 74
0
 42
0.0000001
 43
0.0000001
 44
0.0000000001
 40
0.0
 40
0.0
 40
0.0
 40
0.0
 40
0.2308289933
 40
1.0
 40
1.0
 40
1.0
 40
1.0
 10
36.1667039479
 20
66.2871589382
 30
0.0
 10
36.2084455544
 20
66.1986287207
 30
0.0
 10
36.3616355327
 20
65.8019931076
 30
0.0
 10
36.407590337
 20
65.3696984533
 30
0.0
 10
36.4016152355
 20
65.0436054147
 30
0.0
  0
SPLINE
  5
290
100
AcDbEntity
  8
0
100
AcDbSpline
 62
7
  6
CONTINUOUS
 70
0
 71
3
 72
14
 73
10
 74
0
 42
0.0000001
 43
0.0000001
 44
0.0000000001
 40
0.0
 40
0.0
 40
0.0
 40
0.0
 40
0.260341213
 40
0.3898608372
 40
0.5178598782
 40
0.6435623466
 40
0.7662395224
 40
0.8852584609
 40
1.0
 40
1.0
 40
1.0
 40
1.0
 10
50.122358889
 20
72.6611750601
 30
0.0
 10
50.9535097114
 20
71.4063375131
 30
0.0
 10
52.094108531
 20
69.4550888749
 30
0.0
 10
53.3837319256
 20
66.7519531012
 30
0.0
 10
54.2228346236
 20
64.7000010366
 30
0.0
 10
54.9272368843
 20
62.6398393909
 30
0.0
 10
55.4905865646
 20
60.5903478902
 30
0.0
 10
55.9074462842
 20
58.5707851834
 30
0.0
 10
56.0888093968
 20
57.2301421448
 30
0.0
 10
56.1525773885
 20
56.5698485649
 30
0.0
  0
SPLINE
  5
291
100
AcDbEntity
  8
0
100
AcDbSpline
 62
7
  6
CONTINUOUS
 70
0
 71
3
 72
15
 73
11
 74
0
 42
0.0000001
 43
0.0000001
 44
0.0000000001
 40
0.0
 40
0.0
 40
0.0
 40
0.0
 40
0.1127700002
 40
0.2346401823
 40
0.3632768938
 40
0.4957518594
 40
0.6288163082
 40
0.7591736751
 40
0.8837501936
 40
1.0
 40
1.0
 40
1.0
 40
1.0
 10
36.128448064
 20
50.9083975146
 30
0.0
 10
36.1235924353
 20
50.6668588001
 30
0.0
 10
36.0665126161
 20
50.1647229896
 30
0.0
 10
35.8647971013
 20
49.410761103
 30
0.0
 10
35.5512800242
 20
48.6502254856
 30
0.0
 10
35.1376581826
 20
47.9118203002
 30
0.0
 10
34.6394770032
 20
47.2230869355
 30
0.0
 10
34.075327879
 20
46.6098190156
 30
0.0
 10
33.466427756
 20
46.0951107466
 30
0.0
 10
33.0276820375
 20
45.8191229684
 30
0.0
 10
32.8063115639
 20
45.7050300759
 30
0.0
  0
SPLINE
  5
292
100
AcDbEntity
  8
0
100
AcDbSpline
 62
7
  6
CONTINUOUS
 70
0
 71
3
 72
11
 73
7
 74
0
 42
0.0000001
 43
0.0000001
 44
0.0000000001
 40
0.0
 40
0.0
 40
0.0
 40
0.0
 40
0.2766889391
 40
0.5342481679
 40
0.7743055314
 40
1.0
 40
1.0
 40
1.0
 40
1.0
 10
32.5255172004
 20
45.5733012797
 30
0.0
 10
32.3879397379
 20
45.5152501831
 30
0.0
 10
32.1151575731
 20
45.4189172849
 30
0.0
 10
31.7039673247
 20
45.3361775858
 30
0.0
 10
31.3120799028
 20
45.3213791723
 30
0.0
 10
31.0615353976
 20
45.3582197145
 30
0.0
 10
30.9435285658
 20
45.3883908443
 30
0.0
  0
SPLINE
  5
293
100
AcDbEntity
  8
0
100
AcDbSpline
 62
7
  6
CONTINUOUS
 70
0
 71
3
 72
9
 73
5
 74
0
 42
0.0000001
 43
0.0000001
 44
0.0000000001
 40
0.0
 40
0.0
 40
0.0
 40
0.0
 40
0.2340717366
 40
1.0
 40
1.0
 40
1.0
 40
1.0
 10
74.4839019355
 20
107.1299940156
 30
0.0
 10
74.5015920285
 20
107.1823943637
 30
0.0
 10
74.5659871508
 20
107.4100248951
 30
0.0
 10
74.5884797861
 20
107.6482627571
 30
0.0
 10
74.588479786
 20
107.8292342243
 30
0.0
  0
SPLINE
  5
294
100
AcDbEntity
  8
0
100
AcDbSpline
 62
7
  6
CONTINUOUS
 70
0
 71
3
 72
15
 73
11
 74
0
 42
0.0000001
 43
0.0000001
 44
0.0000000001
 40
0.0
 40
0.0
 40
0.0
 40
0.0
 40
0.0938029966
 40
0.1927761312
 40
0.300817669
 40
0.42002964
 40
0.5508557063
 40
0.692441159
 40
0.8429790796
 40
1.0
 40
1.0
 40
1.0
 40
1.0
 10
48.194178971
 20
39.1388070306
 30
0.0
 10
48.0560172246
 20
39.0590766464
 30
0.0
 10
47.7453190594
 20
38.9379430969
 30
0.0
 10
47.229901987
 20
38.8940088962
 30
0.0
 10
46.6775348181
 20
38.9816375766
 30
0.0
 10
46.10374535
 20
39.1949523165
 30
0.0
 10
45.5232484613
 20
39.5263254475
 30
0.0
 10
44.9515937816
 20
39.9660203559
 30
0.0
 10
44.4046649609
 20
40.5013864406
 30
0.0
 10
44.0716191468
 20
40.9060958636
 30
0.0
 10
43.9124206229
 20
41.1204708179
 30
0.0
  0
SPLINE
  5
295
100
AcDbEntity
  8
0
100
AcDbSpline
 62
7
  6
CONTINUOUS
 70
0
 71
3
 72
8
 73
4
 74
0
 42
0.0000001
 43
0.0000001
 44
0.0000000001
 40
0.0
 40
0.0
 40
0.0
 40
0.0
 40
1.0
 40
1.0
 40
1.0
 40
1.0
 10
55.6701569869
 20
36.6283119052
 30
0.0
 10
55.6491723373
 20
36.6161964893
 30
0.0
 10
55.6263309942
 20
36.6068998023
 30
0.0
 10
55.6028961838
 20
36.6007395687
 30
0.0
  0
SPLINE
  5
296
100
AcDbEntity
  8
0
100
AcDbSpline
 62
7
  6
CONTINUOUS
 70
0
 71
3
 72
9
 73
5
 74
0
 42
0.0000001
 43
0.0000001
 44
0.0000000001
 40
0.0
 40
0.0
 40
0.0
 40
0.0
 40
0.4562614297
 40
1.0
 40
1.0
 40
1.0
 40
1.0
 10
55.6028961838
 20
36.6007395687
 30
0.0
 10
55.552027598
 20
36.5873679063
 30
0.0
 10
55.4320328908
 20
36.5900083416
 30
0.0
 10
55.3244646893
 20
36.6365526608
 30
0.0
 10
55.2701811585
 20
36.6678925629
 30
0.0
  0
SPLINE
  5
297
100
AcDbEntity
  8
0
100
AcDbSpline
 62
7
  6
CONTINUOUS
 70
0
 71
3
 72
9
 73
5
 74
0
 42
0.0000001
 43
0.0000001
 44
0.0000000001
 40
0.0
 40
0.0
 40
0.0
 40
0.0
 40
0.4957555162
 40
1.0
 40
1.0
 40
1.0
 40
1.0
 10
48.3427724655
 20
38.7445327839
 30
0.0
 10
48.4253649763
 20
38.7922011518
 30
0.0
 10
48.5843880312
 20
38.9020938341
 30
0.0
 10
48.7238996
 20
39.035773701
 30
0.0
 10
48.7887413237
 20
39.1079086085
 30
0.0
  0
SPLINE
  5
298
100
AcDbEntity
  8
0
100
AcDbSpline
 62
7
  6
CONTINUOUS
 70
0
 71
3
 72
9
 73
5
 74
0
 42
0.0000001
 43
0.0000001
 44
0.0000000001
 40
0.0
 40
0.0
 40
0.0
 40
0.0
 40
0.4847226713
 40
1.0
 40
1.0
 40
1.0
 40
1.0
 10
48.7887413237
 20
39.1079086085
 30
0.0
 10
48.8809351759
 20
39.2104721218
 30
0.0
 10
49.0488221974
 20
39.4427994287
 30
0.0
 10
49.1708238113
 20
39.7015213049
 30
0.0
 10
49.2228417463
 20
39.8385848736
 30
0.0
  0
SPLINE
  5
299
100
AcDbEntity
  8
0
100
AcDbSpline
 62
7
  6
CONTINUOUS
 70
0
 71
3
 72
11
 73
7
 74
0
 42
0.0000001
 43
0.0000001
 44
0.0000000001
 40
0.0
 40
0.0
 40
0.0
 40
0.0
 40
0.2186281123
 40
0.452121198
 40
0.7113106981
 40
1.0
 40
1.0
 40
1.0
 40
1.0
 10
55.9612233638
 20
36.2352768483
 30
0.0
 10
55.9999667595
 20
36.2576452431
 30
0.0
 10
56.0726060073
 20
36.318095575
 30
0.0
 10
56.1507704646
 20
36.4431901324
 30
0.0
 10
56.198261455
 20
36.5973224841
 30
0.0
 10
56.2088287252
 20
36.709664187
 30
0.0
 10
56.2096778919
 20
36.7687313758
 30
0.0
  0
SPLINE
  5
29A
100
AcDbEntity
  8
0
100
AcDbSpline
 62
7
  6
CONTINUOUS
 70
0
 71
3
 72
15
 73
11
 74
0
 42
0.0000001
 43
0.0000001
 44
0.0000000001
 40
0.0
 40
0.0
 40
0.0
 40
0.0
 40
0.1080342058
 40
0.2180809688
 40
0.3320132707
 40
0.4513714378
 40
0.5772887874
 40
0.7105003919
 40
0.8514170701
 40
1.0
 40
1.0
 40
1.0
 40
1.0
 10
56.90917235
 20
45.6618862273
 30
0.0
 10
57.3076522124
 20
45.891974569
 30
0.0
 10
58.073775936
 20
46.4264522115
 30
0.0
 10
59.0858939678
 20
47.4226605276
 30
0.0
 10
59.9562818103
 20
48.6049036435
 30
0.0
 10
60.6770281219
 20
49.959953729
 30
0.0
 10
61.2423803277
 20
51.474037833
 30
0.0
 10
61.6481219377
 20
53.132506368
 30
0.0
 10
61.8909922419
 20
54.9193166075
 30
0.0
 10
61.9420177896
 20
56.1531992991
 30
0.0
 10
61.9420177896
 20
56.7860417419
 30
0.0
  0
SPLINE
  5
29B
100
AcDbEntity
  8
0
100
AcDbSpline
 62
7
  6
CONTINUOUS
 70
0
 71
3
 72
9
 73
5
 74
0
 42
0.0000001
 43
0.0000001
 44
0.0000000001
 40
0.0
 40
0.0
 40
0.0
 40
0.0
 40
0.2521776617
 40
1.0
 40
1.0
 40
1.0
 40
1.0
 10
68.8692495649
 20
110.409037608
 30
0.0
 10
68.8836753768
 20
110.4226210713
 30
0.0
 10
68.9423732467
 20
110.4748745844
 30
0.0
 10
69.007097507
 20
110.5203850033
 30
0.0
 10
69.0579844502
 20
110.5497643958
 30
0.0
  0
SPLINE
  5
29C
100
AcDbEntity
  8
0
100
AcDbSpline
 62
7
  6
CONTINUOUS
 70
0
 71
3
 72
15
 73
11
 74
0
 42
0.0000001
 43
0.0000001
 44
0.0000000001
 40
0.0
 40
0.0
 40
0.0
 40
0.0
 40
0.1141241598
 40
0.2373483675
 40
0.3669736385
 40
0.5000010132
 40
0.6330282465
 40
0.7626531028
 40
0.8858766831
 40
1.0
 40
1.0
 40
1.0
 40
1.0
 10
74.588479786
 20
107.8292342243
 30
0.0
 10
74.5884797859
 20
107.9968756343
 30
0.0
 10
74.5576984944
 20
108.3458429108
 30
0.0
 10
74.4353522426
 20
108.8722814048
 30
0.0
 10
74.2391238462
 20
109.4055249427
 30
0.0
 10
73.9766699071
 20
109.9255020568
 30
0.0
 10
73.6575815651
 20
110.4127804091
 30
0.0
 10
73.2938921728
 20
110.8493377642
 30
0.0
 10
72.8991558479
 20
111.2185075839
 30
0.0
 10
72.6123320793
 20
111.4196450745
 30
0.0
 10
72.4671506106
 20
111.5034637383
 30
0.0
  0
SPLINE
  5
29D
100
AcDbEntity
  8
0
100
AcDbSpline
 62
7
  6
CONTINUOUS
 70
0
 71
3
 72
11
 73
7
 74
0
 42
0.0000001
 43
0.0000001
 44
0.0000000001
 40
0.0
 40
0.0
 40
0.0
 40
0.0
 40
0.289702329
 40
0.5490881649
 40
0.7822156415
 40
1.0
 40
1.0
 40
1.0
 40
1.0
 10
72.4671506106
 20
111.5034637383
 30
0.0
 10
72.3355141384
 20
111.5794623717
 30
0.0
 10
72.0736467483
 20
111.704037823
 30
0.0
 10
71.6711513589
 20
111.8012332481
 30
0.0
 10
71.2934929333
 20
111.7916710053
 30
0.0
 10
71.0661223965
 20
111.7091564768
 30
0.0
 10
70.9671648107
 20
111.6520236113
 30
0.0
  0
SPLINE
  5
29E
100
AcDbEntity
  8
0
100
AcDbSpline
 62
7
  6
CONTINUOUS
 70
0
 71
3
 72
9
 73
5
 74
0
 42
0.0000001
 43
0.0000001
 44
0.0000000001
 40
0.0
 40
0.0
 40
0.0
 40
0.0
 40
0.4909552531
 40
1.0
 40
1.0
 40
1.0
 40
1.0
 10
48.5477308896
 20
39.3429291075
 30
0.0
 10
48.6586459363
 20
39.4069359655
 30
0.0
 10
48.8693586821
 20
39.5654260711
 30
0.0
 10
49.0373427774
 20
39.7680616585
 30
0.0
 10
49.1112792778
 20
39.8783482997
 30
0.0
  0
SPLINE
  5
29F
100
AcDbEntity
  8
0
100
AcDbSpline
 62
7
  6
CONTINUOUS
 70
0
 71
3
 72
9
 73
5
 74
0
 42
0.0000001
 43
0.0000001
 44
0.0000000001
 40
0.0
 40
0.0
 40
0.0
 40
0.0
 40
0.2461631214
 40
1.0
 40
1.0
 40
1.0
 40
1.0
 10
49.1112792778
 20
39.8783482997
 30
0.0
 10
49.1230436596
 20
39.8958965221
 30
0.0
 10
49.1696831305
 20
39.9679512248
 30
0.0
 10
49.2117396344
 20
40.0429525568
 30
0.0
 10
49.240915752
 20
40.1006978952
 30
0.0
  0
SPLINE
  5
2A0
100
AcDbEntity
  8
0
100
AcDbSpline
 62
7
  6
CONTINUOUS
 70
0
 71
3
 72
11
 73
7
 74
0
 42
0.0000001
 43
0.0000001
 44
0.0000000001
 40
0.0
 40
0.0
 40
0.0
 40
0.0
 40
0.2177843137
 40
0.4509117637
 40
0.7102976701
 40
1.0
 40
1.0
 40
1.0
 40
1.0
 10
69.0579844502
 20
110.5497643958
 30
0.0
 10
69.1569420419
 20
110.6068972033
 30
0.0
 10
69.3843124936
 20
110.6894118023
 30
0.0
 10
69.7619709392
 20
110.6989740414
 30
0.0
 10
70.1644663339
 20
110.6017785789
 30
0.0
 10
70.426333778
 20
110.4772031562
 30
0.0
 10
70.5579702502
 20
110.4012045229
 30
0.0
  0
SPLINE
  5
2A1
100
AcDbEntity
  8
0
100
AcDbSpline
 62
7
  6
CONTINUOUS
 70
0
 71
3
 72
8
 73
4
 74
0
 42
0.0000001
 43
0.0000001
 44
0.0000000001
 40
0.0
 40
0.0
 40
0.0
 40
0.0
 40
1.0
 40
1.0
 40
1.0
 40
1.0
 10
56.023708905
 20
36.8324339818
 30
0.0
 10
56.044695887
 20
36.8445507592
 30
0.0
 10
56.0641698077
 20
36.859685548
 30
0.0
 10
56.0812236299
 20
36.8769028897
 30
0.0
  0
SPLINE
  5
2A2
100
AcDbEntity
  8
0
100
AcDbSpline
 62
7
  6
CONTINUOUS
 70
0
 71
3
 72
9
 73
5
 74
0
 42
0.0000001
 43
0.0000001
 44
0.0000000001
 40
0.0
 40
0.0
 40
0.0
 40
0.0
 40
0.4562611328
 40
1.0
 40
1.0
 40
1.0
 40
1.0
 10
56.0812236299
 20
36.8769028897
 30
0.0
 10
56.118237564
 20
36.9142717298
 30
0.0
 10
56.175946545
 20
37.0195124171
 30
0.0
 10
56.1894208573
 20
37.1359424929
 30
0.0
 10
56.1894208573
 20
37.1986239699
 30
0.0
  0
SPLINE
  5
2A3
100
AcDbEntity
  8
0
100
AcDbSpline
 62
7
  6
CONTINUOUS
 70
0
 71
3
 72
9
 73
5
 74
0
 42
0.0000001
 43
0.0000001
 44
0.0000000001
 40
0.0
 40
0.0
 40
0.0
 40
0.0
 40
0.2565839532
 40
1.0
 40
1.0
 40
1.0
 40
1.0
 10
50.9673911215
 20
81.5734560461
 30
0.0
 10
50.7035489597
 20
81.8399101912
 30
0.0
 10
49.6582632654
 20
82.861294929
 30
0.0
 10
48.543956229
 20
83.8129294499
 30
0.0
 10
47.6776970467
 20
84.4686558819
 30
0.0
  0
SPLINE
  5
2A4
100
AcDbEntity
  8
0
100
AcDbSpline
 62
7
  6
CONTINUOUS
 70
0
 71
3
 72
15
 73
11
 74
0
 42
0.0000001
 43
0.0000001
 44
0.0000000001
 40
0.0
 40
0.0
 40
0.0
 40
0.0
 40
0.1506993731
 40
0.2932890105
 40
0.42761939
 40
0.5539272416
 40
0.6728926586
 40
0.7856987253
 40
0.8940307705
 40
1.0
 40
1.0
 40
1.0
 40
1.0
 10
46.2877975455
 20
85.452232108
 30
0.0
 10
45.7094334352
 20
85.8332598174
 30
0.0
 10
44.5518814821
 20
86.5280880779
 30
0.0
 10
42.7749360032
 20
87.3751584704
 30
0.0
 10
41.0224370195
 20
87.9899947726
 30
0.0
 10
39.3135974377
 20
88.3648071342
 30
0.0
 10
37.6671431427
 20
88.4939359831
 30
0.0
 10
36.1016481245
 20
88.3738733448
 30
0.0
 10
34.6367381489
 20
88.0041258142
 30
0.0
 10
33.7355243664
 20
87.5906027296
 30
0.0
 10
33.3137398226
 20
87.3471136868
 30
0.0
  0
SPLINE
  5
2A5
100
AcDbEntity
  8
0
100
AcDbSpline
 62
7
  6
CONTINUOUS
 70
0
 71
3
 72
11
 73
7
 74
0
 42
0.0000001
 43
0.0000001
 44
0.0000000001
 40
0.0
 40
0.0
 40
0.0
 40
0.0
 40
0.2146352128
 40
0.4499151701
 40
0.711359314
 40
1.0
 40
1.0
 40
1.0
 40
1.0
 10
48.2848160199
 20
38.775341424
 30
0.0
 10
48.0939937428
 20
38.7212013172
 30
0.0
 10
47.6741944107
 20
38.6719289202
 30
0.0
 10
47.0183661215
 20
38.770426813
 30
0.0
 10
46.3354266985
 20
39.0287271856
 30
0.0
 10
45.8958324774
 20
39.2887914122
 30
0.0
 10
45.6761257946
 20
39.4400602057
 30
0.0
  0
SPLINE
  5
2A6
100
AcDbEntity
  8
0
100
AcDbSpline
 62
7
  6
CONTINUOUS
 70
0
 71
3
 72
15
 73
11
 74
0
 42
0.0000001
 43
0.0000001
 44
0.0000000001
 40
0.0
 40
0.0
 40
0.0
 40
0.0
 40
0.1569653096
 40
0.3075972831
 40
0.4493479727
 40
0.5803327405
 40
0.6996292693
 40
0.8076356533
 40
0.9064466881
 40
1.0
 40
1.0
 40
1.0
 40
1.0
 10
43.5531528226
 20
41.0006545457
 30
0.0
 10
43.7298278097
 20
40.7585465411
 30
0.0
 10
44.1001997791
 20
40.3010826535
 30
0.0
 10
44.7100492928
 20
39.6950576087
 30
0.0
 10
45.3489719833
 20
39.1962159349
 30
0.0
 10
45.998854718
 20
38.8192018969
 30
0.0
 10
46.6419285318
 20
38.575296281
 30
0.0
 10
47.2614012803
 20
38.4733036811
 30
0.0
 10
47.8395704163
 20
38.5200988724
 30
0.0
 10
48.1880565249
 20
38.655238291
 30
0.0
 10
48.3427724655
 20
38.7445327839
 30
0.0
  0
SPLINE
  5
2A7
100
AcDbEntity
  8
0
100
AcDbSpline
 62
7
  6
CONTINUOUS
 70
0
 71
3
 72
9
 73
5
 74
0
 42
0.0000001
 43
0.0000001
 44
0.0000000001
 40
0.0
 40
0.0
 40
0.0
 40
0.0
 40
0.2264356924
 40
1.0
 40
1.0
 40
1.0
 40
1.0
 10
56.1025504392
 20
36.3831959139
 30
0.0
 10
56.0717962665
 20
36.3827059966
 30
0.0
 10
55.9357266198
 20
36.3927180718
 30
0.0
 10
55.8058120394
 20
36.4462319383
 30
0.0
 10
55.7148115406
 20
36.4987699122
 30
0.0
  0
SPLINE
  5
2A8
100
AcDbEntity
  8
0
100
AcDbSpline
 62
7
  6
CONTINUOUS
 70
0
 71
3
 72
11
 73
7
 74
0
 42
0.0000001
 43
0.0000001
 44
0.0000000001
 40
0.0
 40
0.0
 40
0.0
 40
0.0
 40
0.2895391946
 40
0.5491157945
 40
0.7822541179
 40
1.0
 40
1.0
 40
1.0
 40
1.0
 10
55.361259622
 20
36.2946478352
 30
0.0
 10
55.4138835314
 20
36.2642660943
 30
0.0
 10
55.5186568012
 20
36.2144900236
 30
0.0
 10
55.6796298238
 20
36.1755271428
 30
0.0
 10
55.8307475173
 20
36.1793232886
 30
0.0
 10
55.9216481018
 20
36.2124281776
 30
0.0
 10
55.9612233638
 20
36.2352768483
 30
0.0
  0
SPLINE
  5
2A9
100
AcDbEntity
  8
0
100
AcDbSpline
 62
7
  6
CONTINUOUS
 70
0
 71
3
 72
11
 73
7
 74
0
 42
0.0000001
 43
0.0000001
 44
0.0000000001
 40
0.0
 40
0.0
 40
0.0
 40
0.0
 40
0.2895401978
 40
0.5491171512
 40
0.782255066
 40
1.0
 40
1.0
 40
1.0
 40
1.0
 10
55.8358689386
 20
36.994501893
 30
0.0
 10
55.8358689386
 20
36.9539909944
 30
0.0
 10
55.8296832988
 20
36.8769057797
 30
0.0
 10
55.7985208434
 20
36.7709771059
 30
0.0
 10
55.7459556711
 20
36.6849921562
 30
0.0
 10
55.6965410935
 20
36.6435446792
 30
0.0
 10
55.6701569869
 20
36.6283119052
 30
0.0
  0
SPLINE
  5
2AA
100
AcDbEntity
  8
0
100
AcDbSpline
 62
7
  6
CONTINUOUS
 70
0
 71
3
 72
11
 73
7
 74
0
 42
0.0000001
 43
0.0000001
 44
0.0000000001
 40
0.0
 40
0.0
 40
0.0
 40
0.0
 40
0.2703639094
 40
0.5242513083
 40
0.7654901964
 40
1.0
 40
1.0
 40
1.0
 40
1.0
 10
49.0370640534
 20
40.26650299
 30
0.0
 10
48.9979297287
 20
40.1428452721
 30
0.0
 10
48.904838352
 20
39.9079348186
 30
0.0
 10
48.713674068
 20
39.5921339777
 30
0.0
 10
48.4776454064
 20
39.3306604067
 30
0.0
 10
48.2916200142
 20
39.1950383103
 30
0.0
 10
48.194178971
 20
39.1388070306
 30
0.0
  0
SPLINE
  5
2AB
100
AcDbEntity
  8
0
100
AcDbSpline
 62
7
  6
CONTINUOUS
 70
0
 71
3
 72
11
 73
7
 74
0
 42
0.0000001
 43
0.0000001
 44
0.0000000001
 40
0.0
 40
0.0
 40
0.0
 40
0.0
 40
0.227707762
 40
0.4753041521
 40
0.7355404917
 40
1.0
 40
1.0
 40
1.0
 40
1.0
 10
70.5579702502
 20
110.4012045229
 30
0.0
 10
70.7265857933
 20
110.3038564959
 30
0.0
 10
71.0581646835
 20
110.0645216137
 30
0.0
 10
71.5053432867
 20
109.6193709921
 30
0.0
 10
71.9056618024
 20
109.0917948196
 30
0.0
 10
72.1290125274
 20
108.7009960679
 30
0.0
 10
72.2280736153
 20
108.4977258581
 30
0.0
  0
SPLINE
  5
2AC
100
AcDbEntity
  8
0
100
AcDbSpline
 62
7
  6
CONTINUOUS
 70
0
 71
3
 72
15
 73
11
 74
0
 42
0.0000001
 43
0.0000001
 44
0.0000000001
 40
0.0
 40
0.0
 40
0.0
 40
0.0
 40
0.1080130329
 40
0.2180613375
 40
0.3319990292
 40
0.4513605802
 40
0.5772749319
 40
0.7104908485
 40
0.8514257339
 40
1.0
 40
1.0
 40
1.0
 40
1.0
 10
56.9118707634
 20
46.4737079897
 30
0.0
 10
57.2987834135
 20
46.6970794147
 30
0.0
 10
58.0426233158
 20
47.2162101837
 30
0.0
 10
59.0255581484
 20
48.1834920856
 30
0.0
 10
59.8709212641
 20
49.3315823083
 30
0.0
 10
60.5707716121
 20
50.6475673165
 30
0.0
 10
61.1199196126
 20
52.1178955986
 30
0.0
 10
61.5139597637
 20
53.7285559131
 30
0.0
 10
61.7497648538
 20
55.4638266675
 30
0.0
 10
61.7993612573
 20
56.6621127556
 30
0.0
 10
61.7993612573
 20
57.2766434206
 30
0.0
  0
ELLIPSE
  5
2AD
100
AcDbEntity
  8
0
100
AcDbEllipse
 62
7
  6
CONTINUOUS
 10
-86.5483709946
 20
-9.1037465741
 30
0.0
 11
298.7210547108
 21
192.5108223206
 31
0.0
 40
0.0440949106
 41
1.1428295614
 42
1.1694662962
  0
ELLIPSE
  5
2AE
100
AcDbEntity
  8
0
100
AcDbEllipse
 62
7
  6
CONTINUOUS
 10
-86.4876868269
 20
-9.0687107627
 30
0.0
 11
331.7769439914
 21
172.5055958031
 31
0.0
 40
0.0443336816
 41
-1.2233772998
 42
-1.1968637999
  0
ELLIPSE
  5
2AF
100
AcDbEntity
  8
0
100
AcDbEllipse
 62
7
  6
CONTINUOUS
 10
-86.4876868269
 20
-9.0687107627
 30
0.0
 11
331.7769439914
 21
172.5055958031
 31
0.0
 40
0.0443336816
 41
1.1485717131
 42
1.1750852131
  0
ENDSEC
  0
SECTION
  2
OBJECTS
  0
DICTIONARY
  5
C
100
AcDbDictionary
280
0
281
1
  3
ACAD_GROUP
350
D
  3
ACAD_MLINESTYLE
350
17
  3
ACAD_LAYOUT
350
1A
  3
ACAD_PLOTSETTINGS
350
19
  3
ACAD_PLOTSTYLENAME
350
E
  0
DICTIONARY
  5
D
102
{ACAD_REACTORS
330
C
102
}
100
AcDbDictionary
280
0
281
1
  0
ACDBDICTIONARYWDFLT
  5
E
102
{ACAD_REACTORS
330
C
102
}
100
AcDbDictionary
281
1
  3
Normal
350
F
100
AcDbDictionaryWithDefault
340
F
  0
DICTIONARY
  5
17
102
{ACAD_REACTORS
330
C
102
}
100
AcDbDictionary
280
0
281
1
  3
Standard
350
18
  0
DICTIONARY
  5
19
102
{ACAD_REACTORS
330
C
102
}
100
AcDbDictionary
281
1
  0
DICTIONARY
  5
1A
102
{ACAD_REACTORS
330
C
102
}
100
AcDbDictionary
281
1
  3
Model
350
2B0
  3
Layout1
350
2B1
  0
ACDBPLACEHOLDER
  5
F
102
{ACAD_REACTORS
330
E
102
}
  0
MLINESTYLE
  5
18
102
{ACAD_REACTORS
330
17
102
}
100
AcDbMlineStyle
  2
STANDARD
 70
0
  3

 62
256
 51
90.0
 52
90.0
 71
2
 49
0.5
 62
256
  6
BYLAYER
 49
-0.5
 62
256
  6
BYLAYER
  0
LAYOUT
  5
2B0
102
{ACAD_REACTORS
330
1A
102
}
100
AcDbPlotSettings
  1

  2
none_device
  4

  6

 40
0.0
 41
0.0
 42
0.0
 43
0.0
 44
210.0
 45
297.0
 46
0.0
 47
0.0
 48
0.0
 49
0.0
140
0.0
141
0.0
142
1.0
143
1.0
 70
1024
 72
1
 73
0
 74
0
  7

 75
0
147
1.0
148
0.0
149
0.0
100
AcDbLayout
  1
Model
 70
0
 71
0
 10
0.0
 20
0.0
 11
210.0
 21
297.0
 12
0.0
 22
0.0
 32
0.0
 14
0.0
 24
0.0
 34
0.0
 15
0.0
 25
0.0
 35
0.0
146
0.0
 13
0.0
 23
0.0
 33
0.0
 16
1.0
 26
0.0
 36
0.0
 17
0.0
 27
1.0
 37
0.0
 76
0
330
212
345
0
346
0
  0
LAYOUT
  5
2B1
102
{ACAD_REACTORS
330
1A
102
}
100
AcDbPlotSettings
  1

  2
none_device
  4

  6

 40
0.0
 41
0.0
 42
0.0
 43
0.0
 44
210.0
 45
297.0
 46
0.0
 47
0.0
 48
0.0
 49
0.0
140
0.0
141
0.0
142
1.0
143
1.0
 70
0
 72
1
 73
0
 74
0
  7

 75
0
147
1.0
148
0.0
149
0.0
100
AcDbLayout
  1
Layout1
 70
0
 71
1
 10
0.0
 20
0.0
 11
210.0
 21
297.0
 12
0.0
 22
0.0
 32
0.0
 14
0.0
 24
0.0
 34
0.0
 15
0.0
 25
0.0
 35
0.0
146
0.0
 13
0.0
 23
0.0
 33
0.0
 16
1.0
 26
0.0
 36
0.0
 17
0.0
 27
1.0
 37
0.0
 76
0
330
213
345
0
346
0
  0
ENDSEC
  0
EOF
