  0
SECTION
  2
HEADER
  9
$ACADVER
  1
AC1012
  9
$DWGCODEPAGE
  3
ANSI_1252
  9
$INSBASE
 10
0.0
 20
0.0
 30
0.0
  9
$EXTMIN
 10
2.596069366899399
 20
4.57141115908908
 30
-0.0015258207003583
  9
$EXTMAX
 10
5.509277364133481
 20
7.144271869380343
 30
0.0000000349246037
  9
$LIMMIN
 10
0.0
 20
0.0
  9
$LIMMAX
 10
12.0
 20
9.0
  9
$ORTHOMODE
 70
     0
  9
$REGENMODE
 70
     1
  9
$FILLMODE
 70
     1
  9
$QTEXTMODE
 70
     0
  9
$MIRRTEXT
 70
     1
  9
$DRAGMODE
 70
     2
  9
$LTSCALE
 40
1.0
  9
$OSMODE
 70
    37
  9
$ATTMODE
 70
     1
  9
$TEXTSIZE
 40
0.2
  9
$TRACEWID
 40
0.05
  9
$TEXTSTYLE
  7
STANDARD
  9
$CLAYER
  8
0
  9
$CELTYPE
  6
BYLAYER
  9
$CECOLOR
 62
   256
  9
$CELTSCALE
 40
1.0
  9
$DELOBJ
 70
     1
  9
$DISPSILH
 70
     0
  9
$DIMSCALE
 40
1.0
  9
$DIMASZ
 40
0.18
  9
$DIMEXO
 40
0.0625
  9
$DIMDLI
 40
0.38
  9
$DIMRND
 40
0.0
  9
$DIMDLE
 40
0.0
  9
$DIMEXE
 40
0.18
  9
$DIMTP
 40
0.0
  9
$DIMTM
 40
0.0
  9
$DIMTXT
 40
0.18
  9
$DIMCEN
 40
0.09
  9
$DIMTSZ
 40
0.0
  9
$DIMTOL
 70
     0
  9
$DIMLIM
 70
     0
  9
$DIMTIH
 70
     1
  9
$DIMTOH
 70
     1
  9
$DIMSE1
 70
     0
  9
$DIMSE2
 70
     0
  9
$DIMTAD
 70
     0
  9
$DIMZIN
 70
     0
  9
$DIMBLK
  1

  9
$DIMASO
 70
     1
  9
$DIMSHO
 70
     1
  9
$DIMPOST
  1

  9
$DIMAPOST
  1

  9
$DIMALT
 70
     0
  9
$DIMALTD
 70
     2
  9
$DIMALTF
 40
25.4
  9
$DIMLFAC
 40
1.0
  9
$DIMTOFL
 70
     0
  9
$DIMTVP
 40
0.0
  9
$DIMTIX
 70
     0
  9
$DIMSOXD
 70
     0
  9
$DIMSAH
 70
     0
  9
$DIMBLK1
  1

  9
$DIMBLK2
  1

  9
$DIMSTYLE
  2
STANDARD
  9
$DIMCLRD
 70
     0
  9
$DIMCLRE
 70
     0
  9
$DIMCLRT
 70
     0
  9
$DIMTFAC
 40
1.0
  9
$DIMGAP
 40
0.09
  9
$DIMJUST
 70
     0
  9
$DIMSD1
 70
     0
  9
$DIMSD2
 70
     0
  9
$DIMTOLJ
 70
     1
  9
$DIMTZIN
 70
     0
  9
$DIMALTZ
 70
     0
  9
$DIMALTTZ
 70
     0
  9
$DIMFIT
 70
     5
  9
$DIMUPT
 70
     0
  9
$DIMUNIT
 70
     2
  9
$DIMDEC
 70
     4
  9
$DIMTDEC
 70
     4
  9
$DIMALTU
 70
     2
  9
$DIMALTTD
 70
     2
  9
$DIMTXSTY
  7
STANDARD
  9
$DIMAUNIT
 70
     0
  9
$LUNITS
 70
     2
  9
$LUPREC
 70
     4
  9
$SKETCHINC
 40
0.1
  9
$FILLETRAD
 40
0.0
  9
$AUNITS
 70
     0
  9
$AUPREC
 70
     0
  9
$MENU
  1
acad
  9
$ELEVATION
 40
0.0
  9
$PELEVATION
 40
0.0
  9
$THICKNESS
 40
0.0
  9
$LIMCHECK
 70
     0
  9
$BLIPMODE
 70
     0
  9
$CHAMFERA
 40
0.0
  9
$CHAMFERB
 40
0.0
  9
$CHAMFERC
 40
0.0
  9
$CHAMFERD
 40
0.0
  9
$SKPOLY
 70
     0
  9
$TDCREATE
 40
2454225.522615740
  9
$TDUPDATE
 40
2454225.525500150
  9
$TDINDWG
 40
0.0003897801
  9
$TDUSRTIMER
 40
0.0003897801
  9
$USRTIMER
 70
     1
  9
$ANGBASE
 50
0.0
  9
$ANGDIR
 70
     0
  9
$PDMODE
 70
     0
  9
$PDSIZE
 40
0.0
  9
$PLINEWID
 40
0.0
  9
$COORDS
 70
     1
  9
$SPLFRAME
 70
     0
  9
$SPLINETYPE
 70
     6
  9
$SPLINESEGS
 70
     8
  9
$ATTDIA
 70
     0
  9
$ATTREQ
 70
     1
  9
$HANDLING
 70
  4097
  9
$HANDSEED
  5
54B
  9
$SURFTAB1
 70
     6
  9
$SURFTAB2
 70
     6
  9
$SURFTYPE
 70
     6
  9
$SURFU
 70
     6
  9
$SURFV
 70
     6
  9
$UCSNAME
  2

  9
$UCSORG
 10
0.0
 20
0.0
 30
0.0
  9
$UCSXDIR
 10
1.0
 20
0.0
 30
0.0
  9
$UCSYDIR
 10
0.0
 20
1.0
 30
0.0
  9
$PUCSNAME
  2

  9
$PUCSORG
 10
0.0
 20
0.0
 30
0.0
  9
$PUCSXDIR
 10
1.0
 20
0.0
 30
0.0
  9
$PUCSYDIR
 10
0.0
 20
1.0
 30
0.0
  9
$USERI1
 70
     0
  9
$USERI2
 70
     0
  9
$USERI3
 70
     0
  9
$USERI4
 70
     0
  9
$USERI5
 70
     0
  9
$USERR1
 40
0.0
  9
$USERR2
 40
0.0
  9
$USERR3
 40
0.0
  9
$USERR4
 40
0.0
  9
$USERR5
 40
0.0
  9
$WORLDVIEW
 70
     1
  9
$SHADEDGE
 70
     3
  9
$SHADEDIF
 70
    70
  9
$TILEMODE
 70
     1
  9
$MAXACTVP
 70
    16
  9
$PINSBASE
 10
0.0
 20
0.0
 30
0.0
  9
$PLIMCHECK
 70
     0
  9
$PEXTMIN
 10
1.000000000000000E+20
 20
1.000000000000000E+20
 30
1.000000000000000E+20
  9
$PEXTMAX
 10
-1.000000000000000E+20
 20
-1.000000000000000E+20
 30
-1.000000000000000E+20
  9
$PLIMMIN
 10
0.0
 20
0.0
  9
$PLIMMAX
 10
12.0
 20
9.0
  9
$UNITMODE
 70
     0
  9
$VISRETAIN
 70
     0
  9
$PLINEGEN
 70
     0
  9
$PSLTSCALE
 70
     1
  9
$TREEDEPTH
 70
  3020
  9
$PICKSTYLE
 70
     1
  9
$CMLSTYLE
  2
STANDARD
  9
$CMLJUST
 70
     0
  9
$CMLSCALE
 40
1.0
  9
$SAVEIMAGES
 70
     1
  0
ENDSEC
  0
SECTION
  2
CLASSES
  0
CLASS
  1
ACDBDICTIONARYWDFLT
  2
AcDbDictionaryWithDefault
  3
AutoCAD 2000
 90
    32768
280
     0
281
     0
  0
CLASS
  1
ACDBPLACEHOLDER
  2
AcDbPlaceHolder
  3
AutoCAD 2000
 90
    32768
280
     0
281
     0
  0
CLASS
  1
LAYOUT
  2
AcDbLayout
  3
AutoCAD 2000
 90
    32768
280
     0
281
     0
  0
CLASS
  1
LONG_TRANSACTION
  2
AcDbLongTransaction
  3
AutoCAD 2000
 90
    32768
280
     0
281
     0
  0
CLASS
  1
LWPOLYLINE
  2
AcDbPolyline
  3
AutoCAD 2000
 90
    32768
280
     0
281
     1
  0
CLASS
  1
HATCH
  2
AcDbHatch
  3
AutoCAD 2000
 90
    32768
280
     0
281
     1
  0
CLASS
  1
XRECORD
  2
AcDbXrecord
  3
AutoCAD 2000
 90
    32768
280
     0
281
     0
  0
ENDSEC
  0
SECTION
  2
TABLES
  0
TABLE
  2
VPORT
  5
8
330
0
100
AcDbSymbolTable
 70
     3
  0
VPORT
  5
40A
330
8
100
AcDbSymbolTableRecord
100
AcDbViewportTableRecord
  2
*ACTIVE
 70
     0
 10
0.0
 20
0.0
 11
1.0
 21
1.0
 12
4.05267336551644
 22
5.857841514234712
 13
0.0
 23
0.0
 14
1.0
 24
1.0
 15
0.0
 25
0.0
 16
0.0
 26
0.0
 36
1.0
 17
0.0
 27
0.0
 37
0.0
 40
2.603612033521836
 41
1.838323353293412
 42
50.0
 43
0.0
 44
0.0
 50
0.0
 51
0.0
 71
     0
 72
   100
 73
     1
 74
     1
 75
     0
 76
     0
 77
     0
 78
     0
  0
ENDTAB
  0
TABLE
  2
LTYPE
  5
5
330
0
100
AcDbSymbolTable
 70
    25
  0
LTYPE
  5
13
330
5
100
AcDbSymbolTableRecord
100
AcDbLinetypeTableRecord
  2
BYBLOCK
 70
     0
  3

 72
    65
 73
     0
 40
0.0
  0
LTYPE
  5
14
330
5
100
AcDbSymbolTableRecord
100
AcDbLinetypeTableRecord
  2
BYLAYER
 70
     0
  3

 72
    65
 73
     0
 40
0.0
  0
LTYPE
  5
15
330
5
100
AcDbSymbolTableRecord
100
AcDbLinetypeTableRecord
  2
CONTINUOUS
 70
     0
  3
Solid line
 72
    65
 73
     0
 40
0.0
  0
LTYPE
  5
22
330
5
100
AcDbSymbolTableRecord
100
AcDbLinetypeTableRecord
  2
BORDER
 70
     0
  3
__ __ . __ __ . __ __ . __ __ . __ __ . __ __ .
 72
    65
 73
     6
 40
1.75
 49
0.5
 74
     0
 49
-0.25
 74
     0
 49
0.5
 74
     0
 49
-0.25
 74
     0
 49
0.5
 74
     0
 49
-0.25
 74
     0
  0
LTYPE
  5
23
330
5
100
AcDbSymbolTableRecord
100
AcDbLinetypeTableRecord
  2
BORDER2
 70
     0
  3
__.__.__.__.__.__.__.__.
 72
    65
 73
     6
 40
0.875
 49
0.25
 74
     0
 49
-0.125
 74
     0
 49
0.25
 74
     0
 49
-0.125
 74
     0
 49
0.25
 74
     0
 49
-0.125
 74
     0
  0
LTYPE
  5
24
330
5
100
AcDbSymbolTableRecord
100
AcDbLinetypeTableRecord
  2
BORDERX2
 70
     0
  3
____  ____  .  
 72
    65
 73
     6
 40
3.5
 49
1.0
 74
     0
 49
-0.5
 74
     0
 49
1.0
 74
     0
 49
-0.5
 74
     0
 49
1.0
 74
     0
 49
-0.5
 74
     0
  0
LTYPE
  5
25
330
5
100
AcDbSymbolTableRecord
100
AcDbLinetypeTableRecord
  2
CENTER
 70
     0
  3
____ _ ____ _ ____ _ 
 72
    65
 73
     4
 40
2.0
 49
1.25
 74
     0
 49
-0.25
 74
     0
 49
0.25
 74
     0
 49
-0.25
 74
     0
  0
LTYPE
  5
26
330
5
100
AcDbSymbolTableRecord
100
AcDbLinetypeTableRecord
  2
CENTER2
 70
     0
  3
____ _ ____ _ ____ _ 
 72
    65
 73
     4
 40
1.125
 49
0.75
 74
     0
 49
-0.125
 74
     0
 49
0.125
 74
     0
 49
-0.125
 74
     0
  0
LTYPE
  5
27
330
5
100
AcDbSymbolTableRecord
100
AcDbLinetypeTableRecord
  2
CENTERX2
 70
     0
  3
________  __  
 72
    65
 73
     4
 40
4.0
 49
2.5
 74
     0
 49
-0.5
 74
     0
 49
0.5
 74
     0
 49
-0.5
 74
     0
  0
LTYPE
  5
28
330
5
100
AcDbSymbolTableRecord
100
AcDbLinetypeTableRecord
  2
DASHDOT
 70
     0
  3
__ . __ . __ . __ . 
 72
    65
 73
     4
 40
1.0
 49
0.5
 74
     0
 49
-0.25
 74
     0
 49
0.0
 74
     0
 49
-0.25
 74
     0
  0
LTYPE
  5
29
330
5
100
AcDbSymbolTableRecord
100
AcDbLinetypeTableRecord
  2
DASHDOT2
 70
     0
  3
_._._._._._._._._.
 72
    65
 73
     4
 40
0.5
 49
0.25
 74
     0
 49
-0.125
 74
     0
 49
0.0
 74
     0
 49
-0.125
 74
     0
  0
LTYPE
  5
2A
330
5
100
AcDbSymbolTableRecord
100
AcDbLinetypeTableRecord
  2
DASHDOTX2
 70
     0
  3
____  .  ____  .  
 72
    65
 73
     4
 40
2.0
 49
1.0
 74
     0
 49
-0.5
 74
     0
 49
0.0
 74
     0
 49
-0.5
 74
     0
  0
LTYPE
  5
2B
330
5
100
AcDbSymbolTableRecord
100
AcDbLinetypeTableRecord
  2
DASHED
 70
     0
  3
__ __ __ __ __ __ __ 
 72
    65
 73
     2
 40
0.75
 49
0.5
 74
     0
 49
-0.25
 74
     0
  0
LTYPE
  5
2C
330
5
100
AcDbSymbolTableRecord
100
AcDbLinetypeTableRecord
  2
DASHED2
 70
     0
  3
_ _ _ _ _ _ _ _ _ _ 
 72
    65
 73
     2
 40
0.375
 49
0.25
 74
     0
 49
-0.125
 74
     0
  0
LTYPE
  5
2D
330
5
100
AcDbSymbolTableRecord
100
AcDbLinetypeTableRecord
  2
DASHEDX2
 70
     0
  3
____  ____  ____  
 72
    65
 73
     2
 40
1.5
 49
1.0
 74
     0
 49
-0.5
 74
     0
  0
LTYPE
  5
2E
330
5
100
AcDbSymbolTableRecord
100
AcDbLinetypeTableRecord
  2
DIVIDE
 70
     0
  3
____ . . ____ . . 
 72
    65
 73
     6
 40
1.25
 49
0.5
 74
     0
 49
-0.25
 74
     0
 49
0.0
 74
     0
 49
-0.25
 74
     0
 49
0.0
 74
     0
 49
-0.25
 74
     0
  0
LTYPE
  5
2F
330
5
100
AcDbSymbolTableRecord
100
AcDbLinetypeTableRecord
  2
DIVIDE2
 70
     0
  3
__..__..__..__..__..
 72
    65
 73
     6
 40
0.625
 49
0.25
 74
     0
 49
-0.125
 74
     0
 49
0.0
 74
     0
 49
-0.125
 74
     0
 49
0.0
 74
     0
 49
-0.125
 74
     0
  0
LTYPE
  5
30
330
5
100
AcDbSymbolTableRecord
100
AcDbLinetypeTableRecord
  2
DIVIDEX2
 70
     0
  3
________  .  .  
 72
    65
 73
     6
 40
2.5
 49
1.0
 74
     0
 49
-0.5
 74
     0
 49
0.0
 74
     0
 49
-0.5
 74
     0
 49
0.0
 74
     0
 49
-0.5
 74
     0
  0
LTYPE
  5
31
330
5
100
AcDbSymbolTableRecord
100
AcDbLinetypeTableRecord
  2
DOT
 70
     0
  3
. . . . . . . . . 
 72
    65
 73
     2
 40
0.25
 49
0.0
 74
     0
 49
-0.25
 74
     0
  0
LTYPE
  5
32
330
5
100
AcDbSymbolTableRecord
100
AcDbLinetypeTableRecord
  2
DOT2
 70
     0
  3
..................
 72
    65
 73
     2
 40
0.125
 49
0.0
 74
     0
 49
-0.125
 74
     0
  0
LTYPE
  5
33
330
5
100
AcDbSymbolTableRecord
100
AcDbLinetypeTableRecord
  2
DOTX2
 70
     0
  3
.  .  .  .  .  .  
 72
    65
 73
     2
 40
0.5
 49
0.0
 74
     0
 49
-0.5
 74
     0
  0
LTYPE
  5
34
330
5
100
AcDbSymbolTableRecord
100
AcDbLinetypeTableRecord
  2
HIDDEN
 70
     0
  3
__ __ __ __ __ __ 
 72
    65
 73
     2
 40
0.375
 49
0.25
 74
     0
 49
-0.125
 74
     0
  0
LTYPE
  5
35
330
5
100
AcDbSymbolTableRecord
100
AcDbLinetypeTableRecord
  2
HIDDEN2
 70
     0
  3
_ _ _ _ _ _ _ _ _ 
 72
    65
 73
     2
 40
0.1875
 49
0.125
 74
     0
 49
-0.0625
 74
     0
  0
LTYPE
  5
36
330
5
100
AcDbSymbolTableRecord
100
AcDbLinetypeTableRecord
  2
HIDDENX2
 70
     0
  3
____ ____ ____ ____ 
 72
    65
 73
     2
 40
0.75
 49
0.5
 74
     0
 49
-0.25
 74
     0
  0
LTYPE
  5
37
330
5
100
AcDbSymbolTableRecord
100
AcDbLinetypeTableRecord
  2
PHANTOM
 70
     0
  3
______  __  __  
 72
    65
 73
     6
 40
2.5
 49
1.25
 74
     0
 49
-0.25
 74
     0
 49
0.25
 74
     0
 49
-0.25
 74
     0
 49
0.25
 74
     0
 49
-0.25
 74
     0
  0
LTYPE
  5
38
330
5
100
AcDbSymbolTableRecord
100
AcDbLinetypeTableRecord
  2
PHANTOM2
 70
     0
  3
___ _ _ ___ _ _ 
 72
    65
 73
     6
 40
1.25
 49
0.625
 74
     0
 49
-0.125
 74
     0
 49
0.125
 74
     0
 49
-0.125
 74
     0
 49
0.125
 74
     0
 49
-0.125
 74
     0
  0
LTYPE
  5
39
330
5
100
AcDbSymbolTableRecord
100
AcDbLinetypeTableRecord
  2
PHANTOMX2
 70
     0
  3
___ _ _ ___ _ _ 
 72
    65
 73
     6
 40
5.0
 49
2.5
 74
     0
 49
-0.5
 74
     0
 49
0.5
 74
     0
 49
-0.5
 74
     0
 49
0.5
 74
     0
 49
-0.5
 74
     0
  0
ENDTAB
  0
TABLE
  2
LAYER
  5
2
330
0
100
AcDbSymbolTable
 70
   256
  0
LAYER
  5
10
330
2
100
AcDbSymbolTableRecord
100
AcDbLayerTableRecord
  2
0
 70
     0
 62
     7
  6
CONTINUOUS
  0
LAYER
  5
3A
330
2
100
AcDbSymbolTableRecord
100
AcDbLayerTableRecord
  2
1
 70
     0
 62
     1
  6
CONTINUOUS
  0
LAYER
  5
3B
330
2
100
AcDbSymbolTableRecord
100
AcDbLayerTableRecord
  2
2
 70
     0
 62
     2
  6
CONTINUOUS
  0
LAYER
  5
3C
330
2
100
AcDbSymbolTableRecord
100
AcDbLayerTableRecord
  2
3
 70
     0
 62
     3
  6
CONTINUOUS
  0
LAYER
  5
3D
330
2
100
AcDbSymbolTableRecord
100
AcDbLayerTableRecord
  2
4
 70
     0
 62
     4
  6
CONTINUOUS
  0
LAYER
  5
3E
330
2
100
AcDbSymbolTableRecord
100
AcDbLayerTableRecord
  2
5
 70
     0
 62
     5
  6
CONTINUOUS
  0
LAYER
  5
3F
330
2
100
AcDbSymbolTableRecord
100
AcDbLayerTableRecord
  2
6
 70
     0
 62
     6
  6
CONTINUOUS
  0
LAYER
  5
40
330
2
100
AcDbSymbolTableRecord
100
AcDbLayerTableRecord
  2
7
 70
     0
 62
     7
  6
CONTINUOUS
  0
LAYER
  5
41
330
2
100
AcDbSymbolTableRecord
100
AcDbLayerTableRecord
  2
8
 70
     0
 62
     8
  6
CONTINUOUS
  0
LAYER
  5
42
330
2
100
AcDbSymbolTableRecord
100
AcDbLayerTableRecord
  2
9
 70
     0
 62
     9
  6
CONTINUOUS
  0
LAYER
  5
43
330
2
100
AcDbSymbolTableRecord
100
AcDbLayerTableRecord
  2
10
 70
     0
 62
    10
  6
CONTINUOUS
  0
LAYER
  5
44
330
2
100
AcDbSymbolTableRecord
100
AcDbLayerTableRecord
  2
11
 70
     0
 62
    11
  6
CONTINUOUS
  0
LAYER
  5
45
330
2
100
AcDbSymbolTableRecord
100
AcDbLayerTableRecord
  2
12
 70
     0
 62
    12
  6
CONTINUOUS
  0
LAYER
  5
46
330
2
100
AcDbSymbolTableRecord
100
AcDbLayerTableRecord
  2
13
 70
     0
 62
    13
  6
CONTINUOUS
  0
LAYER
  5
47
330
2
100
AcDbSymbolTableRecord
100
AcDbLayerTableRecord
  2
14
 70
     0
 62
    14
  6
CONTINUOUS
  0
LAYER
  5
48
330
2
100
AcDbSymbolTableRecord
100
AcDbLayerTableRecord
  2
15
 70
     0
 62
    15
  6
CONTINUOUS
  0
LAYER
  5
49
330
2
100
AcDbSymbolTableRecord
100
AcDbLayerTableRecord
  2
16
 70
     0
 62
    16
  6
CONTINUOUS
  0
LAYER
  5
4A
330
2
100
AcDbSymbolTableRecord
100
AcDbLayerTableRecord
  2
17
 70
     0
 62
    17
  6
CONTINUOUS
  0
LAYER
  5
4B
330
2
100
AcDbSymbolTableRecord
100
AcDbLayerTableRecord
  2
18
 70
     0
 62
    18
  6
CONTINUOUS
  0
LAYER
  5
4C
330
2
100
AcDbSymbolTableRecord
100
AcDbLayerTableRecord
  2
19
 70
     0
 62
    19
  6
CONTINUOUS
  0
LAYER
  5
4D
330
2
100
AcDbSymbolTableRecord
100
AcDbLayerTableRecord
  2
20
 70
     0
 62
    20
  6
CONTINUOUS
  0
LAYER
  5
4E
330
2
100
AcDbSymbolTableRecord
100
AcDbLayerTableRecord
  2
21
 70
     0
 62
    21
  6
CONTINUOUS
  0
LAYER
  5
4F
330
2
100
AcDbSymbolTableRecord
100
AcDbLayerTableRecord
  2
22
 70
     0
 62
    22
  6
CONTINUOUS
  0
LAYER
  5
50
330
2
100
AcDbSymbolTableRecord
100
AcDbLayerTableRecord
  2
23
 70
     0
 62
    23
  6
CONTINUOUS
  0
LAYER
  5
51
330
2
100
AcDbSymbolTableRecord
100
AcDbLayerTableRecord
  2
24
 70
     0
 62
    24
  6
CONTINUOUS
  0
LAYER
  5
52
330
2
100
AcDbSymbolTableRecord
100
AcDbLayerTableRecord
  2
25
 70
     0
 62
    25
  6
CONTINUOUS
  0
LAYER
  5
53
330
2
100
AcDbSymbolTableRecord
100
AcDbLayerTableRecord
  2
26
 70
     0
 62
    26
  6
CONTINUOUS
  0
LAYER
  5
54
330
2
100
AcDbSymbolTableRecord
100
AcDbLayerTableRecord
  2
27
 70
     0
 62
    27
  6
CONTINUOUS
  0
LAYER
  5
55
330
2
100
AcDbSymbolTableRecord
100
AcDbLayerTableRecord
  2
28
 70
     0
 62
    28
  6
CONTINUOUS
  0
LAYER
  5
56
330
2
100
AcDbSymbolTableRecord
100
AcDbLayerTableRecord
  2
29
 70
     0
 62
    29
  6
CONTINUOUS
  0
LAYER
  5
57
330
2
100
AcDbSymbolTableRecord
100
AcDbLayerTableRecord
  2
30
 70
     0
 62
    30
  6
CONTINUOUS
  0
LAYER
  5
58
330
2
100
AcDbSymbolTableRecord
100
AcDbLayerTableRecord
  2
31
 70
     0
 62
    31
  6
CONTINUOUS
  0
LAYER
  5
59
330
2
100
AcDbSymbolTableRecord
100
AcDbLayerTableRecord
  2
32
 70
     0
 62
    32
  6
CONTINUOUS
  0
LAYER
  5
5A
330
2
100
AcDbSymbolTableRecord
100
AcDbLayerTableRecord
  2
33
 70
     0
 62
    33
  6
CONTINUOUS
  0
LAYER
  5
5B
330
2
100
AcDbSymbolTableRecord
100
AcDbLayerTableRecord
  2
34
 70
     0
 62
    34
  6
CONTINUOUS
  0
LAYER
  5
5C
330
2
100
AcDbSymbolTableRecord
100
AcDbLayerTableRecord
  2
35
 70
     0
 62
    35
  6
CONTINUOUS
  0
LAYER
  5
5D
330
2
100
AcDbSymbolTableRecord
100
AcDbLayerTableRecord
  2
36
 70
     0
 62
    36
  6
CONTINUOUS
  0
LAYER
  5
5E
330
2
100
AcDbSymbolTableRecord
100
AcDbLayerTableRecord
  2
37
 70
     0
 62
    37
  6
CONTINUOUS
  0
LAYER
  5
5F
330
2
100
AcDbSymbolTableRecord
100
AcDbLayerTableRecord
  2
38
 70
     0
 62
    38
  6
CONTINUOUS
  0
LAYER
  5
60
330
2
100
AcDbSymbolTableRecord
100
AcDbLayerTableRecord
  2
39
 70
     0
 62
    39
  6
CONTINUOUS
  0
LAYER
  5
61
330
2
100
AcDbSymbolTableRecord
100
AcDbLayerTableRecord
  2
40
 70
     0
 62
    40
  6
CONTINUOUS
  0
LAYER
  5
62
330
2
100
AcDbSymbolTableRecord
100
AcDbLayerTableRecord
  2
41
 70
     0
 62
    41
  6
CONTINUOUS
  0
LAYER
  5
63
330
2
100
AcDbSymbolTableRecord
100
AcDbLayerTableRecord
  2
42
 70
     0
 62
    42
  6
CONTINUOUS
  0
LAYER
  5
64
330
2
100
AcDbSymbolTableRecord
100
AcDbLayerTableRecord
  2
43
 70
     0
 62
    43
  6
CONTINUOUS
  0
LAYER
  5
65
330
2
100
AcDbSymbolTableRecord
100
AcDbLayerTableRecord
  2
44
 70
     0
 62
    44
  6
CONTINUOUS
  0
LAYER
  5
66
330
2
100
AcDbSymbolTableRecord
100
AcDbLayerTableRecord
  2
45
 70
     0
 62
    45
  6
CONTINUOUS
  0
LAYER
  5
67
330
2
100
AcDbSymbolTableRecord
100
AcDbLayerTableRecord
  2
46
 70
     0
 62
    46
  6
CONTINUOUS
  0
LAYER
  5
68
330
2
100
AcDbSymbolTableRecord
100
AcDbLayerTableRecord
  2
47
 70
     0
 62
    47
  6
CONTINUOUS
  0
LAYER
  5
69
330
2
100
AcDbSymbolTableRecord
100
AcDbLayerTableRecord
  2
48
 70
     0
 62
    48
  6
CONTINUOUS
  0
LAYER
  5
6A
330
2
100
AcDbSymbolTableRecord
100
AcDbLayerTableRecord
  2
49
 70
     0
 62
    49
  6
CONTINUOUS
  0
LAYER
  5
6B
330
2
100
AcDbSymbolTableRecord
100
AcDbLayerTableRecord
  2
50
 70
     0
 62
    50
  6
CONTINUOUS
  0
LAYER
  5
6C
330
2
100
AcDbSymbolTableRecord
100
AcDbLayerTableRecord
  2
51
 70
     0
 62
    51
  6
CONTINUOUS
  0
LAYER
  5
6D
330
2
100
AcDbSymbolTableRecord
100
AcDbLayerTableRecord
  2
52
 70
     0
 62
    52
  6
CONTINUOUS
  0
LAYER
  5
6E
330
2
100
AcDbSymbolTableRecord
100
AcDbLayerTableRecord
  2
53
 70
     0
 62
    53
  6
CONTINUOUS
  0
LAYER
  5
6F
330
2
100
AcDbSymbolTableRecord
100
AcDbLayerTableRecord
  2
54
 70
     0
 62
    54
  6
CONTINUOUS
  0
LAYER
  5
70
330
2
100
AcDbSymbolTableRecord
100
AcDbLayerTableRecord
  2
55
 70
     0
 62
    55
  6
CONTINUOUS
  0
LAYER
  5
71
330
2
100
AcDbSymbolTableRecord
100
AcDbLayerTableRecord
  2
56
 70
     0
 62
    56
  6
CONTINUOUS
  0
LAYER
  5
72
330
2
100
AcDbSymbolTableRecord
100
AcDbLayerTableRecord
  2
57
 70
     0
 62
    57
  6
CONTINUOUS
  0
LAYER
  5
73
330
2
100
AcDbSymbolTableRecord
100
AcDbLayerTableRecord
  2
58
 70
     0
 62
    58
  6
CONTINUOUS
  0
LAYER
  5
74
330
2
100
AcDbSymbolTableRecord
100
AcDbLayerTableRecord
  2
59
 70
     0
 62
    59
  6
CONTINUOUS
  0
LAYER
  5
75
330
2
100
AcDbSymbolTableRecord
100
AcDbLayerTableRecord
  2
60
 70
     0
 62
    60
  6
CONTINUOUS
  0
LAYER
  5
76
330
2
100
AcDbSymbolTableRecord
100
AcDbLayerTableRecord
  2
61
 70
     0
 62
    61
  6
CONTINUOUS
  0
LAYER
  5
77
330
2
100
AcDbSymbolTableRecord
100
AcDbLayerTableRecord
  2
62
 70
     0
 62
    62
  6
CONTINUOUS
  0
LAYER
  5
78
330
2
100
AcDbSymbolTableRecord
100
AcDbLayerTableRecord
  2
63
 70
     0
 62
    63
  6
CONTINUOUS
  0
LAYER
  5
79
330
2
100
AcDbSymbolTableRecord
100
AcDbLayerTableRecord
  2
64
 70
     0
 62
    64
  6
CONTINUOUS
  0
LAYER
  5
7A
330
2
100
AcDbSymbolTableRecord
100
AcDbLayerTableRecord
  2
65
 70
     0
 62
    65
  6
CONTINUOUS
  0
LAYER
  5
7B
330
2
100
AcDbSymbolTableRecord
100
AcDbLayerTableRecord
  2
66
 70
     0
 62
    66
  6
CONTINUOUS
  0
LAYER
  5
7C
330
2
100
AcDbSymbolTableRecord
100
AcDbLayerTableRecord
  2
67
 70
     0
 62
    67
  6
CONTINUOUS
  0
LAYER
  5
7D
330
2
100
AcDbSymbolTableRecord
100
AcDbLayerTableRecord
  2
68
 70
     0
 62
    68
  6
CONTINUOUS
  0
LAYER
  5
7E
330
2
100
AcDbSymbolTableRecord
100
AcDbLayerTableRecord
  2
69
 70
     0
 62
    69
  6
CONTINUOUS
  0
LAYER
  5
7F
330
2
100
AcDbSymbolTableRecord
100
AcDbLayerTableRecord
  2
70
 70
     0
 62
    70
  6
CONTINUOUS
  0
LAYER
  5
80
330
2
100
AcDbSymbolTableRecord
100
AcDbLayerTableRecord
  2
71
 70
     0
 62
    71
  6
CONTINUOUS
  0
LAYER
  5
81
330
2
100
AcDbSymbolTableRecord
100
AcDbLayerTableRecord
  2
72
 70
     0
 62
    72
  6
CONTINUOUS
  0
LAYER
  5
82
330
2
100
AcDbSymbolTableRecord
100
AcDbLayerTableRecord
  2
73
 70
     0
 62
    73
  6
CONTINUOUS
  0
LAYER
  5
83
330
2
100
AcDbSymbolTableRecord
100
AcDbLayerTableRecord
  2
74
 70
     0
 62
    74
  6
CONTINUOUS
  0
LAYER
  5
84
330
2
100
AcDbSymbolTableRecord
100
AcDbLayerTableRecord
  2
75
 70
     0
 62
    75
  6
CONTINUOUS
  0
LAYER
  5
85
330
2
100
AcDbSymbolTableRecord
100
AcDbLayerTableRecord
  2
76
 70
     0
 62
    76
  6
CONTINUOUS
  0
LAYER
  5
86
330
2
100
AcDbSymbolTableRecord
100
AcDbLayerTableRecord
  2
77
 70
     0
 62
    77
  6
CONTINUOUS
  0
LAYER
  5
87
330
2
100
AcDbSymbolTableRecord
100
AcDbLayerTableRecord
  2
78
 70
     0
 62
    78
  6
CONTINUOUS
  0
LAYER
  5
88
330
2
100
AcDbSymbolTableRecord
100
AcDbLayerTableRecord
  2
79
 70
     0
 62
    79
  6
CONTINUOUS
  0
LAYER
  5
89
330
2
100
AcDbSymbolTableRecord
100
AcDbLayerTableRecord
  2
80
 70
     0
 62
    80
  6
CONTINUOUS
  0
LAYER
  5
8A
330
2
100
AcDbSymbolTableRecord
100
AcDbLayerTableRecord
  2
81
 70
     0
 62
    81
  6
CONTINUOUS
  0
LAYER
  5
8B
330
2
100
AcDbSymbolTableRecord
100
AcDbLayerTableRecord
  2
82
 70
     0
 62
    82
  6
CONTINUOUS
  0
LAYER
  5
8C
330
2
100
AcDbSymbolTableRecord
100
AcDbLayerTableRecord
  2
83
 70
     0
 62
    83
  6
CONTINUOUS
  0
LAYER
  5
8D
330
2
100
AcDbSymbolTableRecord
100
AcDbLayerTableRecord
  2
84
 70
     0
 62
    84
  6
CONTINUOUS
  0
LAYER
  5
8E
330
2
100
AcDbSymbolTableRecord
100
AcDbLayerTableRecord
  2
85
 70
     0
 62
    85
  6
CONTINUOUS
  0
LAYER
  5
8F
330
2
100
AcDbSymbolTableRecord
100
AcDbLayerTableRecord
  2
86
 70
     0
 62
    86
  6
CONTINUOUS
  0
LAYER
  5
90
330
2
100
AcDbSymbolTableRecord
100
AcDbLayerTableRecord
  2
87
 70
     0
 62
    87
  6
CONTINUOUS
  0
LAYER
  5
91
330
2
100
AcDbSymbolTableRecord
100
AcDbLayerTableRecord
  2
88
 70
     0
 62
    88
  6
CONTINUOUS
  0
LAYER
  5
92
330
2
100
AcDbSymbolTableRecord
100
AcDbLayerTableRecord
  2
89
 70
     0
 62
    89
  6
CONTINUOUS
  0
LAYER
  5
93
330
2
100
AcDbSymbolTableRecord
100
AcDbLayerTableRecord
  2
90
 70
     0
 62
    90
  6
CONTINUOUS
  0
LAYER
  5
94
330
2
100
AcDbSymbolTableRecord
100
AcDbLayerTableRecord
  2
91
 70
     0
 62
    91
  6
CONTINUOUS
  0
LAYER
  5
95
330
2
100
AcDbSymbolTableRecord
100
AcDbLayerTableRecord
  2
92
 70
     0
 62
    92
  6
CONTINUOUS
  0
LAYER
  5
96
330
2
100
AcDbSymbolTableRecord
100
AcDbLayerTableRecord
  2
93
 70
     0
 62
    93
  6
CONTINUOUS
  0
LAYER
  5
97
330
2
100
AcDbSymbolTableRecord
100
AcDbLayerTableRecord
  2
94
 70
     0
 62
    94
  6
CONTINUOUS
  0
LAYER
  5
98
330
2
100
AcDbSymbolTableRecord
100
AcDbLayerTableRecord
  2
95
 70
     0
 62
    95
  6
CONTINUOUS
  0
LAYER
  5
99
330
2
100
AcDbSymbolTableRecord
100
AcDbLayerTableRecord
  2
96
 70
     0
 62
    96
  6
CONTINUOUS
  0
LAYER
  5
9A
330
2
100
AcDbSymbolTableRecord
100
AcDbLayerTableRecord
  2
97
 70
     0
 62
    97
  6
CONTINUOUS
  0
LAYER
  5
9B
330
2
100
AcDbSymbolTableRecord
100
AcDbLayerTableRecord
  2
98
 70
     0
 62
    98
  6
CONTINUOUS
  0
LAYER
  5
9C
330
2
100
AcDbSymbolTableRecord
100
AcDbLayerTableRecord
  2
99
 70
     0
 62
    99
  6
CONTINUOUS
  0
LAYER
  5
9D
330
2
100
AcDbSymbolTableRecord
100
AcDbLayerTableRecord
  2
100
 70
     0
 62
   100
  6
CONTINUOUS
  0
LAYER
  5
9E
330
2
100
AcDbSymbolTableRecord
100
AcDbLayerTableRecord
  2
101
 70
     0
 62
   101
  6
CONTINUOUS
  0
LAYER
  5
9F
330
2
100
AcDbSymbolTableRecord
100
AcDbLayerTableRecord
  2
102
 70
     0
 62
   102
  6
CONTINUOUS
  0
LAYER
  5
A0
330
2
100
AcDbSymbolTableRecord
100
AcDbLayerTableRecord
  2
103
 70
     0
 62
   103
  6
CONTINUOUS
  0
LAYER
  5
A1
330
2
100
AcDbSymbolTableRecord
100
AcDbLayerTableRecord
  2
104
 70
     0
 62
   104
  6
CONTINUOUS
  0
LAYER
  5
A2
330
2
100
AcDbSymbolTableRecord
100
AcDbLayerTableRecord
  2
105
 70
     0
 62
   105
  6
CONTINUOUS
  0
LAYER
  5
A3
330
2
100
AcDbSymbolTableRecord
100
AcDbLayerTableRecord
  2
106
 70
     0
 62
   106
  6
CONTINUOUS
  0
LAYER
  5
A4
330
2
100
AcDbSymbolTableRecord
100
AcDbLayerTableRecord
  2
107
 70
     0
 62
   107
  6
CONTINUOUS
  0
LAYER
  5
A5
330
2
100
AcDbSymbolTableRecord
100
AcDbLayerTableRecord
  2
108
 70
     0
 62
   108
  6
CONTINUOUS
  0
LAYER
  5
A6
330
2
100
AcDbSymbolTableRecord
100
AcDbLayerTableRecord
  2
109
 70
     0
 62
   109
  6
CONTINUOUS
  0
LAYER
  5
A7
330
2
100
AcDbSymbolTableRecord
100
AcDbLayerTableRecord
  2
110
 70
     0
 62
   110
  6
CONTINUOUS
  0
LAYER
  5
A8
330
2
100
AcDbSymbolTableRecord
100
AcDbLayerTableRecord
  2
111
 70
     0
 62
   111
  6
CONTINUOUS
  0
LAYER
  5
A9
330
2
100
AcDbSymbolTableRecord
100
AcDbLayerTableRecord
  2
112
 70
     0
 62
   112
  6
CONTINUOUS
  0
LAYER
  5
AA
330
2
100
AcDbSymbolTableRecord
100
AcDbLayerTableRecord
  2
113
 70
     0
 62
   113
  6
CONTINUOUS
  0
LAYER
  5
AB
330
2
100
AcDbSymbolTableRecord
100
AcDbLayerTableRecord
  2
114
 70
     0
 62
   114
  6
CONTINUOUS
  0
LAYER
  5
AC
330
2
100
AcDbSymbolTableRecord
100
AcDbLayerTableRecord
  2
115
 70
     0
 62
   115
  6
CONTINUOUS
  0
LAYER
  5
AD
330
2
100
AcDbSymbolTableRecord
100
AcDbLayerTableRecord
  2
116
 70
     0
 62
   116
  6
CONTINUOUS
  0
LAYER
  5
AE
330
2
100
AcDbSymbolTableRecord
100
AcDbLayerTableRecord
  2
117
 70
     0
 62
   117
  6
CONTINUOUS
  0
LAYER
  5
AF
330
2
100
AcDbSymbolTableRecord
100
AcDbLayerTableRecord
  2
118
 70
     0
 62
   118
  6
CONTINUOUS
  0
LAYER
  5
B0
330
2
100
AcDbSymbolTableRecord
100
AcDbLayerTableRecord
  2
119
 70
     0
 62
   119
  6
CONTINUOUS
  0
LAYER
  5
B1
330
2
100
AcDbSymbolTableRecord
100
AcDbLayerTableRecord
  2
120
 70
     0
 62
   120
  6
CONTINUOUS
  0
LAYER
  5
B2
330
2
100
AcDbSymbolTableRecord
100
AcDbLayerTableRecord
  2
121
 70
     0
 62
   121
  6
CONTINUOUS
  0
LAYER
  5
B3
330
2
100
AcDbSymbolTableRecord
100
AcDbLayerTableRecord
  2
122
 70
     0
 62
   122
  6
CONTINUOUS
  0
LAYER
  5
B4
330
2
100
AcDbSymbolTableRecord
100
AcDbLayerTableRecord
  2
123
 70
     0
 62
   123
  6
CONTINUOUS
  0
LAYER
  5
B5
330
2
100
AcDbSymbolTableRecord
100
AcDbLayerTableRecord
  2
124
 70
     0
 62
   124
  6
CONTINUOUS
  0
LAYER
  5
B6
330
2
100
AcDbSymbolTableRecord
100
AcDbLayerTableRecord
  2
125
 70
     0
 62
   125
  6
CONTINUOUS
  0
LAYER
  5
B7
330
2
100
AcDbSymbolTableRecord
100
AcDbLayerTableRecord
  2
126
 70
     0
 62
   126
  6
CONTINUOUS
  0
LAYER
  5
B8
330
2
100
AcDbSymbolTableRecord
100
AcDbLayerTableRecord
  2
127
 70
     0
 62
   127
  6
CONTINUOUS
  0
LAYER
  5
B9
330
2
100
AcDbSymbolTableRecord
100
AcDbLayerTableRecord
  2
128
 70
     0
 62
   128
  6
CONTINUOUS
  0
LAYER
  5
BA
330
2
100
AcDbSymbolTableRecord
100
AcDbLayerTableRecord
  2
129
 70
     0
 62
   129
  6
CONTINUOUS
  0
LAYER
  5
BB
330
2
100
AcDbSymbolTableRecord
100
AcDbLayerTableRecord
  2
130
 70
     0
 62
   130
  6
CONTINUOUS
  0
LAYER
  5
BC
330
2
100
AcDbSymbolTableRecord
100
AcDbLayerTableRecord
  2
131
 70
     0
 62
   131
  6
CONTINUOUS
  0
LAYER
  5
BD
330
2
100
AcDbSymbolTableRecord
100
AcDbLayerTableRecord
  2
132
 70
     0
 62
   132
  6
CONTINUOUS
  0
LAYER
  5
BE
330
2
100
AcDbSymbolTableRecord
100
AcDbLayerTableRecord
  2
133
 70
     0
 62
   133
  6
CONTINUOUS
  0
LAYER
  5
BF
330
2
100
AcDbSymbolTableRecord
100
AcDbLayerTableRecord
  2
134
 70
     0
 62
   134
  6
CONTINUOUS
  0
LAYER
  5
C0
330
2
100
AcDbSymbolTableRecord
100
AcDbLayerTableRecord
  2
135
 70
     0
 62
   135
  6
CONTINUOUS
  0
LAYER
  5
C1
330
2
100
AcDbSymbolTableRecord
100
AcDbLayerTableRecord
  2
136
 70
     0
 62
   136
  6
CONTINUOUS
  0
LAYER
  5
C2
330
2
100
AcDbSymbolTableRecord
100
AcDbLayerTableRecord
  2
137
 70
     0
 62
   137
  6
CONTINUOUS
  0
LAYER
  5
C3
330
2
100
AcDbSymbolTableRecord
100
AcDbLayerTableRecord
  2
138
 70
     0
 62
   138
  6
CONTINUOUS
  0
LAYER
  5
C4
330
2
100
AcDbSymbolTableRecord
100
AcDbLayerTableRecord
  2
139
 70
     0
 62
   139
  6
CONTINUOUS
  0
LAYER
  5
C5
330
2
100
AcDbSymbolTableRecord
100
AcDbLayerTableRecord
  2
140
 70
     0
 62
   140
  6
CONTINUOUS
  0
LAYER
  5
C6
330
2
100
AcDbSymbolTableRecord
100
AcDbLayerTableRecord
  2
141
 70
     0
 62
   141
  6
CONTINUOUS
  0
LAYER
  5
C7
330
2
100
AcDbSymbolTableRecord
100
AcDbLayerTableRecord
  2
142
 70
     0
 62
   142
  6
CONTINUOUS
  0
LAYER
  5
C8
330
2
100
AcDbSymbolTableRecord
100
AcDbLayerTableRecord
  2
143
 70
     0
 62
   143
  6
CONTINUOUS
  0
LAYER
  5
C9
330
2
100
AcDbSymbolTableRecord
100
AcDbLayerTableRecord
  2
144
 70
     0
 62
   144
  6
CONTINUOUS
  0
LAYER
  5
CA
330
2
100
AcDbSymbolTableRecord
100
AcDbLayerTableRecord
  2
145
 70
     0
 62
   145
  6
CONTINUOUS
  0
LAYER
  5
CB
330
2
100
AcDbSymbolTableRecord
100
AcDbLayerTableRecord
  2
146
 70
     0
 62
   146
  6
CONTINUOUS
  0
LAYER
  5
CC
330
2
100
AcDbSymbolTableRecord
100
AcDbLayerTableRecord
  2
147
 70
     0
 62
   147
  6
CONTINUOUS
  0
LAYER
  5
CD
330
2
100
AcDbSymbolTableRecord
100
AcDbLayerTableRecord
  2
148
 70
     0
 62
   148
  6
CONTINUOUS
  0
LAYER
  5
CE
330
2
100
AcDbSymbolTableRecord
100
AcDbLayerTableRecord
  2
149
 70
     0
 62
   149
  6
CONTINUOUS
  0
LAYER
  5
CF
330
2
100
AcDbSymbolTableRecord
100
AcDbLayerTableRecord
  2
150
 70
     0
 62
   150
  6
CONTINUOUS
  0
LAYER
  5
D0
330
2
100
AcDbSymbolTableRecord
100
AcDbLayerTableRecord
  2
151
 70
     0
 62
   151
  6
CONTINUOUS
  0
LAYER
  5
D1
330
2
100
AcDbSymbolTableRecord
100
AcDbLayerTableRecord
  2
152
 70
     0
 62
   152
  6
CONTINUOUS
  0
LAYER
  5
D2
330
2
100
AcDbSymbolTableRecord
100
AcDbLayerTableRecord
  2
153
 70
     0
 62
   153
  6
CONTINUOUS
  0
LAYER
  5
D3
330
2
100
AcDbSymbolTableRecord
100
AcDbLayerTableRecord
  2
154
 70
     0
 62
   154
  6
CONTINUOUS
  0
LAYER
  5
D4
330
2
100
AcDbSymbolTableRecord
100
AcDbLayerTableRecord
  2
155
 70
     0
 62
   155
  6
CONTINUOUS
  0
LAYER
  5
D5
330
2
100
AcDbSymbolTableRecord
100
AcDbLayerTableRecord
  2
156
 70
     0
 62
   156
  6
CONTINUOUS
  0
LAYER
  5
D6
330
2
100
AcDbSymbolTableRecord
100
AcDbLayerTableRecord
  2
157
 70
     0
 62
   157
  6
CONTINUOUS
  0
LAYER
  5
D7
330
2
100
AcDbSymbolTableRecord
100
AcDbLayerTableRecord
  2
158
 70
     0
 62
   158
  6
CONTINUOUS
  0
LAYER
  5
D8
330
2
100
AcDbSymbolTableRecord
100
AcDbLayerTableRecord
  2
159
 70
     0
 62
   159
  6
CONTINUOUS
  0
LAYER
  5
D9
330
2
100
AcDbSymbolTableRecord
100
AcDbLayerTableRecord
  2
160
 70
     0
 62
   160
  6
CONTINUOUS
  0
LAYER
  5
DA
330
2
100
AcDbSymbolTableRecord
100
AcDbLayerTableRecord
  2
161
 70
     0
 62
   161
  6
CONTINUOUS
  0
LAYER
  5
DB
330
2
100
AcDbSymbolTableRecord
100
AcDbLayerTableRecord
  2
162
 70
     0
 62
   162
  6
CONTINUOUS
  0
LAYER
  5
DC
330
2
100
AcDbSymbolTableRecord
100
AcDbLayerTableRecord
  2
163
 70
     0
 62
   163
  6
CONTINUOUS
  0
LAYER
  5
DD
330
2
100
AcDbSymbolTableRecord
100
AcDbLayerTableRecord
  2
164
 70
     0
 62
   164
  6
CONTINUOUS
  0
LAYER
  5
DE
330
2
100
AcDbSymbolTableRecord
100
AcDbLayerTableRecord
  2
165
 70
     0
 62
   165
  6
CONTINUOUS
  0
LAYER
  5
DF
330
2
100
AcDbSymbolTableRecord
100
AcDbLayerTableRecord
  2
166
 70
     0
 62
   166
  6
CONTINUOUS
  0
LAYER
  5
E0
330
2
100
AcDbSymbolTableRecord
100
AcDbLayerTableRecord
  2
167
 70
     0
 62
   167
  6
CONTINUOUS
  0
LAYER
  5
E1
330
2
100
AcDbSymbolTableRecord
100
AcDbLayerTableRecord
  2
168
 70
     0
 62
   168
  6
CONTINUOUS
  0
LAYER
  5
E2
330
2
100
AcDbSymbolTableRecord
100
AcDbLayerTableRecord
  2
169
 70
     0
 62
   169
  6
CONTINUOUS
  0
LAYER
  5
E3
330
2
100
AcDbSymbolTableRecord
100
AcDbLayerTableRecord
  2
170
 70
     0
 62
   170
  6
CONTINUOUS
  0
LAYER
  5
E4
330
2
100
AcDbSymbolTableRecord
100
AcDbLayerTableRecord
  2
171
 70
     0
 62
   171
  6
CONTINUOUS
  0
LAYER
  5
E5
330
2
100
AcDbSymbolTableRecord
100
AcDbLayerTableRecord
  2
172
 70
     0
 62
   172
  6
CONTINUOUS
  0
LAYER
  5
E6
330
2
100
AcDbSymbolTableRecord
100
AcDbLayerTableRecord
  2
173
 70
     0
 62
   173
  6
CONTINUOUS
  0
LAYER
  5
E7
330
2
100
AcDbSymbolTableRecord
100
AcDbLayerTableRecord
  2
174
 70
     0
 62
   174
  6
CONTINUOUS
  0
LAYER
  5
E8
330
2
100
AcDbSymbolTableRecord
100
AcDbLayerTableRecord
  2
175
 70
     0
 62
   175
  6
CONTINUOUS
  0
LAYER
  5
E9
330
2
100
AcDbSymbolTableRecord
100
AcDbLayerTableRecord
  2
176
 70
     0
 62
   176
  6
CONTINUOUS
  0
LAYER
  5
EA
330
2
100
AcDbSymbolTableRecord
100
AcDbLayerTableRecord
  2
177
 70
     0
 62
   177
  6
CONTINUOUS
  0
LAYER
  5
EB
330
2
100
AcDbSymbolTableRecord
100
AcDbLayerTableRecord
  2
178
 70
     0
 62
   178
  6
CONTINUOUS
  0
LAYER
  5
EC
330
2
100
AcDbSymbolTableRecord
100
AcDbLayerTableRecord
  2
179
 70
     0
 62
   179
  6
CONTINUOUS
  0
LAYER
  5
ED
330
2
100
AcDbSymbolTableRecord
100
AcDbLayerTableRecord
  2
180
 70
     0
 62
   180
  6
CONTINUOUS
  0
LAYER
  5
EE
330
2
100
AcDbSymbolTableRecord
100
AcDbLayerTableRecord
  2
181
 70
     0
 62
   181
  6
CONTINUOUS
  0
LAYER
  5
EF
330
2
100
AcDbSymbolTableRecord
100
AcDbLayerTableRecord
  2
182
 70
     0
 62
   182
  6
CONTINUOUS
  0
LAYER
  5
F0
330
2
100
AcDbSymbolTableRecord
100
AcDbLayerTableRecord
  2
183
 70
     0
 62
   183
  6
CONTINUOUS
  0
LAYER
  5
F1
330
2
100
AcDbSymbolTableRecord
100
AcDbLayerTableRecord
  2
184
 70
     0
 62
   184
  6
CONTINUOUS
  0
LAYER
  5
F2
330
2
100
AcDbSymbolTableRecord
100
AcDbLayerTableRecord
  2
185
 70
     0
 62
   185
  6
CONTINUOUS
  0
LAYER
  5
F3
330
2
100
AcDbSymbolTableRecord
100
AcDbLayerTableRecord
  2
186
 70
     0
 62
   186
  6
CONTINUOUS
  0
LAYER
  5
F4
330
2
100
AcDbSymbolTableRecord
100
AcDbLayerTableRecord
  2
187
 70
     0
 62
   187
  6
CONTINUOUS
  0
LAYER
  5
F5
330
2
100
AcDbSymbolTableRecord
100
AcDbLayerTableRecord
  2
188
 70
     0
 62
   188
  6
CONTINUOUS
  0
LAYER
  5
F6
330
2
100
AcDbSymbolTableRecord
100
AcDbLayerTableRecord
  2
189
 70
     0
 62
   189
  6
CONTINUOUS
  0
LAYER
  5
F7
330
2
100
AcDbSymbolTableRecord
100
AcDbLayerTableRecord
  2
190
 70
     0
 62
   190
  6
CONTINUOUS
  0
LAYER
  5
F8
330
2
100
AcDbSymbolTableRecord
100
AcDbLayerTableRecord
  2
191
 70
     0
 62
   191
  6
CONTINUOUS
  0
LAYER
  5
F9
330
2
100
AcDbSymbolTableRecord
100
AcDbLayerTableRecord
  2
192
 70
     0
 62
   192
  6
CONTINUOUS
  0
LAYER
  5
FA
330
2
100
AcDbSymbolTableRecord
100
AcDbLayerTableRecord
  2
193
 70
     0
 62
   193
  6
CONTINUOUS
  0
LAYER
  5
FB
330
2
100
AcDbSymbolTableRecord
100
AcDbLayerTableRecord
  2
194
 70
     0
 62
   194
  6
CONTINUOUS
  0
LAYER
  5
FC
330
2
100
AcDbSymbolTableRecord
100
AcDbLayerTableRecord
  2
195
 70
     0
 62
   195
  6
CONTINUOUS
  0
LAYER
  5
FD
330
2
100
AcDbSymbolTableRecord
100
AcDbLayerTableRecord
  2
196
 70
     0
 62
   196
  6
CONTINUOUS
  0
LAYER
  5
FE
330
2
100
AcDbSymbolTableRecord
100
AcDbLayerTableRecord
  2
197
 70
     0
 62
   197
  6
CONTINUOUS
  0
LAYER
  5
FF
330
2
100
AcDbSymbolTableRecord
100
AcDbLayerTableRecord
  2
198
 70
     0
 62
   198
  6
CONTINUOUS
  0
LAYER
  5
100
330
2
100
AcDbSymbolTableRecord
100
AcDbLayerTableRecord
  2
199
 70
     0
 62
   199
  6
CONTINUOUS
  0
LAYER
  5
101
330
2
100
AcDbSymbolTableRecord
100
AcDbLayerTableRecord
  2
200
 70
     0
 62
   200
  6
CONTINUOUS
  0
LAYER
  5
102
330
2
100
AcDbSymbolTableRecord
100
AcDbLayerTableRecord
  2
201
 70
     0
 62
   201
  6
CONTINUOUS
  0
LAYER
  5
103
330
2
100
AcDbSymbolTableRecord
100
AcDbLayerTableRecord
  2
202
 70
     0
 62
   202
  6
CONTINUOUS
  0
LAYER
  5
104
330
2
100
AcDbSymbolTableRecord
100
AcDbLayerTableRecord
  2
203
 70
     0
 62
   203
  6
CONTINUOUS
  0
LAYER
  5
105
330
2
100
AcDbSymbolTableRecord
100
AcDbLayerTableRecord
  2
204
 70
     0
 62
   204
  6
CONTINUOUS
  0
LAYER
  5
106
330
2
100
AcDbSymbolTableRecord
100
AcDbLayerTableRecord
  2
205
 70
     0
 62
   205
  6
CONTINUOUS
  0
LAYER
  5
107
330
2
100
AcDbSymbolTableRecord
100
AcDbLayerTableRecord
  2
206
 70
     0
 62
   206
  6
CONTINUOUS
  0
LAYER
  5
108
330
2
100
AcDbSymbolTableRecord
100
AcDbLayerTableRecord
  2
207
 70
     0
 62
   207
  6
CONTINUOUS
  0
LAYER
  5
109
330
2
100
AcDbSymbolTableRecord
100
AcDbLayerTableRecord
  2
208
 70
     0
 62
   208
  6
CONTINUOUS
  0
LAYER
  5
10A
330
2
100
AcDbSymbolTableRecord
100
AcDbLayerTableRecord
  2
209
 70
     0
 62
   209
  6
CONTINUOUS
  0
LAYER
  5
10B
330
2
100
AcDbSymbolTableRecord
100
AcDbLayerTableRecord
  2
210
 70
     0
 62
   210
  6
CONTINUOUS
  0
LAYER
  5
10C
330
2
100
AcDbSymbolTableRecord
100
AcDbLayerTableRecord
  2
211
 70
     0
 62
   211
  6
CONTINUOUS
  0
LAYER
  5
10D
330
2
100
AcDbSymbolTableRecord
100
AcDbLayerTableRecord
  2
212
 70
     0
 62
   212
  6
CONTINUOUS
  0
LAYER
  5
10E
330
2
100
AcDbSymbolTableRecord
100
AcDbLayerTableRecord
  2
213
 70
     0
 62
   213
  6
CONTINUOUS
  0
LAYER
  5
10F
330
2
100
AcDbSymbolTableRecord
100
AcDbLayerTableRecord
  2
214
 70
     0
 62
   214
  6
CONTINUOUS
  0
LAYER
  5
110
330
2
100
AcDbSymbolTableRecord
100
AcDbLayerTableRecord
  2
215
 70
     0
 62
   215
  6
CONTINUOUS
  0
LAYER
  5
111
330
2
100
AcDbSymbolTableRecord
100
AcDbLayerTableRecord
  2
216
 70
     0
 62
   216
  6
CONTINUOUS
  0
LAYER
  5
112
330
2
100
AcDbSymbolTableRecord
100
AcDbLayerTableRecord
  2
217
 70
     0
 62
   217
  6
CONTINUOUS
  0
LAYER
  5
113
330
2
100
AcDbSymbolTableRecord
100
AcDbLayerTableRecord
  2
218
 70
     0
 62
   218
  6
CONTINUOUS
  0
LAYER
  5
114
330
2
100
AcDbSymbolTableRecord
100
AcDbLayerTableRecord
  2
219
 70
     0
 62
   219
  6
CONTINUOUS
  0
LAYER
  5
115
330
2
100
AcDbSymbolTableRecord
100
AcDbLayerTableRecord
  2
220
 70
     0
 62
   220
  6
CONTINUOUS
  0
LAYER
  5
116
330
2
100
AcDbSymbolTableRecord
100
AcDbLayerTableRecord
  2
221
 70
     0
 62
   221
  6
CONTINUOUS
  0
LAYER
  5
117
330
2
100
AcDbSymbolTableRecord
100
AcDbLayerTableRecord
  2
222
 70
     0
 62
   222
  6
CONTINUOUS
  0
LAYER
  5
118
330
2
100
AcDbSymbolTableRecord
100
AcDbLayerTableRecord
  2
223
 70
     0
 62
   223
  6
CONTINUOUS
  0
LAYER
  5
119
330
2
100
AcDbSymbolTableRecord
100
AcDbLayerTableRecord
  2
224
 70
     0
 62
   224
  6
CONTINUOUS
  0
LAYER
  5
11A
330
2
100
AcDbSymbolTableRecord
100
AcDbLayerTableRecord
  2
225
 70
     0
 62
   225
  6
CONTINUOUS
  0
LAYER
  5
11B
330
2
100
AcDbSymbolTableRecord
100
AcDbLayerTableRecord
  2
226
 70
     0
 62
   226
  6
CONTINUOUS
  0
LAYER
  5
11C
330
2
100
AcDbSymbolTableRecord
100
AcDbLayerTableRecord
  2
227
 70
     0
 62
   227
  6
CONTINUOUS
  0
LAYER
  5
11D
330
2
100
AcDbSymbolTableRecord
100
AcDbLayerTableRecord
  2
228
 70
     0
 62
   228
  6
CONTINUOUS
  0
LAYER
  5
11E
330
2
100
AcDbSymbolTableRecord
100
AcDbLayerTableRecord
  2
229
 70
     0
 62
   229
  6
CONTINUOUS
  0
LAYER
  5
11F
330
2
100
AcDbSymbolTableRecord
100
AcDbLayerTableRecord
  2
230
 70
     0
 62
   230
  6
CONTINUOUS
  0
LAYER
  5
120
330
2
100
AcDbSymbolTableRecord
100
AcDbLayerTableRecord
  2
231
 70
     0
 62
   231
  6
CONTINUOUS
  0
LAYER
  5
121
330
2
100
AcDbSymbolTableRecord
100
AcDbLayerTableRecord
  2
232
 70
     0
 62
   232
  6
CONTINUOUS
  0
LAYER
  5
122
330
2
100
AcDbSymbolTableRecord
100
AcDbLayerTableRecord
  2
233
 70
     0
 62
   233
  6
CONTINUOUS
  0
LAYER
  5
123
330
2
100
AcDbSymbolTableRecord
100
AcDbLayerTableRecord
  2
234
 70
     0
 62
   234
  6
CONTINUOUS
  0
LAYER
  5
124
330
2
100
AcDbSymbolTableRecord
100
AcDbLayerTableRecord
  2
235
 70
     0
 62
   235
  6
CONTINUOUS
  0
LAYER
  5
125
330
2
100
AcDbSymbolTableRecord
100
AcDbLayerTableRecord
  2
236
 70
     0
 62
   236
  6
CONTINUOUS
  0
LAYER
  5
126
330
2
100
AcDbSymbolTableRecord
100
AcDbLayerTableRecord
  2
237
 70
     0
 62
   237
  6
CONTINUOUS
  0
LAYER
  5
127
330
2
100
AcDbSymbolTableRecord
100
AcDbLayerTableRecord
  2
238
 70
     0
 62
   238
  6
CONTINUOUS
  0
LAYER
  5
128
330
2
100
AcDbSymbolTableRecord
100
AcDbLayerTableRecord
  2
239
 70
     0
 62
   239
  6
CONTINUOUS
  0
LAYER
  5
129
330
2
100
AcDbSymbolTableRecord
100
AcDbLayerTableRecord
  2
240
 70
     0
 62
   240
  6
CONTINUOUS
  0
LAYER
  5
12A
330
2
100
AcDbSymbolTableRecord
100
AcDbLayerTableRecord
  2
241
 70
     0
 62
   241
  6
CONTINUOUS
  0
LAYER
  5
12B
330
2
100
AcDbSymbolTableRecord
100
AcDbLayerTableRecord
  2
242
 70
     0
 62
   242
  6
CONTINUOUS
  0
LAYER
  5
12C
330
2
100
AcDbSymbolTableRecord
100
AcDbLayerTableRecord
  2
243
 70
     0
 62
   243
  6
CONTINUOUS
  0
LAYER
  5
12D
330
2
100
AcDbSymbolTableRecord
100
AcDbLayerTableRecord
  2
244
 70
     0
 62
   244
  6
CONTINUOUS
  0
LAYER
  5
12E
330
2
100
AcDbSymbolTableRecord
100
AcDbLayerTableRecord
  2
245
 70
     0
 62
   245
  6
CONTINUOUS
  0
LAYER
  5
12F
330
2
100
AcDbSymbolTableRecord
100
AcDbLayerTableRecord
  2
246
 70
     0
 62
   246
  6
CONTINUOUS
  0
LAYER
  5
130
330
2
100
AcDbSymbolTableRecord
100
AcDbLayerTableRecord
  2
247
 70
     0
 62
   247
  6
CONTINUOUS
  0
LAYER
  5
131
330
2
100
AcDbSymbolTableRecord
100
AcDbLayerTableRecord
  2
248
 70
     0
 62
   248
  6
CONTINUOUS
  0
LAYER
  5
132
330
2
100
AcDbSymbolTableRecord
100
AcDbLayerTableRecord
  2
249
 70
     0
 62
   249
  6
CONTINUOUS
  0
LAYER
  5
133
330
2
100
AcDbSymbolTableRecord
100
AcDbLayerTableRecord
  2
250
 70
     0
 62
   250
  6
CONTINUOUS
  0
LAYER
  5
134
330
2
100
AcDbSymbolTableRecord
100
AcDbLayerTableRecord
  2
251
 70
     0
 62
   251
  6
CONTINUOUS
  0
LAYER
  5
135
330
2
100
AcDbSymbolTableRecord
100
AcDbLayerTableRecord
  2
252
 70
     0
 62
   252
  6
CONTINUOUS
  0
LAYER
  5
136
330
2
100
AcDbSymbolTableRecord
100
AcDbLayerTableRecord
  2
253
 70
     0
 62
   253
  6
CONTINUOUS
  0
LAYER
  5
137
330
2
100
AcDbSymbolTableRecord
100
AcDbLayerTableRecord
  2
254
 70
     0
 62
   254
  6
CONTINUOUS
  0
LAYER
  5
138
330
2
100
AcDbSymbolTableRecord
100
AcDbLayerTableRecord
  2
255
 70
     0
 62
   255
  6
CONTINUOUS
  0
ENDTAB
  0
TABLE
  2
STYLE
  5
3
330
0
100
AcDbSymbolTable
 70
     1
  0
STYLE
  5
11
330
3
100
AcDbSymbolTableRecord
100
AcDbTextStyleTableRecord
  2
STANDARD
 70
     0
 40
0.0
 41
1.0
 50
0.0
 71
     0
 42
0.2
  3
txt
  4

  0
ENDTAB
  0
TABLE
  2
VIEW
  5
6
330
0
100
AcDbSymbolTable
 70
     0
  0
ENDTAB
  0
TABLE
  2
UCS
  5
7
330
0
100
AcDbSymbolTable
 70
     0
  0
ENDTAB
  0
TABLE
  2
APPID
  5
9
330
0
100
AcDbSymbolTable
 70
     1
  0
APPID
  5
12
330
9
100
AcDbSymbolTableRecord
100
AcDbRegAppTableRecord
  2
ACAD
 70
     0
  0
ENDTAB
  0
TABLE
  2
DIMSTYLE
  5
A
330
0
100
AcDbSymbolTable
 70
     1
  0
DIMSTYLE
105
406
330
A
100
AcDbSymbolTableRecord
100
AcDbDimStyleTableRecord
  2
STANDARD
 70
     0
  3

  4

  5

  6

  7

 40
1.0
 41
0.18
 42
0.0625
 43
0.38
 44
0.18
 45
0.0
 46
0.0
 47
0.0
 48
0.0
140
0.18
141
0.09
142
0.0
143
25.4
144
1.0
145
0.0
146
1.0
147
0.09
 71
     0
 72
     0
 73
     1
 74
     1
 75
     0
 76
     0
 77
     0
 78
     0
170
     0
171
     2
172
     0
173
     0
174
     0
175
     0
176
     0
177
     0
178
     0
270
     2
271
     4
272
     4
273
     2
274
     2
340
11
275
     0
280
     0
281
     0
282
     0
283
     1
284
     0
285
     0
286
     0
287
     3
288
     0
  0
ENDTAB
  0
TABLE
  2
BLOCK_RECORD
  5
1
330
0
100
AcDbSymbolTable
 70
     0
  0
BLOCK_RECORD
  5
1E
102
{ACAD_XDICTIONARY
360
40D
102
}
330
1
100
AcDbSymbolTableRecord
100
AcDbBlockTableRecord
  2
*MODEL_SPACE
  0
BLOCK_RECORD
  5
1A
102
{ACAD_XDICTIONARY
360
40B
102
}
330
1
100
AcDbSymbolTableRecord
100
AcDbBlockTableRecord
  2
*PAPER_SPACE
  0
ENDTAB
  0
ENDSEC
  0
SECTION
  2
BLOCKS
  0
BLOCK
  5
13B
330
1E
100
AcDbEntity
  8
0
100
AcDbBlockBegin
  2
*MODEL_SPACE
 70
     0
 10
0.0
 20
0.0
 30
0.0
  3
*MODEL_SPACE
  1

  0
ENDBLK
  5
13C
330
1E
100
AcDbEntity
  8
0
100
AcDbBlockEnd
  0
BLOCK
  5
139
330
1A
100
AcDbEntity
 67
     1
  8
0
100
AcDbBlockBegin
  2
*PAPER_SPACE
 70
     0
 10
0.0
 20
0.0
 30
0.0
  3
*PAPER_SPACE
  1

  0
ENDBLK
  5
13A
330
1A
100
AcDbEntity
 67
     1
  8
0
100
AcDbBlockEnd
  0
ENDSEC
  0
SECTION
  2
ENTITIES
  0
POLYLINE
  5
148
330
1E
100
AcDbEntity
  8
0
100
AcDb2dPolyline
 66
     1
 10
0.0
 20
0.0
 30
0.0
  0
VERTEX
  5
40F
330
148
100
AcDbEntity
  8
0
100
AcDbVertex
100
AcDb2dVertex
 10
2.96751968503937
 20
7.085629921259842
 30
0.0
  0
VERTEX
  5
410
330
148
100
AcDbEntity
  8
0
100
AcDbVertex
100
AcDb2dVertex
 10
2.971456692913385
 20
7.094488188976377
 30
0.0
  0
VERTEX
  5
411
330
148
100
AcDbEntity
  8
0
100
AcDbVertex
100
AcDb2dVertex
 10
2.979330708661417
 20
7.097440944881889
 30
0.0
  0
VERTEX
  5
412
330
148
100
AcDbEntity
  8
0
100
AcDbVertex
100
AcDb2dVertex
 10
2.986220472440944
 20
7.090551181102362
 30
0.0
  0
VERTEX
  5
413
330
148
100
AcDbEntity
  8
0
100
AcDbVertex
100
AcDb2dVertex
 10
2.986220472440944
 20
7.080708661417323
 30
0.0
  0
VERTEX
  5
414
330
148
100
AcDbEntity
  8
0
100
AcDbVertex
100
AcDb2dVertex
 10
2.979330708661417
 20
7.074803149606299
 30
0.0
  0
VERTEX
  5
415
330
148
100
AcDbEntity
  8
0
100
AcDbVertex
100
AcDb2dVertex
 10
2.971456692913385
 20
7.076771653543307
 30
0.0
  0
VERTEX
  5
416
330
148
100
AcDbEntity
  8
0
100
AcDbVertex
100
AcDb2dVertex
 10
2.96751968503937
 20
7.085629921259842
 30
0.0
  0
SEQEND
  5
417
330
148
100
AcDbEntity
  8
0
  0
LINE
  5
152
330
1E
100
AcDbEntity
  8
0
100
AcDbLine
 10
3.014763779527558
 20
7.133858267716535
 30
0.0
 11
3.014763779527558
 21
6.959645669291338
 31
0.0
  0
POLYLINE
  5
153
330
1E
100
AcDbEntity
  8
0
100
AcDb2dPolyline
 66
     1
 10
0.0
 20
0.0
 30
0.0
  0
VERTEX
  5
418
330
153
100
AcDbEntity
  8
0
100
AcDbVertex
100
AcDb2dVertex
 10
3.014763779527558
 20
7.133858267716535
 30
0.0
  0
VERTEX
  5
419
330
153
100
AcDbEntity
  8
0
100
AcDbVertex
100
AcDb2dVertex
 10
3.011811023622047
 20
7.140748031496062
 30
0.0
  0
VERTEX
  5
41A
330
153
100
AcDbEntity
  8
0
100
AcDbVertex
100
AcDb2dVertex
 10
3.005905511811023
 20
7.143700787401574
 30
0.0
  0
SEQEND
  5
41B
330
153
100
AcDbEntity
  8
0
  0
LINE
  5
158
330
1E
100
AcDbEntity
  8
0
100
AcDbLine
 10
2.949803149606299
 20
7.143700787401574
 30
0.0
 11
3.005905511811023
 21
7.143700787401574
 31
0.0
  0
POLYLINE
  5
159
330
1E
100
AcDbEntity
  8
0
100
AcDb2dPolyline
 66
     1
 10
0.0
 20
0.0
 30
0.0
  0
VERTEX
  5
41C
330
159
100
AcDbEntity
  8
0
100
AcDbVertex
100
AcDb2dVertex
 10
2.949803149606299
 20
7.143700787401574
 30
0.0
  0
VERTEX
  5
41D
330
159
100
AcDbEntity
  8
0
100
AcDbVertex
100
AcDb2dVertex
 10
2.942913385826771
 20
7.140748031496062
 30
0.0
  0
VERTEX
  5
41E
330
159
100
AcDbEntity
  8
0
100
AcDbVertex
100
AcDb2dVertex
 10
2.940944881889763
 20
7.133858267716535
 30
0.0
  0
SEQEND
  5
41F
330
159
100
AcDbEntity
  8
0
  0
LINE
  5
15E
330
1E
100
AcDbEntity
  8
0
100
AcDbLine
 10
2.940944881889763
 20
6.959645669291338
 30
0.0
 11
2.940944881889763
 21
7.133858267716535
 31
0.0
  0
LINE
  5
15F
330
1E
100
AcDbEntity
  8
0
100
AcDbLine
 10
2.940944881889763
 20
7.133858267716535
 30
0.0
 11
2.936023622047244
 21
7.133858267716535
 31
0.0
  0
LINE
  5
160
330
1E
100
AcDbEntity
  8
0
100
AcDbLine
 10
2.936023622047244
 20
7.133858267716535
 30
0.0
 11
2.936023622047244
 21
6.959645669291338
 31
0.0
  0
LINE
  5
161
330
1E
100
AcDbEntity
  8
0
100
AcDbLine
 10
2.943897637795275
 20
7.143700787401574
 30
0.0
 11
2.949803149606299
 21
7.143700787401574
 31
0.0
  0
POLYLINE
  5
162
330
1E
100
AcDbEntity
  8
0
100
AcDb2dPolyline
 66
     1
 10
0.0
 20
0.0
 30
0.0
  0
VERTEX
  5
420
330
162
100
AcDbEntity
  8
0
100
AcDbVertex
100
AcDb2dVertex
 10
2.975393700787401
 20
7.097440944881889
 30
0.0
  0
VERTEX
  5
421
330
162
100
AcDbEntity
  8
0
100
AcDbVertex
100
AcDb2dVertex
 10
2.981299212598425
 20
7.090551181102362
 30
0.0
  0
VERTEX
  5
422
330
162
100
AcDbEntity
  8
0
100
AcDbVertex
100
AcDb2dVertex
 10
2.981299212598425
 20
7.080708661417323
 30
0.0
  0
VERTEX
  5
423
330
162
100
AcDbEntity
  8
0
100
AcDbVertex
100
AcDb2dVertex
 10
2.975393700787401
 20
7.074803149606299
 30
0.0
  0
SEQEND
  5
424
330
162
100
AcDbEntity
  8
0
  0
POLYLINE
  5
168
330
1E
100
AcDbEntity
  8
0
100
AcDb2dPolyline
 66
     1
 10
0.0
 20
0.0
 30
0.0
  0
VERTEX
  5
425
330
168
100
AcDbEntity
  8
0
100
AcDbVertex
100
AcDb2dVertex
 10
2.936023622047244
 20
7.133858267716535
 30
0.0
  0
VERTEX
  5
426
330
168
100
AcDbEntity
  8
0
100
AcDbVertex
100
AcDb2dVertex
 10
2.937992125984251
 20
7.140748031496062
 30
0.0
  0
VERTEX
  5
427
330
168
100
AcDbEntity
  8
0
100
AcDbVertex
100
AcDb2dVertex
 10
2.943897637795275
 20
7.143700787401574
 30
0.0
  0
SEQEND
  5
428
330
168
100
AcDbEntity
  8
0
  0
POLYLINE
  5
16D
330
1E
100
AcDbEntity
  8
0
100
AcDb2dPolyline
 66
     1
 10
0.0
 20
0.0
 30
0.0
  0
VERTEX
  5
429
330
16D
100
AcDbEntity
  8
0
100
AcDbVertex
100
AcDb2dVertex
 10
3.014763779527558
 20
6.991141732283464
 30
0.0
  0
VERTEX
  5
42A
330
16D
100
AcDbEntity
  8
0
100
AcDbVertex
100
AcDb2dVertex
 10
3.014763779527558
 20
6.993110236220472
 30
0.0
  0
VERTEX
  5
42B
330
16D
100
AcDbEntity
  8
0
100
AcDbVertex
100
AcDb2dVertex
 10
3.016732283464566
 20
6.99507874015748
 30
0.0
  0
SEQEND
  5
42C
330
16D
100
AcDbEntity
  8
0
  0
POLYLINE
  5
172
330
1E
100
AcDbEntity
  8
0
100
AcDb2dPolyline
 66
     1
 10
0.0
 20
0.0
 30
0.0
  0
VERTEX
  5
42D
330
172
100
AcDbEntity
  8
0
100
AcDbVertex
100
AcDb2dVertex
 10
3.016732283464566
 20
6.969488188976377
 30
0.0
  0
VERTEX
  5
42E
330
172
100
AcDbEntity
  8
0
100
AcDbVertex
100
AcDb2dVertex
 10
3.014763779527558
 20
6.970472440944881
 30
0.0
  0
VERTEX
  5
42F
330
172
100
AcDbEntity
  8
0
100
AcDbVertex
100
AcDb2dVertex
 10
3.014763779527558
 20
6.972440944881889
 30
0.0
  0
SEQEND
  5
430
330
172
100
AcDbEntity
  8
0
  0
POLYLINE
  5
177
330
1E
100
AcDbEntity
  8
0
100
AcDb2dPolyline
 66
     1
 10
0.0
 20
0.0
 30
0.0
  0
VERTEX
  5
431
330
177
100
AcDbEntity
  8
0
100
AcDbVertex
100
AcDb2dVertex
 10
3.034448818897637
 20
7.013779527559054
 30
0.0
  0
VERTEX
  5
432
330
177
100
AcDbEntity
  8
0
100
AcDbVertex
100
AcDb2dVertex
 10
3.038385826771653
 20
7.010826771653543
 30
0.0
  0
VERTEX
  5
433
330
177
100
AcDbEntity
  8
0
100
AcDbVertex
100
AcDb2dVertex
 10
3.039370078740157
 20
7.003937007874015
 30
0.0
  0
SEQEND
  5
434
330
177
100
AcDbEntity
  8
0
  0
LINE
  5
17C
330
1E
100
AcDbEntity
  8
0
100
AcDbLine
 10
3.039370078740157
 20
6.959645669291338
 30
0.0
 11
3.039370078740157
 21
7.003937007874015
 31
0.0
  0
LINE
  5
17D
330
1E
100
AcDbEntity
  8
0
100
AcDbLine
 10
3.039370078740157
 20
7.003937007874015
 30
0.0
 11
3.031496062992125
 21
7.003937007874015
 31
0.0
  0
LINE
  5
17E
330
1E
100
AcDbEntity
  8
0
100
AcDbLine
 10
3.031496062992125
 20
7.003937007874015
 30
0.0
 11
3.031496062992125
 21
6.959645669291338
 31
0.0
  0
LINE
  5
17F
330
1E
100
AcDbEntity
  8
0
100
AcDbLine
 10
3.014763779527558
 20
7.013779527559054
 30
0.0
 11
3.026574803149606
 21
7.013779527559054
 31
0.0
  0
LINE
  5
180
330
1E
100
AcDbEntity
  8
0
100
AcDbLine
 10
3.026574803149606
 20
7.013779527559054
 30
0.0
 11
3.034448818897637
 21
7.013779527559054
 31
0.0
  0
POLYLINE
  5
181
330
1E
100
AcDbEntity
  8
0
100
AcDb2dPolyline
 66
     1
 10
0.0
 20
0.0
 30
0.0
  0
VERTEX
  5
435
330
181
100
AcDbEntity
  8
0
100
AcDbVertex
100
AcDb2dVertex
 10
3.019685039370078
 20
6.982283464566928
 30
0.0
  0
VERTEX
  5
436
330
181
100
AcDbEntity
  8
0
100
AcDbVertex
100
AcDb2dVertex
 10
3.018700787401574
 20
6.991141732283464
 30
0.0
  0
VERTEX
  5
437
330
181
100
AcDbEntity
  8
0
100
AcDbVertex
100
AcDb2dVertex
 10
3.014763779527558
 20
6.996062992125984
 30
0.0
  0
SEQEND
  5
438
330
181
100
AcDbEntity
  8
0
  0
POLYLINE
  5
186
330
1E
100
AcDbEntity
  8
0
100
AcDb2dPolyline
 66
     1
 10
0.0
 20
0.0
 30
0.0
  0
VERTEX
  5
439
330
186
100
AcDbEntity
  8
0
100
AcDbVertex
100
AcDb2dVertex
 10
3.014763779527558
 20
6.96751968503937
 30
0.0
  0
VERTEX
  5
43A
330
186
100
AcDbEntity
  8
0
100
AcDbVertex
100
AcDb2dVertex
 10
3.018700787401574
 20
6.972440944881889
 30
0.0
  0
VERTEX
  5
43B
330
186
100
AcDbEntity
  8
0
100
AcDbVertex
100
AcDb2dVertex
 10
3.019685039370078
 20
6.982283464566928
 30
0.0
  0
SEQEND
  5
43C
330
186
100
AcDbEntity
  8
0
  0
POLYLINE
  5
18B
330
1E
100
AcDbEntity
  8
0
100
AcDb2dPolyline
 66
     1
 10
0.0
 20
0.0
 30
0.0
  0
VERTEX
  5
43D
330
18B
100
AcDbEntity
  8
0
100
AcDbVertex
100
AcDb2dVertex
 10
3.031496062992125
 20
7.003937007874015
 30
0.0
  0
VERTEX
  5
43E
330
18B
100
AcDbEntity
  8
0
100
AcDbVertex
100
AcDb2dVertex
 10
3.030511811023622
 20
7.010826771653543
 30
0.0
  0
VERTEX
  5
43F
330
18B
100
AcDbEntity
  8
0
100
AcDbVertex
100
AcDb2dVertex
 10
3.026574803149606
 20
7.013779527559054
 30
0.0
  0
SEQEND
  5
440
330
18B
100
AcDbEntity
  8
0
  0
POLYLINE
  5
190
330
1E
100
AcDbEntity
  8
0
100
AcDb2dPolyline
 66
     1
 10
0.0
 20
0.0
 30
0.0
  0
VERTEX
  5
441
330
190
100
AcDbEntity
  8
0
100
AcDbVertex
100
AcDb2dVertex
 10
2.824803149606299
 20
6.982283464566928
 30
0.0
  0
VERTEX
  5
442
330
190
100
AcDbEntity
  8
0
100
AcDbVertex
100
AcDb2dVertex
 10
2.822834645669291
 20
6.993110236220472
 30
0.0
  0
VERTEX
  5
443
330
190
100
AcDbEntity
  8
0
100
AcDbVertex
100
AcDb2dVertex
 10
2.816929133858267
 20
7.0
 30
0.0
  0
VERTEX
  5
444
330
190
100
AcDbEntity
  8
0
100
AcDbVertex
100
AcDb2dVertex
 10
2.811023622047244
 20
6.997047244094487
 30
0.0
  0
VERTEX
  5
445
330
190
100
AcDbEntity
  8
0
100
AcDbVertex
100
AcDb2dVertex
 10
2.807086614173228
 20
6.988188976377952
 30
0.0
  0
VERTEX
  5
446
330
190
100
AcDbEntity
  8
0
100
AcDbVertex
100
AcDb2dVertex
 10
2.807086614173228
 20
6.975393700787401
 30
0.0
  0
VERTEX
  5
447
330
190
100
AcDbEntity
  8
0
100
AcDbVertex
100
AcDb2dVertex
 10
2.811023622047244
 20
6.966535433070865
 30
0.0
  0
VERTEX
  5
448
330
190
100
AcDbEntity
  8
0
100
AcDbVertex
100
AcDb2dVertex
 10
2.816929133858267
 20
6.964566929133858
 30
0.0
  0
VERTEX
  5
449
330
190
100
AcDbEntity
  8
0
100
AcDbVertex
100
AcDb2dVertex
 10
2.822834645669291
 20
6.970472440944881
 30
0.0
  0
VERTEX
  5
44A
330
190
100
AcDbEntity
  8
0
100
AcDbVertex
100
AcDb2dVertex
 10
2.824803149606299
 20
6.982283464566928
 30
0.0
  0
SEQEND
  5
44B
330
190
100
AcDbEntity
  8
0
  0
LINE
  5
19C
330
1E
100
AcDbEntity
  8
0
100
AcDbLine
 10
2.834645669291338
 20
7.003937007874015
 30
0.0
 11
2.834645669291338
 21
6.959645669291338
 31
0.0
  0
POLYLINE
  5
19D
330
1E
100
AcDbEntity
  8
0
100
AcDb2dPolyline
 66
     1
 10
0.0
 20
0.0
 30
0.0
  0
VERTEX
  5
44C
330
19D
100
AcDbEntity
  8
0
100
AcDbVertex
100
AcDb2dVertex
 10
2.834645669291338
 20
7.003937007874015
 30
0.0
  0
VERTEX
  5
44D
330
19D
100
AcDbEntity
  8
0
100
AcDbVertex
100
AcDb2dVertex
 10
2.833661417322834
 20
7.010826771653543
 30
0.0
  0
VERTEX
  5
44E
330
19D
100
AcDbEntity
  8
0
100
AcDbVertex
100
AcDb2dVertex
 10
2.829724409448818
 20
7.013779527559054
 30
0.0
  0
SEQEND
  5
44F
330
19D
100
AcDbEntity
  8
0
  0
LINE
  5
1A2
330
1E
100
AcDbEntity
  8
0
100
AcDbLine
 10
2.801181102362204
 20
7.013779527559054
 30
0.0
 11
2.829724409448818
 21
7.013779527559054
 31
0.0
  0
POLYLINE
  5
1A3
330
1E
100
AcDbEntity
  8
0
100
AcDb2dPolyline
 66
     1
 10
0.0
 20
0.0
 30
0.0
  0
VERTEX
  5
450
330
1A3
100
AcDbEntity
  8
0
100
AcDbVertex
100
AcDb2dVertex
 10
2.801181102362204
 20
7.013779527559054
 30
0.0
  0
VERTEX
  5
451
330
1A3
100
AcDbEntity
  8
0
100
AcDbVertex
100
AcDb2dVertex
 10
2.798228346456693
 20
7.010826771653543
 30
0.0
  0
VERTEX
  5
452
330
1A3
100
AcDbEntity
  8
0
100
AcDbVertex
100
AcDb2dVertex
 10
2.796259842519685
 20
7.003937007874015
 30
0.0
  0
SEQEND
  5
453
330
1A3
100
AcDbEntity
  8
0
  0
LINE
  5
1A8
330
1E
100
AcDbEntity
  8
0
100
AcDbLine
 10
2.796259842519685
 20
6.959645669291338
 30
0.0
 11
2.796259842519685
 21
7.003937007874015
 31
0.0
  0
LINE
  5
1A9
330
1E
100
AcDbEntity
  8
0
100
AcDbLine
 10
2.829724409448818
 20
7.013779527559054
 30
0.0
 11
2.83759842519685
 21
7.013779527559054
 31
0.0
  0
POLYLINE
  5
1AA
330
1E
100
AcDbEntity
  8
0
100
AcDb2dPolyline
 66
     1
 10
0.0
 20
0.0
 30
0.0
  0
VERTEX
  5
454
330
1AA
100
AcDbEntity
  8
0
100
AcDbVertex
100
AcDb2dVertex
 10
2.814960629921259
 20
6.982283464566928
 30
0.0
  0
VERTEX
  5
455
330
1AA
100
AcDbEntity
  8
0
100
AcDbVertex
100
AcDb2dVertex
 10
2.815944881889763
 20
6.991141732283464
 30
0.0
  0
VERTEX
  5
456
330
1AA
100
AcDbEntity
  8
0
100
AcDbVertex
100
AcDb2dVertex
 10
2.819881889763779
 20
6.998031496062991
 30
0.0
  0
SEQEND
  5
457
330
1AA
100
AcDbEntity
  8
0
  0
POLYLINE
  5
1AF
330
1E
100
AcDbEntity
  8
0
100
AcDb2dPolyline
 66
     1
 10
0.0
 20
0.0
 30
0.0
  0
VERTEX
  5
458
330
1AF
100
AcDbEntity
  8
0
100
AcDbVertex
100
AcDb2dVertex
 10
2.819881889763779
 20
6.965551181102362
 30
0.0
  0
VERTEX
  5
459
330
1AF
100
AcDbEntity
  8
0
100
AcDbVertex
100
AcDb2dVertex
 10
2.815944881889763
 20
6.972440944881889
 30
0.0
  0
VERTEX
  5
45A
330
1AF
100
AcDbEntity
  8
0
100
AcDbVertex
100
AcDb2dVertex
 10
2.814960629921259
 20
6.982283464566928
 30
0.0
  0
SEQEND
  5
45B
330
1AF
100
AcDbEntity
  8
0
  0
POLYLINE
  5
1B4
330
1E
100
AcDbEntity
  8
0
100
AcDb2dPolyline
 66
     1
 10
0.0
 20
0.0
 30
0.0
  0
VERTEX
  5
45C
330
1B4
100
AcDbEntity
  8
0
100
AcDbVertex
100
AcDb2dVertex
 10
2.83759842519685
 20
7.013779527559054
 30
0.0
  0
VERTEX
  5
45D
330
1B4
100
AcDbEntity
  8
0
100
AcDbVertex
100
AcDb2dVertex
 10
2.841535433070866
 20
7.010826771653543
 30
0.0
  0
VERTEX
  5
45E
330
1B4
100
AcDbEntity
  8
0
100
AcDbVertex
100
AcDb2dVertex
 10
2.84251968503937
 20
7.003937007874015
 30
0.0
  0
SEQEND
  5
45F
330
1B4
100
AcDbEntity
  8
0
  0
LINE
  5
1B9
330
1E
100
AcDbEntity
  8
0
100
AcDbLine
 10
2.84251968503937
 20
6.959645669291338
 30
0.0
 11
2.84251968503937
 21
7.003937007874015
 31
0.0
  0
LINE
  5
1BA
330
1E
100
AcDbEntity
  8
0
100
AcDbLine
 10
2.84251968503937
 20
7.003937007874015
 30
0.0
 11
2.834645669291338
 21
7.003937007874015
 31
0.0
  0
LINE
  5
1BB
330
1E
100
AcDbEntity
  8
0
100
AcDbLine
 10
2.632874015748031
 20
6.174212598425197
 30
0.0
 11
2.629921259842519
 21
6.558070866141732
 31
0.0
  0
LINE
  5
1BC
330
1E
100
AcDbEntity
  8
0
100
AcDbLine
 10
3.202755905511811
 20
6.174212598425197
 30
0.0
 11
3.206692913385826
 21
6.558070866141732
 31
0.0
  0
LINE
  5
1BD
330
1E
100
AcDbEntity
  8
0
100
AcDbLine
 10
2.632874015748031
 20
6.174212598425197
 30
0.0
 11
3.202755905511811
 21
6.174212598425197
 31
0.0
  0
LINE
  5
1BE
330
1E
100
AcDbEntity
  8
0
100
AcDbLine
 10
3.118110236220472
 20
6.639763779527559
 30
0.0
 11
3.239173228346456
 21
6.639763779527559
 31
0.0
  0
LINE
  5
1BF
330
1E
100
AcDbEntity
  8
0
100
AcDbLine
 10
3.118110236220472
 20
6.639763779527559
 30
0.0
 11
3.112204724409448
 21
6.959645669291338
 31
0.0
  0
LINE
  5
1C0
330
1E
100
AcDbEntity
  8
0
100
AcDbLine
 10
3.112204724409448
 20
6.959645669291338
 30
0.0
 11
2.723425196850393
 21
6.959645669291338
 31
0.0
  0
LINE
  5
1C1
330
1E
100
AcDbEntity
  8
0
100
AcDbLine
 10
2.717519685039369
 20
6.639763779527559
 30
0.0
 11
2.723425196850393
 21
6.959645669291338
 31
0.0
  0
LINE
  5
1C2
330
1E
100
AcDbEntity
  8
0
100
AcDbLine
 10
2.596456692913385
 20
6.639763779527559
 30
0.0
 11
2.717519685039369
 21
6.639763779527559
 31
0.0
  0
LINE
  5
1C3
330
1E
100
AcDbEntity
  8
0
100
AcDbLine
 10
2.596456692913385
 20
6.639763779527559
 30
0.0
 11
2.597440944881889
 21
6.558070866141732
 31
0.0
  0
LINE
  5
1C4
330
1E
100
AcDbEntity
  8
0
100
AcDbLine
 10
2.597440944881889
 20
6.558070866141732
 30
0.0
 11
2.629921259842519
 21
6.558070866141732
 31
0.0
  0
LINE
  5
1C5
330
1E
100
AcDbEntity
  8
0
100
AcDbLine
 10
2.670275590551181
 20
6.558070866141732
 30
0.0
 11
2.629921259842519
 21
6.558070866141732
 31
0.0
  0
LINE
  5
1C6
330
1E
100
AcDbEntity
  8
0
100
AcDbLine
 10
2.670275590551181
 20
6.558070866141732
 30
0.0
 11
2.673228346456693
 21
6.494094488188975
 31
0.0
  0
LINE
  5
1C7
330
1E
100
AcDbEntity
  8
0
100
AcDbLine
 10
3.163385826771653
 20
6.494094488188975
 30
0.0
 11
3.165354330708661
 21
6.558070866141732
 31
0.0
  0
LINE
  5
1C8
330
1E
100
AcDbEntity
  8
0
100
AcDbLine
 10
3.206692913385826
 20
6.558070866141732
 30
0.0
 11
3.165354330708661
 21
6.558070866141732
 31
0.0
  0
LINE
  5
1C9
330
1E
100
AcDbEntity
  8
0
100
AcDbLine
 10
3.206692913385826
 20
6.558070866141732
 30
0.0
 11
3.238188976377952
 21
6.558070866141732
 31
0.0
  0
LINE
  5
1CA
330
1E
100
AcDbEntity
  8
0
100
AcDbLine
 10
3.239173228346456
 20
6.639763779527559
 30
0.0
 11
3.238188976377952
 21
6.558070866141732
 31
0.0
  0
LINE
  5
1CB
330
1E
100
AcDbEntity
  8
0
100
AcDbLine
 10
2.677165354330708
 20
6.381889763779527
 30
0.0
 11
3.159448818897637
 21
6.381889763779527
 31
0.0
  0
LINE
  5
1CC
330
1E
100
AcDbEntity
  8
0
100
AcDbLine
 10
3.159448818897637
 20
6.381889763779527
 30
0.0
 11
3.163385826771653
 21
6.494094488188975
 31
0.0
  0
LINE
  5
1CD
330
1E
100
AcDbEntity
  8
0
100
AcDbLine
 10
3.163385826771653
 20
6.494094488188975
 30
0.0
 11
2.673228346456693
 21
6.494094488188975
 31
0.0
  0
LINE
  5
1CE
330
1E
100
AcDbEntity
  8
0
100
AcDbLine
 10
2.677165354330708
 20
6.381889763779527
 30
0.0
 11
2.673228346456693
 21
6.494094488188975
 31
0.0
  0
LINE
  5
1CF
330
1E
100
AcDbEntity
  8
0
100
AcDbLine
 10
2.815944881889763
 20
5.05511811023622
 30
0.0
 11
2.824803149606299
 21
5.083661417322834
 31
0.0
  0
POLYLINE
  5
1D0
330
1E
100
AcDbEntity
  8
0
100
AcDb2dPolyline
 66
     1
 10
0.0
 20
0.0
 30
0.0
  0
VERTEX
  5
460
330
1D0
100
AcDbEntity
  8
0
100
AcDbVertex
100
AcDb2dVertex
 10
2.815944881889763
 20
5.05511811023622
 30
0.0
  0
VERTEX
  5
461
330
1D0
100
AcDbEntity
  8
0
100
AcDbVertex
100
AcDb2dVertex
 10
2.815944881889763
 20
5.054133858267716
 30
0.0
  0
VERTEX
  5
462
330
1D0
100
AcDbEntity
  8
0
100
AcDbVertex
100
AcDb2dVertex
 10
2.815944881889763
 20
5.053149606299212
 30
0.0
  0
SEQEND
  5
463
330
1D0
100
AcDbEntity
  8
0
  0
POLYLINE
  5
1D5
330
1E
100
AcDbEntity
  8
0
100
AcDb2dPolyline
 66
     1
 10
0.0
 20
0.0
 30
0.0
  0
VERTEX
  5
464
330
1D5
100
AcDbEntity
  8
0
100
AcDbVertex
100
AcDb2dVertex
 10
2.89763779527559
 20
4.927165354330708
 30
0.0
  0
VERTEX
  5
465
330
1D5
100
AcDbEntity
  8
0
100
AcDbVertex
100
AcDb2dVertex
 10
2.917322834645669
 20
4.9251968503937
 30
0.0
  0
VERTEX
  5
466
330
1D5
100
AcDbEntity
  8
0
100
AcDbVertex
100
AcDb2dVertex
 10
2.937992125984251
 20
4.927165354330708
 30
0.0
  0
SEQEND
  5
467
330
1D5
100
AcDbEntity
  8
0
  0
POLYLINE
  5
1DA
330
1E
100
AcDbEntity
  8
0
100
AcDb2dPolyline
 66
     1
 10
0.0
 20
0.0
 30
0.0
  0
VERTEX
  5
468
330
1DA
100
AcDbEntity
  8
0
100
AcDbVertex
100
AcDb2dVertex
 10
2.987204724409448
 20
4.950787401574802
 30
0.0
  0
VERTEX
  5
469
330
1DA
100
AcDbEntity
  8
0
100
AcDbVertex
100
AcDb2dVertex
 10
2.989173228346456
 20
4.952755905511811
 30
0.0
  0
VERTEX
  5
46A
330
1DA
100
AcDbEntity
  8
0
100
AcDbVertex
100
AcDb2dVertex
 10
2.99015748031496
 20
4.953740157480314
 30
0.0
  0
SEQEND
  5
46B
330
1DA
100
AcDbEntity
  8
0
  0
POLYLINE
  5
1DF
330
1E
100
AcDbEntity
  8
0
100
AcDb2dPolyline
 66
     1
 10
0.0
 20
0.0
 30
0.0
  0
VERTEX
  5
46C
330
1DF
100
AcDbEntity
  8
0
100
AcDbVertex
100
AcDb2dVertex
 10
2.89763779527559
 20
5.143700787401574
 30
0.0
  0
VERTEX
  5
46D
330
1DF
100
AcDbEntity
  8
0
100
AcDbVertex
100
AcDb2dVertex
 10
2.918307086614173
 20
5.145669291338582
 30
0.0
  0
VERTEX
  5
46E
330
1DF
100
AcDbEntity
  8
0
100
AcDbVertex
100
AcDb2dVertex
 10
2.937992125984251
 20
5.143700787401574
 30
0.0
  0
SEQEND
  5
46F
330
1DF
100
AcDbEntity
  8
0
  0
POLYLINE
  5
1E4
330
1E
100
AcDbEntity
  8
0
100
AcDb2dPolyline
 66
     1
 10
0.0
 20
0.0
 30
0.0
  0
VERTEX
  5
470
330
1E4
100
AcDbEntity
  8
0
100
AcDbVertex
100
AcDb2dVertex
 10
2.918307086614173
 20
5.099409448818897
 30
0.0
  0
VERTEX
  5
471
330
1E4
100
AcDbEntity
  8
0
100
AcDbVertex
100
AcDb2dVertex
 10
2.894685039370078
 20
5.095472440944881
 30
0.0
  0
VERTEX
  5
472
330
1E4
100
AcDbEntity
  8
0
100
AcDbVertex
100
AcDb2dVertex
 10
2.874015748031495
 20
5.08267716535433
 30
0.0
  0
VERTEX
  5
473
330
1E4
100
AcDbEntity
  8
0
100
AcDbVertex
100
AcDb2dVertex
 10
2.858267716535432
 20
5.06496062992126
 30
0.0
  0
VERTEX
  5
474
330
1E4
100
AcDbEntity
  8
0
100
AcDbVertex
100
AcDb2dVertex
 10
2.850393700787401
 20
5.042322834645669
 30
0.0
  0
VERTEX
  5
475
330
1E4
100
AcDbEntity
  8
0
100
AcDbVertex
100
AcDb2dVertex
 10
2.850393700787401
 20
5.018700787401574
 30
0.0
  0
VERTEX
  5
476
330
1E4
100
AcDbEntity
  8
0
100
AcDbVertex
100
AcDb2dVertex
 10
2.858267716535432
 20
4.996062992125984
 30
0.0
  0
VERTEX
  5
477
330
1E4
100
AcDbEntity
  8
0
100
AcDbVertex
100
AcDb2dVertex
 10
2.874015748031495
 20
4.977362204724409
 30
0.0
  0
VERTEX
  5
478
330
1E4
100
AcDbEntity
  8
0
100
AcDbVertex
100
AcDb2dVertex
 10
2.894685039370078
 20
4.965551181102362
 30
0.0
  0
VERTEX
  5
479
330
1E4
100
AcDbEntity
  8
0
100
AcDbVertex
100
AcDb2dVertex
 10
2.918307086614173
 20
4.961614173228346
 30
0.0
  0
VERTEX
  5
47A
330
1E4
100
AcDbEntity
  8
0
100
AcDbVertex
100
AcDb2dVertex
 10
2.941929133858267
 20
4.965551181102362
 30
0.0
  0
VERTEX
  5
47B
330
1E4
100
AcDbEntity
  8
0
100
AcDbVertex
100
AcDb2dVertex
 10
2.96259842519685
 20
4.977362204724409
 30
0.0
  0
VERTEX
  5
47C
330
1E4
100
AcDbEntity
  8
0
100
AcDbVertex
100
AcDb2dVertex
 10
2.977362204724409
 20
4.996062992125984
 30
0.0
  0
VERTEX
  5
47D
330
1E4
100
AcDbEntity
  8
0
100
AcDbVertex
100
AcDb2dVertex
 10
2.986220472440944
 20
5.018700787401574
 30
0.0
  0
VERTEX
  5
47E
330
1E4
100
AcDbEntity
  8
0
100
AcDbVertex
100
AcDb2dVertex
 10
2.986220472440944
 20
5.042322834645669
 30
0.0
  0
VERTEX
  5
47F
330
1E4
100
AcDbEntity
  8
0
100
AcDbVertex
100
AcDb2dVertex
 10
2.977362204724409
 20
5.06496062992126
 30
0.0
  0
VERTEX
  5
480
330
1E4
100
AcDbEntity
  8
0
100
AcDbVertex
100
AcDb2dVertex
 10
2.96259842519685
 20
5.08267716535433
 30
0.0
  0
VERTEX
  5
481
330
1E4
100
AcDbEntity
  8
0
100
AcDbVertex
100
AcDb2dVertex
 10
2.941929133858267
 20
5.095472440944881
 30
0.0
  0
VERTEX
  5
482
330
1E4
100
AcDbEntity
  8
0
100
AcDbVertex
100
AcDb2dVertex
 10
2.918307086614173
 20
5.099409448818897
 30
0.0
  0
SEQEND
  5
483
330
1E4
100
AcDbEntity
  8
0
  0
LINE
  5
1F9
330
1E
100
AcDbEntity
  8
0
100
AcDbLine
 10
2.89763779527559
 20
5.132874015748031
 30
0.0
 11
2.89763779527559
 21
5.183070866141732
 31
0.0
  0
LINE
  5
1FA
330
1E
100
AcDbEntity
  8
0
100
AcDbLine
 10
2.89763779527559
 20
5.183070866141732
 30
0.0
 11
2.89763779527559
 21
5.184055118110236
 31
0.0
  0
LINE
  5
1FB
330
1E
100
AcDbEntity
  8
0
100
AcDbLine
 10
2.89271653543307
 20
5.176181102362204
 30
0.0
 11
2.89763779527559
 21
5.184055118110236
 31
0.0
  0
LINE
  5
1FC
330
1E
100
AcDbEntity
  8
0
100
AcDbLine
 10
2.89271653543307
 20
5.176181102362204
 30
0.0
 11
2.884842519685039
 21
5.181102362204724
 31
0.0
  0
LINE
  5
1FD
330
1E
100
AcDbEntity
  8
0
100
AcDbLine
 10
2.879921259842519
 20
5.173228346456692
 30
0.0
 11
2.884842519685039
 21
5.181102362204724
 31
0.0
  0
LINE
  5
1FE
330
1E
100
AcDbEntity
  8
0
100
AcDbLine
 10
2.879921259842519
 20
5.173228346456692
 30
0.0
 11
2.871062992125984
 21
5.178149606299212
 31
0.0
  0
LINE
  5
1FF
330
1E
100
AcDbEntity
  8
0
100
AcDbLine
 10
2.867125984251968
 20
5.169291338582676
 30
0.0
 11
2.871062992125984
 21
5.178149606299212
 31
0.0
  0
LINE
  5
200
330
1E
100
AcDbEntity
  8
0
100
AcDbLine
 10
2.867125984251968
 20
5.169291338582676
 30
0.0
 11
2.858267716535432
 21
5.173228346456692
 31
0.0
  0
LINE
  5
201
330
1E
100
AcDbEntity
  8
0
100
AcDbLine
 10
2.855314960629921
 20
5.164370078740157
 30
0.0
 11
2.858267716535432
 21
5.173228346456692
 31
0.0
  0
LINE
  5
202
330
1E
100
AcDbEntity
  8
0
100
AcDbLine
 10
2.855314960629921
 20
5.164370078740157
 30
0.0
 11
2.846456692913385
 21
5.167322834645669
 31
0.0
  0
LINE
  5
203
330
1E
100
AcDbEntity
  8
0
100
AcDbLine
 10
2.844488188976377
 20
5.158464566929133
 30
0.0
 11
2.846456692913385
 21
5.167322834645669
 31
0.0
  0
LINE
  5
204
330
1E
100
AcDbEntity
  8
0
100
AcDbLine
 10
2.844488188976377
 20
5.158464566929133
 30
0.0
 11
2.834645669291338
 21
5.160433070866141
 31
0.0
  0
LINE
  5
205
330
1E
100
AcDbEntity
  8
0
100
AcDbLine
 10
2.83267716535433
 20
5.151574803149606
 30
0.0
 11
2.834645669291338
 21
5.160433070866141
 31
0.0
  0
LINE
  5
206
330
1E
100
AcDbEntity
  8
0
100
AcDbLine
 10
2.83267716535433
 20
5.151574803149606
 30
0.0
 11
2.823818897637795
 21
5.153543307086613
 31
0.0
  0
LINE
  5
207
330
1E
100
AcDbEntity
  8
0
100
AcDbLine
 10
2.822834645669291
 20
5.143700787401574
 30
0.0
 11
2.823818897637795
 21
5.153543307086613
 31
0.0
  0
LINE
  5
208
330
1E
100
AcDbEntity
  8
0
100
AcDbLine
 10
2.822834645669291
 20
5.143700787401574
 30
0.0
 11
2.812992125984251
 21
5.144685039370078
 31
0.0
  0
LINE
  5
209
330
1E
100
AcDbEntity
  8
0
100
AcDbLine
 10
2.812992125984251
 20
5.134842519685038
 30
0.0
 11
2.812992125984251
 21
5.144685039370078
 31
0.0
  0
LINE
  5
20A
330
1E
100
AcDbEntity
  8
0
100
AcDbLine
 10
2.812992125984251
 20
5.134842519685038
 30
0.0
 11
2.804133858267716
 21
5.134842519685038
 31
0.0
  0
LINE
  5
20B
330
1E
100
AcDbEntity
  8
0
100
AcDbLine
 10
2.80511811023622
 20
5.125
 30
0.0
 11
2.804133858267716
 21
5.134842519685038
 31
0.0
  0
LINE
  5
20C
330
1E
100
AcDbEntity
  8
0
100
AcDbLine
 10
2.80511811023622
 20
5.125
 30
0.0
 11
2.795275590551181
 21
5.124015748031496
 31
0.0
  0
LINE
  5
20D
330
1E
100
AcDbEntity
  8
0
100
AcDbLine
 10
2.797244094488188
 20
5.11515748031496
 30
0.0
 11
2.795275590551181
 21
5.124015748031496
 31
0.0
  0
LINE
  5
20E
330
1E
100
AcDbEntity
  8
0
100
AcDbLine
 10
2.797244094488188
 20
5.11515748031496
 30
0.0
 11
2.787401574803149
 21
5.113188976377952
 31
0.0
  0
LINE
  5
20F
330
1E
100
AcDbEntity
  8
0
100
AcDbLine
 10
2.790354330708661
 20
5.104330708661417
 30
0.0
 11
2.787401574803149
 21
5.113188976377952
 31
0.0
  0
LINE
  5
210
330
1E
100
AcDbEntity
  8
0
100
AcDbLine
 10
2.790354330708661
 20
5.104330708661417
 30
0.0
 11
2.780511811023622
 21
5.101377952755905
 31
0.0
  0
LINE
  5
211
330
1E
100
AcDbEntity
  8
0
100
AcDbLine
 10
2.783464566929133
 20
5.09251968503937
 30
0.0
 11
2.780511811023622
 21
5.101377952755905
 31
0.0
  0
LINE
  5
212
330
1E
100
AcDbEntity
  8
0
100
AcDbLine
 10
2.783464566929133
 20
5.09251968503937
 30
0.0
 11
2.774606299212598
 21
5.089566929133858
 31
0.0
  0
LINE
  5
213
330
1E
100
AcDbEntity
  8
0
100
AcDbLine
 10
2.778543307086614
 20
5.080708661417323
 30
0.0
 11
2.774606299212598
 21
5.089566929133858
 31
0.0
  0
LINE
  5
214
330
1E
100
AcDbEntity
  8
0
100
AcDbLine
 10
2.778543307086614
 20
5.080708661417323
 30
0.0
 11
2.770669291338582
 21
5.076771653543307
 31
0.0
  0
LINE
  5
215
330
1E
100
AcDbEntity
  8
0
100
AcDbLine
 10
2.774606299212598
 20
5.068897637795275
 30
0.0
 11
2.770669291338582
 21
5.076771653543307
 31
0.0
  0
LINE
  5
216
330
1E
100
AcDbEntity
  8
0
100
AcDbLine
 10
2.774606299212598
 20
5.068897637795275
 30
0.0
 11
2.766732283464566
 21
5.063976377952755
 31
0.0
  0
LINE
  5
217
330
1E
100
AcDbEntity
  8
0
100
AcDbLine
 10
2.77263779527559
 20
5.056102362204724
 30
0.0
 11
2.766732283464566
 21
5.063976377952755
 31
0.0
  0
LINE
  5
218
330
1E
100
AcDbEntity
  8
0
100
AcDbLine
 10
2.77263779527559
 20
5.056102362204724
 30
0.0
 11
2.764763779527558
 21
5.0501968503937
 31
0.0
  0
LINE
  5
219
330
1E
100
AcDbEntity
  8
0
100
AcDbLine
 10
2.770669291338582
 20
5.043307086614173
 30
0.0
 11
2.764763779527558
 21
5.0501968503937
 31
0.0
  0
LINE
  5
21A
330
1E
100
AcDbEntity
  8
0
100
AcDbLine
 10
2.770669291338582
 20
5.043307086614173
 30
0.0
 11
2.763779527559055
 21
5.037401574803149
 31
0.0
  0
LINE
  5
21B
330
1E
100
AcDbEntity
  8
0
100
AcDbLine
 10
2.769685039370078
 20
5.030511811023622
 30
0.0
 11
2.763779527559055
 21
5.037401574803149
 31
0.0
  0
LINE
  5
21C
330
1E
100
AcDbEntity
  8
0
100
AcDbLine
 10
2.769685039370078
 20
5.030511811023622
 30
0.0
 11
2.763779527559055
 21
5.023622047244094
 31
0.0
  0
LINE
  5
21D
330
1E
100
AcDbEntity
  8
0
100
AcDbLine
 10
2.770669291338582
 20
5.01771653543307
 30
0.0
 11
2.763779527559055
 21
5.023622047244094
 31
0.0
  0
LINE
  5
21E
330
1E
100
AcDbEntity
  8
0
100
AcDbLine
 10
2.770669291338582
 20
5.01771653543307
 30
0.0
 11
2.764763779527558
 21
5.009842519685038
 31
0.0
  0
LINE
  5
21F
330
1E
100
AcDbEntity
  8
0
100
AcDbLine
 10
2.77263779527559
 20
5.004921259842519
 30
0.0
 11
2.764763779527558
 21
5.009842519685038
 31
0.0
  0
LINE
  5
220
330
1E
100
AcDbEntity
  8
0
100
AcDbLine
 10
2.77263779527559
 20
5.004921259842519
 30
0.0
 11
2.766732283464566
 21
4.997047244094487
 31
0.0
  0
LINE
  5
221
330
1E
100
AcDbEntity
  8
0
100
AcDbLine
 10
2.774606299212598
 20
4.992125984251968
 30
0.0
 11
2.766732283464566
 21
4.997047244094487
 31
0.0
  0
LINE
  5
222
330
1E
100
AcDbEntity
  8
0
100
AcDbLine
 10
2.774606299212598
 20
4.992125984251968
 30
0.0
 11
2.770669291338582
 21
4.983267716535433
 31
0.0
  0
LINE
  5
223
330
1E
100
AcDbEntity
  8
0
100
AcDbLine
 10
2.778543307086614
 20
4.979330708661417
 30
0.0
 11
2.770669291338582
 21
4.983267716535433
 31
0.0
  0
LINE
  5
224
330
1E
100
AcDbEntity
  8
0
100
AcDbLine
 10
2.778543307086614
 20
4.979330708661417
 30
0.0
 11
2.774606299212598
 21
4.971456692913386
 31
0.0
  0
LINE
  5
225
330
1E
100
AcDbEntity
  8
0
100
AcDbLine
 10
2.783464566929133
 20
4.96751968503937
 30
0.0
 11
2.774606299212598
 21
4.971456692913386
 31
0.0
  0
LINE
  5
226
330
1E
100
AcDbEntity
  8
0
100
AcDbLine
 10
2.783464566929133
 20
4.96751968503937
 30
0.0
 11
2.780511811023622
 21
4.958661417322834
 31
0.0
  0
LINE
  5
227
330
1E
100
AcDbEntity
  8
0
100
AcDbLine
 10
2.790354330708661
 20
4.956692913385826
 30
0.0
 11
2.780511811023622
 21
4.958661417322834
 31
0.0
  0
LINE
  5
228
330
1E
100
AcDbEntity
  8
0
100
AcDbLine
 10
2.790354330708661
 20
4.956692913385826
 30
0.0
 11
2.787401574803149
 21
4.946850393700787
 31
0.0
  0
LINE
  5
229
330
1E
100
AcDbEntity
  8
0
100
AcDbLine
 10
2.797244094488188
 20
4.945866141732283
 30
0.0
 11
2.787401574803149
 21
4.946850393700787
 31
0.0
  0
LINE
  5
22A
330
1E
100
AcDbEntity
  8
0
100
AcDbLine
 10
2.797244094488188
 20
4.945866141732283
 30
0.0
 11
2.795275590551181
 21
4.936023622047244
 31
0.0
  0
LINE
  5
22B
330
1E
100
AcDbEntity
  8
0
100
AcDbLine
 10
2.80511811023622
 20
4.935039370078739
 30
0.0
 11
2.795275590551181
 21
4.936023622047244
 31
0.0
  0
LINE
  5
22C
330
1E
100
AcDbEntity
  8
0
100
AcDbLine
 10
2.80511811023622
 20
4.935039370078739
 30
0.0
 11
2.804133858267716
 21
4.9251968503937
 31
0.0
  0
LINE
  5
22D
330
1E
100
AcDbEntity
  8
0
100
AcDbLine
 10
2.812992125984251
 20
4.9251968503937
 30
0.0
 11
2.804133858267716
 21
4.9251968503937
 31
0.0
  0
LINE
  5
22E
330
1E
100
AcDbEntity
  8
0
100
AcDbLine
 10
2.812992125984251
 20
4.9251968503937
 30
0.0
 11
2.812992125984251
 21
4.916338582677165
 31
0.0
  0
LINE
  5
22F
330
1E
100
AcDbEntity
  8
0
100
AcDbLine
 10
2.822834645669291
 20
4.917322834645669
 30
0.0
 11
2.812992125984251
 21
4.916338582677165
 31
0.0
  0
LINE
  5
230
330
1E
100
AcDbEntity
  8
0
100
AcDbLine
 10
2.822834645669291
 20
4.917322834645669
 30
0.0
 11
2.823818897637795
 21
4.907480314960629
 31
0.0
  0
LINE
  5
231
330
1E
100
AcDbEntity
  8
0
100
AcDbLine
 10
2.83267716535433
 20
4.909448818897637
 30
0.0
 11
2.823818897637795
 21
4.907480314960629
 31
0.0
  0
LINE
  5
232
330
1E
100
AcDbEntity
  8
0
100
AcDbLine
 10
2.83267716535433
 20
4.909448818897637
 30
0.0
 11
2.834645669291338
 21
4.899606299212598
 31
0.0
  0
LINE
  5
233
330
1E
100
AcDbEntity
  8
0
100
AcDbLine
 10
2.844488188976377
 20
4.90255905511811
 30
0.0
 11
2.834645669291338
 21
4.899606299212598
 31
0.0
  0
LINE
  5
234
330
1E
100
AcDbEntity
  8
0
100
AcDbLine
 10
2.844488188976377
 20
4.90255905511811
 30
0.0
 11
2.846456692913385
 21
4.89271653543307
 31
0.0
  0
LINE
  5
235
330
1E
100
AcDbEntity
  8
0
100
AcDbLine
 10
2.855314960629921
 20
4.895669291338582
 30
0.0
 11
2.846456692913385
 21
4.89271653543307
 31
0.0
  0
LINE
  5
236
330
1E
100
AcDbEntity
  8
0
100
AcDbLine
 10
2.855314960629921
 20
4.895669291338582
 30
0.0
 11
2.858267716535432
 21
4.886811023622047
 31
0.0
  0
LINE
  5
237
330
1E
100
AcDbEntity
  8
0
100
AcDbLine
 10
2.867125984251968
 20
4.890748031496062
 30
0.0
 11
2.858267716535432
 21
4.886811023622047
 31
0.0
  0
LINE
  5
238
330
1E
100
AcDbEntity
  8
0
100
AcDbLine
 10
2.867125984251968
 20
4.890748031496062
 30
0.0
 11
2.871062992125984
 21
4.882874015748031
 31
0.0
  0
LINE
  5
239
330
1E
100
AcDbEntity
  8
0
100
AcDbLine
 10
2.879921259842519
 20
4.88779527559055
 30
0.0
 11
2.871062992125984
 21
4.882874015748031
 31
0.0
  0
LINE
  5
23A
330
1E
100
AcDbEntity
  8
0
100
AcDbLine
 10
2.879921259842519
 20
4.88779527559055
 30
0.0
 11
2.884842519685039
 21
4.878937007874015
 31
0.0
  0
LINE
  5
23B
330
1E
100
AcDbEntity
  8
0
100
AcDbLine
 10
2.89271653543307
 20
4.884842519685038
 30
0.0
 11
2.884842519685039
 21
4.878937007874015
 31
0.0
  0
LINE
  5
23C
330
1E
100
AcDbEntity
  8
0
100
AcDbLine
 10
2.89271653543307
 20
4.884842519685038
 30
0.0
 11
2.89763779527559
 21
4.876968503937007
 31
0.0
  0
LINE
  5
23D
330
1E
100
AcDbEntity
  8
0
100
AcDbLine
 10
2.89763779527559
 20
4.876968503937007
 30
0.0
 11
2.89763779527559
 21
4.876968503937007
 31
0.0
  0
LINE
  5
23E
330
1E
100
AcDbEntity
  8
0
100
AcDbLine
 10
2.89763779527559
 20
4.876968503937007
 30
0.0
 11
2.89763779527559
 21
4.917322834645669
 31
0.0
  0
POLYLINE
  5
23F
330
1E
100
AcDbEntity
  8
0
100
AcDb2dPolyline
 66
     1
 10
0.0
 20
0.0
 30
0.0
  0
VERTEX
  5
484
330
23F
100
AcDbEntity
  8
0
100
AcDbVertex
100
AcDb2dVertex
 10
2.831692913385826
 20
4.954724409448818
 30
0.0
  0
VERTEX
  5
485
330
23F
100
AcDbEntity
  8
0
100
AcDbVertex
100
AcDb2dVertex
 10
2.861220472440944
 20
4.93011811023622
 30
0.0
  0
VERTEX
  5
486
330
23F
100
AcDbEntity
  8
0
100
AcDbVertex
100
AcDb2dVertex
 10
2.89763779527559
 20
4.917322834645669
 30
0.0
  0
SEQEND
  5
487
330
23F
100
AcDbEntity
  8
0
  0
POLYLINE
  5
244
330
1E
100
AcDbEntity
  8
0
100
AcDb2dPolyline
 66
     1
 10
0.0
 20
0.0
 30
0.0
  0
VERTEX
  5
488
330
244
100
AcDbEntity
  8
0
100
AcDbVertex
100
AcDb2dVertex
 10
2.87007874015748
 20
5.124015748031496
 30
0.0
  0
VERTEX
  5
489
330
244
100
AcDbEntity
  8
0
100
AcDbVertex
100
AcDb2dVertex
 10
2.856299212598425
 20
5.116141732283464
 30
0.0
  0
VERTEX
  5
48A
330
244
100
AcDbEntity
  8
0
100
AcDbVertex
100
AcDb2dVertex
 10
2.830708661417322
 20
5.093503937007874
 30
0.0
  0
VERTEX
  5
48B
330
244
100
AcDbEntity
  8
0
100
AcDbVertex
100
AcDb2dVertex
 10
2.813976377952755
 20
5.062992125984251
 30
0.0
  0
VERTEX
  5
48C
330
244
100
AcDbEntity
  8
0
100
AcDbVertex
100
AcDb2dVertex
 10
2.807086614173228
 20
5.026574803149606
 30
0.0
  0
VERTEX
  5
48D
330
244
100
AcDbEntity
  8
0
100
AcDbVertex
100
AcDb2dVertex
 10
2.812007874015748
 20
4.99015748031496
 30
0.0
  0
VERTEX
  5
48E
330
244
100
AcDbEntity
  8
0
100
AcDbVertex
100
AcDb2dVertex
 10
2.829724409448818
 20
4.956692913385826
 30
0.0
  0
VERTEX
  5
48F
330
244
100
AcDbEntity
  8
0
100
AcDbVertex
100
AcDb2dVertex
 10
2.831692913385826
 20
4.954724409448818
 30
0.0
  0
SEQEND
  5
490
330
244
100
AcDbEntity
  8
0
  0
POLYLINE
  5
24E
330
1E
100
AcDbEntity
  8
0
100
AcDb2dPolyline
 66
     1
 10
0.0
 20
0.0
 30
0.0
  0
VERTEX
  5
491
330
24E
100
AcDbEntity
  8
0
100
AcDbVertex
100
AcDb2dVertex
 10
2.87007874015748
 20
5.124015748031496
 30
0.0
  0
VERTEX
  5
492
330
24E
100
AcDbEntity
  8
0
100
AcDbVertex
100
AcDb2dVertex
 10
2.883858267716535
 20
5.129921259842519
 30
0.0
  0
VERTEX
  5
493
330
24E
100
AcDbEntity
  8
0
100
AcDbVertex
100
AcDb2dVertex
 10
2.89763779527559
 20
5.132874015748031
 30
0.0
  0
SEQEND
  5
494
330
24E
100
AcDbEntity
  8
0
  0
POLYLINE
  5
253
330
1E
100
AcDbEntity
  8
0
100
AcDb2dPolyline
 66
     1
 10
0.0
 20
0.0
 30
0.0
  0
VERTEX
  5
495
330
253
100
AcDbEntity
  8
0
100
AcDbVertex
100
AcDb2dVertex
 10
2.87007874015748
 20
5.124015748031496
 30
0.0
  0
VERTEX
  5
496
330
253
100
AcDbEntity
  8
0
100
AcDbVertex
100
AcDb2dVertex
 10
2.84251968503937
 20
5.103346456692912
 30
0.0
  0
VERTEX
  5
497
330
253
100
AcDbEntity
  8
0
100
AcDbVertex
100
AcDb2dVertex
 10
2.822834645669291
 20
5.074803149606299
 30
0.0
  0
VERTEX
  5
498
330
253
100
AcDbEntity
  8
0
100
AcDbVertex
100
AcDb2dVertex
 10
2.812992125984251
 20
5.040354330708661
 30
0.0
  0
VERTEX
  5
499
330
253
100
AcDbEntity
  8
0
100
AcDbVertex
100
AcDb2dVertex
 10
2.815944881889763
 20
5.004921259842519
 30
0.0
  0
VERTEX
  5
49A
330
253
100
AcDbEntity
  8
0
100
AcDbVertex
100
AcDb2dVertex
 10
2.829724409448818
 20
4.972440944881889
 30
0.0
  0
VERTEX
  5
49B
330
253
100
AcDbEntity
  8
0
100
AcDbVertex
100
AcDb2dVertex
 10
2.854330708661417
 20
4.946850393700787
 30
0.0
  0
VERTEX
  5
49C
330
253
100
AcDbEntity
  8
0
100
AcDbVertex
100
AcDb2dVertex
 10
2.884842519685039
 20
4.93011811023622
 30
0.0
  0
VERTEX
  5
49D
330
253
100
AcDbEntity
  8
0
100
AcDbVertex
100
AcDb2dVertex
 10
2.89763779527559
 20
4.927165354330708
 30
0.0
  0
SEQEND
  5
49E
330
253
100
AcDbEntity
  8
0
  0
POLYLINE
  5
25E
330
1E
100
AcDbEntity
  8
0
100
AcDb2dPolyline
 66
     1
 10
0.0
 20
0.0
 30
0.0
  0
VERTEX
  5
49F
330
25E
100
AcDbEntity
  8
0
100
AcDbVertex
100
AcDb2dVertex
 10
2.937992125984251
 20
4.927165354330708
 30
0.0
  0
VERTEX
  5
4A0
330
25E
100
AcDbEntity
  8
0
100
AcDbVertex
100
AcDb2dVertex
 10
2.954724409448818
 20
4.932086614173228
 30
0.0
  0
VERTEX
  5
4A1
330
25E
100
AcDbEntity
  8
0
100
AcDbVertex
100
AcDb2dVertex
 10
2.98523622047244
 20
4.949803149606299
 30
0.0
  0
VERTEX
  5
4A2
330
25E
100
AcDbEntity
  8
0
100
AcDbVertex
100
AcDb2dVertex
 10
3.007874015748031
 20
4.976377952755905
 30
0.0
  0
VERTEX
  5
4A3
330
25E
100
AcDbEntity
  8
0
100
AcDbVertex
100
AcDb2dVertex
 10
3.020669291338582
 20
5.009842519685038
 30
0.0
  0
VERTEX
  5
4A4
330
25E
100
AcDbEntity
  8
0
100
AcDbVertex
100
AcDb2dVertex
 10
3.021653543307086
 20
5.044291338582676
 30
0.0
  0
VERTEX
  5
4A5
330
25E
100
AcDbEntity
  8
0
100
AcDbVertex
100
AcDb2dVertex
 10
3.011811023622047
 20
5.078740157480314
 30
0.0
  0
VERTEX
  5
4A6
330
25E
100
AcDbEntity
  8
0
100
AcDbVertex
100
AcDb2dVertex
 10
2.99015748031496
 20
5.106299212598425
 30
0.0
  0
VERTEX
  5
4A7
330
25E
100
AcDbEntity
  8
0
100
AcDbVertex
100
AcDb2dVertex
 10
2.966535433070866
 20
5.124015748031496
 30
0.0
  0
SEQEND
  5
4A8
330
25E
100
AcDbEntity
  8
0
  0
POLYLINE
  5
269
330
1E
100
AcDbEntity
  8
0
100
AcDb2dPolyline
 66
     1
 10
0.0
 20
0.0
 30
0.0
  0
VERTEX
  5
4A9
330
269
100
AcDbEntity
  8
0
100
AcDbVertex
100
AcDb2dVertex
 10
2.937992125984251
 20
5.132874015748031
 30
0.0
  0
VERTEX
  5
4AA
330
269
100
AcDbEntity
  8
0
100
AcDbVertex
100
AcDb2dVertex
 10
2.952755905511811
 20
5.129921259842519
 30
0.0
  0
VERTEX
  5
4AB
330
269
100
AcDbEntity
  8
0
100
AcDbVertex
100
AcDb2dVertex
 10
2.966535433070866
 20
5.124015748031496
 30
0.0
  0
SEQEND
  5
4AC
330
269
100
AcDbEntity
  8
0
  0
POLYLINE
  5
26E
330
1E
100
AcDbEntity
  8
0
100
AcDb2dPolyline
 66
     1
 10
0.0
 20
0.0
 30
0.0
  0
VERTEX
  5
4AD
330
26E
100
AcDbEntity
  8
0
100
AcDbVertex
100
AcDb2dVertex
 10
2.89763779527559
 20
4.917322834645669
 30
0.0
  0
VERTEX
  5
4AE
330
26E
100
AcDbEntity
  8
0
100
AcDbVertex
100
AcDb2dVertex
 10
2.89763779527559
 20
4.920275590551181
 30
0.0
  0
VERTEX
  5
4AF
330
26E
100
AcDbEntity
  8
0
100
AcDbVertex
100
AcDb2dVertex
 10
2.89763779527559
 20
4.927165354330708
 30
0.0
  0
SEQEND
  5
4B0
330
26E
100
AcDbEntity
  8
0
  0
POLYLINE
  5
273
330
1E
100
AcDbEntity
  8
0
100
AcDb2dPolyline
 66
     1
 10
0.0
 20
0.0
 30
0.0
  0
VERTEX
  5
4B1
330
273
100
AcDbEntity
  8
0
100
AcDbVertex
100
AcDb2dVertex
 10
2.937992125984251
 20
4.917322834645669
 30
0.0
  0
VERTEX
  5
4B2
330
273
100
AcDbEntity
  8
0
100
AcDbVertex
100
AcDb2dVertex
 10
2.974409448818897
 20
4.93011811023622
 30
0.0
  0
VERTEX
  5
4B3
330
273
100
AcDbEntity
  8
0
100
AcDbVertex
100
AcDb2dVertex
 10
3.004921259842519
 20
4.954724409448818
 30
0.0
  0
SEQEND
  5
4B4
330
273
100
AcDbEntity
  8
0
  0
LINE
  5
278
330
1E
100
AcDbEntity
  8
0
100
AcDbLine
 10
2.937992125984251
 20
4.876968503937007
 30
0.0
 11
2.937992125984251
 21
4.917322834645669
 31
0.0
  0
LINE
  5
279
330
1E
100
AcDbEntity
  8
0
100
AcDbLine
 10
2.937992125984251
 20
4.876968503937007
 30
0.0
 11
2.937992125984251
 21
4.876968503937007
 31
0.0
  0
LINE
  5
27A
330
1E
100
AcDbEntity
  8
0
100
AcDbLine
 10
2.943897637795275
 20
4.884842519685038
 30
0.0
 11
2.937992125984251
 21
4.876968503937007
 31
0.0
  0
LINE
  5
27B
330
1E
100
AcDbEntity
  8
0
100
AcDbLine
 10
2.943897637795275
 20
4.884842519685038
 30
0.0
 11
2.951771653543307
 21
4.878937007874015
 31
0.0
  0
LINE
  5
27C
330
1E
100
AcDbEntity
  8
0
100
AcDbLine
 10
2.956692913385826
 20
4.88779527559055
 30
0.0
 11
2.951771653543307
 21
4.878937007874015
 31
0.0
  0
LINE
  5
27D
330
1E
100
AcDbEntity
  8
0
100
AcDbLine
 10
2.956692913385826
 20
4.88779527559055
 30
0.0
 11
2.964566929133858
 21
4.882874015748031
 31
0.0
  0
LINE
  5
27E
330
1E
100
AcDbEntity
  8
0
100
AcDbLine
 10
2.968503937007874
 20
4.890748031496062
 30
0.0
 11
2.964566929133858
 21
4.882874015748031
 31
0.0
  0
LINE
  5
27F
330
1E
100
AcDbEntity
  8
0
100
AcDbLine
 10
2.968503937007874
 20
4.890748031496062
 30
0.0
 11
2.977362204724409
 21
4.886811023622047
 31
0.0
  0
LINE
  5
280
330
1E
100
AcDbEntity
  8
0
100
AcDbLine
 10
2.980314960629921
 20
4.895669291338582
 30
0.0
 11
2.977362204724409
 21
4.886811023622047
 31
0.0
  0
LINE
  5
281
330
1E
100
AcDbEntity
  8
0
100
AcDbLine
 10
2.980314960629921
 20
4.895669291338582
 30
0.0
 11
2.989173228346456
 21
4.89271653543307
 31
0.0
  0
LINE
  5
282
330
1E
100
AcDbEntity
  8
0
100
AcDbLine
 10
2.992125984251968
 20
4.90255905511811
 30
0.0
 11
2.989173228346456
 21
4.89271653543307
 31
0.0
  0
LINE
  5
283
330
1E
100
AcDbEntity
  8
0
100
AcDbLine
 10
2.992125984251968
 20
4.90255905511811
 30
0.0
 11
3.000984251968503
 21
4.899606299212598
 31
0.0
  0
LINE
  5
284
330
1E
100
AcDbEntity
  8
0
100
AcDbLine
 10
3.002952755905511
 20
4.909448818897637
 30
0.0
 11
3.000984251968503
 21
4.899606299212598
 31
0.0
  0
LINE
  5
285
330
1E
100
AcDbEntity
  8
0
100
AcDbLine
 10
3.002952755905511
 20
4.909448818897637
 30
0.0
 11
3.011811023622047
 21
4.907480314960629
 31
0.0
  0
LINE
  5
286
330
1E
100
AcDbEntity
  8
0
100
AcDbLine
 10
3.01279527559055
 20
4.917322834645669
 30
0.0
 11
3.011811023622047
 21
4.907480314960629
 31
0.0
  0
LINE
  5
287
330
1E
100
AcDbEntity
  8
0
100
AcDbLine
 10
3.01279527559055
 20
4.917322834645669
 30
0.0
 11
3.02263779527559
 21
4.916338582677165
 31
0.0
  0
LINE
  5
288
330
1E
100
AcDbEntity
  8
0
100
AcDbLine
 10
3.02263779527559
 20
4.9251968503937
 30
0.0
 11
3.02263779527559
 21
4.916338582677165
 31
0.0
  0
LINE
  5
289
330
1E
100
AcDbEntity
  8
0
100
AcDbLine
 10
3.02263779527559
 20
4.9251968503937
 30
0.0
 11
3.03248031496063
 21
4.9251968503937
 31
0.0
  0
LINE
  5
28A
330
1E
100
AcDbEntity
  8
0
100
AcDbLine
 10
3.031496062992125
 20
4.935039370078739
 30
0.0
 11
3.03248031496063
 21
4.9251968503937
 31
0.0
  0
LINE
  5
28B
330
1E
100
AcDbEntity
  8
0
100
AcDbLine
 10
3.031496062992125
 20
4.935039370078739
 30
0.0
 11
3.040354330708661
 21
4.936023622047244
 31
0.0
  0
LINE
  5
28C
330
1E
100
AcDbEntity
  8
0
100
AcDbLine
 10
3.039370078740157
 20
4.945866141732283
 30
0.0
 11
3.040354330708661
 21
4.936023622047244
 31
0.0
  0
LINE
  5
28D
330
1E
100
AcDbEntity
  8
0
100
AcDbLine
 10
3.039370078740157
 20
4.945866141732283
 30
0.0
 11
3.048228346456693
 21
4.946850393700787
 31
0.0
  0
LINE
  5
28E
330
1E
100
AcDbEntity
  8
0
100
AcDbLine
 10
3.046259842519685
 20
4.956692913385826
 30
0.0
 11
3.048228346456693
 21
4.946850393700787
 31
0.0
  0
LINE
  5
28F
330
1E
100
AcDbEntity
  8
0
100
AcDbLine
 10
3.046259842519685
 20
4.956692913385826
 30
0.0
 11
3.05511811023622
 21
4.958661417322834
 31
0.0
  0
LINE
  5
290
330
1E
100
AcDbEntity
  8
0
100
AcDbLine
 10
3.052165354330708
 20
4.96751968503937
 30
0.0
 11
3.05511811023622
 21
4.958661417322834
 31
0.0
  0
LINE
  5
291
330
1E
100
AcDbEntity
  8
0
100
AcDbLine
 10
3.052165354330708
 20
4.96751968503937
 30
0.0
 11
3.061023622047243
 21
4.971456692913386
 31
0.0
  0
LINE
  5
292
330
1E
100
AcDbEntity
  8
0
100
AcDbLine
 10
3.057086614173228
 20
4.979330708661417
 30
0.0
 11
3.061023622047243
 21
4.971456692913386
 31
0.0
  0
LINE
  5
293
330
1E
100
AcDbEntity
  8
0
100
AcDbLine
 10
3.057086614173228
 20
4.979330708661417
 30
0.0
 11
3.065944881889763
 21
4.983267716535433
 31
0.0
  0
LINE
  5
294
330
1E
100
AcDbEntity
  8
0
100
AcDbLine
 10
3.061023622047243
 20
4.992125984251968
 30
0.0
 11
3.065944881889763
 21
4.983267716535433
 31
0.0
  0
LINE
  5
295
330
1E
100
AcDbEntity
  8
0
100
AcDbLine
 10
3.061023622047243
 20
4.992125984251968
 30
0.0
 11
3.068897637795275
 21
4.997047244094487
 31
0.0
  0
LINE
  5
296
330
1E
100
AcDbEntity
  8
0
100
AcDbLine
 10
3.063976377952756
 20
5.004921259842519
 30
0.0
 11
3.068897637795275
 21
4.997047244094487
 31
0.0
  0
LINE
  5
297
330
1E
100
AcDbEntity
  8
0
100
AcDbLine
 10
3.063976377952756
 20
5.004921259842519
 30
0.0
 11
3.071850393700787
 21
5.009842519685038
 31
0.0
  0
LINE
  5
298
330
1E
100
AcDbEntity
  8
0
100
AcDbLine
 10
3.064960629921259
 20
5.01771653543307
 30
0.0
 11
3.071850393700787
 21
5.009842519685038
 31
0.0
  0
LINE
  5
299
330
1E
100
AcDbEntity
  8
0
100
AcDbLine
 10
3.064960629921259
 20
5.01771653543307
 30
0.0
 11
3.072834645669291
 21
5.023622047244094
 31
0.0
  0
LINE
  5
29A
330
1E
100
AcDbEntity
  8
0
100
AcDbLine
 10
3.065944881889763
 20
5.030511811023622
 30
0.0
 11
3.072834645669291
 21
5.023622047244094
 31
0.0
  0
LINE
  5
29B
330
1E
100
AcDbEntity
  8
0
100
AcDbLine
 10
3.065944881889763
 20
5.030511811023622
 30
0.0
 11
3.072834645669291
 21
5.037401574803149
 31
0.0
  0
LINE
  5
29C
330
1E
100
AcDbEntity
  8
0
100
AcDbLine
 10
3.064960629921259
 20
5.043307086614173
 30
0.0
 11
3.072834645669291
 21
5.037401574803149
 31
0.0
  0
LINE
  5
29D
330
1E
100
AcDbEntity
  8
0
100
AcDbLine
 10
3.064960629921259
 20
5.043307086614173
 30
0.0
 11
3.071850393700787
 21
5.0501968503937
 31
0.0
  0
LINE
  5
29E
330
1E
100
AcDbEntity
  8
0
100
AcDbLine
 10
3.063976377952756
 20
5.056102362204724
 30
0.0
 11
3.071850393700787
 21
5.0501968503937
 31
0.0
  0
LINE
  5
29F
330
1E
100
AcDbEntity
  8
0
100
AcDbLine
 10
3.063976377952756
 20
5.056102362204724
 30
0.0
 11
3.068897637795275
 21
5.063976377952755
 31
0.0
  0
LINE
  5
2A0
330
1E
100
AcDbEntity
  8
0
100
AcDbLine
 10
3.061023622047243
 20
5.068897637795275
 30
0.0
 11
3.068897637795275
 21
5.063976377952755
 31
0.0
  0
LINE
  5
2A1
330
1E
100
AcDbEntity
  8
0
100
AcDbLine
 10
3.061023622047243
 20
5.068897637795275
 30
0.0
 11
3.065944881889763
 21
5.076771653543307
 31
0.0
  0
LINE
  5
2A2
330
1E
100
AcDbEntity
  8
0
100
AcDbLine
 10
3.057086614173228
 20
5.080708661417323
 30
0.0
 11
3.065944881889763
 21
5.076771653543307
 31
0.0
  0
LINE
  5
2A3
330
1E
100
AcDbEntity
  8
0
100
AcDbLine
 10
3.057086614173228
 20
5.080708661417323
 30
0.0
 11
3.061023622047243
 21
5.089566929133858
 31
0.0
  0
LINE
  5
2A4
330
1E
100
AcDbEntity
  8
0
100
AcDbLine
 10
3.052165354330708
 20
5.09251968503937
 30
0.0
 11
3.061023622047243
 21
5.089566929133858
 31
0.0
  0
LINE
  5
2A5
330
1E
100
AcDbEntity
  8
0
100
AcDbLine
 10
3.052165354330708
 20
5.09251968503937
 30
0.0
 11
3.05511811023622
 21
5.101377952755905
 31
0.0
  0
LINE
  5
2A6
330
1E
100
AcDbEntity
  8
0
100
AcDbLine
 10
3.046259842519685
 20
5.104330708661417
 30
0.0
 11
3.05511811023622
 21
5.101377952755905
 31
0.0
  0
LINE
  5
2A7
330
1E
100
AcDbEntity
  8
0
100
AcDbLine
 10
3.046259842519685
 20
5.104330708661417
 30
0.0
 11
3.048228346456693
 21
5.113188976377952
 31
0.0
  0
LINE
  5
2A8
330
1E
100
AcDbEntity
  8
0
100
AcDbLine
 10
3.039370078740157
 20
5.11515748031496
 30
0.0
 11
3.048228346456693
 21
5.113188976377952
 31
0.0
  0
LINE
  5
2A9
330
1E
100
AcDbEntity
  8
0
100
AcDbLine
 10
3.039370078740157
 20
5.11515748031496
 30
0.0
 11
3.040354330708661
 21
5.124015748031496
 31
0.0
  0
LINE
  5
2AA
330
1E
100
AcDbEntity
  8
0
100
AcDbLine
 10
3.031496062992125
 20
5.125
 30
0.0
 11
3.040354330708661
 21
5.124015748031496
 31
0.0
  0
LINE
  5
2AB
330
1E
100
AcDbEntity
  8
0
100
AcDbLine
 10
3.031496062992125
 20
5.125
 30
0.0
 11
3.03248031496063
 21
5.134842519685038
 31
0.0
  0
LINE
  5
2AC
330
1E
100
AcDbEntity
  8
0
100
AcDbLine
 10
3.02263779527559
 20
5.134842519685038
 30
0.0
 11
3.03248031496063
 21
5.134842519685038
 31
0.0
  0
LINE
  5
2AD
330
1E
100
AcDbEntity
  8
0
100
AcDbLine
 10
3.02263779527559
 20
5.134842519685038
 30
0.0
 11
3.02263779527559
 21
5.144685039370078
 31
0.0
  0
LINE
  5
2AE
330
1E
100
AcDbEntity
  8
0
100
AcDbLine
 10
3.01279527559055
 20
5.143700787401574
 30
0.0
 11
3.02263779527559
 21
5.144685039370078
 31
0.0
  0
LINE
  5
2AF
330
1E
100
AcDbEntity
  8
0
100
AcDbLine
 10
3.01279527559055
 20
5.143700787401574
 30
0.0
 11
3.011811023622047
 21
5.153543307086613
 31
0.0
  0
LINE
  5
2B0
330
1E
100
AcDbEntity
  8
0
100
AcDbLine
 10
3.002952755905511
 20
5.151574803149606
 30
0.0
 11
3.011811023622047
 21
5.153543307086613
 31
0.0
  0
LINE
  5
2B1
330
1E
100
AcDbEntity
  8
0
100
AcDbLine
 10
3.002952755905511
 20
5.151574803149606
 30
0.0
 11
3.000984251968503
 21
5.160433070866141
 31
0.0
  0
LINE
  5
2B2
330
1E
100
AcDbEntity
  8
0
100
AcDbLine
 10
2.992125984251968
 20
5.158464566929133
 30
0.0
 11
3.000984251968503
 21
5.160433070866141
 31
0.0
  0
LINE
  5
2B3
330
1E
100
AcDbEntity
  8
0
100
AcDbLine
 10
2.992125984251968
 20
5.158464566929133
 30
0.0
 11
2.989173228346456
 21
5.167322834645669
 31
0.0
  0
LINE
  5
2B4
330
1E
100
AcDbEntity
  8
0
100
AcDbLine
 10
2.980314960629921
 20
5.164370078740157
 30
0.0
 11
2.989173228346456
 21
5.167322834645669
 31
0.0
  0
LINE
  5
2B5
330
1E
100
AcDbEntity
  8
0
100
AcDbLine
 10
2.980314960629921
 20
5.164370078740157
 30
0.0
 11
2.977362204724409
 21
5.173228346456692
 31
0.0
  0
LINE
  5
2B6
330
1E
100
AcDbEntity
  8
0
100
AcDbLine
 10
2.968503937007874
 20
5.169291338582676
 30
0.0
 11
2.977362204724409
 21
5.173228346456692
 31
0.0
  0
LINE
  5
2B7
330
1E
100
AcDbEntity
  8
0
100
AcDbLine
 10
2.968503937007874
 20
5.169291338582676
 30
0.0
 11
2.964566929133858
 21
5.178149606299212
 31
0.0
  0
LINE
  5
2B8
330
1E
100
AcDbEntity
  8
0
100
AcDbLine
 10
2.956692913385826
 20
5.173228346456692
 30
0.0
 11
2.964566929133858
 21
5.178149606299212
 31
0.0
  0
LINE
  5
2B9
330
1E
100
AcDbEntity
  8
0
100
AcDbLine
 10
2.956692913385826
 20
5.173228346456692
 30
0.0
 11
2.951771653543307
 21
5.181102362204724
 31
0.0
  0
LINE
  5
2BA
330
1E
100
AcDbEntity
  8
0
100
AcDbLine
 10
2.943897637795275
 20
5.176181102362204
 30
0.0
 11
2.951771653543307
 21
5.181102362204724
 31
0.0
  0
LINE
  5
2BB
330
1E
100
AcDbEntity
  8
0
100
AcDbLine
 10
2.943897637795275
 20
5.176181102362204
 30
0.0
 11
2.937992125984251
 21
5.184055118110236
 31
0.0
  0
LINE
  5
2BC
330
1E
100
AcDbEntity
  8
0
100
AcDbLine
 10
2.937992125984251
 20
5.183070866141732
 30
0.0
 11
2.937992125984251
 21
5.184055118110236
 31
0.0
  0
LINE
  5
2BD
330
1E
100
AcDbEntity
  8
0
100
AcDbLine
 10
2.937992125984251
 20
5.132874015748031
 30
0.0
 11
2.937992125984251
 21
5.183070866141732
 31
0.0
  0
POLYLINE
  5
2BE
330
1E
100
AcDbEntity
  8
0
100
AcDb2dPolyline
 66
     1
 10
0.0
 20
0.0
 30
0.0
  0
VERTEX
  5
4B5
330
2BE
100
AcDbEntity
  8
0
100
AcDbVertex
100
AcDb2dVertex
 10
3.004921259842519
 20
4.954724409448818
 30
0.0
  0
VERTEX
  5
4B6
330
2BE
100
AcDbEntity
  8
0
100
AcDbVertex
100
AcDb2dVertex
 10
3.020669291338582
 20
4.982283464566928
 30
0.0
  0
VERTEX
  5
4B7
330
2BE
100
AcDbEntity
  8
0
100
AcDbVertex
100
AcDb2dVertex
 10
3.028543307086614
 20
5.015748031496062
 30
0.0
  0
VERTEX
  5
4B8
330
2BE
100
AcDbEntity
  8
0
100
AcDbVertex
100
AcDb2dVertex
 10
3.025590551181102
 20
5.053149606299212
 30
0.0
  0
VERTEX
  5
4B9
330
2BE
100
AcDbEntity
  8
0
100
AcDbVertex
100
AcDb2dVertex
 10
3.009842519685039
 20
5.086614173228346
 30
0.0
  0
VERTEX
  5
4BA
330
2BE
100
AcDbEntity
  8
0
100
AcDbVertex
100
AcDb2dVertex
 10
2.984251968503937
 20
5.113188976377952
 30
0.0
  0
VERTEX
  5
4BB
330
2BE
100
AcDbEntity
  8
0
100
AcDbVertex
100
AcDb2dVertex
 10
2.966535433070866
 20
5.124015748031496
 30
0.0
  0
SEQEND
  5
4BC
330
2BE
100
AcDbEntity
  8
0
  0
POLYLINE
  5
2C7
330
1E
100
AcDbEntity
  8
0
100
AcDb2dPolyline
 66
     1
 10
0.0
 20
0.0
 30
0.0
  0
VERTEX
  5
4BD
330
2C7
100
AcDbEntity
  8
0
100
AcDbVertex
100
AcDb2dVertex
 10
2.937992125984251
 20
4.927165354330708
 30
0.0
  0
VERTEX
  5
4BE
330
2C7
100
AcDbEntity
  8
0
100
AcDbVertex
100
AcDb2dVertex
 10
2.937992125984251
 20
4.923228346456692
 30
0.0
  0
VERTEX
  5
4BF
330
2C7
100
AcDbEntity
  8
0
100
AcDbVertex
100
AcDb2dVertex
 10
2.937992125984251
 20
4.917322834645669
 30
0.0
  0
SEQEND
  5
4C0
330
2C7
100
AcDbEntity
  8
0
  0
LINE
  5
2CC
330
1E
100
AcDbEntity
  8
0
100
AcDbLine
 10
2.911417322834645
 20
5.185039370078739
 30
0.0
 11
2.918307086614173
 21
5.178149606299212
 31
0.0
  0
LINE
  5
2CD
330
1E
100
AcDbEntity
  8
0
100
AcDbLine
 10
2.918307086614173
 20
5.178149606299212
 30
0.0
 11
2.9251968503937
 21
5.185039370078739
 31
0.0
  0
LINE
  5
2CE
330
1E
100
AcDbEntity
  8
0
100
AcDbLine
 10
2.9251968503937
 20
5.185039370078739
 30
0.0
 11
2.931102362204724
 21
5.177165354330708
 31
0.0
  0
LINE
  5
2CF
330
1E
100
AcDbEntity
  8
0
100
AcDbLine
 10
2.931102362204724
 20
5.177165354330708
 30
0.0
 11
2.937992125984251
 21
5.183070866141732
 31
0.0
  0
LINE
  5
2D0
330
1E
100
AcDbEntity
  8
0
100
AcDbLine
 10
2.89763779527559
 20
5.183070866141732
 30
0.0
 11
2.905511811023622
 21
5.177165354330708
 31
0.0
  0
LINE
  5
2D1
330
1E
100
AcDbEntity
  8
0
100
AcDbLine
 10
2.905511811023622
 20
5.177165354330708
 30
0.0
 11
2.911417322834645
 21
5.185039370078739
 31
0.0
  0
LINE
  5
2D2
330
1E
100
AcDbEntity
  8
0
100
AcDbLine
 10
2.937992125984251
 20
4.876968503937007
 30
0.0
 11
2.931102362204724
 21
4.882874015748031
 31
0.0
  0
LINE
  5
2D3
330
1E
100
AcDbEntity
  8
0
100
AcDbLine
 10
2.931102362204724
 20
4.882874015748031
 30
0.0
 11
2.9251968503937
 21
4.875984251968503
 31
0.0
  0
LINE
  5
2D4
330
1E
100
AcDbEntity
  8
0
100
AcDbLine
 10
2.9251968503937
 20
4.875984251968503
 30
0.0
 11
2.918307086614173
 21
4.881889763779527
 31
0.0
  0
LINE
  5
2D5
330
1E
100
AcDbEntity
  8
0
100
AcDbLine
 10
2.918307086614173
 20
4.881889763779527
 30
0.0
 11
2.911417322834645
 21
4.875984251968503
 31
0.0
  0
LINE
  5
2D6
330
1E
100
AcDbEntity
  8
0
100
AcDbLine
 10
2.911417322834645
 20
4.875984251968503
 30
0.0
 11
2.905511811023622
 21
4.882874015748031
 31
0.0
  0
LINE
  5
2D7
330
1E
100
AcDbEntity
  8
0
100
AcDbLine
 10
2.905511811023622
 20
4.882874015748031
 30
0.0
 11
2.89763779527559
 21
4.876968503937007
 31
0.0
  0
LINE
  5
2D8
330
1E
100
AcDbEntity
  8
0
100
AcDbLine
 10
2.628937007874015
 20
5.31496062992126
 30
0.0
 11
2.631889763779527
 21
5.312007874015748
 31
0.0
  0
LINE
  5
2D9
330
1E
100
AcDbEntity
  8
0
100
AcDbLine
 10
2.631889763779527
 20
5.312007874015748
 30
0.0
 11
2.631889763779527
 21
4.771653543307086
 31
0.0
  0
LINE
  5
2DA
330
1E
100
AcDbEntity
  8
0
100
AcDbLine
 10
2.631889763779527
 20
4.771653543307086
 30
0.0
 11
2.631889763779527
 21
4.766732283464566
 31
0.0
  0
LINE
  5
2DB
330
1E
100
AcDbEntity
  8
0
100
AcDbLine
 10
2.631889763779527
 20
4.766732283464566
 30
0.0
 11
2.630905511811023
 21
4.684055118110236
 31
0.0
  0
LINE
  5
2DC
330
1E
100
AcDbEntity
  8
0
100
AcDbLine
 10
2.630905511811023
 20
4.684055118110236
 30
0.0
 11
2.628937007874015
 21
4.683070866141732
 31
0.0
  0
LINE
  5
2DD
330
1E
100
AcDbEntity
  8
0
100
AcDbLine
 10
2.628937007874015
 20
4.683070866141732
 30
0.0
 11
2.628937007874015
 21
4.683070866141732
 31
0.0
  0
LINE
  5
2DE
330
1E
100
AcDbEntity
  8
0
100
AcDbLine
 10
2.628937007874015
 20
4.683070866141732
 30
0.0
 11
2.629921259842519
 21
4.648622047244094
 31
0.0
  0
LINE
  5
2DF
330
1E
100
AcDbEntity
  8
0
100
AcDbLine
 10
2.629921259842519
 20
4.613188976377952
 30
0.0
 11
2.629921259842519
 21
4.648622047244094
 31
0.0
  0
LINE
  5
2E0
330
1E
100
AcDbEntity
  8
0
100
AcDbLine
 10
2.630905511811023
 20
4.614173228346456
 30
0.0
 11
2.629921259842519
 21
4.613188976377952
 31
0.0
  0
LINE
  5
2E1
330
1E
100
AcDbEntity
  8
0
100
AcDbLine
 10
2.632874015748031
 20
4.742125984251968
 30
0.0
 11
2.630905511811023
 21
4.614173228346456
 31
0.0
  0
LINE
  5
2E2
330
1E
100
AcDbEntity
  8
0
100
AcDbLine
 10
2.632874015748031
 20
4.742125984251968
 30
0.0
 11
2.632874015748031
 21
4.742125984251968
 31
0.0
  0
LINE
  5
2E3
330
1E
100
AcDbEntity
  8
0
100
AcDbLine
 10
2.632874015748031
 20
4.742125984251968
 30
0.0
 11
2.632874015748031
 21
5.376968503937007
 31
0.0
  0
LINE
  5
2E4
330
1E
100
AcDbEntity
  8
0
100
AcDbLine
 10
2.632874015748031
 20
5.376968503937007
 30
0.0
 11
2.629921259842519
 21
5.383858267716535
 31
0.0
  0
LINE
  5
2E5
330
1E
100
AcDbEntity
  8
0
100
AcDbLine
 10
2.629921259842519
 20
5.31496062992126
 30
0.0
 11
2.629921259842519
 21
5.383858267716535
 31
0.0
  0
LINE
  5
2E6
330
1E
100
AcDbEntity
  8
0
100
AcDbLine
 10
2.628937007874015
 20
5.31496062992126
 30
0.0
 11
2.629921259842519
 21
5.31496062992126
 31
0.0
  0
LINE
  5
2E7
330
1E
100
AcDbEntity
  8
0
100
AcDbLine
 10
3.202755905511811
 20
5.376968503937007
 30
0.0
 11
3.202755905511811
 21
4.742125984251968
 31
0.0
  0
LINE
  5
2E8
330
1E
100
AcDbEntity
  8
0
100
AcDbLine
 10
3.202755905511811
 20
4.742125984251968
 30
0.0
 11
3.202755905511811
 21
4.742125984251968
 31
0.0
  0
LINE
  5
2E9
330
1E
100
AcDbEntity
  8
0
100
AcDbLine
 10
3.202755905511811
 20
4.742125984251968
 30
0.0
 11
3.204724409448818
 21
4.614173228346456
 31
0.0
  0
LINE
  5
2EA
330
1E
100
AcDbEntity
  8
0
100
AcDbLine
 10
3.204724409448818
 20
4.614173228346456
 30
0.0
 11
3.206692913385826
 21
4.613188976377952
 31
0.0
  0
LINE
  5
2EB
330
1E
100
AcDbEntity
  8
0
100
AcDbLine
 10
3.206692913385826
 20
4.648622047244094
 30
0.0
 11
3.206692913385826
 21
4.613188976377952
 31
0.0
  0
LINE
  5
2EC
330
1E
100
AcDbEntity
  8
0
100
AcDbLine
 10
3.206692913385826
 20
4.648622047244094
 30
0.0
 11
3.206692913385826
 21
4.683070866141732
 31
0.0
  0
LINE
  5
2ED
330
1E
100
AcDbEntity
  8
0
100
AcDbLine
 10
3.206692913385826
 20
4.683070866141732
 30
0.0
 11
3.206692913385826
 21
4.683070866141732
 31
0.0
  0
LINE
  5
2EE
330
1E
100
AcDbEntity
  8
0
100
AcDbLine
 10
3.204724409448818
 20
4.684055118110236
 30
0.0
 11
3.206692913385826
 21
4.683070866141732
 31
0.0
  0
LINE
  5
2EF
330
1E
100
AcDbEntity
  8
0
100
AcDbLine
 10
3.204724409448818
 20
4.684055118110236
 30
0.0
 11
3.203740157480314
 21
4.766732283464566
 31
0.0
  0
LINE
  5
2F0
330
1E
100
AcDbEntity
  8
0
100
AcDbLine
 10
3.203740157480314
 20
4.766732283464566
 30
0.0
 11
3.203740157480314
 21
4.771653543307086
 31
0.0
  0
LINE
  5
2F1
330
1E
100
AcDbEntity
  8
0
100
AcDbLine
 10
3.203740157480314
 20
4.771653543307086
 30
0.0
 11
3.203740157480314
 21
5.312007874015748
 31
0.0
  0
LINE
  5
2F2
330
1E
100
AcDbEntity
  8
0
100
AcDbLine
 10
3.203740157480314
 20
5.312007874015748
 30
0.0
 11
3.206692913385826
 21
5.31496062992126
 31
0.0
  0
LINE
  5
2F3
330
1E
100
AcDbEntity
  8
0
100
AcDbLine
 10
3.206692913385826
 20
5.31496062992126
 30
0.0
 11
3.206692913385826
 21
5.31496062992126
 31
0.0
  0
LINE
  5
2F4
330
1E
100
AcDbEntity
  8
0
100
AcDbLine
 10
3.206692913385826
 20
5.383858267716535
 30
0.0
 11
3.206692913385826
 21
5.31496062992126
 31
0.0
  0
LINE
  5
2F5
330
1E
100
AcDbEntity
  8
0
100
AcDbLine
 10
3.202755905511811
 20
5.376968503937007
 30
0.0
 11
3.206692913385826
 21
5.383858267716535
 31
0.0
  0
LINE
  5
2F6
330
1E
100
AcDbEntity
  8
0
100
AcDbLine
 10
3.202755905511811
 20
4.742125984251968
 30
0.0
 11
2.632874015748031
 21
4.742125984251968
 31
0.0
  0
LINE
  5
2F7
330
1E
100
AcDbEntity
  8
0
100
AcDbLine
 10
2.632874015748031
 20
5.376968503937007
 30
0.0
 11
3.202755905511811
 21
5.376968503937007
 31
0.0
  0
CIRCLE
  5
2F8
330
1E
100
AcDbEntity
  8
0
100
AcDbCircle
 10
2.918307086614173
 20
5.030511811023622
 30
0.0
 40
0.2224409448818898
  0
LINE
  5
2F9
330
1E
100
AcDbEntity
  8
0
100
AcDbLine
 10
2.596456692913385
 20
5.382874015748031
 30
0.0
 11
2.597440944881889
 21
5.383858267716535
 31
0.0
  0
LINE
  5
2FA
330
1E
100
AcDbEntity
  8
0
100
AcDbLine
 10
2.597440944881889
 20
5.383858267716535
 30
0.0
 11
2.629921259842519
 21
5.383858267716535
 31
0.0
  0
LINE
  5
2FB
330
1E
100
AcDbEntity
  8
0
100
AcDbLine
 10
2.670275590551181
 20
5.383858267716535
 30
0.0
 11
2.629921259842519
 21
5.383858267716535
 31
0.0
  0
LINE
  5
2FC
330
1E
100
AcDbEntity
  8
0
100
AcDbLine
 10
2.670275590551181
 20
5.383858267716535
 30
0.0
 11
2.673228346456693
 21
5.384842519685038
 31
0.0
  0
LINE
  5
2FD
330
1E
100
AcDbEntity
  8
0
100
AcDbLine
 10
3.163385826771653
 20
5.384842519685038
 30
0.0
 11
3.165354330708661
 21
5.383858267716535
 31
0.0
  0
LINE
  5
2FE
330
1E
100
AcDbEntity
  8
0
100
AcDbLine
 10
3.206692913385826
 20
5.383858267716535
 30
0.0
 11
3.165354330708661
 21
5.383858267716535
 31
0.0
  0
LINE
  5
2FF
330
1E
100
AcDbEntity
  8
0
100
AcDbLine
 10
3.206692913385826
 20
5.383858267716535
 30
0.0
 11
3.238188976377952
 21
5.383858267716535
 31
0.0
  0
LINE
  5
300
330
1E
100
AcDbEntity
  8
0
100
AcDbLine
 10
3.239173228346456
 20
5.382874015748031
 30
0.0
 11
3.238188976377952
 21
5.383858267716535
 31
0.0
  0
LINE
  5
301
330
1E
100
AcDbEntity
  8
0
100
AcDbLine
 10
3.238188976377952
 20
5.31496062992126
 30
0.0
 11
3.206692913385826
 21
5.31496062992126
 31
0.0
  0
LINE
  5
302
330
1E
100
AcDbEntity
  8
0
100
AcDbLine
 10
3.238188976377952
 20
5.383858267716535
 30
0.0
 11
3.238188976377952
 21
5.31496062992126
 31
0.0
  0
LINE
  5
303
330
1E
100
AcDbEntity
  8
0
100
AcDbLine
 10
3.238188976377952
 20
5.31496062992126
 30
0.0
 11
3.239173228346456
 21
5.31496062992126
 31
0.0
  0
LINE
  5
304
330
1E
100
AcDbEntity
  8
0
100
AcDbLine
 10
3.206692913385826
 20
5.31496062992126
 30
0.0
 11
3.206692913385826
 21
5.31496062992126
 31
0.0
  0
LINE
  5
305
330
1E
100
AcDbEntity
  8
0
100
AcDbLine
 10
3.206692913385826
 20
5.31496062992126
 30
0.0
 11
3.239173228346456
 21
5.31496062992126
 31
0.0
  0
LINE
  5
306
330
1E
100
AcDbEntity
  8
0
100
AcDbLine
 10
2.597440944881889
 20
5.31496062992126
 30
0.0
 11
2.597440944881889
 21
5.383858267716535
 31
0.0
  0
LINE
  5
307
330
1E
100
AcDbEntity
  8
0
100
AcDbLine
 10
2.629921259842519
 20
5.31496062992126
 30
0.0
 11
2.597440944881889
 21
5.31496062992126
 31
0.0
  0
LINE
  5
308
330
1E
100
AcDbEntity
  8
0
100
AcDbLine
 10
3.165354330708661
 20
5.383858267716535
 30
0.0
 11
3.159448818897637
 21
5.380905511811023
 31
0.0
  0
LINE
  5
309
330
1E
100
AcDbEntity
  8
0
100
AcDbLine
 10
2.677165354330708
 20
5.380905511811023
 30
0.0
 11
3.159448818897637
 21
5.380905511811023
 31
0.0
  0
LINE
  5
30A
330
1E
100
AcDbEntity
  8
0
100
AcDbLine
 10
2.670275590551181
 20
5.383858267716535
 30
0.0
 11
2.677165354330708
 21
5.380905511811023
 31
0.0
  0
LINE
  5
30B
330
1E
100
AcDbEntity
  8
0
100
AcDbLine
 10
3.163385826771653
 20
5.384842519685038
 30
0.0
 11
3.163385826771653
 21
5.428149606299212
 31
0.0
  0
LINE
  5
30C
330
1E
100
AcDbEntity
  8
0
100
AcDbLine
 10
3.159448818897637
 20
5.380905511811023
 30
0.0
 11
3.163385826771653
 21
5.428149606299212
 31
0.0
  0
LINE
  5
30D
330
1E
100
AcDbEntity
  8
0
100
AcDbLine
 10
3.163385826771653
 20
5.428149606299212
 30
0.0
 11
2.673228346456693
 21
5.428149606299212
 31
0.0
  0
LINE
  5
30E
330
1E
100
AcDbEntity
  8
0
100
AcDbLine
 10
2.677165354330708
 20
5.380905511811023
 30
0.0
 11
2.673228346456693
 21
5.428149606299212
 31
0.0
  0
LINE
  5
30F
330
1E
100
AcDbEntity
  8
0
100
AcDbLine
 10
2.673228346456693
 20
5.384842519685038
 30
0.0
 11
2.673228346456693
 21
5.428149606299212
 31
0.0
  0
LINE
  5
310
330
1E
100
AcDbEntity
  8
0
100
AcDbLine
 10
2.596456692913385
 20
5.31496062992126
 30
0.0
 11
2.628937007874015
 21
5.31496062992126
 31
0.0
  0
LINE
  5
311
330
1E
100
AcDbEntity
  8
0
100
AcDbLine
 10
2.628937007874015
 20
5.31496062992126
 30
0.0
 11
2.628937007874015
 21
5.31496062992126
 31
0.0
  0
LINE
  5
312
330
1E
100
AcDbEntity
  8
0
100
AcDbLine
 10
2.597440944881889
 20
5.31496062992126
 30
0.0
 11
2.596456692913385
 21
5.31496062992126
 31
0.0
  0
LINE
  5
313
330
1E
100
AcDbEntity
  8
0
100
AcDbLine
 10
3.239173228346456
 20
5.31496062992126
 30
0.0
 11
3.239173228346456
 21
5.382874015748031
 31
0.0
  0
LINE
  5
314
330
1E
100
AcDbEntity
  8
0
100
AcDbLine
 10
2.596456692913385
 20
5.31496062992126
 30
0.0
 11
2.596456692913385
 21
5.382874015748031
 31
0.0
  0
CIRCLE
  5
315
330
1E
100
AcDbEntity
  8
0
100
AcDbCircle
 10
2.917814960629921
 20
5.03001968503937
 30
0.0
 40
0.2199808654364336
  0
LINE
  5
316
330
1E
100
AcDbEntity
  8
0
100
AcDbLine
 10
2.596456692913385
 20
4.614173228346456
 30
0.0
 11
2.596456692913385
 21
4.683070866141732
 31
0.0
  0
LINE
  5
317
330
1E
100
AcDbEntity
  8
0
100
AcDbLine
 10
2.597440944881889
 20
4.613188976377952
 30
0.0
 11
2.596456692913385
 21
4.614173228346456
 31
0.0
  0
LINE
  5
318
330
1E
100
AcDbEntity
  8
0
100
AcDbLine
 10
2.597440944881889
 20
4.613188976377952
 30
0.0
 11
2.597440944881889
 21
4.648622047244094
 31
0.0
  0
LINE
  5
319
330
1E
100
AcDbEntity
  8
0
100
AcDbLine
 10
2.597440944881889
 20
4.648622047244094
 30
0.0
 11
2.597440944881889
 21
4.683070866141732
 31
0.0
  0
LINE
  5
31A
330
1E
100
AcDbEntity
  8
0
100
AcDbLine
 10
2.597440944881889
 20
4.683070866141732
 30
0.0
 11
2.596456692913385
 21
4.683070866141732
 31
0.0
  0
LINE
  5
31B
330
1E
100
AcDbEntity
  8
0
100
AcDbLine
 10
2.628937007874015
 20
4.683070866141732
 30
0.0
 11
2.628937007874015
 21
4.683070866141732
 31
0.0
  0
LINE
  5
31C
330
1E
100
AcDbEntity
  8
0
100
AcDbLine
 10
2.596456692913385
 20
4.683070866141732
 30
0.0
 11
2.628937007874015
 21
4.683070866141732
 31
0.0
  0
LINE
  5
31D
330
1E
100
AcDbEntity
  8
0
100
AcDbLine
 10
3.206692913385826
 20
4.683070866141732
 30
0.0
 11
3.206692913385826
 21
4.683070866141732
 31
0.0
  0
LINE
  5
31E
330
1E
100
AcDbEntity
  8
0
100
AcDbLine
 10
3.239173228346456
 20
4.614173228346456
 30
0.0
 11
3.239173228346456
 21
4.683070866141732
 31
0.0
  0
LINE
  5
31F
330
1E
100
AcDbEntity
  8
0
100
AcDbLine
 10
3.206692913385826
 20
4.683070866141732
 30
0.0
 11
3.239173228346456
 21
4.683070866141732
 31
0.0
  0
LINE
  5
320
330
1E
100
AcDbEntity
  8
0
100
AcDbLine
 10
3.238188976377952
 20
4.683070866141732
 30
0.0
 11
3.239173228346456
 21
4.683070866141732
 31
0.0
  0
LINE
  5
321
330
1E
100
AcDbEntity
  8
0
100
AcDbLine
 10
3.238188976377952
 20
4.683070866141732
 30
0.0
 11
3.238188976377952
 21
4.648622047244094
 31
0.0
  0
LINE
  5
322
330
1E
100
AcDbEntity
  8
0
100
AcDbLine
 10
3.238188976377952
 20
4.648622047244094
 30
0.0
 11
3.238188976377952
 21
4.613188976377952
 31
0.0
  0
LINE
  5
323
330
1E
100
AcDbEntity
  8
0
100
AcDbLine
 10
3.239173228346456
 20
4.614173228346456
 30
0.0
 11
3.238188976377952
 21
4.613188976377952
 31
0.0
  0
LINE
  5
324
330
1E
100
AcDbEntity
  8
0
100
AcDbLine
 10
3.238188976377952
 20
4.613188976377952
 30
0.0
 11
3.206692913385826
 21
4.613188976377952
 31
0.0
  0
LINE
  5
325
330
1E
100
AcDbEntity
  8
0
100
AcDbLine
 10
3.165354330708661
 20
4.613188976377952
 30
0.0
 11
3.206692913385826
 21
4.613188976377952
 31
0.0
  0
LINE
  5
326
330
1E
100
AcDbEntity
  8
0
100
AcDbLine
 10
3.163385826771653
 20
4.612204724409449
 30
0.0
 11
3.165354330708661
 21
4.613188976377952
 31
0.0
  0
LINE
  5
327
330
1E
100
AcDbEntity
  8
0
100
AcDbLine
 10
2.673228346456693
 20
4.612204724409449
 30
0.0
 11
2.670275590551181
 21
4.613188976377952
 31
0.0
  0
LINE
  5
328
330
1E
100
AcDbEntity
  8
0
100
AcDbLine
 10
2.629921259842519
 20
4.613188976377952
 30
0.0
 11
2.670275590551181
 21
4.613188976377952
 31
0.0
  0
LINE
  5
329
330
1E
100
AcDbEntity
  8
0
100
AcDbLine
 10
2.597440944881889
 20
4.613188976377952
 30
0.0
 11
2.629921259842519
 21
4.613188976377952
 31
0.0
  0
LINE
  5
32A
330
1E
100
AcDbEntity
  8
0
100
AcDbLine
 10
3.160433070866141
 20
4.614173228346456
 30
0.0
 11
3.165354330708661
 21
4.613188976377952
 31
0.0
  0
LINE
  5
32B
330
1E
100
AcDbEntity
  8
0
100
AcDbLine
 10
3.163385826771653
 20
4.571850393700787
 30
0.0
 11
3.160433070866141
 21
4.614173228346456
 31
0.0
  0
LINE
  5
32C
330
1E
100
AcDbEntity
  8
0
100
AcDbLine
 10
3.163385826771653
 20
4.612204724409449
 30
0.0
 11
3.163385826771653
 21
4.571850393700787
 31
0.0
  0
LINE
  5
32D
330
1E
100
AcDbEntity
  8
0
100
AcDbLine
 10
2.673228346456693
 20
4.612204724409449
 30
0.0
 11
2.673228346456693
 21
4.571850393700787
 31
0.0
  0
LINE
  5
32E
330
1E
100
AcDbEntity
  8
0
100
AcDbLine
 10
3.163385826771653
 20
4.571850393700787
 30
0.0
 11
2.673228346456693
 21
4.571850393700787
 31
0.0
  0
LINE
  5
32F
330
1E
100
AcDbEntity
  8
0
100
AcDbLine
 10
2.673228346456693
 20
4.571850393700787
 30
0.0
 11
2.6751968503937
 21
4.614173228346456
 31
0.0
  0
LINE
  5
330
330
1E
100
AcDbEntity
  8
0
100
AcDbLine
 10
2.6751968503937
 20
4.614173228346456
 30
0.0
 11
2.670275590551181
 21
4.613188976377952
 31
0.0
  0
LINE
  5
331
330
1E
100
AcDbEntity
  8
0
100
AcDbLine
 10
2.6751968503937
 20
4.614173228346456
 30
0.0
 11
2.630905511811023
 21
4.614173228346456
 31
0.0
  0
LINE
  5
332
330
1E
100
AcDbEntity
  8
0
100
AcDbLine
 10
2.597440944881889
 20
4.648622047244094
 30
0.0
 11
2.629921259842519
 21
4.648622047244094
 31
0.0
  0
LINE
  5
333
330
1E
100
AcDbEntity
  8
0
100
AcDbLine
 10
2.597440944881889
 20
4.683070866141732
 30
0.0
 11
2.628937007874015
 21
4.683070866141732
 31
0.0
  0
LINE
  5
334
330
1E
100
AcDbEntity
  8
0
100
AcDbLine
 10
3.206692913385826
 20
4.683070866141732
 30
0.0
 11
3.238188976377952
 21
4.683070866141732
 31
0.0
  0
LINE
  5
335
330
1E
100
AcDbEntity
  8
0
100
AcDbLine
 10
3.206692913385826
 20
4.648622047244094
 30
0.0
 11
3.238188976377952
 21
4.648622047244094
 31
0.0
  0
LINE
  5
336
330
1E
100
AcDbEntity
  8
0
100
AcDbLine
 10
3.204724409448818
 20
4.614173228346456
 30
0.0
 11
3.160433070866141
 21
4.614173228346456
 31
0.0
  0
LINE
  5
337
330
1E
100
AcDbEntity
  8
0
100
AcDbLine
 10
5.258858267716535
 20
5.186023622047244
 30
0.0
 11
5.018700787401574
 21
5.186023622047244
 31
0.0
  0
LINE
  5
338
330
1E
100
AcDbEntity
  8
0
100
AcDbLine
 10
5.018700787401574
 20
4.875
 30
0.0
 11
5.258858267716535
 21
4.875
 31
0.0
  0
LINE
  5
339
330
1E
100
AcDbEntity
  8
0
100
AcDbLine
 10
5.018700787401574
 20
5.186023622047244
 30
0.0
 11
4.799212598425197
 21
5.186023622047244
 31
0.0
  0
LINE
  5
33A
330
1E
100
AcDbEntity
  8
0
100
AcDbLine
 10
4.799212598425197
 20
4.875
 30
0.0
 11
5.018700787401574
 21
4.875
 31
0.0
  0
POLYLINE
  5
33B
330
1E
100
AcDbEntity
  8
0
100
AcDb2dPolyline
 66
     1
 10
0.0
 20
0.0
 30
0.0
  0
VERTEX
  5
4C1
330
33B
100
AcDbEntity
  8
0
100
AcDbVertex
100
AcDb2dVertex
 10
5.018700787401574
 20
4.875
 30
0.0
  0
VERTEX
  5
4C2
330
33B
100
AcDbEntity
  8
0
100
AcDbVertex
100
AcDb2dVertex
 10
5.018700787401574
 20
4.878937007874015
 30
0.0
  0
VERTEX
  5
4C3
330
33B
100
AcDbEntity
  8
0
100
AcDbVertex
100
AcDb2dVertex
 10
5.018700787401574
 20
4.89271653543307
 30
0.0
  0
VERTEX
  5
4C4
330
33B
100
AcDbEntity
  8
0
100
AcDbVertex
100
AcDb2dVertex
 10
5.018700787401574
 20
4.913385826771653
 30
0.0
  0
VERTEX
  5
4C5
330
33B
100
AcDbEntity
  8
0
100
AcDbVertex
100
AcDb2dVertex
 10
5.018700787401574
 20
4.941929133858267
 30
0.0
  0
VERTEX
  5
4C6
330
33B
100
AcDbEntity
  8
0
100
AcDbVertex
100
AcDb2dVertex
 10
5.018700787401574
 20
4.975393700787401
 30
0.0
  0
VERTEX
  5
4C7
330
33B
100
AcDbEntity
  8
0
100
AcDbVertex
100
AcDb2dVertex
 10
5.018700787401574
 20
5.011811023622047
 30
0.0
  0
VERTEX
  5
4C8
330
33B
100
AcDbEntity
  8
0
100
AcDbVertex
100
AcDb2dVertex
 10
5.018700787401574
 20
5.049212598425197
 30
0.0
  0
VERTEX
  5
4C9
330
33B
100
AcDbEntity
  8
0
100
AcDbVertex
100
AcDb2dVertex
 10
5.018700787401574
 20
5.085629921259842
 30
0.0
  0
VERTEX
  5
4CA
330
33B
100
AcDbEntity
  8
0
100
AcDbVertex
100
AcDb2dVertex
 10
5.018700787401574
 20
5.118110236220472
 30
0.0
  0
VERTEX
  5
4CB
330
33B
100
AcDbEntity
  8
0
100
AcDbVertex
100
AcDb2dVertex
 10
5.018700787401574
 20
5.146653543307086
 30
0.0
  0
VERTEX
  5
4CC
330
33B
100
AcDbEntity
  8
0
100
AcDbVertex
100
AcDb2dVertex
 10
5.018700787401574
 20
5.168307086614173
 30
0.0
  0
VERTEX
  5
4CD
330
33B
100
AcDbEntity
  8
0
100
AcDbVertex
100
AcDb2dVertex
 10
5.018700787401574
 20
5.181102362204724
 30
0.0
  0
VERTEX
  5
4CE
330
33B
100
AcDbEntity
  8
0
100
AcDbVertex
100
AcDb2dVertex
 10
5.018700787401574
 20
5.186023622047244
 30
0.0
  0
SEQEND
  5
4CF
330
33B
100
AcDbEntity
  8
0
  0
POLYLINE
  5
34B
330
1E
100
AcDbEntity
  8
0
100
AcDb2dPolyline
 66
     1
 10
0.0
 20
0.0
 30
0.0
  0
VERTEX
  5
4D0
330
34B
100
AcDbEntity
  8
0
100
AcDbVertex
100
AcDb2dVertex
 10
5.258858267716535
 20
4.875
 30
0.0
  0
VERTEX
  5
4D1
330
34B
100
AcDbEntity
  8
0
100
AcDbVertex
100
AcDb2dVertex
 10
5.258858267716535
 20
4.878937007874015
 30
0.0
  0
VERTEX
  5
4D2
330
34B
100
AcDbEntity
  8
0
100
AcDbVertex
100
AcDb2dVertex
 10
5.258858267716535
 20
4.89271653543307
 30
0.0
  0
VERTEX
  5
4D3
330
34B
100
AcDbEntity
  8
0
100
AcDbVertex
100
AcDb2dVertex
 10
5.258858267716535
 20
4.913385826771653
 30
0.0
  0
VERTEX
  5
4D4
330
34B
100
AcDbEntity
  8
0
100
AcDbVertex
100
AcDb2dVertex
 10
5.258858267716535
 20
4.941929133858267
 30
0.0
  0
VERTEX
  5
4D5
330
34B
100
AcDbEntity
  8
0
100
AcDbVertex
100
AcDb2dVertex
 10
5.258858267716535
 20
4.975393700787401
 30
0.0
  0
VERTEX
  5
4D6
330
34B
100
AcDbEntity
  8
0
100
AcDbVertex
100
AcDb2dVertex
 10
5.258858267716535
 20
5.011811023622047
 30
0.0
  0
VERTEX
  5
4D7
330
34B
100
AcDbEntity
  8
0
100
AcDbVertex
100
AcDb2dVertex
 10
5.258858267716535
 20
5.049212598425197
 30
0.0
  0
VERTEX
  5
4D8
330
34B
100
AcDbEntity
  8
0
100
AcDbVertex
100
AcDb2dVertex
 10
5.258858267716535
 20
5.085629921259842
 30
0.0
  0
VERTEX
  5
4D9
330
34B
100
AcDbEntity
  8
0
100
AcDbVertex
100
AcDb2dVertex
 10
5.258858267716535
 20
5.118110236220472
 30
0.0
  0
VERTEX
  5
4DA
330
34B
100
AcDbEntity
  8
0
100
AcDbVertex
100
AcDb2dVertex
 10
5.258858267716535
 20
5.146653543307086
 30
0.0
  0
VERTEX
  5
4DB
330
34B
100
AcDbEntity
  8
0
100
AcDbVertex
100
AcDb2dVertex
 10
5.258858267716535
 20
5.168307086614173
 30
0.0
  0
VERTEX
  5
4DC
330
34B
100
AcDbEntity
  8
0
100
AcDbVertex
100
AcDb2dVertex
 10
5.258858267716535
 20
5.181102362204724
 30
0.0
  0
VERTEX
  5
4DD
330
34B
100
AcDbEntity
  8
0
100
AcDbVertex
100
AcDb2dVertex
 10
5.258858267716535
 20
5.186023622047244
 30
0.0
  0
SEQEND
  5
4DE
330
34B
100
AcDbEntity
  8
0
  0
POLYLINE
  5
35B
330
1E
100
AcDbEntity
  8
0
100
AcDb2dPolyline
 66
     1
 10
0.0
 20
0.0
 30
0.0
  0
VERTEX
  5
4DF
330
35B
100
AcDbEntity
  8
0
100
AcDbVertex
100
AcDb2dVertex
 10
5.018700787401574
 20
5.186023622047244
 30
0.0
  0
VERTEX
  5
4E0
330
35B
100
AcDbEntity
  8
0
100
AcDbVertex
100
AcDb2dVertex
 10
5.018700787401574
 20
5.181102362204724
 30
0.0
  0
VERTEX
  5
4E1
330
35B
100
AcDbEntity
  8
0
100
AcDbVertex
100
AcDb2dVertex
 10
5.018700787401574
 20
5.168307086614173
 30
0.0
  0
VERTEX
  5
4E2
330
35B
100
AcDbEntity
  8
0
100
AcDbVertex
100
AcDb2dVertex
 10
5.018700787401574
 20
5.146653543307086
 30
0.0
  0
VERTEX
  5
4E3
330
35B
100
AcDbEntity
  8
0
100
AcDbVertex
100
AcDb2dVertex
 10
5.018700787401574
 20
5.118110236220472
 30
0.0
  0
VERTEX
  5
4E4
330
35B
100
AcDbEntity
  8
0
100
AcDbVertex
100
AcDb2dVertex
 10
5.018700787401574
 20
5.085629921259842
 30
0.0
  0
VERTEX
  5
4E5
330
35B
100
AcDbEntity
  8
0
100
AcDbVertex
100
AcDb2dVertex
 10
5.018700787401574
 20
5.049212598425197
 30
0.0
  0
VERTEX
  5
4E6
330
35B
100
AcDbEntity
  8
0
100
AcDbVertex
100
AcDb2dVertex
 10
5.018700787401574
 20
5.011811023622047
 30
0.0
  0
VERTEX
  5
4E7
330
35B
100
AcDbEntity
  8
0
100
AcDbVertex
100
AcDb2dVertex
 10
5.018700787401574
 20
4.975393700787401
 30
0.0
  0
VERTEX
  5
4E8
330
35B
100
AcDbEntity
  8
0
100
AcDbVertex
100
AcDb2dVertex
 10
5.018700787401574
 20
4.941929133858267
 30
0.0
  0
VERTEX
  5
4E9
330
35B
100
AcDbEntity
  8
0
100
AcDbVertex
100
AcDb2dVertex
 10
5.018700787401574
 20
4.913385826771653
 30
0.0
  0
VERTEX
  5
4EA
330
35B
100
AcDbEntity
  8
0
100
AcDbVertex
100
AcDb2dVertex
 10
5.018700787401574
 20
4.89271653543307
 30
0.0
  0
VERTEX
  5
4EB
330
35B
100
AcDbEntity
  8
0
100
AcDbVertex
100
AcDb2dVertex
 10
5.018700787401574
 20
4.878937007874015
 30
0.0
  0
VERTEX
  5
4EC
330
35B
100
AcDbEntity
  8
0
100
AcDbVertex
100
AcDb2dVertex
 10
5.018700787401574
 20
4.875
 30
0.0
  0
SEQEND
  5
4ED
330
35B
100
AcDbEntity
  8
0
  0
POLYLINE
  5
36B
330
1E
100
AcDbEntity
  8
0
100
AcDb2dPolyline
 66
     1
 10
0.0
 20
0.0
 30
0.0
  0
VERTEX
  5
4EE
330
36B
100
AcDbEntity
  8
0
100
AcDbVertex
100
AcDb2dVertex
 10
5.450787401574802
 20
5.138779527559054
 30
0.0
  0
VERTEX
  5
4EF
330
36B
100
AcDbEntity
  8
0
100
AcDbVertex
100
AcDb2dVertex
 10
5.459645669291338
 20
5.136811023622047
 30
0.0
  0
VERTEX
  5
4F0
330
36B
100
AcDbEntity
  8
0
100
AcDbVertex
100
AcDb2dVertex
 10
5.46259842519685
 20
5.131889763779527
 30
0.0
  0
VERTEX
  5
4F1
330
36B
100
AcDbEntity
  8
0
100
AcDbVertex
100
AcDb2dVertex
 10
5.455708661417323
 20
5.127952755905512
 30
0.0
  0
VERTEX
  5
4F2
330
36B
100
AcDbEntity
  8
0
100
AcDbVertex
100
AcDb2dVertex
 10
5.445866141732283
 20
5.127952755905512
 30
0.0
  0
VERTEX
  5
4F3
330
36B
100
AcDbEntity
  8
0
100
AcDbVertex
100
AcDb2dVertex
 10
5.43996062992126
 20
5.131889763779527
 30
0.0
  0
VERTEX
  5
4F4
330
36B
100
AcDbEntity
  8
0
100
AcDbVertex
100
AcDb2dVertex
 10
5.441929133858267
 20
5.136811023622047
 30
0.0
  0
VERTEX
  5
4F5
330
36B
100
AcDbEntity
  8
0
100
AcDbVertex
100
AcDb2dVertex
 10
5.450787401574802
 20
5.138779527559054
 30
0.0
  0
SEQEND
  5
4F6
330
36B
100
AcDbEntity
  8
0
  0
LINE
  5
375
330
1E
100
AcDbEntity
  8
0
100
AcDbLine
 10
5.499015748031496
 20
5.112204724409449
 30
0.0
 11
5.258858267716535
 21
5.112204724409449
 31
0.0
  0
POLYLINE
  5
376
330
1E
100
AcDbEntity
  8
0
100
AcDb2dPolyline
 66
     1
 10
0.0
 20
0.0
 30
0.0
  0
VERTEX
  5
4F7
330
376
100
AcDbEntity
  8
0
100
AcDbVertex
100
AcDb2dVertex
 10
5.499015748031496
 20
5.112204724409449
 30
0.0
  0
VERTEX
  5
4F8
330
376
100
AcDbEntity
  8
0
100
AcDbVertex
100
AcDb2dVertex
 10
5.505905511811023
 20
5.113188976377952
 30
0.0
  0
VERTEX
  5
4F9
330
376
100
AcDbEntity
  8
0
100
AcDbVertex
100
AcDb2dVertex
 10
5.508858267716535
 20
5.117125984251968
 30
0.0
  0
SEQEND
  5
4FA
330
376
100
AcDbEntity
  8
0
  0
LINE
  5
37B
330
1E
100
AcDbEntity
  8
0
100
AcDbLine
 10
5.508858267716535
 20
5.149606299212598
 30
0.0
 11
5.508858267716535
 21
5.117125984251968
 31
0.0
  0
POLYLINE
  5
37C
330
1E
100
AcDbEntity
  8
0
100
AcDb2dPolyline
 66
     1
 10
0.0
 20
0.0
 30
0.0
  0
VERTEX
  5
4FB
330
37C
100
AcDbEntity
  8
0
100
AcDbVertex
100
AcDb2dVertex
 10
5.508858267716535
 20
5.149606299212598
 30
0.0
  0
VERTEX
  5
4FC
330
37C
100
AcDbEntity
  8
0
100
AcDbVertex
100
AcDb2dVertex
 10
5.505905511811023
 20
5.153543307086613
 30
0.0
  0
VERTEX
  5
4FD
330
37C
100
AcDbEntity
  8
0
100
AcDbVertex
100
AcDb2dVertex
 10
5.499015748031496
 20
5.154527559055117
 30
0.0
  0
SEQEND
  5
4FE
330
37C
100
AcDbEntity
  8
0
  0
LINE
  5
381
330
1E
100
AcDbEntity
  8
0
100
AcDbLine
 10
5.258858267716535
 20
5.154527559055117
 30
0.0
 11
5.499015748031496
 21
5.154527559055117
 31
0.0
  0
LINE
  5
382
330
1E
100
AcDbEntity
  8
0
100
AcDbLine
 10
5.508858267716535
 20
5.117125984251968
 30
0.0
 11
5.508858267716535
 21
5.108267716535433
 31
0.0
  0
POLYLINE
  5
383
330
1E
100
AcDbEntity
  8
0
100
AcDb2dPolyline
 66
     1
 10
0.0
 20
0.0
 30
0.0
  0
VERTEX
  5
4FF
330
383
100
AcDbEntity
  8
0
100
AcDbVertex
100
AcDb2dVertex
 10
5.450787401574802
 20
5.129921259842519
 30
0.0
  0
VERTEX
  5
500
330
383
100
AcDbEntity
  8
0
100
AcDbVertex
100
AcDb2dVertex
 10
5.454724409448818
 20
5.129921259842519
 30
0.0
  0
VERTEX
  5
501
330
383
100
AcDbEntity
  8
0
100
AcDbVertex
100
AcDb2dVertex
 10
5.458661417322834
 20
5.128937007874015
 30
0.0
  0
SEQEND
  5
502
330
383
100
AcDbEntity
  8
0
  0
POLYLINE
  5
388
330
1E
100
AcDbEntity
  8
0
100
AcDb2dPolyline
 66
     1
 10
0.0
 20
0.0
 30
0.0
  0
VERTEX
  5
503
330
388
100
AcDbEntity
  8
0
100
AcDbVertex
100
AcDb2dVertex
 10
5.443897637795275
 20
5.128937007874015
 30
0.0
  0
VERTEX
  5
504
330
388
100
AcDbEntity
  8
0
100
AcDbVertex
100
AcDb2dVertex
 10
5.446850393700787
 20
5.129921259842519
 30
0.0
  0
VERTEX
  5
505
330
388
100
AcDbEntity
  8
0
100
AcDbVertex
100
AcDb2dVertex
 10
5.450787401574802
 20
5.129921259842519
 30
0.0
  0
SEQEND
  5
506
330
388
100
AcDbEntity
  8
0
  0
POLYLINE
  5
38D
330
1E
100
AcDbEntity
  8
0
100
AcDb2dPolyline
 66
     1
 10
0.0
 20
0.0
 30
0.0
  0
VERTEX
  5
507
330
38D
100
AcDbEntity
  8
0
100
AcDbVertex
100
AcDb2dVertex
 10
5.508858267716535
 20
5.108267716535433
 30
0.0
  0
VERTEX
  5
508
330
38D
100
AcDbEntity
  8
0
100
AcDbVertex
100
AcDb2dVertex
 10
5.505905511811023
 20
5.105314960629921
 30
0.0
  0
VERTEX
  5
509
330
38D
100
AcDbEntity
  8
0
100
AcDbVertex
100
AcDb2dVertex
 10
5.499015748031496
 20
5.103346456692912
 30
0.0
  0
SEQEND
  5
50A
330
38D
100
AcDbEntity
  8
0
  0
LINE
  5
392
330
1E
100
AcDbEntity
  8
0
100
AcDbLine
 10
5.258858267716535
 20
5.103346456692912
 30
0.0
 11
5.499015748031496
 21
5.103346456692912
 31
0.0
  0
LINE
  5
393
330
1E
100
AcDbEntity
  8
0
100
AcDbLine
 10
5.499015748031496
 20
5.103346456692912
 30
0.0
 11
5.499015748031496
 21
5.112204724409449
 31
0.0
  0
POLYLINE
  5
394
330
1E
100
AcDbEntity
  8
0
100
AcDb2dPolyline
 66
     1
 10
0.0
 20
0.0
 30
0.0
  0
VERTEX
  5
50B
330
394
100
AcDbEntity
  8
0
100
AcDbVertex
100
AcDb2dVertex
 10
5.347440944881889
 20
4.958661417322834
 30
0.0
  0
VERTEX
  5
50C
330
394
100
AcDbEntity
  8
0
100
AcDbVertex
100
AcDb2dVertex
 10
5.357283464566928
 20
4.961614173228346
 30
0.0
  0
VERTEX
  5
50D
330
394
100
AcDbEntity
  8
0
100
AcDbVertex
100
AcDb2dVertex
 10
5.362204724409449
 20
4.971456692913386
 30
0.0
  0
VERTEX
  5
50E
330
394
100
AcDbEntity
  8
0
100
AcDbVertex
100
AcDb2dVertex
 10
5.357283464566928
 20
4.980314960629921
 30
0.0
  0
VERTEX
  5
50F
330
394
100
AcDbEntity
  8
0
100
AcDbVertex
100
AcDb2dVertex
 10
5.347440944881889
 20
4.984251968503937
 30
0.0
  0
VERTEX
  5
510
330
394
100
AcDbEntity
  8
0
100
AcDbVertex
100
AcDb2dVertex
 10
5.336614173228346
 20
4.980314960629921
 30
0.0
  0
VERTEX
  5
511
330
394
100
AcDbEntity
  8
0
100
AcDbVertex
100
AcDb2dVertex
 10
5.331692913385826
 20
4.971456692913386
 30
0.0
  0
VERTEX
  5
512
330
394
100
AcDbEntity
  8
0
100
AcDbVertex
100
AcDb2dVertex
 10
5.336614173228346
 20
4.961614173228346
 30
0.0
  0
VERTEX
  5
513
330
394
100
AcDbEntity
  8
0
100
AcDbVertex
100
AcDb2dVertex
 10
5.347440944881889
 20
4.958661417322834
 30
0.0
  0
SEQEND
  5
514
330
394
100
AcDbEntity
  8
0
  0
LINE
  5
39F
330
1E
100
AcDbEntity
  8
0
100
AcDbLine
 10
5.369094488188975
 20
4.937992125984251
 30
0.0
 11
5.258858267716535
 21
4.937992125984251
 31
0.0
  0
POLYLINE
  5
3A0
330
1E
100
AcDbEntity
  8
0
100
AcDb2dPolyline
 66
     1
 10
0.0
 20
0.0
 30
0.0
  0
VERTEX
  5
515
330
3A0
100
AcDbEntity
  8
0
100
AcDbVertex
100
AcDb2dVertex
 10
5.369094488188975
 20
4.937992125984251
 30
0.0
  0
VERTEX
  5
516
330
3A0
100
AcDbEntity
  8
0
100
AcDbVertex
100
AcDb2dVertex
 10
5.375984251968503
 20
4.93996062992126
 30
0.0
  0
VERTEX
  5
517
330
3A0
100
AcDbEntity
  8
0
100
AcDbVertex
100
AcDb2dVertex
 10
5.378937007874015
 20
4.946850393700787
 30
0.0
  0
SEQEND
  5
518
330
3A0
100
AcDbEntity
  8
0
  0
LINE
  5
3A5
330
1E
100
AcDbEntity
  8
0
100
AcDbLine
 10
5.378937007874015
 20
4.996062992125984
 30
0.0
 11
5.378937007874015
 21
4.946850393700787
 31
0.0
  0
POLYLINE
  5
3A6
330
1E
100
AcDbEntity
  8
0
100
AcDb2dPolyline
 66
     1
 10
0.0
 20
0.0
 30
0.0
  0
VERTEX
  5
519
330
3A6
100
AcDbEntity
  8
0
100
AcDbVertex
100
AcDb2dVertex
 10
5.378937007874015
 20
4.996062992125984
 30
0.0
  0
VERTEX
  5
51A
330
3A6
100
AcDbEntity
  8
0
100
AcDbVertex
100
AcDb2dVertex
 10
5.375984251968503
 20
5.001968503937007
 30
0.0
  0
VERTEX
  5
51B
330
3A6
100
AcDbEntity
  8
0
100
AcDbVertex
100
AcDb2dVertex
 10
5.369094488188975
 20
5.004921259842519
 30
0.0
  0
SEQEND
  5
51C
330
3A6
100
AcDbEntity
  8
0
  0
LINE
  5
3AB
330
1E
100
AcDbEntity
  8
0
100
AcDbLine
 10
5.258858267716535
 20
5.004921259842519
 30
0.0
 11
5.369094488188975
 21
5.004921259842519
 31
0.0
  0
LINE
  5
3AC
330
1E
100
AcDbEntity
  8
0
100
AcDbLine
 10
5.369094488188975
 20
5.004921259842519
 30
0.0
 11
5.369094488188975
 21
5.008858267716535
 31
0.0
  0
LINE
  5
3AD
330
1E
100
AcDbEntity
  8
0
100
AcDbLine
 10
5.369094488188975
 20
5.008858267716535
 30
0.0
 11
5.258858267716535
 21
5.008858267716535
 31
0.0
  0
LINE
  5
3AE
330
1E
100
AcDbEntity
  8
0
100
AcDbLine
 10
5.378937007874015
 20
5.0
 30
0.0
 11
5.378937007874015
 21
4.996062992125984
 31
0.0
  0
POLYLINE
  5
3AF
330
1E
100
AcDbEntity
  8
0
100
AcDb2dPolyline
 66
     1
 10
0.0
 20
0.0
 30
0.0
  0
VERTEX
  5
51D
330
3AF
100
AcDbEntity
  8
0
100
AcDbVertex
100
AcDb2dVertex
 10
5.362204724409449
 20
4.973425196850393
 30
0.0
  0
VERTEX
  5
51E
330
3AF
100
AcDbEntity
  8
0
100
AcDbVertex
100
AcDb2dVertex
 10
5.353346456692912
 20
4.964566929133858
 30
0.0
  0
VERTEX
  5
51F
330
3AF
100
AcDbEntity
  8
0
100
AcDbVertex
100
AcDb2dVertex
 10
5.340551181102362
 20
4.964566929133858
 30
0.0
  0
VERTEX
  5
520
330
3AF
100
AcDbEntity
  8
0
100
AcDbVertex
100
AcDb2dVertex
 10
5.33267716535433
 20
4.973425196850393
 30
0.0
  0
SEQEND
  5
521
330
3AF
100
AcDbEntity
  8
0
  0
POLYLINE
  5
3B5
330
1E
100
AcDbEntity
  8
0
100
AcDb2dPolyline
 66
     1
 10
0.0
 20
0.0
 30
0.0
  0
VERTEX
  5
522
330
3B5
100
AcDbEntity
  8
0
100
AcDbVertex
100
AcDb2dVertex
 10
5.369094488188975
 20
5.008858267716535
 30
0.0
  0
VERTEX
  5
523
330
3B5
100
AcDbEntity
  8
0
100
AcDbVertex
100
AcDb2dVertex
 10
5.375984251968503
 20
5.006889763779527
 30
0.0
  0
VERTEX
  5
524
330
3B5
100
AcDbEntity
  8
0
100
AcDbVertex
100
AcDb2dVertex
 10
5.378937007874015
 20
5.0
 30
0.0
  0
SEQEND
  5
525
330
3B5
100
AcDbEntity
  8
0
  0
POLYLINE
  5
3BA
330
1E
100
AcDbEntity
  8
0
100
AcDb2dPolyline
 66
     1
 10
0.0
 20
0.0
 30
0.0
  0
VERTEX
  5
526
330
3BA
100
AcDbEntity
  8
0
100
AcDbVertex
100
AcDb2dVertex
 10
5.36515748031496
 20
5.086614173228346
 30
0.0
  0
VERTEX
  5
527
330
3BA
100
AcDbEntity
  8
0
100
AcDbVertex
100
AcDb2dVertex
 10
5.358267716535433
 20
5.077755905511811
 30
0.0
  0
VERTEX
  5
528
330
3BA
100
AcDbEntity
  8
0
100
AcDbVertex
100
AcDb2dVertex
 10
5.347440944881889
 20
5.073818897637795
 30
0.0
  0
VERTEX
  5
529
330
3BA
100
AcDbEntity
  8
0
100
AcDbVertex
100
AcDb2dVertex
 10
5.335629921259842
 20
5.077755905511811
 30
0.0
  0
VERTEX
  5
52A
330
3BA
100
AcDbEntity
  8
0
100
AcDbVertex
100
AcDb2dVertex
 10
5.328740157480314
 20
5.086614173228346
 30
0.0
  0
SEQEND
  5
52B
330
3BA
100
AcDbEntity
  8
0
  0
LINE
  5
3C1
330
1E
100
AcDbEntity
  8
0
100
AcDbLine
 10
5.369094488188975
 20
5.051181102362204
 30
0.0
 11
5.258858267716535
 21
5.051181102362204
 31
0.0
  0
LINE
  5
3C2
330
1E
100
AcDbEntity
  8
0
100
AcDbLine
 10
5.378937007874015
 20
5.103346456692912
 30
0.0
 11
5.378937007874015
 21
5.060039370078739
 31
0.0
  0
POLYLINE
  5
3C3
330
1E
100
AcDbEntity
  8
0
100
AcDb2dPolyline
 66
     1
 10
0.0
 20
0.0
 30
0.0
  0
VERTEX
  5
52C
330
3C3
100
AcDbEntity
  8
0
100
AcDbVertex
100
AcDb2dVertex
 10
5.347440944881889
 20
5.068897637795275
 30
0.0
  0
VERTEX
  5
52D
330
3C3
100
AcDbEntity
  8
0
100
AcDbVertex
100
AcDb2dVertex
 10
5.358267716535433
 20
5.072834645669291
 30
0.0
  0
VERTEX
  5
52E
330
3C3
100
AcDbEntity
  8
0
100
AcDbVertex
100
AcDb2dVertex
 10
5.36515748031496
 20
5.081692913385826
 30
0.0
  0
VERTEX
  5
52F
330
3C3
100
AcDbEntity
  8
0
100
AcDbVertex
100
AcDb2dVertex
 10
5.362204724409449
 20
5.09251968503937
 30
0.0
  0
VERTEX
  5
530
330
3C3
100
AcDbEntity
  8
0
100
AcDbVertex
100
AcDb2dVertex
 10
5.353346456692912
 20
5.099409448818897
 30
0.0
  0
VERTEX
  5
531
330
3C3
100
AcDbEntity
  8
0
100
AcDbVertex
100
AcDb2dVertex
 10
5.340551181102362
 20
5.099409448818897
 30
0.0
  0
VERTEX
  5
532
330
3C3
100
AcDbEntity
  8
0
100
AcDbVertex
100
AcDb2dVertex
 10
5.331692913385826
 20
5.09251968503937
 30
0.0
  0
VERTEX
  5
533
330
3C3
100
AcDbEntity
  8
0
100
AcDbVertex
100
AcDb2dVertex
 10
5.329724409448818
 20
5.081692913385826
 30
0.0
  0
VERTEX
  5
534
330
3C3
100
AcDbEntity
  8
0
100
AcDbVertex
100
AcDb2dVertex
 10
5.335629921259842
 20
5.072834645669291
 30
0.0
  0
VERTEX
  5
535
330
3C3
100
AcDbEntity
  8
0
100
AcDbVertex
100
AcDb2dVertex
 10
5.347440944881889
 20
5.068897637795275
 30
0.0
  0
SEQEND
  5
536
330
3C3
100
AcDbEntity
  8
0
  0
POLYLINE
  5
3CF
330
1E
100
AcDbEntity
  8
0
100
AcDb2dPolyline
 66
     1
 10
0.0
 20
0.0
 30
0.0
  0
VERTEX
  5
537
330
3CF
100
AcDbEntity
  8
0
100
AcDbVertex
100
AcDb2dVertex
 10
5.369094488188975
 20
5.051181102362204
 30
0.0
  0
VERTEX
  5
538
330
3CF
100
AcDbEntity
  8
0
100
AcDbVertex
100
AcDb2dVertex
 10
5.375984251968503
 20
5.054133858267716
 30
0.0
  0
VERTEX
  5
539
330
3CF
100
AcDbEntity
  8
0
100
AcDbVertex
100
AcDb2dVertex
 10
5.378937007874015
 20
5.060039370078739
 30
0.0
  0
SEQEND
  5
53A
330
3CF
100
AcDbEntity
  8
0
  0
LINE
  5
3D4
330
1E
100
AcDbEntity
  8
0
100
AcDbLine
 10
4.539370078740157
 20
5.376968503937007
 30
0.0
 11
4.539370078740157
 21
4.742125984251968
 31
0.0
  0
LINE
  5
3D5
330
1E
100
AcDbEntity
  8
0
100
AcDbLine
 10
4.539370078740157
 20
4.742125984251968
 30
0.0
 11
4.556102362204724
 21
4.742125984251968
 31
0.0
  0
LINE
  5
3D6
330
1E
100
AcDbEntity
  8
0
100
AcDbLine
 10
4.556102362204724
 20
4.742125984251968
 30
0.0
 11
4.783464566929133
 21
4.614173228346456
 31
0.0
  0
LINE
  5
3D7
330
1E
100
AcDbEntity
  8
0
100
AcDbLine
 10
4.783464566929133
 20
4.614173228346456
 30
0.0
 11
4.923228346456692
 21
4.613188976377952
 31
0.0
  0
LINE
  5
3D8
330
1E
100
AcDbEntity
  8
0
100
AcDbLine
 10
4.787401574803149
 20
4.684055118110236
 30
0.0
 11
4.981299212598425
 21
4.683070866141732
 31
0.0
  0
LINE
  5
3D9
330
1E
100
AcDbEntity
  8
0
100
AcDbLine
 10
4.787401574803149
 20
4.684055118110236
 30
0.0
 11
4.639763779527559
 21
4.766732283464566
 31
0.0
  0
LINE
  5
3DA
330
1E
100
AcDbEntity
  8
0
100
AcDbLine
 10
4.639763779527559
 20
4.766732283464566
 30
0.0
 11
4.636811023622047
 21
4.771653543307086
 31
0.0
  0
LINE
  5
3DB
330
1E
100
AcDbEntity
  8
0
100
AcDbLine
 10
4.636811023622047
 20
4.771653543307086
 30
0.0
 11
4.636811023622047
 21
5.312007874015748
 31
0.0
  0
LINE
  5
3DC
330
1E
100
AcDbEntity
  8
0
100
AcDbLine
 10
4.636811023622047
 20
5.312007874015748
 30
0.0
 11
4.963582677165354
 21
5.31496062992126
 31
0.0
  0
LINE
  5
3DD
330
1E
100
AcDbEntity
  8
0
100
AcDbLine
 10
4.539370078740157
 20
5.376968503937007
 30
0.0
 11
4.923228346456692
 21
5.383858267716535
 31
0.0
  0
LINE
  5
3DE
330
1E
100
AcDbEntity
  8
0
100
AcDbLine
 10
5.004921259842519
 20
5.382874015748031
 30
0.0
 11
5.324803149606299
 21
5.380905511811023
 31
0.0
  0
LINE
  5
3DF
330
1E
100
AcDbEntity
  8
0
100
AcDbLine
 10
4.859251968503937
 20
5.384842519685038
 30
0.0
 11
4.923228346456692
 21
5.383858267716535
 31
0.0
  0
LINE
  5
3E0
330
1E
100
AcDbEntity
  8
0
100
AcDbLine
 10
5.004921259842519
 20
5.382874015748031
 30
0.0
 11
4.923228346456692
 21
5.383858267716535
 31
0.0
  0
LINE
  5
3E1
330
1E
100
AcDbEntity
  8
0
100
AcDbLine
 10
4.923228346456692
 20
5.383858267716535
 30
0.0
 11
4.923228346456692
 21
5.31496062992126
 31
0.0
  0
LINE
  5
3E2
330
1E
100
AcDbEntity
  8
0
100
AcDbLine
 10
4.923228346456692
 20
5.31496062992126
 30
0.0
 11
5.004921259842519
 21
5.31496062992126
 31
0.0
  0
LINE
  5
3E3
330
1E
100
AcDbEntity
  8
0
100
AcDbLine
 10
4.859251968503937
 20
5.384842519685038
 30
0.0
 11
4.859251968503937
 21
5.428149606299212
 31
0.0
  0
LINE
  5
3E4
330
1E
100
AcDbEntity
  8
0
100
AcDbLine
 10
4.747047244094487
 20
5.380905511811023
 30
0.0
 11
4.859251968503937
 21
5.428149606299212
 31
0.0
  0
LINE
  5
3E5
330
1E
100
AcDbEntity
  8
0
100
AcDbLine
 10
5.004921259842519
 20
5.31496062992126
 30
0.0
 11
5.004921259842519
 21
5.382874015748031
 31
0.0
  0
LINE
  5
3E6
330
1E
100
AcDbEntity
  8
0
100
AcDbLine
 10
5.004921259842519
 20
5.31496062992126
 30
0.0
 11
5.324803149606299
 21
5.317913385826771
 31
0.0
  0
LINE
  5
3E7
330
1E
100
AcDbEntity
  8
0
100
AcDbLine
 10
5.324803149606299
 20
5.317913385826771
 30
0.0
 11
5.324803149606299
 21
5.380905511811023
 31
0.0
  0
POLYLINE
  5
3E8
330
1E
100
AcDbEntity
  8
0
100
AcDb2dPolyline
 66
     1
 10
0.0
 20
0.0
 30
0.0
  0
VERTEX
  5
53B
330
3E8
100
AcDbEntity
  8
0
100
AcDbVertex
100
AcDb2dVertex
 10
4.799212598425197
 20
4.780511811023622
 30
0.0
  0
VERTEX
  5
53C
330
3E8
100
AcDbEntity
  8
0
100
AcDbVertex
100
AcDb2dVertex
 10
4.799212598425197
 20
4.798228346456692
 30
0.0
  0
VERTEX
  5
53D
330
3E8
100
AcDbEntity
  8
0
100
AcDbVertex
100
AcDb2dVertex
 10
4.799212598425197
 20
4.823818897637795
 30
0.0
  0
VERTEX
  5
53E
330
3E8
100
AcDbEntity
  8
0
100
AcDbVertex
100
AcDb2dVertex
 10
4.799212598425197
 20
4.856299212598425
 30
0.0
  0
VERTEX
  5
53F
330
3E8
100
AcDbEntity
  8
0
100
AcDbVertex
100
AcDb2dVertex
 10
4.799212598425197
 20
4.893700787401574
 30
0.0
  0
VERTEX
  5
540
330
3E8
100
AcDbEntity
  8
0
100
AcDbVertex
100
AcDb2dVertex
 10
4.799212598425197
 20
4.937007874015748
 30
0.0
  0
VERTEX
  5
541
330
3E8
100
AcDbEntity
  8
0
100
AcDbVertex
100
AcDb2dVertex
 10
4.799212598425197
 20
4.982283464566928
 30
0.0
  0
VERTEX
  5
542
330
3E8
100
AcDbEntity
  8
0
100
AcDbVertex
100
AcDb2dVertex
 10
4.799212598425197
 20
5.030511811023622
 30
0.0
  0
VERTEX
  5
543
330
3E8
100
AcDbEntity
  8
0
100
AcDbVertex
100
AcDb2dVertex
 10
4.799212598425197
 20
5.077755905511811
 30
0.0
  0
VERTEX
  5
544
330
3E8
100
AcDbEntity
  8
0
100
AcDbVertex
100
AcDb2dVertex
 10
4.799212598425197
 20
5.124015748031496
 30
0.0
  0
VERTEX
  5
545
330
3E8
100
AcDbEntity
  8
0
100
AcDbVertex
100
AcDb2dVertex
 10
4.799212598425197
 20
5.166338582677165
 30
0.0
  0
VERTEX
  5
546
330
3E8
100
AcDbEntity
  8
0
100
AcDbVertex
100
AcDb2dVertex
 10
4.799212598425197
 20
5.204724409448818
 30
0.0
  0
VERTEX
  5
547
330
3E8
100
AcDbEntity
  8
0
100
AcDbVertex
100
AcDb2dVertex
 10
4.799212598425197
 20
5.237204724409449
 30
0.0
  0
VERTEX
  5
548
330
3E8
100
AcDbEntity
  8
0
100
AcDbVertex
100
AcDb2dVertex
 10
4.799212598425197
 20
5.261811023622047
 30
0.0
  0
VERTEX
  5
549
330
3E8
100
AcDbEntity
  8
0
100
AcDbVertex
100
AcDb2dVertex
 10
4.799212598425197
 20
5.279527559055117
 30
0.0
  0
SEQEND
  5
54A
330
3E8
100
AcDbEntity
  8
0
  0
LINE
  5
3F9
330
1E
100
AcDbEntity
  8
0
100
AcDbLine
 10
4.799212598425197
 20
5.279527559055117
 30
0.0
 11
4.636811023622047
 21
5.282480314960629
 31
0.0
  0
LINE
  5
3FA
330
1E
100
AcDbEntity
  8
0
100
AcDbLine
 10
4.636811023622047
 20
4.77755905511811
 30
0.0
 11
4.799212598425197
 21
4.780511811023622
 31
0.0
  0
LINE
  5
3FB
330
1E
100
AcDbEntity
  8
0
100
AcDbLine
 10
5.324803149606299
 20
4.616141732283464
 30
0.0
 11
5.324803149606299
 21
4.68011811023622
 31
0.0
  0
LINE
  5
3FC
330
1E
100
AcDbEntity
  8
0
100
AcDbLine
 10
5.004921259842519
 20
4.614173228346456
 30
0.0
 11
5.324803149606299
 21
4.616141732283464
 31
0.0
  0
LINE
  5
3FD
330
1E
100
AcDbEntity
  8
0
100
AcDbLine
 10
5.004921259842519
 20
4.683070866141732
 30
0.0
 11
5.324803149606299
 21
4.68011811023622
 31
0.0
  0
LINE
  5
3FE
330
1E
100
AcDbEntity
  8
0
100
AcDbLine
 10
5.004921259842519
 20
4.614173228346456
 30
0.0
 11
5.004921259842519
 21
4.683070866141732
 31
0.0
  0
LINE
  5
3FF
330
1E
100
AcDbEntity
  8
0
100
AcDbLine
 10
4.95767716535433
 20
4.683070866141732
 30
0.0
 11
5.004921259842519
 21
4.683070866141732
 31
0.0
  0
LINE
  5
400
330
1E
100
AcDbEntity
  8
0
100
AcDbLine
 10
4.95767716535433
 20
4.683070866141732
 30
0.0
 11
4.923228346456692
 21
4.648622047244094
 31
0.0
  0
LINE
  5
401
330
1E
100
AcDbEntity
  8
0
100
AcDbLine
 10
4.923228346456692
 20
4.648622047244094
 30
0.0
 11
4.923228346456692
 21
4.613188976377952
 31
0.0
  0
LINE
  5
402
330
1E
100
AcDbEntity
  8
0
100
AcDbLine
 10
5.004921259842519
 20
4.614173228346456
 30
0.0
 11
4.923228346456692
 21
4.613188976377952
 31
0.0
  0
LINE
  5
403
330
1E
100
AcDbEntity
  8
0
100
AcDbLine
 10
4.859251968503937
 20
4.612204724409449
 30
0.0
 11
4.923228346456692
 21
4.613188976377952
 31
0.0
  0
LINE
  5
404
330
1E
100
AcDbEntity
  8
0
100
AcDbLine
 10
4.859251968503937
 20
4.571850393700787
 30
0.0
 11
4.783464566929133
 21
4.614173228346456
 31
0.0
  0
LINE
  5
405
330
1E
100
AcDbEntity
  8
0
100
AcDbLine
 10
4.859251968503937
 20
4.612204724409449
 30
0.0
 11
4.859251968503937
 21
4.571850393700787
 31
0.0
  0
ENDSEC
  0
SECTION
  2
OBJECTS
  0
DICTIONARY
  5
C
330
0
100
AcDbDictionary
  3
ACAD_GROUP
350
D
  3
ACAD_MLINESTYLE
350
16
  3
ACAD_PLOTSETTINGS
350
18
  3
ACAD_LAYOUT
350
19
1001
ACAD
1000
TREAT_AS_HARD
1070
     0
  0
DICTIONARY
  5
40D
330
1E
100
AcDbDictionary
  3
ACAD_LAYOUTSELFREF
350
40E
  0
DICTIONARY
  5
40B
330
1A
100
AcDbDictionary
  3
ACAD_LAYOUTSELFREF
350
40C
  0
DICTIONARY
  5
D
102
{ACAD_REACTORS
330
C
102
}
330
C
100
AcDbDictionary
1001
ACAD
1000
TREAT_AS_HARD
1070
     0
  0
DICTIONARY
  5
16
102
{ACAD_REACTORS
330
C
102
}
330
C
100
AcDbDictionary
  3
STANDARD
350
17
1001
ACAD
1000
TREAT_AS_HARD
1070
     0
  0
DICTIONARY
  5
18
102
{ACAD_REACTORS
330
C
102
}
330
C
100
AcDbDictionary
1001
ACAD
1000
TREAT_AS_HARD
1070
     0
  0
DICTIONARY
  5
19
102
{ACAD_REACTORS
330
C
102
}
330
C
100
AcDbDictionary
1001
ACAD
1000
TREAT_AS_HARD
1070
     0
  0
XRECORD
  5
40E
102
{ACAD_REACTORS
330
40D
102
}
330
40D
100
AcDbXrecord
340
1E
  0
XRECORD
  5
40C
102
{ACAD_REACTORS
330
40B
102
}
330
40B
100
AcDbXrecord
340
1A
  0
MLINESTYLE
  5
17
102
{ACAD_REACTORS
330
16
102
}
330
16
100
AcDbMlineStyle
  2
STANDARD
 70
     0
  3

 62
   256
 51
90.0
 52
90.0
 71
     2
 49
0.5
 62
   256
  6
BYLAYER
 49
-0.5
 62
   256
  6
BYLAYER
  0
ENDSEC
  0
EOF
