999
DXF file: C:\Users\sesa63760\Dev\_Creo\CAD\MCADFD0002487_3D-CAD\drw0001_1.dxf
999
Pro/ENGINEER 2019471 by Parametric Technology Corporation
  0
SECTION
  2
HEADER
  9
$ACADVER
  1
AC1024
  9
$DWGCODEPAGE
  3
ANSI_1252
  9
$EXTMAX
 10
130.4334637216
 20
184.4701844062
 30
0.0
  9
$EXTMIN
 10
0.0
 20
0.0
 30
0.0
  9
$LIMMIN
 10
0.0
 20
0.0
  9
$LIMMAX
 10
130.4334637216
 20
184.4701844062
  9
$VIEWCTR
 10
65.2167318608
 20
92.2350922031
  9
$VIEWSIZE
 40
184.4701844062
  9
$CLAYER
  8
0
  9
$LTSCALE
 40
12.0247231317
  9
$CELTYPE
  6
BYLAYER
  9
$DIMSCALE
 40
1.0
  9
$DIMASZ
 40
1.55277933
  9
$DIMEXO
 40
1.0
  9
$DIMDLI
 40
8.3079905273
  9
$DIMEXE
 40
1.0
  9
$DIMCEN
 40
1.967681967
  9
$DIMLFAC
 40
1.0
  9
$DIMBLK
  1
_FILLED
  9
$DIMALT
 70
0
  9
$DIMALTF
 40
0.0393700787
  9
$DIMTXT
 40
2.173891062
  9
$DIMTOL
 70
1
  9
$DIMLIM
 70
0
  9
$DIMTFAC
 40
1.0
  9
$DIMTP
 40
0.01
  9
$DIMTM
 40
0.01
  9
$DIMGAP
 40
0.625
  9
$DIMDSEP
 70
46
  9
$AUNITS
 70
0
  9
$PDMODE
 70
3
  9
$PDSIZE
 40
0.3125
  9
$HANDSEED
  5
542
  9
$TILEMODE
 70
1
  9
$MEASUREMENT
 70
1
  9
$INSUNITS
 70
4
  0
ENDSEC
  0
SECTION
  2
CLASSES
  0
CLASS
  1
ACDBDICTIONARYWDFLT
  2
AcDbDictionaryWithDefault
  3
AutoCAD 2000
 90
0
 91
1
280
0
281
0
  0
CLASS
  1
ACDBPLACEHOLDER
  2
AcDbPlaceHolder
  3
AutoCAD 2000
 90
0
 91
1
280
0
281
0
  0
CLASS
  1
LAYOUT
  2
AcDbLayout
  3
AutoCAD 2000
 90
0
 91
0
280
0
281
0
  0
ENDSEC
  0
SECTION
  2
TABLES
  0
TABLE
  2
VPORT
  5
8
100
AcDbSymbolTable
 70
2
  0
VPORT
  5
1F4
100
AcDbSymbolTableRecord
100
AcDbViewportTableRecord
  2
*ACTIVE
 70
0
 10
0.0
 20
0.0
 11
1.0
 21
1.0
 12
65.2167318608
 22
92.2350922031
 13
0.0
 23
0.0
 14
1.0
 24
1.0
 15
0.0
 25
0.0
 16
0.0
 26
0.0
 36
1.0
 17
0.0
 27
0.0
 37
0.0
 40
184.4701844062
 41
0.7070707071
 42
50.0
 43
0.0
 44
0.0
 50
0.0
 51
0.0
 71
0
 72
100
 73
1
 74
1
 75
0
 76
0
 77
0
 78
0
  0
ENDTAB
  0
TABLE
  2
LTYPE
  5
5
100
AcDbSymbolTable
 70
6
  0
LTYPE
  5
14
100
AcDbSymbolTableRecord
100
AcDbLinetypeTableRecord
  2
BYBLOCK
 70
0
  3

 72
65
 73
0
 40
0.0
  0
LTYPE
  5
15
100
AcDbSymbolTableRecord
100
AcDbLinetypeTableRecord
  2
BYLAYER
 70
0
  3

 72
65
 73
0
 40
0.0
  0
LTYPE
  5
16
100
AcDbSymbolTableRecord
100
AcDbLinetypeTableRecord
  2
CONTINUOUS
 70
64
  3
Solid line
 72
65
 73
0
 40
0.0
  0
LTYPE
  5
1F5
100
AcDbSymbolTableRecord
100
AcDbLinetypeTableRecord
  2
CENTER
 70
64
  3
____ _ ____ _ ____ _ ____ _ ____ _ ____ _ ____
 72
65
 73
4
 40
0.6
 49
0.375
 74
0
 49
-0.075
 74
0
 49
0.075
 74
0
 49
-0.075
 74
0
  0
LTYPE
  5
1F6
100
AcDbSymbolTableRecord
100
AcDbLinetypeTableRecord
  2
HIDDEN
 70
64
  3
- - - - - - - - - - - - - - - - - - - -
 72
65
 73
2
 40
0.2
 49
0.1
 74
0
 49
-0.1
 74
0
  0
LTYPE
  5
1F7
100
AcDbSymbolTableRecord
100
AcDbLinetypeTableRecord
  2
PHANTOM
 70
64
  3
_____ _ _ _____ _ _ _____ _ _ _____
 72
65
 73
6
 40
0.8
 49
0.45
 74
0
 49
-0.05
 74
0
 49
0.1
 74
0
 49
-0.05
 74
0
 49
0.1
 74
0
 49
-0.05
 74
0
  0
LTYPE
  5
1F8
100
AcDbSymbolTableRecord
100
AcDbLinetypeTableRecord
  2
DOT
 70
64
  3
. . . . . . . . . . . . . . . . . . . .
 72
65
 73
2
 40
0.2
 49
0.1
 74
0
 49
-0.1
 74
0
  0
LTYPE
  5
1F9
100
AcDbSymbolTableRecord
100
AcDbLinetypeTableRecord
  2
DASHED
 70
64
  3
- - - - - - - - - - - - - - - - - - - -
 72
65
 73
2
 40
0.2
 49
0.1
 74
0
 49
-0.1
 74
0
  0
ENDTAB
  0
TABLE
  2
LAYER
  5
2
100
AcDbSymbolTable
 70
36
  0
LAYER
  5
10
100
AcDbSymbolTableRecord
100
AcDbLayerTableRecord
  2
0
 70
0
 62
7
  6
CONTINUOUS
370
-3
390
F
  0
LAYER
  5
1FA
100
AcDbSymbolTableRecord
100
AcDbLayerTableRecord
  2
DEFAULT_1
 70
0
 62
7
  6
CENTER
370
-3
390
F
  0
LAYER
  5
1FB
100
AcDbSymbolTableRecord
100
AcDbLayerTableRecord
  2
DEFAULT_2
 70
0
 62
8
  6
HIDDEN
370
-3
390
F
  0
LAYER
  5
1FC
100
AcDbSymbolTableRecord
100
AcDbLayerTableRecord
  2
DEFAULT_3
 70
0
 62
7
  6
PHANTOM
370
-3
390
F
  0
LAYER
  5
1FD
100
AcDbSymbolTableRecord
100
AcDbLayerTableRecord
  2
00_COMPONENTS
 70
0
 62
7
  6
CONTINUOUS
370
-3
390
F
  0
LAYER
  5
1FE
100
AcDbSymbolTableRecord
100
AcDbLayerTableRecord
  2
01_1_DEFAULT_DATUMS
 70
0
 62
7
  6
CONTINUOUS
370
-3
390
F
  0
LAYER
  5
1FF
100
AcDbSymbolTableRecord
100
AcDbLayerTableRecord
  2
01_PLANES
 70
0
 62
7
  6
CONTINUOUS
370
-3
390
F
  0
LAYER
  5
200
100
AcDbSymbolTableRecord
100
AcDbLayerTableRecord
  2
02_COORD_SYS
 70
0
 62
7
  6
CONTINUOUS
370
-3
390
F
  0
LAYER
  5
201
100
AcDbSymbolTableRecord
100
AcDbLayerTableRecord
  2
03_AXES
 70
0
 62
7
  6
CONTINUOUS
370
-3
390
F
  0
LAYER
  5
202
100
AcDbSymbolTableRecord
100
AcDbLayerTableRecord
  2
04_POINTS
 70
0
 62
7
  6
CONTINUOUS
370
-3
390
F
  0
LAYER
  5
203
100
AcDbSymbolTableRecord
100
AcDbLayerTableRecord
  2
05_CURVES
 70
0
 62
7
  6
CONTINUOUS
370
-3
390
F
  0
LAYER
  5
204
100
AcDbSymbolTableRecord
100
AcDbLayerTableRecord
  2
06_SURFS
 70
0
 62
7
  6
CONTINUOUS
370
-3
390
F
  0
LAYER
  5
205
100
AcDbSymbolTableRecord
100
AcDbLayerTableRecord
  2
07_COSMETICS
 70
0
 62
7
  6
CONTINUOUS
370
-3
390
F
  0
LAYER
  5
206
100
AcDbSymbolTableRecord
100
AcDbLayerTableRecord
  2
10_NOTES
 70
0
 62
7
  6
CONTINUOUS
370
-3
390
F
  0
LAYER
  5
207
100
AcDbSymbolTableRecord
100
AcDbLayerTableRecord
  2
11_NOTES_PUB
 70
0
 62
7
  6
CONTINUOUS
370
-3
390
F
  0
LAYER
  5
208
100
AcDbSymbolTableRecord
100
AcDbLayerTableRecord
  2
13_REF_GTOL
 70
0
 62
7
  6
CONTINUOUS
370
-3
390
F
  0
LAYER
  5
209
100
AcDbSymbolTableRecord
100
AcDbLayerTableRecord
  2
16_MISC
 70
0
 62
7
  6
CONTINUOUS
370
-3
390
F
  0
LAYER
  5
20A
100
AcDbSymbolTableRecord
100
AcDbLayerTableRecord
  2
17_NO_PRINT
 70
0
 62
7
  6
CONTINUOUS
370
-3
390
F
  0
LAYER
  5
20B
100
AcDbSymbolTableRecord
100
AcDbLayerTableRecord
  2
18_DATUM_CAMS_JOINTS
 70
0
 62
7
  6
CONTINUOUS
370
-3
390
F
  0
LAYER
  5
20C
100
AcDbSymbolTableRecord
100
AcDbLayerTableRecord
  2
19_DATUM_FUNCTIONAL
 70
0
 62
7
  6
CONTINUOUS
370
-3
390
F
  0
LAYER
  5
20D
100
AcDbSymbolTableRecord
100
AcDbLayerTableRecord
  2
20_DATUM_KINEMATIC_SCHEME
 70
0
 62
7
  6
CONTINUOUS
370
-3
390
F
  0
ENDTAB
  0
TABLE
  2
STYLE
  5
3
100
AcDbSymbolTable
 70
1
  0
STYLE
  5
11
100
AcDbSymbolTableRecord
100
AcDbTextStyleTableRecord
  2
STANDARD
 70
0
 40
0.0
 41
0.8
 50
0.0
 71
0
 42
0.2
  3
txt
  4

  0
STYLE
  5
20E
100
AcDbSymbolTableRecord
100
AcDbTextStyleTableRecord
  2
TEXTSTYLE_1
 70
0
 40
0.0
 41
0.8
 50
0.0
 71
0
 42
0.2
  3
gdt
  4

  0
ENDTAB
  0
TABLE
  2
VIEW
  5
6
100
AcDbSymbolTable
 70
0
  0
ENDTAB
  0
TABLE
  2
UCS
  5
7
100
AcDbSymbolTable
 70
0
  0
ENDTAB
  0
TABLE
  2
APPID
  5
9
100
AcDbSymbolTable
 70
1
  0
APPID
  5
20F
100
AcDbSymbolTableRecord
100
AcDbRegAppTableRecord
  2
ACAD
 70
0
  0
ENDTAB
  0
TABLE
  2
BLOCK_RECORD
  5
1
100
AcDbSymbolTable
 70
0
  0
BLOCK_RECORD
  5
210
100
AcDbSymbolTableRecord
100
AcDbBlockTableRecord
  2
*Model_Space
  0
BLOCK_RECORD
  5
211
100
AcDbSymbolTableRecord
100
AcDbBlockTableRecord
  2
*Paper_Space
  0
BLOCK_RECORD
  5
212
100
AcDbSymbolTableRecord
100
AcDbBlockTableRecord
  2
_FILLED
  0
ENDTAB
  0
TABLE
  2
DIMSTYLE
  5
A
100
AcDbSymbolTable
 70
1
100
AcDbDimStyleTable
 71
0
  0
DIMSTYLE
105
213
100
AcDbSymbolTableRecord
100
AcDbDimStyleTableRecord
  2
STANDARD
 70
0
  3

  4

 40
1.0
 41
1.55277933
 42
1.0
 43
0.38
 44
1.0
 45
0.0
 46
0.0
 47
0.01
 48
0.01
140
2.173891062
141
0.09
142
0.0
143
25.4
144
1.0
145
0.0
146
1.0
147
0.625
 71
1
 72
0
 73
0
 74
0
 75
0
 76
0
 77
1
 78
8
 79
2
170
0
171
1
172
0
173
0
174
0
175
0
176
0
177
0
178
0
270
2
179
2
271
2
272
2
273
2
274
2
275
0
280
0
281
0
282
0
283
1
284
8
285
0
286
0
287
3
288
0
340
11
278
46
341
212
342
212
343
212
344
212
  0
ENDTAB
  0
ENDSEC
  0
SECTION
  2
BLOCKS
  0
BLOCK
  5
20
100
AcDbEntity
  8
0
100
AcDbBlockBegin
  2
*Model_Space
 70
0
 10
0.0
 20
0.0
 30
0.0
  3
*Model_Space
  1

  0
ENDBLK
  5
21
100
AcDbEntity
  8
0
100
AcDbBlockEnd
  0
BLOCK
  5
1C
100
AcDbEntity
  8
0
100
AcDbBlockBegin
  2
*Paper_Space
 70
0
 10
0.0
 20
0.0
 30
0.0
  3
*Paper_Space
  1

  0
ENDBLK
  5
1D
100
AcDbEntity
  8
0
100
AcDbBlockEnd
  0
BLOCK
  5
214
100
AcDbEntity
  8
0
100
AcDbBlockBegin
  2
_FILLED
 70
64
 10
0.0
 20
0.0
  3
_FILLED
  1

  0
SOLID
  5
215
100
AcDbEntity
  8
0
  6
BYBLOCK
 62
0
100
AcDbTrace
 10
0.0
 20
0.0
 11
-1.0
 21
0.25
 12
-1.0
 22
-0.25
 13
-1.0
 23
-0.25
  0
ENDBLK
  5
216
100
AcDbEntity
  8
0
  6
BYBLOCK
 62
0
100
AcDbBlockEnd
  0
ENDSEC
  0
SECTION
  2
ENTITIES
  0
LINE
  5
217
100
AcDbEntity
  8
0
100
AcDbLine
 62
7
  6
CONTINUOUS
 10
15.8640228711
 20
59.5888589343
 11
43.4752691143
 21
43.6478591168
  0
LINE
  5
218
100
AcDbEntity
  8
0
100
AcDbLine
 62
7
  6
CONTINUOUS
 10
43.4752691143
 20
44.4643615337
 11
15.8640228711
 21
60.4053613512
  0
LINE
  5
219
100
AcDbEntity
  8
0
100
AcDbLine
 62
7
  6
CONTINUOUS
 10
15.156910202
 20
61.6300957685
 11
44.8894856206
 21
44.4643736874
  0
LINE
  5
21A
100
AcDbEntity
  8
0
100
AcDbLine
 62
7
  6
CONTINUOUS
 10
15.156910202
 20
61.6300957685
 11
15.1318973414
 21
61.8342229993
  0
LINE
  5
21B
100
AcDbEntity
  8
0
100
AcDbLine
 62
7
  6
CONTINUOUS
 10
15.1318973414
 20
71.305651038
 11
15.156910202
 21
71.1015238072
  0
LINE
  5
21C
100
AcDbEntity
  8
0
100
AcDbLine
 62
7
  6
CONTINUOUS
 10
15.156910202
 20
76.1230136725
 11
15.1318973414
 21
76.3271409033
  0
LINE
  5
21D
100
AcDbEntity
  8
0
100
AcDbLine
 62
7
  6
CONTINUOUS
 10
15.1317824641
 20
101.516240417
 11
15.1317824641
 21
100.2914867913
  0
LINE
  5
21E
100
AcDbEntity
  8
0
100
AcDbLine
 62
7
  6
CONTINUOUS
 10
15.1317824641
 20
90.8200587526
 11
15.1317824641
 21
89.5953051271
  0
LINE
  5
21F
100
AcDbEntity
  8
0
100
AcDbLine
 62
7
  6
CONTINUOUS
 10
15.1317824641
 20
87.0233225129
 11
15.1317824641
 21
85.7985688872
  0
LINE
  5
220
100
AcDbEntity
  8
0
100
AcDbLine
 62
7
  6
CONTINUOUS
 10
15.1317824641
 20
76.3271408485
 11
15.1317824641
 21
75.1023872231
  0
LINE
  5
221
100
AcDbEntity
  8
0
100
AcDbLine
 62
7
  6
CONTINUOUS
 10
15.1317824641
 20
72.5304046089
 11
15.1317824641
 21
71.3056509832
  0
LINE
  5
222
100
AcDbEntity
  8
0
100
AcDbLine
 62
7
  6
CONTINUOUS
 10
15.1317824641
 20
61.8342229445
 11
15.1317824641
 21
60.609469319
  0
LINE
  5
223
100
AcDbEntity
  8
0
100
AcDbLine
 62
7
  6
CONTINUOUS
 10
15.8640228711
 20
100.4956300323
 11
15.8640228711
 21
99.6791276151
  0
LINE
  5
224
100
AcDbEntity
  8
0
100
AcDbLine
 62
7
  6
CONTINUOUS
 10
15.8640228711
 20
89.3911971593
 11
15.8640228711
 21
88.5746947424
  0
LINE
  5
225
100
AcDbEntity
  8
0
100
AcDbLine
 62
7
  6
CONTINUOUS
 10
15.8640228711
 20
86.0027121282
 11
15.8640228711
 21
85.1862097111
  0
LINE
  5
226
100
AcDbEntity
  8
0
100
AcDbLine
 62
7
  6
CONTINUOUS
 10
15.8640228711
 20
74.8982792553
 11
15.8640228711
 21
74.0817768384
  0
LINE
  5
227
100
AcDbEntity
  8
0
100
AcDbLine
 62
7
  6
CONTINUOUS
 10
15.8640228711
 20
71.5097942242
 11
15.8640228711
 21
70.693291807
  0
LINE
  5
228
100
AcDbEntity
  8
0
100
AcDbLine
 62
7
  6
CONTINUOUS
 10
15.8640228711
 20
60.4053613512
 11
15.8640228711
 21
59.5888589343
  0
LINE
  5
229
100
AcDbEntity
  8
0
100
AcDbLine
 62
7
  6
CONTINUOUS
 10
55.5903137207
 20
43.9254519089
 11
55.1692534094
 21
44.0175491608
  0
LINE
  5
22A
100
AcDbEntity
  8
0
100
AcDbLine
 62
7
  6
CONTINUOUS
 10
51.9129970417
 20
45.4308004934
 11
18.7984890757
 21
64.5490380694
  0
LINE
  5
22B
100
AcDbEntity
  8
0
100
AcDbLine
 62
7
  6
CONTINUOUS
 10
54.7544457262
 20
44.116217245
 11
53.6746428628
 21
44.7396276155
  0
LINE
  5
22C
100
AcDbEntity
  8
0
100
AcDbLine
 62
7
  6
CONTINUOUS
 10
52.835784975
 20
45.3647326609
 11
55.169247068
 21
44.017538171
  0
LINE
  5
22D
100
AcDbEntity
  8
0
100
AcDbLine
 62
7
  6
CONTINUOUS
 10
15.1318973414
 20
85.798568942
 11
15.156910202
 21
85.5944417113
  0
LINE
  5
22E
100
AcDbEntity
  8
0
100
AcDbLine
 62
7
  6
CONTINUOUS
 10
15.156910202
 20
90.6159315766
 11
15.1318973414
 21
90.8200588074
  0
LINE
  5
22F
100
AcDbEntity
  8
0
100
AcDbLine
 62
7
  6
CONTINUOUS
 10
15.1318973414
 20
100.2914868461
 11
15.156910202
 21
100.0873596153
  0
LINE
  5
230
100
AcDbEntity
  8
0
100
AcDbLine
 62
7
  6
CONTINUOUS
 10
19.9298552152
 20
97.1626650717
 11
19.9298552152
 21
95.4944683913
  0
LINE
  5
231
100
AcDbEntity
  8
0
100
AcDbLine
 62
7
  6
CONTINUOUS
 10
19.9298552152
 20
66.5086325831
 11
19.9298552152
 21
68.1768292636
  0
LINE
  5
232
100
AcDbEntity
  8
0
100
AcDbLine
 62
7
  6
CONTINUOUS
 10
19.9298552152
 20
81.0015504872
 11
19.9298552152
 21
82.6697471676
  0
LINE
  5
233
100
AcDbEntity
  8
0
100
AcDbLine
 62
7
  6
CONTINUOUS
 10
23.1516512307
 20
108.050743749
 11
23.1516512307
 21
115.1973859191
  0
LINE
  5
234
100
AcDbEntity
  8
0
100
AcDbLine
 62
7
  6
CONTINUOUS
 10
23.1516512307
 20
115.1973859191
 11
23.283067641
 21
117.1588819216
  0
LINE
  5
235
100
AcDbEntity
  8
0
100
AcDbLine
 62
7
  6
CONTINUOUS
 10
30.5943168958
 20
124.7750275195
 11
30.8048214952
 21
124.9019969715
  0
LINE
  5
236
100
AcDbEntity
  8
0
100
AcDbLine
 62
7
  6
CONTINUOUS
 10
29.266151248
 20
121.2612961678
 11
30.6154272567
 21
122.0751350856
  0
LINE
  5
237
100
AcDbEntity
  8
0
100
AcDbLine
 62
7
  6
CONTINUOUS
 10
27.6725727551
 20
120.2954454594
 11
31.8398511377
 21
122.7014103937
  0
LINE
  5
238
100
AcDbEntity
  8
0
100
AcDbLine
 62
7
  6
CONTINUOUS
 10
40.4757864656
 20
127.687340218
 11
56.6638300808
 21
137.0334557681
  0
LINE
  5
239
100
AcDbEntity
  8
0
100
AcDbLine
 62
7
  6
CONTINUOUS
 10
27.2974665954
 20
125.523936038
 11
27.2889175216
 21
125.5208432781
  0
LINE
  5
23A
100
AcDbEntity
  8
0
100
AcDbLine
 62
7
  6
CONTINUOUS
 10
45.8900863739
 20
43.2742971484
 11
53.0126225787
 21
44.3761599313
  0
LINE
  5
23B
100
AcDbEntity
  8
0
100
AcDbLine
 62
7
  6
CONTINUOUS
 10
51.9129970417
 20
45.4308004934
 11
45.8900863739
 21
44.4990507739
  0
LINE
  5
23C
100
AcDbEntity
  8
0
100
AcDbLine
 62
7
  6
CONTINUOUS
 10
37.5908457887
 20
54.5277214494
 11
44.2004807637
 21
50.7117332465
  0
LINE
  5
23D
100
AcDbEntity
  8
0
100
AcDbLine
 62
7
  6
CONTINUOUS
 10
56.15642423
 20
44.123922431
 11
59.9168933917
 21
41.9528636641
  0
LINE
  5
23E
100
AcDbEntity
  8
0
100
AcDbLine
 62
7
  6
CONTINUOUS
 10
52.4215603336
 20
46.2803049566
 11
54.7550224265
 21
44.9331104666
  0
LINE
  5
23F
100
AcDbEntity
  8
0
100
AcDbLine
 62
7
  6
CONTINUOUS
 10
19.9298552152
 20
66.5086325831
 11
36.905207933
 21
56.7081298388
  0
LINE
  5
240
100
AcDbEntity
  8
0
100
AcDbLine
 62
7
  6
CONTINUOUS
 10
46.0174847588
 20
51.4472733769
 11
52.4215603336
 21
47.7499622643
  0
LINE
  5
241
100
AcDbEntity
  8
0
100
AcDbLine
 62
7
  6
CONTINUOUS
 10
40.4713806605
 20
55.0166288589
 11
45.350437764
 21
52.1997676527
  0
LINE
  5
242
100
AcDbEntity
  8
0
100
AcDbLine
 62
7
  6
CONTINUOUS
 10
24.2361534413
 20
65.2063748928
 11
30.3880080501
 21
61.6546803284
  0
LINE
  5
243
100
AcDbEntity
  8
0
100
AcDbLine
 62
7
  6
CONTINUOUS
 10
42.0977330283
 20
55.2207785075
 11
43.7240853961
 21
54.2818247721
  0
LINE
  5
244
100
AcDbEntity
  8
0
100
AcDbLine
 62
7
  6
CONTINUOUS
 10
44.1749853473
 20
54.1792135237
 11
15.3714189588
 21
70.808584125
  0
LINE
  5
245
100
AcDbEntity
  8
0
100
AcDbLine
 62
7
  6
CONTINUOUS
 10
15.8640228711
 20
70.693291807
 11
43.4752691143
 21
54.7522919895
  0
LINE
  5
246
100
AcDbEntity
  8
0
100
AcDbLine
 62
7
  6
CONTINUOUS
 10
15.8640228711
 20
71.5097942242
 11
43.4752691143
 21
55.5687944066
  0
LINE
  5
247
100
AcDbEntity
  8
0
100
AcDbLine
 62
7
  6
CONTINUOUS
 10
55.7718216884
 20
48.5509991437
 11
56.8763339382
 21
47.9133231251
  0
LINE
  5
248
100
AcDbEntity
  8
0
100
AcDbLine
 62
7
  6
CONTINUOUS
 10
55.9570795196
 20
49.1380281431
 11
58.2905416126
 21
47.7908336531
  0
LINE
  5
249
100
AcDbEntity
  8
0
100
AcDbLine
 62
7
  6
CONTINUOUS
 10
23.8825985788
 20
80.3876813499
 11
23.8825985788
 21
80.3116643826
  0
LINE
  5
24A
100
AcDbEntity
  8
0
100
AcDbLine
 62
7
  6
CONTINUOUS
 10
23.8825985788
 20
65.8947634458
 11
23.8825985788
 21
65.8187464786
  0
LINE
  5
24B
100
AcDbEntity
  8
0
100
AcDbLine
 62
7
  6
CONTINUOUS
 10
23.8825985788
 20
94.8045822867
 11
23.8825985788
 21
94.8805992539
  0
LINE
  5
24C
100
AcDbEntity
  8
0
100
AcDbLine
 62
7
  6
CONTINUOUS
 10
24.133368718
 20
116.1040806507
 11
24.133368718
 21
123.1694389739
  0
LINE
  5
24D
100
AcDbEntity
  8
0
100
AcDbLine
 62
7
  6
CONTINUOUS
 10
24.6405085744
 20
115.2522163754
 11
24.6405085744
 21
122.3578487617
  0
LINE
  5
24E
100
AcDbEntity
  8
0
100
AcDbLine
 62
7
  6
CONTINUOUS
 10
26.1634076072
 20
109.7895717243
 11
26.1634076072
 21
114.3237000275
  0
LINE
  5
24F
100
AcDbEntity
  8
0
100
AcDbLine
 62
7
  6
CONTINUOUS
 10
27.0074314899
 20
121.2185222123
 11
27.0074314899
 21
110.2768662314
  0
LINE
  5
250
100
AcDbEntity
  8
0
100
AcDbLine
 62
7
  6
CONTINUOUS
 10
27.0545701439
 20
122.4423919898
 11
27.0545701439
 21
122.4312754535
  0
LINE
  5
251
100
AcDbEntity
  8
0
100
AcDbLine
 62
7
  6
CONTINUOUS
 10
27.0867922054
 20
119.4789639503
 11
27.0867922054
 21
110.3226848884
  0
LINE
  5
252
100
AcDbEntity
  8
0
100
AcDbLine
 62
7
  6
CONTINUOUS
 10
27.1787892811
 20
122.7603239412
 11
27.1787892811
 21
124.2964628808
  0
LINE
  5
253
100
AcDbEntity
  8
0
100
AcDbLine
 62
7
  6
CONTINUOUS
 10
27.6725845309
 20
118.6624756426
 11
27.6725845309
 21
110.6608902264
  0
LINE
  5
254
100
AcDbEntity
  8
0
100
AcDbLine
 62
7
  6
CONTINUOUS
 10
27.6908011425
 20
124.6091089579
 11
27.6908011425
 21
124.2676355802
  0
LINE
  5
255
100
AcDbEntity
  8
0
100
AcDbLine
 62
7
  6
CONTINUOUS
 10
28.0401687229
 20
122.4718800161
 11
28.0401687228
 21
122.4753325701
  0
LINE
  5
256
100
AcDbEntity
  8
0
100
AcDbLine
 62
7
  6
CONTINUOUS
 10
28.0695795485
 20
122.7981609267
 11
28.0695795482
 21
122.4288853516
  0
LINE
  5
257
100
AcDbEntity
  8
0
100
AcDbLine
 62
7
  6
CONTINUOUS
 10
28.1557246031
 20
123.7437333741
 11
28.155724597
 21
123.4024159818
  0
LINE
  5
258
100
AcDbEntity
  8
0
100
AcDbLine
 62
7
  6
CONTINUOUS
 10
28.2754294007
 20
123.3271630487
 11
28.2754292398
 21
123.8059370355
  0
LINE
  5
259
100
AcDbEntity
  8
0
100
AcDbLine
 62
7
  6
CONTINUOUS
 10
28.3984106419
 20
122.3986151339
 11
28.3984106419
 21
123.1197257858
  0
LINE
  5
25A
100
AcDbEntity
  8
0
100
AcDbLine
 62
7
  6
CONTINUOUS
 10
27.0543878301
 20
122.4312754535
 11
27.0545701439
 21
122.4423919898
  0
LINE
  5
25B
100
AcDbEntity
  8
0
100
AcDbLine
 62
7
  6
CONTINUOUS
 10
28.04016866
 20
122.4753318869
 11
28.0400471368
 21
122.4718800161
  0
LINE
  5
25C
100
AcDbEntity
  8
0
100
AcDbLine
 62
7
  6
CONTINUOUS
 10
27.0545701439
 20
122.4423919898
 11
27.1787892811
 21
124.2964628808
  0
LINE
  5
25D
100
AcDbEntity
  8
0
100
AcDbLine
 62
7
  6
CONTINUOUS
 10
27.135401064
 20
122.2840725434
 11
27.2922783644
 21
124.0060385179
  0
LINE
  5
25E
100
AcDbEntity
  8
0
100
AcDbLine
 62
7
  6
CONTINUOUS
 10
28.0695797049
 20
122.7981608152
 11
28.04016866
 21
122.4753318869
  0
LINE
  5
25F
100
AcDbEntity
  8
0
100
AcDbLine
 62
7
  6
CONTINUOUS
 10
28.155685491
 20
123.7433040651
 11
28.1263138973
 21
123.4209051431
  0
LINE
  5
260
100
AcDbEntity
  8
0
100
AcDbLine
 62
7
  6
CONTINUOUS
 10
30.5507257447
 20
123.3472830091
 11
30.5801367896
 21
123.6701119373
  0
LINE
  5
261
100
AcDbEntity
  8
0
100
AcDbLine
 62
7
  6
CONTINUOUS
 10
30.4646199586
 20
122.4021397592
 11
30.4939915523
 21
122.7245386813
  0
LINE
  5
262
100
AcDbEntity
  8
0
100
AcDbLine
 62
7
  6
CONTINUOUS
 10
37.6858611329
 20
123.8385062231
 11
37.8113004686
 21
123.935719996
  0
LINE
  5
263
100
AcDbEntity
  8
0
100
AcDbLine
 62
7
  6
CONTINUOUS
 10
38.0329398368
 20
124.05814653
 11
38.3914689244
 21
124.1792398856
  0
LINE
  5
264
100
AcDbEntity
  8
0
100
AcDbLine
 62
7
  6
CONTINUOUS
 10
53.1152876083
 20
54.7487713482
 11
53.0126225787
 21
54.7948617866
  0
LINE
  5
265
100
AcDbEntity
  8
0
100
AcDbLine
 62
7
  6
CONTINUOUS
 10
54.7550224265
 20
51.0568785951
 11
52.4215603336
 21
52.404073085
  0
LINE
  5
266
100
AcDbEntity
  8
0
100
AcDbLine
 62
7
  6
CONTINUOUS
 10
15.8640228711
 20
74.0817768384
 11
43.4752691143
 21
58.1407770208
  0
LINE
  5
267
100
AcDbEntity
  8
0
100
AcDbLine
 62
7
  6
CONTINUOUS
 10
43.4752691143
 20
58.9572794377
 11
15.8640228711
 21
74.8982792553
  0
LINE
  5
268
100
AcDbEntity
  8
0
100
AcDbLine
 62
7
  6
CONTINUOUS
 10
53.1298409933
 20
54.1996657895
 11
51.9129825563
 21
54.9022034421
  0
LINE
  5
269
100
AcDbEntity
  8
0
100
AcDbLine
 62
7
  6
CONTINUOUS
 10
15.156910202
 20
76.1230136725
 11
44.8894856206
 21
58.9572915914
  0
LINE
  5
26A
100
AcDbEntity
  8
0
100
AcDbLine
 62
7
  6
CONTINUOUS
 10
53.6463001058
 20
54.7294556159
 11
55.9797621988
 21
53.382261126
  0
LINE
  5
26B
100
AcDbEntity
  8
0
100
AcDbLine
 62
7
  6
CONTINUOUS
 10
58.2905416126
 20
52.2815969473
 11
57.583428722
 21
52.6898395294
  0
LINE
  5
26C
100
AcDbEntity
  8
0
100
AcDbLine
 62
7
  6
CONTINUOUS
 10
55.9797621988
 20
47.9053012175
 11
56.0763562915
 21
47.8340937097
  0
LINE
  5
26D
100
AcDbEntity
  8
0
100
AcDbLine
 62
7
  6
CONTINUOUS
 10
41.9611525085
 20
55.457341594
 11
42.0977330283
 21
55.2207785075
  0
LINE
  5
26E
100
AcDbEntity
  8
0
100
AcDbLine
 62
7
  6
CONTINUOUS
 10
28.8345923579
 20
123.7889569298
 11
28.8345923309
 21
122.4586251045
  0
LINE
  5
26F
100
AcDbEntity
  8
0
100
AcDbLine
 62
7
  6
CONTINUOUS
 10
29.266151248
 20
121.2154929393
 11
29.266151248
 21
121.2612961678
  0
LINE
  5
270
100
AcDbEntity
  8
0
100
AcDbLine
 62
7
  6
CONTINUOUS
 10
29.9132322994
 20
122.352614593
 11
29.9132322868
 21
123.7562018726
  0
LINE
  5
271
100
AcDbEntity
  8
0
100
AcDbLine
 62
7
  6
CONTINUOUS
 10
30.2218948077
 20
122.3432413858
 11
30.2218948077
 21
123.0257180385
  0
LINE
  5
272
100
AcDbEntity
  8
0
100
AcDbLine
 62
7
  6
CONTINUOUS
 10
30.4723952843
 20
123.7392217707
 11
30.4723951421
 21
123.3173062664
  0
LINE
  5
273
100
AcDbEntity
  8
0
100
AcDbLine
 62
7
  6
CONTINUOUS
 10
30.5943168958
 20
124.221936756
 11
30.5943168958
 21
124.7750275195
  0
LINE
  5
274
100
AcDbEntity
  8
0
100
AcDbLine
 62
7
  6
CONTINUOUS
 10
30.6154272567
 20
121.9944931561
 11
30.6154272567
 21
122.0751350856
  0
LINE
  5
275
100
AcDbEntity
  8
0
100
AcDbLine
 62
7
  6
CONTINUOUS
 10
30.6231576338
 20
121.9989562648
 11
30.6231576338
 21
122.1905172034
  0
LINE
  5
276
100
AcDbEntity
  8
0
100
AcDbLine
 62
7
  6
CONTINUOUS
 10
30.8048214952
 20
124.2175959986
 11
30.8048214952
 21
124.9019969715
  0
LINE
  5
277
100
AcDbEntity
  8
0
100
AcDbLine
 62
7
  6
CONTINUOUS
 10
30.8125518723
 20
124.2174365927
 11
30.8125518723
 21
125.0173790893
  0
LINE
  5
278
100
AcDbEntity
  8
0
100
AcDbLine
 62
7
  6
CONTINUOUS
 10
31.6010070654
 20
122.5635145274
 11
31.6010069585
 21
123.9212938821
  0
LINE
  5
279
100
AcDbEntity
  8
0
100
AcDbLine
 62
7
  6
CONTINUOUS
 10
31.6862577022
 20
123.5614122877
 11
31.6862577022
 21
122.6127337117
  0
LINE
  5
27A
100
AcDbEntity
  8
0
100
AcDbLine
 62
7
  6
CONTINUOUS
 10
32.503711681
 20
117.4377628972
 11
32.503711681
 21
120.4996469614
  0
LINE
  5
27B
100
AcDbEntity
  8
0
100
AcDbLine
 62
7
  6
CONTINUOUS
 10
30.5801367896
 20
123.6701119373
 11
30.5802583128
 21
123.6735638082
  0
LINE
  5
27C
100
AcDbEntity
  8
0
100
AcDbLine
 62
7
  6
CONTINUOUS
 10
30.6154272567
 20
122.0751350856
 11
30.6231576338
 21
122.1905172034
  0
LINE
  5
27D
100
AcDbEntity
  8
0
100
AcDbLine
 62
7
  6
CONTINUOUS
 10
30.8048214952
 20
124.9019969715
 11
30.8125518723
 21
125.0173790893
  0
LINE
  5
27E
100
AcDbEntity
  8
0
100
AcDbLine
 62
7
  6
CONTINUOUS
 10
21.237997314
 20
106.9459017401
 11
34.6022598374
 21
114.6617162483
  0
LINE
  5
27F
100
AcDbEntity
  8
0
100
AcDbLine
 62
7
  6
CONTINUOUS
 10
66.421932512
 20
133.0327031725
 11
79.7861950354
 21
140.7485176807
  0
LINE
  5
280
100
AcDbEntity
  8
0
100
AcDbLine
 62
7
  6
CONTINUOUS
 10
85.1601841982
 20
142.5447693825
 11
80.9175611755
 21
140.0953044598
  0
LINE
  5
281
100
AcDbEntity
  8
0
100
AcDbLine
 62
7
  6
CONTINUOUS
 10
15.8640081513
 20
102.5368423033
 11
20.1066311745
 21
104.9863072265
  0
LINE
  5
282
100
AcDbEntity
  8
0
100
AcDbLine
 62
7
  6
CONTINUOUS
 10
75.5095521359
 20
130.59011588
 11
75.8680812235
 21
130.7112092356
  0
LINE
  5
283
100
AcDbEntity
  8
0
100
AcDbLine
 62
7
  6
CONTINUOUS
 10
45.8900863739
 20
53.9704788126
 11
51.9129970417
 21
54.9022285321
  0
LINE
  5
284
100
AcDbEntity
  8
0
100
AcDbLine
 62
7
  6
CONTINUOUS
 10
53.0126225787
 20
56.2970952214
 11
45.8900863739
 21
55.1952324383
  0
LINE
  5
285
100
AcDbEntity
  8
0
100
AcDbLine
 62
7
  6
CONTINUOUS
 10
30.3880080501
 20
61.6546803284
 11
30.6380015077
 21
61.6299275823
  0
LINE
  5
286
100
AcDbEntity
  8
0
100
AcDbLine
 62
7
  6
CONTINUOUS
 10
55.5903137207
 20
58.4183698129
 11
55.1692534094
 21
58.5104670648
  0
LINE
  5
287
100
AcDbEntity
  8
0
100
AcDbLine
 62
7
  6
CONTINUOUS
 10
53.6236321465
 20
56.6498596541
 11
50.4629470975
 21
58.4746407359
  0
LINE
  5
288
100
AcDbEntity
  8
0
100
AcDbLine
 62
7
  6
CONTINUOUS
 10
51.9129970417
 20
59.9237183974
 11
18.7984890757
 21
79.0419559734
  0
LINE
  5
289
100
AcDbEntity
  8
0
100
AcDbLine
 62
7
  6
CONTINUOUS
 10
54.7544457262
 20
58.6091351491
 11
53.6746428628
 21
59.2325455195
  0
LINE
  5
28A
100
AcDbEntity
  8
0
100
AcDbLine
 62
7
  6
CONTINUOUS
 10
53.6754534113
 20
59.2327155917
 11
54.754998286
 21
58.6094541677
  0
LINE
  5
28B
100
AcDbEntity
  8
0
100
AcDbLine
 62
7
  6
CONTINUOUS
 10
52.835784975
 20
59.857650565
 11
55.169247068
 21
58.5104560751
  0
LINE
  5
28C
100
AcDbEntity
  8
0
100
AcDbLine
 62
7
  6
CONTINUOUS
 10
37.5908457887
 20
69.0206393534
 11
44.2004807637
 21
65.2046511505
  0
LINE
  5
28D
100
AcDbEntity
  8
0
100
AcDbLine
 62
7
  6
CONTINUOUS
 10
56.15642423
 20
58.616840335
 11
59.9168933917
 21
56.4457815681
  0
LINE
  5
28E
100
AcDbEntity
  8
0
100
AcDbLine
 62
7
  6
CONTINUOUS
 10
52.4215603336
 20
60.7732228606
 11
54.7550224265
 21
59.4260283707
  0
LINE
  5
28F
100
AcDbEntity
  8
0
100
AcDbLine
 62
7
  6
CONTINUOUS
 10
19.9298552152
 20
81.0015504872
 11
36.905207933
 21
71.2010477429
  0
LINE
  5
290
100
AcDbEntity
  8
0
100
AcDbLine
 62
7
  6
CONTINUOUS
 10
46.0174847588
 20
65.940191281
 11
52.4215603336
 21
62.2428801683
  0
LINE
  5
291
100
AcDbEntity
  8
0
100
AcDbLine
 62
7
  6
CONTINUOUS
 10
15.156910202
 20
100.0873596153
 11
15.3713968993
 21
99.7944326697
  0
LINE
  5
292
100
AcDbEntity
  8
0
100
AcDbLine
 62
7
  6
CONTINUOUS
 10
33.531884893
 20
119.7894240836
 11
33.531884893
 21
116.7275400193
  0
LINE
  5
293
100
AcDbEntity
  8
0
100
AcDbLine
 62
7
  6
CONTINUOUS
 10
35.0534544709
 20
116.5691318856
 11
35.0534544709
 21
119.6310159498
  0
LINE
  5
294
100
AcDbEntity
  8
0
100
AcDbLine
 62
7
  6
CONTINUOUS
 10
35.497108047
 20
121.0514617056
 11
35.497108047
 21
117.9895776413
  0
LINE
  5
295
100
AcDbEntity
  8
0
100
AcDbLine
 62
7
  6
CONTINUOUS
 10
36.4762227836
 20
73.1169135119
 11
36.4762227836
 21
73.0817216655
  0
LINE
  5
296
100
AcDbEntity
  8
0
100
AcDbLine
 62
7
  6
CONTINUOUS
 10
36.4762227836
 20
58.6239956078
 11
36.4762227836
 21
58.5888037614
  0
LINE
  5
297
100
AcDbEntity
  8
0
100
AcDbLine
 62
7
  6
CONTINUOUS
 10
36.4762227836
 20
87.5746395695
 11
36.4762227836
 21
87.6098314159
  0
LINE
  5
298
100
AcDbEntity
  8
0
100
AcDbLine
 62
7
  6
CONTINUOUS
 10
37.3362577022
 20
122.7019202416
 11
37.3362577022
 21
123.1065332543
  0
LINE
  5
299
100
AcDbEntity
  8
0
100
AcDbLine
 62
7
  6
CONTINUOUS
 10
37.3403563256
 20
118.3107024179
 11
37.3403563256
 21
115.2488183536
  0
LINE
  5
29A
100
AcDbEntity
  8
0
100
AcDbLine
 62
7
  6
CONTINUOUS
 10
37.6147438538
 20
114.3703536259
 11
37.6147438538
 21
117.4322376901
  0
LINE
  5
29B
100
AcDbEntity
  8
0
100
AcDbLine
 62
7
  6
CONTINUOUS
 10
30.6380015077
 20
90.6157633904
 11
30.7415629127
 21
90.8446469678
  0
LINE
  5
29C
100
AcDbEntity
  8
0
100
AcDbLine
 62
7
  6
CONTINUOUS
 10
45.8900863739
 20
57.7672150525
 11
53.0126225787
 21
58.8690778354
  0
LINE
  5
29D
100
AcDbEntity
  8
0
100
AcDbLine
 62
7
  6
CONTINUOUS
 10
51.9129970417
 20
59.9237183974
 11
45.8900863739
 21
58.9919686779
  0
LINE
  5
29E
100
AcDbEntity
  8
0
100
AcDbLine
 62
7
  6
CONTINUOUS
 10
40.4713806605
 20
69.509546763
 11
45.350437764
 21
66.6926855568
  0
LINE
  5
29F
100
AcDbEntity
  8
0
100
AcDbLine
 62
7
  6
CONTINUOUS
 10
24.2361534413
 20
79.6992927968
 11
30.3880080501
 21
76.1475982325
  0
LINE
  5
2A0
100
AcDbEntity
  8
0
100
AcDbLine
 62
7
  6
CONTINUOUS
 10
42.0977330283
 20
69.7136964116
 11
43.7240853961
 21
68.7747426762
  0
LINE
  5
2A1
100
AcDbEntity
  8
0
100
AcDbLine
 62
7
  6
CONTINUOUS
 10
44.1749853473
 20
68.6721314277
 11
15.3714189588
 21
85.3015020291
  0
LINE
  5
2A2
100
AcDbEntity
  8
0
100
AcDbLine
 62
7
  6
CONTINUOUS
 10
15.8640228711
 20
85.1862097111
 11
43.4752691143
 21
69.2452098935
  0
LINE
  5
2A3
100
AcDbEntity
  8
0
100
AcDbLine
 62
7
  6
CONTINUOUS
 10
15.8640228711
 20
86.0027121282
 11
43.4752691143
 21
70.0617123107
  0
LINE
  5
2A4
100
AcDbEntity
  8
0
100
AcDbLine
 62
7
  6
CONTINUOUS
 10
55.7718216884
 20
63.0439170477
 11
56.8763339382
 21
62.4062410291
  0
LINE
  5
2A5
100
AcDbEntity
  8
0
100
AcDbLine
 62
7
  6
CONTINUOUS
 10
55.9570795196
 20
63.6309460471
 11
58.2905416126
 21
62.2837515572
  0
LINE
  5
2A6
100
AcDbEntity
  8
0
100
AcDbLine
 62
7
  6
CONTINUOUS
 10
54.7550224265
 20
65.5497964992
 11
52.4215603336
 21
66.8969909891
  0
LINE
  5
2A7
100
AcDbEntity
  8
0
100
AcDbLine
 62
7
  6
CONTINUOUS
 10
43.4752691143
 20
72.6336949249
 11
15.8640228711
 21
88.5746947424
  0
LINE
  5
2A8
100
AcDbEntity
  8
0
100
AcDbLine
 62
7
  6
CONTINUOUS
 10
55.9797621988
 20
62.3982191216
 11
56.0763562915
 21
62.3270116138
  0
LINE
  5
2A9
100
AcDbEntity
  8
0
100
AcDbLine
 62
7
  6
CONTINUOUS
 10
41.9611525085
 20
69.950259498
 11
42.0977330283
 21
69.7136964116
  0
LINE
  5
2AA
100
AcDbEntity
  8
0
100
AcDbLine
 62
7
  6
CONTINUOUS
 10
31.8398511377
 20
122.7014103937
 11
31.686268333
 21
123.5614122865
  0
LINE
  5
2AB
100
AcDbEntity
  8
0
100
AcDbLine
 62
7
  6
CONTINUOUS
 10
40.0949017021
 20
114.4984294647
 11
40.0949017021
 21
117.5603135289
  0
LINE
  5
2AC
100
AcDbEntity
  8
0
100
AcDbLine
 62
7
  6
CONTINUOUS
 10
40.6362577022
 20
122.7019136199
 11
40.6362577022
 21
123.1065332543
  0
LINE
  5
2AD
100
AcDbEntity
  8
0
100
AcDbLine
 62
7
  6
CONTINUOUS
 10
30.6380015077
 20
76.1228454863
 11
30.7415629127
 21
76.3517290638
  0
LINE
  5
2AE
100
AcDbEntity
  8
0
100
AcDbLine
 62
7
  6
CONTINUOUS
 10
75.162473432
 20
130.370475573
 11
75.2879127677
 21
130.4676893459
  0
LINE
  5
2AF
100
AcDbEntity
  8
0
100
AcDbLine
 62
7
  6
CONTINUOUS
 10
15.8640081513
 20
91.8406606389
 11
18.7984890757
 21
93.5348738775
  0
LINE
  5
2B0
100
AcDbEntity
  8
0
100
AcDbLine
 62
7
  6
CONTINUOUS
 10
53.1152876083
 20
69.2416892522
 11
53.0126225787
 21
69.2877796906
  0
LINE
  5
2B1
100
AcDbEntity
  8
0
100
AcDbLine
 62
7
  6
CONTINUOUS
 10
43.4752691143
 20
73.4501973418
 11
15.8640228711
 21
89.3911971593
  0
LINE
  5
2B2
100
AcDbEntity
  8
0
100
AcDbLine
 62
7
  6
CONTINUOUS
 10
53.1298409933
 20
68.6925836935
 11
51.9129825563
 21
69.3951213462
  0
LINE
  5
2B3
100
AcDbEntity
  8
0
100
AcDbLine
 62
7
  6
CONTINUOUS
 10
15.156910202
 20
90.6159315766
 11
44.8894856206
 21
73.4502094955
  0
LINE
  5
2B4
100
AcDbEntity
  8
0
100
AcDbLine
 62
7
  6
CONTINUOUS
 10
53.6463001058
 20
69.2223735199
 11
55.9797621988
 21
67.87517903
  0
LINE
  5
2B5
100
AcDbEntity
  8
0
100
AcDbLine
 62
7
  6
CONTINUOUS
 10
58.2905416126
 20
66.7745148514
 11
57.583428722
 21
67.1827574334
  0
LINE
  5
2B6
100
AcDbEntity
  8
0
100
AcDbLine
 62
7
  6
CONTINUOUS
 10
53.6236321465
 20
71.1427775582
 11
50.4629470975
 21
72.96755864
  0
LINE
  5
2B7
100
AcDbEntity
  8
0
100
AcDbLine
 62
7
  6
CONTINUOUS
 10
41.9611525085
 20
84.4431774021
 11
42.0977330283
 21
84.2066143156
  0
LINE
  5
2B8
100
AcDbEntity
  8
0
100
AcDbLine
 62
7
  6
CONTINUOUS
 10
34.9671020083
 20
120.0505906176
 11
35.0534544709
 21
119.6310159498
  0
LINE
  5
2B9
100
AcDbEntity
  8
0
100
AcDbLine
 62
7
  6
CONTINUOUS
 10
43.4752691143
 20
43.6478591168
 11
43.4752691143
 21
44.4643615337
  0
LINE
  5
2BA
100
AcDbEntity
  8
0
100
AcDbLine
 62
7
  6
CONTINUOUS
 10
43.4752691143
 20
54.7522919895
 11
43.4752691143
 21
55.5687944066
  0
LINE
  5
2BB
100
AcDbEntity
  8
0
100
AcDbLine
 62
7
  6
CONTINUOUS
 10
43.4752691143
 20
58.1407770208
 11
43.4752691143
 21
58.9572794377
  0
LINE
  5
2BC
100
AcDbEntity
  8
0
100
AcDbLine
 62
7
  6
CONTINUOUS
 10
43.4752691143
 20
69.2452098935
 11
43.4752691143
 21
70.0617123107
  0
LINE
  5
2BD
100
AcDbEntity
  8
0
100
AcDbLine
 62
7
  6
CONTINUOUS
 10
43.4752691143
 20
72.6336949249
 11
43.4752691143
 21
73.4501973418
  0
LINE
  5
2BE
100
AcDbEntity
  8
0
100
AcDbLine
 62
7
  6
CONTINUOUS
 10
43.4752691143
 20
83.7381277976
 11
43.4752691143
 21
84.5546302147
  0
LINE
  5
2BF
100
AcDbEntity
  8
0
100
AcDbLine
 62
7
  6
CONTINUOUS
 10
45.8900863739
 20
84.1810682464
 11
45.8900863739
 21
82.9563146207
  0
LINE
  5
2C0
100
AcDbEntity
  8
0
100
AcDbLine
 62
7
  6
CONTINUOUS
 10
45.8900863739
 20
73.484886582
 11
45.8900863739
 21
72.2601329565
  0
LINE
  5
2C1
100
AcDbEntity
  8
0
100
AcDbLine
 62
7
  6
CONTINUOUS
 10
45.8900863739
 20
69.6881503423
 11
45.8900863739
 21
68.4633967166
  0
LINE
  5
2C2
100
AcDbEntity
  8
0
100
AcDbLine
 62
7
  6
CONTINUOUS
 10
45.8900863739
 20
58.9919686779
 11
45.8900863739
 21
57.7672150524
  0
LINE
  5
2C3
100
AcDbEntity
  8
0
100
AcDbLine
 62
7
  6
CONTINUOUS
 10
45.8900863739
 20
55.1952324383
 11
45.8900863739
 21
53.9704788126
  0
LINE
  5
2C4
100
AcDbEntity
  8
0
100
AcDbLine
 62
7
  6
CONTINUOUS
 10
45.8900863739
 20
44.4990507739
 11
45.8900863739
 21
43.2742971484
  0
LINE
  5
2C5
100
AcDbEntity
  8
0
100
AcDbLine
 62
7
  6
CONTINUOUS
 10
46.4464699082
 20
83.0423876559
 11
46.4464699082
 21
81.8184449308
  0
LINE
  5
2C6
100
AcDbEntity
  8
0
100
AcDbLine
 62
7
  6
CONTINUOUS
 10
46.4464699082
 20
52.8326091227
 11
46.4464699082
 21
54.0565518478
  0
LINE
  5
2C7
100
AcDbEntity
  8
0
100
AcDbLine
 62
7
  6
CONTINUOUS
 10
46.4464699082
 20
67.3255270267
 11
46.4464699082
 21
68.5494697518
  0
LINE
  5
2C8
100
AcDbEntity
  8
0
100
AcDbLine
 62
7
  6
CONTINUOUS
 10
30.6380015077
 20
61.6299275823
 11
30.7415629127
 21
61.8588111597
  0
LINE
  5
2C9
100
AcDbEntity
  8
0
100
AcDbLine
 62
7
  6
CONTINUOUS
 10
67.0308446601
 20
116.6126853203
 11
67.1562839957
 21
116.7098990933
  0
LINE
  5
2CA
100
AcDbEntity
  8
0
100
AcDbLine
 62
7
  6
CONTINUOUS
 10
23.8825985788
 20
94.8045822867
 11
23.9484321447
 21
94.8425910868
  0
LINE
  5
2CB
100
AcDbEntity
  8
0
100
AcDbLine
 62
7
  6
CONTINUOUS
 10
24.6555479794
 20
94.434346805
 11
24.2361534413
 21
94.1922107009
  0
LINE
  5
2CC
100
AcDbEntity
  8
0
100
AcDbLine
 62
7
  6
CONTINUOUS
 10
16.3236826832
 20
88.3093160298
 11
15.8640081513
 21
88.0439243992
  0
LINE
  5
2CD
100
AcDbEntity
  8
0
100
AcDbLine
 62
7
  6
CONTINUOUS
 10
67.377923364
 20
116.8323256273
 11
67.7364524516
 21
116.9534189829
  0
LINE
  5
2CE
100
AcDbEntity
  8
0
100
AcDbLine
 62
7
  6
CONTINUOUS
 10
45.8900863739
 20
68.4633967166
 11
51.9129970417
 21
69.3951464361
  0
LINE
  5
2CF
100
AcDbEntity
  8
0
100
AcDbLine
 62
7
  6
CONTINUOUS
 10
53.0126225787
 20
70.7900131255
 11
45.8900863739
 21
69.6881503423
  0
LINE
  5
2D0
100
AcDbEntity
  8
0
100
AcDbLine
 62
7
  6
CONTINUOUS
 10
30.3880080501
 20
76.1475982325
 11
30.6380015077
 21
76.1228454863
  0
LINE
  5
2D1
100
AcDbEntity
  8
0
100
AcDbLine
 62
7
  6
CONTINUOUS
 10
55.5903137207
 20
72.911287717
 11
55.1692534094
 21
73.0033849689
  0
LINE
  5
2D2
100
AcDbEntity
  8
0
100
AcDbLine
 62
7
  6
CONTINUOUS
 10
51.9129970417
 20
74.4166363015
 11
18.7984890757
 21
93.5348738775
  0
LINE
  5
2D3
100
AcDbEntity
  8
0
100
AcDbLine
 62
7
  6
CONTINUOUS
 10
54.7544457262
 20
73.1020530531
 11
53.6746428628
 21
73.7254634236
  0
LINE
  5
2D4
100
AcDbEntity
  8
0
100
AcDbLine
 62
7
  6
CONTINUOUS
 10
53.6754534112
 20
73.7256334958
 11
54.754998286
 21
73.1023720718
  0
LINE
  5
2D5
100
AcDbEntity
  8
0
100
AcDbLine
 62
7
  6
CONTINUOUS
 10
52.835784975
 20
74.350568469
 11
55.169247068
 21
73.0033739791
  0
LINE
  5
2D6
100
AcDbEntity
  8
0
100
AcDbLine
 62
7
  6
CONTINUOUS
 10
37.5908457887
 20
83.5135572575
 11
44.2004807637
 21
79.6975690546
  0
LINE
  5
2D7
100
AcDbEntity
  8
0
100
AcDbLine
 62
7
  6
CONTINUOUS
 10
59.9168933917
 20
70.9386994722
 11
56.15642423
 21
73.1097582391
  0
LINE
  5
2D8
100
AcDbEntity
  8
0
100
AcDbLine
 62
7
  6
CONTINUOUS
 10
52.4215603336
 20
75.2661407647
 11
54.7550224265
 21
73.9189462747
  0
LINE
  5
2D9
100
AcDbEntity
  8
0
100
AcDbLine
 62
7
  6
CONTINUOUS
 10
19.9298552152
 20
95.4944683912
 11
36.905207933
 21
85.6939656469
  0
LINE
  5
2DA
100
AcDbEntity
  8
0
100
AcDbLine
 62
7
  6
CONTINUOUS
 10
46.0174847588
 20
80.433109185
 11
52.4215603336
 21
76.7357980724
  0
LINE
  5
2DB
100
AcDbEntity
  8
0
100
AcDbLine
 62
7
  6
CONTINUOUS
 10
45.350437764
 20
81.1856034608
 11
40.4713806605
 21
84.002464667
  0
LINE
  5
2DC
100
AcDbEntity
  8
0
100
AcDbLine
 62
7
  6
CONTINUOUS
 10
73.9882597522
 20
64.8098361643
 11
74.8806477675
 21
64.294627359
  0
LINE
  5
2DD
100
AcDbEntity
  8
0
100
AcDbLine
 62
7
  6
CONTINUOUS
 10
30.3880080501
 20
90.6405161365
 11
24.2361534413
 21
94.1922107009
  0
LINE
  5
2DE
100
AcDbEntity
  8
0
100
AcDbLine
 62
7
  6
CONTINUOUS
 10
43.7240853961
 20
83.2676605802
 11
42.0977330283
 21
84.2066143156
  0
LINE
  5
2DF
100
AcDbEntity
  8
0
100
AcDbLine
 62
7
  6
CONTINUOUS
 10
44.1749853473
 20
83.1650493318
 11
15.3714189588
 21
99.7944199331
  0
LINE
  5
2E0
100
AcDbEntity
  8
0
100
AcDbLine
 62
7
  6
CONTINUOUS
 10
15.8640228711
 20
99.6791276151
 11
43.4752691143
 21
83.7381277976
  0
LINE
  5
2E1
100
AcDbEntity
  8
0
100
AcDbLine
 62
7
  6
CONTINUOUS
 10
55.9797621988
 20
76.8911370256
 11
56.0763562915
 21
76.8199295178
  0
LINE
  5
2E2
100
AcDbEntity
  8
0
100
AcDbLine
 62
7
  6
CONTINUOUS
 10
37.3403563256
 20
115.2488183536
 11
37.6147438538
 21
114.3703536259
  0
LINE
  5
2E3
100
AcDbEntity
  8
0
100
AcDbLine
 62
7
  6
CONTINUOUS
 10
37.6147438538
 20
117.4322376901
 11
37.3403563256
 21
118.3107024179
  0
LINE
  5
2E4
100
AcDbEntity
  8
0
100
AcDbLine
 62
7
  6
CONTINUOUS
 10
40.0750595503
 20
117.6883893676
 11
40.0946380379
 21
117.5603132005
  0
LINE
  5
2E5
100
AcDbEntity
  8
0
100
AcDbLine
 62
7
  6
CONTINUOUS
 10
52.4215603336
 20
81.3899088931
 11
52.4215603336
 21
75.2661407647
  0
LINE
  5
2E6
100
AcDbEntity
  8
0
100
AcDbLine
 62
7
  6
CONTINUOUS
 10
52.4215603336
 20
46.2803049566
 11
52.4215603336
 21
52.404073085
  0
LINE
  5
2E7
100
AcDbEntity
  8
0
100
AcDbLine
 62
7
  6
CONTINUOUS
 10
52.4215603336
 20
60.7732228606
 11
52.4215603336
 21
66.8969909891
  0
LINE
  5
2E8
100
AcDbEntity
  8
0
100
AcDbLine
 62
7
  6
CONTINUOUS
 10
30.3880080501
 20
90.6405161365
 11
30.7415659675
 21
90.8446416768
  0
LINE
  5
2E9
100
AcDbEntity
  8
0
100
AcDbLine
 62
7
  6
CONTINUOUS
 10
45.8900863739
 20
72.2601329565
 11
53.0126225787
 21
73.3619957394
  0
LINE
  5
2EA
100
AcDbEntity
  8
0
100
AcDbLine
 62
7
  6
CONTINUOUS
 10
51.9129970417
 20
74.4166363015
 11
45.8900863739
 21
73.484886582
  0
LINE
  5
2EB
100
AcDbEntity
  8
0
100
AcDbLine
 62
7
  6
CONTINUOUS
 10
43.4752691143
 20
84.5546302147
 11
15.8640228711
 21
100.4956300323
  0
LINE
  5
2EC
100
AcDbEntity
  8
0
100
AcDbLine
 62
7
  6
CONTINUOUS
 10
55.7718216884
 20
77.5368349518
 11
56.8763339382
 21
76.8991589332
  0
LINE
  5
2ED
100
AcDbEntity
  8
0
100
AcDbLine
 62
7
  6
CONTINUOUS
 10
55.9570795196
 20
78.1238639512
 11
58.2905416126
 21
76.7766694612
  0
LINE
  5
2EE
100
AcDbEntity
  8
0
100
AcDbLine
 62
7
  6
CONTINUOUS
 10
54.7550224265
 20
80.0427144032
 11
52.4215603336
 21
81.3899088931
  0
LINE
  5
2EF
100
AcDbEntity
  8
0
100
AcDbLine
 62
7
  6
CONTINUOUS
 10
53.1298409933
 20
83.1855015976
 11
51.9129825563
 21
83.8880392502
  0
LINE
  5
2F0
100
AcDbEntity
  8
0
100
AcDbLine
 62
7
  6
CONTINUOUS
 10
53.6463001058
 20
83.715291424
 11
55.9797621988
 21
82.3680969341
  0
LINE
  5
2F1
100
AcDbEntity
  8
0
100
AcDbLine
 62
7
  6
CONTINUOUS
 10
39.8006720221
 20
118.5668540954
 11
40.0750595503
 21
117.6883893676
  0
LINE
  5
2F2
100
AcDbEntity
  8
0
100
AcDbLine
 62
7
  6
CONTINUOUS
 10
53.0126225787
 20
70.7900131255
 11
53.0126225787
 21
69.2877796906
  0
LINE
  5
2F3
100
AcDbEntity
  8
0
100
AcDbLine
 62
7
  6
CONTINUOUS
 10
53.0126225787
 20
59.7555556366
 11
53.0126225787
 21
58.8690778354
  0
LINE
  5
2F4
100
AcDbEntity
  8
0
100
AcDbLine
 62
7
  6
CONTINUOUS
 10
53.0126225787
 20
56.2970952214
 11
53.0126225787
 21
54.7948617866
  0
LINE
  5
2F5
100
AcDbEntity
  8
0
100
AcDbLine
 62
7
  6
CONTINUOUS
 10
53.0126225787
 20
45.2626377326
 11
53.0126225787
 21
44.3761599314
  0
LINE
  5
2F6
100
AcDbEntity
  8
0
100
AcDbLine
 62
7
  6
CONTINUOUS
 10
53.0126225787
 20
73.3619957395
 11
53.0126225787
 21
74.2484735407
  0
LINE
  5
2F7
100
AcDbEntity
  8
0
100
AcDbLine
 62
7
  6
CONTINUOUS
 10
53.0126225787
 20
83.7806975947
 11
53.0126225787
 21
85.2829310295
  0
LINE
  5
2F8
100
AcDbEntity
  8
0
100
AcDbLine
 62
7
  6
CONTINUOUS
 10
54.7550224265
 20
80.0427144032
 11
54.7550224265
 21
73.9189462747
  0
LINE
  5
2F9
100
AcDbEntity
  8
0
100
AcDbLine
 62
7
  6
CONTINUOUS
 10
54.7550224265
 20
44.9331104666
 11
54.7550224265
 21
51.0568785951
  0
LINE
  5
2FA
100
AcDbEntity
  8
0
100
AcDbLine
 62
7
  6
CONTINUOUS
 10
54.7550224265
 20
59.4260283707
 11
54.7550224265
 21
65.5497964992
  0
LINE
  5
2FB
100
AcDbEntity
  8
0
100
AcDbLine
 62
7
  6
CONTINUOUS
 10
55.4621021232
 20
72.939331053
 11
55.4621021232
 21
70.2707210457
  0
LINE
  5
2FC
100
AcDbEntity
  8
0
100
AcDbLine
 62
7
  6
CONTINUOUS
 10
55.4621021232
 20
58.446413149
 11
55.4621021232
 21
55.7778031417
  0
LINE
  5
2FD
100
AcDbEntity
  8
0
100
AcDbLine
 62
7
  6
CONTINUOUS
 10
55.4621021232
 20
84.7636389498
 11
55.4621021232
 21
88.0035341297
  0
LINE
  5
2FE
100
AcDbEntity
  8
0
100
AcDbLine
 62
7
  6
CONTINUOUS
 10
55.9570795196
 20
78.4155747476
 11
55.9570795196
 21
78.1238639512
  0
LINE
  5
2FF
100
AcDbEntity
  8
0
100
AcDbLine
 62
7
  6
CONTINUOUS
 10
55.9570795196
 20
49.1380281431
 11
55.9570795196
 21
49.4297389395
  0
LINE
  5
300
100
AcDbEntity
  8
0
100
AcDbLine
 62
7
  6
CONTINUOUS
 10
55.9570795196
 20
63.6309460471
 11
55.9570795196
 21
63.9226568435
  0
LINE
  5
301
100
AcDbEntity
  8
0
100
AcDbLine
 62
7
  6
CONTINUOUS
 10
56.8763339382
 20
65.9580265437
 11
56.8763339382
 21
65.019048764
  0
LINE
  5
302
100
AcDbEntity
  8
0
100
AcDbLine
 62
7
  6
CONTINUOUS
 10
56.8763339382
 20
62.4062410291
 11
56.8763339382
 21
61.4672632494
  0
LINE
  5
303
100
AcDbEntity
  8
0
100
AcDbLine
 62
7
  6
CONTINUOUS
 10
56.8763339382
 20
51.4651086396
 11
56.8763339382
 21
50.5261308599
  0
LINE
  5
304
100
AcDbEntity
  8
0
100
AcDbLine
 62
7
  6
CONTINUOUS
 10
56.8763339382
 20
47.9133231251
 11
56.8763339382
 21
46.9743453454
  0
LINE
  5
305
100
AcDbEntity
  8
0
100
AcDbLine
 62
7
  6
CONTINUOUS
 10
56.8763339382
 20
75.9601811535
 11
56.8763339382
 21
76.8991589332
  0
LINE
  5
306
100
AcDbEntity
  8
0
100
AcDbLine
 62
7
  6
CONTINUOUS
 10
56.8763339382
 20
79.511966668
 11
56.8763339382
 21
80.4509444477
  0
LINE
  5
307
100
AcDbEntity
  8
0
100
AcDbLine
 62
7
  6
CONTINUOUS
 10
18.7984890759
 20
79.0419559735
 11
15.8640081513
 21
77.3477427349
  0
LINE
  5
308
100
AcDbEntity
  8
0
100
AcDbLine
 62
7
  6
CONTINUOUS
 10
23.8825985788
 20
80.3116643826
 11
23.9484321447
 21
80.3496731827
  0
LINE
  5
309
100
AcDbEntity
  8
0
100
AcDbLine
 62
7
  6
CONTINUOUS
 10
36.4762227836
 20
87.5746395695
 11
36.5067002523
 21
87.5922356392
  0
LINE
  5
30A
100
AcDbEntity
  8
0
100
AcDbLine
 62
7
  6
CONTINUOUS
 10
24.6555479794
 20
79.9414289009
 11
24.2361534413
 21
79.6992927968
  0
LINE
  5
30B
100
AcDbEntity
  8
0
100
AcDbLine
 62
7
  6
CONTINUOUS
 10
53.1152876083
 20
83.7346071563
 11
53.0126225787
 21
83.7806975947
  0
LINE
  5
30C
100
AcDbEntity
  8
0
100
AcDbLine
 62
7
  6
CONTINUOUS
 10
58.2905416126
 20
81.2674327554
 11
57.583428722
 21
81.6756753375
  0
LINE
  5
30D
100
AcDbEntity
  8
0
100
AcDbLine
 62
7
  6
CONTINUOUS
 10
53.6236321465
 20
85.6356954622
 11
20.1066311745
 21
104.9863072265
  0
LINE
  5
30E
100
AcDbEntity
  8
0
100
AcDbLine
 62
7
  6
CONTINUOUS
 10
21.237997314
 20
106.9459017401
 11
54.754998286
 21
87.5952899758
  0
LINE
  5
30F
100
AcDbEntity
  8
0
100
AcDbLine
 62
7
  6
CONTINUOUS
 10
59.9168933917
 20
85.4316173762
 11
55.4621021232
 21
88.0035341297
  0
LINE
  5
310
100
AcDbEntity
  8
0
100
AcDbLine
 62
7
  6
CONTINUOUS
 10
58.2905416126
 20
81.2674327554
 11
58.2905416126
 21
76.7766694612
  0
LINE
  5
311
100
AcDbEntity
  8
0
100
AcDbLine
 62
7
  6
CONTINUOUS
 10
58.2905416126
 20
47.7908336531
 11
58.2905416126
 21
52.2815969473
  0
LINE
  5
312
100
AcDbEntity
  8
0
100
AcDbLine
 62
7
  6
CONTINUOUS
 10
58.2905416126
 20
62.2837515572
 11
58.2905416126
 21
66.7745148514
  0
LINE
  5
313
100
AcDbEntity
  8
0
100
AcDbLine
 62
7
  6
CONTINUOUS
 10
59.9168933917
 20
41.9528636641
 11
59.9168933917
 21
85.4316173762
  0
LINE
  5
314
100
AcDbEntity
  8
0
100
AcDbLine
 62
7
  6
CONTINUOUS
 10
61.5902254912
 20
94.247479483
 11
61.5902254912
 21
94.6520924957
  0
LINE
  5
315
100
AcDbEntity
  8
0
100
AcDbLine
 62
7
  6
CONTINUOUS
 10
61.9398289218
 20
95.3840654645
 11
62.0652682575
 21
95.4812792374
  0
LINE
  5
316
100
AcDbEntity
  8
0
100
AcDbLine
 62
7
  6
CONTINUOUS
 10
16.3236826832
 20
73.8163981258
 11
15.8640081513
 21
73.5510064952
  0
LINE
  5
317
100
AcDbEntity
  8
0
100
AcDbLine
 62
7
  6
CONTINUOUS
 10
40.4713806605
 20
84.002464667
 11
38.6077129276
 21
82.9264820225
  0
LINE
  5
318
100
AcDbEntity
  8
0
100
AcDbLine
 62
7
  6
CONTINUOUS
 10
42.0977330283
 20
84.2066143156
 11
42.2343159083
 21
84.2854700075
  0
LINE
  5
319
100
AcDbEntity
  8
0
100
AcDbLine
 62
7
  6
CONTINUOUS
 10
62.2869076258
 20
95.6037057714
 11
62.6454367134
 21
95.7247991271
  0
LINE
  5
31A
100
AcDbEntity
  8
0
100
AcDbLine
 62
7
  6
CONTINUOUS
 10
45.8900863739
 20
82.9563146207
 11
51.9129970417
 21
83.8880643402
  0
LINE
  5
31B
100
AcDbEntity
  8
0
100
AcDbLine
 62
7
  6
CONTINUOUS
 10
53.0126225787
 20
85.2829310295
 11
45.8900863739
 21
84.1810682464
  0
LINE
  5
31C
100
AcDbEntity
  8
0
100
AcDbLine
 62
7
  6
CONTINUOUS
 10
30.3880080501
 20
90.6405161365
 11
30.6380015077
 21
90.6157633904
  0
LINE
  5
31D
100
AcDbEntity
  8
0
100
AcDbLine
 62
7
  6
CONTINUOUS
 10
15.3713968993
 20
99.7944326697
 11
15.8640228711
 21
99.6791276151
  0
LINE
  5
31E
100
AcDbEntity
  8
0
100
AcDbLine
 62
7
  6
CONTINUOUS
 10
96.9836411371
 20
65.7042784598
 11
97.6856325949
 21
65.2989926714
  0
LINE
  5
31F
100
AcDbEntity
  8
0
100
AcDbLine
 62
7
  6
CONTINUOUS
 10
73.9882597522
 20
79.3027540683
 11
74.8806477675
 21
78.787545263
  0
LINE
  5
320
100
AcDbEntity
  8
0
100
AcDbLine
 62
7
  6
CONTINUOUS
 10
96.969102078
 20
67.8355243231
 11
96.9836411371
 21
67.8271303833
  0
LINE
  5
321
100
AcDbEntity
  8
0
100
AcDbLine
 62
7
  6
CONTINUOUS
 10
64.1186649745
 20
130.0124498205
 11
64.1186649745
 21
132.2208855121
  0
LINE
  5
322
100
AcDbEntity
  8
0
100
AcDbLine
 62
7
  6
CONTINUOUS
 10
64.8902254912
 20
94.2474728613
 11
64.8902254912
 21
94.6520924957
  0
LINE
  5
323
100
AcDbEntity
  8
0
100
AcDbLine
 62
7
  6
CONTINUOUS
 10
66.6812412294
 20
115.4760993389
 11
66.6812412294
 21
115.8807123516
  0
LINE
  5
324
100
AcDbEntity
  8
0
100
AcDbLine
 62
7
  6
CONTINUOUS
 10
46.0174847588
 20
80.433109185
 11
45.6330194497
 21
80.1312440661
  0
LINE
  5
325
100
AcDbEntity
  8
0
100
AcDbLine
 62
7
  6
CONTINUOUS
 10
30.3880080501
 20
76.1475982325
 11
30.7415659675
 21
76.3517237728
  0
LINE
  5
326
100
AcDbEntity
  8
0
100
AcDbLine
 62
7
  6
CONTINUOUS
 10
43.7240853961
 20
83.2676605802
 11
43.8606682762
 21
83.3465162721
  0
LINE
  5
327
100
AcDbEntity
  8
0
100
AcDbLine
 62
7
  6
CONTINUOUS
 10
113.3031960073
 20
121.3979059164
 11
112.5960921701
 21
120.9896617625
  0
LINE
  5
328
100
AcDbEntity
  8
0
100
AcDbLine
 62
7
  6
CONTINUOUS
 10
55.4621021232
 20
88.0035341297
 11
54.754998286
 21
87.5952899758
  0
LINE
  5
329
100
AcDbEntity
  8
0
100
AcDbLine
 62
7
  6
CONTINUOUS
 10
96.969102078
 20
111.3142780353
 11
71.5133639383
 21
96.6174884959
  0
LINE
  5
32A
100
AcDbEntity
  8
0
100
AcDbLine
 62
7
  6
CONTINUOUS
 10
43.4867700311
 20
80.1096208163
 11
45.350437764
 21
81.1856034608
  0
LINE
  5
32B
100
AcDbEntity
  8
0
100
AcDbLine
 62
7
  6
CONTINUOUS
 10
115.0455717147
 20
121.0974571279
 11
114.4345621468
 21
120.7446926952
  0
LINE
  5
32C
100
AcDbEntity
  8
0
100
AcDbLine
 62
7
  6
CONTINUOUS
 10
53.0126225787
 20
85.2829310295
 11
53.6236321465
 21
85.6356954622
  0
LINE
  5
32D
100
AcDbEntity
  8
0
100
AcDbLine
 62
7
  6
CONTINUOUS
 10
18.7984890759
 20
64.5490380695
 11
15.8640081513
 21
62.8548248308
  0
LINE
  5
32E
100
AcDbEntity
  8
0
100
AcDbLine
 62
7
  6
CONTINUOUS
 10
106.5857466478
 20
112.3757315318
 11
97.6856325949
 21
108.7777463835
  0
LINE
  5
32F
100
AcDbEntity
  8
0
100
AcDbLine
 62
7
  6
CONTINUOUS
 10
68.1685241035
 20
129.0207507412
 11
68.1685241035
 21
129.868128718
  0
LINE
  5
330
100
AcDbEntity
  8
0
100
AcDbLine
 62
7
  6
CONTINUOUS
 10
69.9812412294
 20
115.4760927171
 11
69.9812412294
 21
115.8807123516
  0
LINE
  5
331
100
AcDbEntity
  8
0
100
AcDbLine
 62
7
  6
CONTINUOUS
 10
23.8825985788
 20
65.8187464786
 11
23.9484321447
 21
65.8567552787
  0
LINE
  5
332
100
AcDbEntity
  8
0
100
AcDbLine
 62
7
  6
CONTINUOUS
 10
36.4762227836
 20
73.0817216655
 11
36.5067002523
 21
73.0993177352
  0
LINE
  5
333
100
AcDbEntity
  8
0
100
AcDbLine
 62
7
  6
CONTINUOUS
 10
24.6555479794
 20
65.4485109969
 11
24.2361534413
 21
65.2063748928
  0
LINE
  5
334
100
AcDbEntity
  8
0
100
AcDbLine
 62
7
  6
CONTINUOUS
 10
110.2335687064
 20
114.4817900078
 11
106.5857466478
 21
112.3757315318
  0
LINE
  5
335
100
AcDbEntity
  8
0
100
AcDbLine
 62
7
  6
CONTINUOUS
 10
73.9882597522
 20
93.5556760383
 11
59.9168933917
 21
85.4316173762
  0
LINE
  5
336
100
AcDbEntity
  8
0
100
AcDbLine
 62
7
  6
CONTINUOUS
 10
74.8806477675
 20
93.2804631671
 11
73.9882597522
 21
92.7652457816
  0
LINE
  5
337
100
AcDbEntity
  8
0
100
AcDbLine
 62
7
  6
CONTINUOUS
 10
72.0790517184
 20
96.2908958923
 11
73.5257578127
 21
96.6803808985
  0
LINE
  5
338
100
AcDbEntity
  8
0
100
AcDbLine
 62
7
  6
CONTINUOUS
 10
34.6022598374
 20
114.6617162483
 11
27.6725845309
 21
118.6624756426
  0
LINE
  5
339
100
AcDbEntity
  8
0
100
AcDbLine
 62
7
  6
CONTINUOUS
 10
96.9836411371
 20
80.1971963638
 11
97.6856325949
 21
79.7919105754
  0
LINE
  5
33A
100
AcDbEntity
  8
0
100
AcDbLine
 62
7
  6
CONTINUOUS
 10
74.8806477675
 20
93.2804631671
 11
73.9882580215
 21
93.7956729716
  0
LINE
  5
33B
100
AcDbEntity
  8
0
100
AcDbLine
 62
7
  6
CONTINUOUS
 10
31.2428805985
 20
124.2085629026
 11
31.6010079823
 21
123.9212938529
  0
LINE
  5
33C
100
AcDbEntity
  8
0
100
AcDbLine
 62
7
  6
CONTINUOUS
 10
73.9882391444
 20
96.4133732176
 11
73.9882597522
 21
50.0769223261
  0
LINE
  5
33D
100
AcDbEntity
  8
0
100
AcDbLine
 62
7
  6
CONTINUOUS
 10
74.8128700013
 20
129.2338895916
 11
74.8128700013
 21
129.6385026042
  0
LINE
  5
33E
100
AcDbEntity
  8
0
100
AcDbLine
 62
7
  6
CONTINUOUS
 10
74.8806477675
 20
78.787545263
 11
74.8806477675
 21
69.4272113056
  0
LINE
  5
33F
100
AcDbEntity
  8
0
100
AcDbLine
 62
7
  6
CONTINUOUS
 10
74.8806477675
 20
64.294627359
 11
74.8806477675
 21
54.9342934015
  0
LINE
  5
340
100
AcDbEntity
  8
0
100
AcDbLine
 62
7
  6
CONTINUOUS
 10
74.8806477675
 20
83.9201292096
 11
74.8806477675
 21
93.2804631671
  0
LINE
  5
341
100
AcDbEntity
  8
0
100
AcDbLine
 62
7
  6
CONTINUOUS
 10
45.6330383493
 20
65.6383898764
 11
46.0174847588
 21
65.940191281
  0
LINE
  5
342
100
AcDbEntity
  8
0
100
AcDbLine
 62
7
  6
CONTINUOUS
 10
40.4713806605
 20
69.509546763
 11
38.6077129276
 21
68.4335641185
  0
LINE
  5
343
100
AcDbEntity
  8
0
100
AcDbLine
 62
7
  6
CONTINUOUS
 10
42.2343159083
 20
69.7925521034
 11
42.0977330283
 21
69.7136964116
  0
LINE
  5
344
100
AcDbEntity
  8
0
100
AcDbLine
 62
7
  6
CONTINUOUS
 10
30.3880080501
 20
61.6546803284
 11
30.7415659675
 21
61.8588058687
  0
LINE
  5
345
100
AcDbEntity
  8
0
100
AcDbLine
 62
7
  6
CONTINUOUS
 10
43.7240853961
 20
68.7747426762
 11
43.8606682762
 21
68.853598368
  0
LINE
  5
346
100
AcDbEntity
  8
0
100
AcDbLine
 62
7
  6
CONTINUOUS
 10
53.0126225787
 20
73.3619957394
 11
53.6236321465
 21
73.7147601721
  0
LINE
  5
347
100
AcDbEntity
  8
0
100
AcDbLine
 62
7
  6
CONTINUOUS
 10
106.5857466478
 20
97.8828136277
 11
97.6856325949
 21
94.2848284795
  0
LINE
  5
348
100
AcDbEntity
  8
0
100
AcDbLine
 62
7
  6
CONTINUOUS
 10
30.6231576338
 20
122.1905172034
 11
30.4283315457
 21
122.2975621875
  0
LINE
  5
349
100
AcDbEntity
  8
0
100
AcDbLine
 62
7
  6
CONTINUOUS
 10
71.5133639383
 20
96.6174884959
 11
72.0790517184
 21
96.2908958923
  0
LINE
  5
34A
100
AcDbEntity
  8
0
100
AcDbLine
 62
7
  6
CONTINUOUS
 10
96.969102078
 20
82.3284422272
 11
96.9836411371
 21
82.3200482874
  0
LINE
  5
34B
100
AcDbEntity
  8
0
100
AcDbLine
 62
7
  6
CONTINUOUS
 10
73.5257578127
 20
96.6803808985
 11
73.9882391444
 21
96.4133732176
  0
LINE
  5
34C
100
AcDbEntity
  8
0
100
AcDbLine
 62
7
  6
CONTINUOUS
 10
78.1128700013
 20
129.2338829698
 11
78.1128700013
 21
129.6385026042
  0
LINE
  5
34D
100
AcDbEntity
  8
0
100
AcDbLine
 62
7
  6
CONTINUOUS
 10
115.8487969058
 20
119.1117542917
 11
110.2335687064
 21
114.4817900078
  0
LINE
  5
34E
100
AcDbEntity
  8
0
100
AcDbLine
 62
7
  6
CONTINUOUS
 10
54.8763848635
 20
73.1724542266
 11
54.7544457262
 21
73.1020530531
  0
LINE
  5
34F
100
AcDbEntity
  8
0
100
AcDbLine
 62
7
  6
CONTINUOUS
 10
96.969102078
 20
96.8213601312
 11
74.8806477675
 21
84.0686612124
  0
LINE
  5
350
100
AcDbEntity
  8
0
100
AcDbLine
 62
7
  6
CONTINUOUS
 10
73.9882597522
 20
83.4049118242
 11
74.8806477675
 21
83.9201292096
  0
LINE
  5
351
100
AcDbEntity
  8
0
100
AcDbLine
 62
7
  6
CONTINUOUS
 10
43.4867700311
 20
65.6167029123
 11
45.350437764
 21
66.6926855568
  0
LINE
  5
352
100
AcDbEntity
  8
0
100
AcDbLine
 62
7
  6
CONTINUOUS
 10
53.6236321465
 20
71.1427775582
 11
53.0126225787
 21
70.7900131255
  0
LINE
  5
353
100
AcDbEntity
  8
0
100
AcDbLine
 62
7
  6
CONTINUOUS
 10
36.4762227836
 20
58.5888037614
 11
36.5067002523
 21
58.6063998311
  0
LINE
  5
354
100
AcDbEntity
  8
0
100
AcDbLine
 62
7
  6
CONTINUOUS
 10
30.8125518723
 20
125.0173790893
 11
29.5637707657
 21
125.7035077028
  0
LINE
  5
355
100
AcDbEntity
  8
0
100
AcDbLine
 62
7
  6
CONTINUOUS
 10
45.6330383493
 20
51.1454719724
 11
46.0174847588
 21
51.4472733769
  0
LINE
  5
356
100
AcDbEntity
  8
0
100
AcDbLine
 62
7
  6
CONTINUOUS
 10
110.2335687064
 20
99.9888721037
 11
106.5857466478
 21
97.8828136277
  0
LINE
  5
357
100
AcDbEntity
  8
0
100
AcDbLine
 62
7
  6
CONTINUOUS
 10
73.9882597522
 20
79.0627581342
 11
59.9168933917
 21
70.9386994722
  0
LINE
  5
358
100
AcDbEntity
  8
0
100
AcDbLine
 62
7
  6
CONTINUOUS
 10
73.9882597522
 20
78.2723278776
 11
74.8806477675
 21
78.787545263
  0
LINE
  5
359
100
AcDbEntity
  8
0
100
AcDbLine
 62
7
  6
CONTINUOUS
 10
40.4713806605
 20
55.0166288589
 11
38.6077129276
 21
53.9406462144
  0
LINE
  5
35A
100
AcDbEntity
  8
0
100
AcDbLine
 62
7
  6
CONTINUOUS
 10
97.6856325949
 20
94.2848284795
 11
96.9836411371
 21
94.6901142679
  0
LINE
  5
35B
100
AcDbEntity
  8
0
100
AcDbLine
 62
7
  6
CONTINUOUS
 10
96.9836411371
 20
96.8129661914
 11
96.969102078
 21
96.8213601312
  0
LINE
  5
35C
100
AcDbEntity
  8
0
100
AcDbLine
 62
7
  6
CONTINUOUS
 10
96.9836411371
 20
109.1830321719
 11
97.5347898581
 21
110.9876854316
  0
LINE
  5
35D
100
AcDbEntity
  8
0
100
AcDbLine
 62
7
  6
CONTINUOUS
 10
115.8487969058
 20
104.6188363877
 11
110.2335687064
 21
99.9888721037
  0
LINE
  5
35E
100
AcDbEntity
  8
0
100
AcDbLine
 62
7
  6
CONTINUOUS
 10
42.2343159083
 20
55.2996341994
 11
42.0977330283
 21
55.2207785075
  0
LINE
  5
35F
100
AcDbEntity
  8
0
100
AcDbLine
 62
7
  6
CONTINUOUS
 10
43.7240853961
 20
54.2818247721
 11
43.8606682762
 21
54.360680464
  0
LINE
  5
360
100
AcDbEntity
  8
0
100
AcDbLine
 62
7
  6
CONTINUOUS
 10
53.6236321462
 20
59.221842268
 11
53.0126225787
 21
58.8690778354
  0
LINE
  5
361
100
AcDbEntity
  8
0
100
AcDbLine
 62
7
  6
CONTINUOUS
 10
54.7544457262
 20
58.6091351491
 11
54.8763848635
 21
58.6795363226
  0
LINE
  5
362
100
AcDbEntity
  8
0
100
AcDbLine
 62
7
  6
CONTINUOUS
 10
74.8806477675
 20
69.5757433084
 11
96.969102078
 21
82.3284422272
  0
LINE
  5
363
100
AcDbEntity
  8
0
100
AcDbLine
 62
7
  6
CONTINUOUS
 10
74.8806477675
 20
69.4272113056
 11
73.9882597522
 21
68.9119939202
  0
LINE
  5
364
100
AcDbEntity
  8
0
100
AcDbLine
 62
7
  6
CONTINUOUS
 10
43.4867700311
 20
51.1237850082
 11
45.350437764
 21
52.1997676527
  0
LINE
  5
365
100
AcDbEntity
  8
0
100
AcDbLine
 62
7
  6
CONTINUOUS
 10
106.5857466478
 20
83.3898957237
 11
97.6856325949
 21
79.7919105754
  0
LINE
  5
366
100
AcDbEntity
  8
0
100
AcDbLine
 62
7
  6
CONTINUOUS
 10
33.531884893
 20
116.7275400193
 11
35.0534544709
 21
116.5691318856
  0
LINE
  5
367
100
AcDbEntity
  8
0
100
AcDbLine
 62
7
  6
CONTINUOUS
 10
35.0534544709
 20
119.6310159498
 11
33.531884893
 21
119.7894240836
  0
LINE
  5
368
100
AcDbEntity
  8
0
100
AcDbLine
 62
7
  6
CONTINUOUS
 10
117.1781623992
 20
86.0105447855
 11
115.8487969058
 21
86.778036948
  0
LINE
  5
369
100
AcDbEntity
  8
0
100
AcDbLine
 62
7
  6
CONTINUOUS
 10
117.2838218372
 20
86.1186394559
 11
115.8487969058
 21
86.9471327433
  0
LINE
  5
36A
100
AcDbEntity
  8
0
100
AcDbLine
 62
7
  6
CONTINUOUS
 10
53.6236321465
 20
56.6498596541
 11
53.0126225787
 21
56.2970952214
  0
LINE
  5
36B
100
AcDbEntity
  8
0
100
AcDbLine
 62
7
  6
CONTINUOUS
 10
59.9168933917
 20
56.4457815681
 11
73.9882597522
 21
64.5698402302
  0
LINE
  5
36C
100
AcDbEntity
  8
0
100
AcDbLine
 62
7
  6
CONTINUOUS
 10
106.5857466478
 20
83.3898957237
 11
110.2335687064
 21
85.4959541997
  0
LINE
  5
36D
100
AcDbEntity
  8
0
100
AcDbLine
 62
7
  6
CONTINUOUS
 10
73.9882597522
 20
63.7794099735
 11
74.8806477675
 21
64.294627359
  0
LINE
  5
36E
100
AcDbEntity
  8
0
100
AcDbLine
 62
7
  6
CONTINUOUS
 10
29.7857132984
 20
122.3564869843
 11
30.3448773943
 21
122.3395067525
  0
LINE
  5
36F
100
AcDbEntity
  8
0
100
AcDbLine
 62
7
  6
CONTINUOUS
 10
28.147908982
 20
122.4062220892
 11
28.7070730618
 21
122.3892420174
  0
LINE
  5
370
100
AcDbEntity
  8
0
100
AcDbLine
 62
7
  6
CONTINUOUS
 10
33.975538469
 20
121.2098698393
 11
35.497108047
 21
121.0514617056
  0
LINE
  5
371
100
AcDbEntity
  8
0
100
AcDbLine
 62
7
  6
CONTINUOUS
 10
96.969102078
 20
67.8355243231
 11
96.969102078
 21
111.3142780353
  0
LINE
  5
372
100
AcDbEntity
  8
0
100
AcDbLine
 62
7
  6
CONTINUOUS
 10
96.9836411371
 20
65.7042784598
 11
96.9836411371
 21
109.1830321719
  0
LINE
  5
373
100
AcDbEntity
  8
0
100
AcDbLine
 62
7
  6
CONTINUOUS
 10
97.6856325949
 20
65.2989926714
 11
97.6856325949
 21
108.7777463835
  0
LINE
  5
374
100
AcDbEntity
  8
0
100
AcDbLine
 62
7
  6
CONTINUOUS
 10
117.3275893227
 20
126.0145332894
 11
115.0455717147
 21
121.0974571279
  0
LINE
  5
375
100
AcDbEntity
  8
0
100
AcDbLine
 62
7
  6
CONTINUOUS
 10
115.3402112398
 20
120.5075649425
 11
117.1781623992
 21
124.4678086323
  0
LINE
  5
376
100
AcDbEntity
  8
0
100
AcDbLine
 62
7
  6
CONTINUOUS
 10
115.8487969058
 20
90.1259184836
 11
110.2335687064
 21
85.4959541997
  0
LINE
  5
377
100
AcDbEntity
  8
0
100
AcDbLine
 62
7
  6
CONTINUOUS
 10
30.4283315457
 20
122.2975621875
 11
27.5279338473
 21
122.1781831134
  0
LINE
  5
378
100
AcDbEntity
  8
0
100
AcDbLine
 62
7
  6
CONTINUOUS
 10
27.0074314899
 20
121.2185222123
 11
29.266151248
 21
121.2612961678
  0
LINE
  5
379
100
AcDbEntity
  8
0
100
AcDbLine
 62
7
  6
CONTINUOUS
 10
27.8094351071
 20
124.279363036
 11
31.2428805985
 21
124.2085629026
  0
LINE
  5
37A
100
AcDbEntity
  8
0
100
AcDbLine
 62
7
  6
CONTINUOUS
 10
28.8345921512
 20
123.78895684
 11
28.2754280553
 21
123.8059370718
  0
LINE
  5
37B
100
AcDbEntity
  8
0
100
AcDbLine
 62
7
  6
CONTINUOUS
 10
30.4723964677
 20
123.7392217351
 11
29.9132323878
 21
123.7562018069
  0
LINE
  5
37C
100
AcDbEntity
  8
0
100
AcDbLine
 62
7
  6
CONTINUOUS
 10
117.3275893227
 20
97.0286974814
 11
116.3861755978
 21
97.572210653
  0
LINE
  5
37D
100
AcDbEntity
  8
0
100
AcDbLine
 62
7
  6
CONTINUOUS
 10
97.6856325949
 20
108.7777463835
 11
96.9836411371
 21
109.1830321719
  0
LINE
  5
37E
100
AcDbEntity
  8
0
100
AcDbLine
 62
7
  6
CONTINUOUS
 10
97.5347898581
 20
110.9876854316
 11
96.969102078
 21
111.3142780353
  0
LINE
  5
37F
100
AcDbEntity
  8
0
100
AcDbLine
 62
7
  6
CONTINUOUS
 10
117.1781623992
 20
100.5034626895
 11
115.8487969058
 21
101.270954852
  0
LINE
  5
380
100
AcDbEntity
  8
0
100
AcDbLine
 62
7
  6
CONTINUOUS
 10
117.2838218372
 20
100.6115573599
 11
115.8487969058
 21
101.4400506474
  0
LINE
  5
381
100
AcDbEntity
  8
0
100
AcDbLine
 62
7
  6
CONTINUOUS
 10
101.7537022484
 20
120.3750930931
 11
101.7537022484
 21
120.7038585681
  0
LINE
  5
382
100
AcDbEntity
  8
0
100
AcDbLine
 62
7
  6
CONTINUOUS
 10
105.0537022484
 20
120.3750864714
 11
105.0537022484
 21
120.7038585681
  0
LINE
  5
383
100
AcDbEntity
  8
0
100
AcDbLine
 62
7
  6
CONTINUOUS
 10
117.1781623992
 20
114.9963805936
 11
115.8487969058
 21
112.1319892958
  0
LINE
  5
384
100
AcDbEntity
  8
0
100
AcDbLine
 62
7
  6
CONTINUOUS
 10
115.8487969058
 20
110.9072356701
 11
117.3275893227
 21
114.0935979996
  0
LINE
  5
385
100
AcDbEntity
  8
0
100
AcDbLine
 62
7
  6
CONTINUOUS
 10
117.3275893227
 20
111.5216153854
 11
115.8487969058
 21
108.335253056
  0
LINE
  5
386
100
AcDbEntity
  8
0
100
AcDbLine
 62
7
  6
CONTINUOUS
 10
115.8487969058
 20
107.1104994305
 11
117.1781623992
 21
109.9748907283
  0
LINE
  5
387
100
AcDbEntity
  8
0
100
AcDbLine
 62
7
  6
CONTINUOUS
 10
53.6236321462
 20
44.7289243639
 11
53.0126225787
 21
44.3761599314
  0
LINE
  5
388
100
AcDbEntity
  8
0
100
AcDbLine
 62
7
  6
CONTINUOUS
 10
54.7544457262
 20
44.116217245
 11
54.8763848635
 21
44.1866184185
  0
LINE
  5
389
100
AcDbEntity
  8
0
100
AcDbLine
 62
7
  6
CONTINUOUS
 10
74.8806477675
 20
55.0828254043
 11
96.969102078
 21
67.8355243231
  0
LINE
  5
38A
100
AcDbEntity
  8
0
100
AcDbLine
 62
7
  6
CONTINUOUS
 10
74.8806477675
 20
54.9342934015
 11
73.9882597522
 21
54.4190760161
  0
LINE
  5
38B
100
AcDbEntity
  8
0
100
AcDbLine
 62
7
  6
CONTINUOUS
 10
97.6856325949
 20
65.2989926714
 11
106.5857466478
 21
68.8969778196
  0
LINE
  5
38C
100
AcDbEntity
  8
0
100
AcDbLine
 62
7
  6
CONTINUOUS
 10
29.5637707657
 20
125.7035077028
 11
27.2974665954
 21
125.523936038
  0
LINE
  5
38D
100
AcDbEntity
  8
0
100
AcDbLine
 62
7
  6
CONTINUOUS
 10
27.6908011425
 20
124.6091089579
 11
30.5943168958
 21
124.7750275195
  0
LINE
  5
38E
100
AcDbEntity
  8
0
100
AcDbLine
 62
7
  6
CONTINUOUS
 10
59.4922572056
 20
137.0334625668
 11
66.421932512
 21
133.0327031725
  0
LINE
  5
38F
100
AcDbEntity
  8
0
100
AcDbLine
 62
7
  6
CONTINUOUS
 10
106.5857466478
 20
68.8969778196
 11
106.5857466478
 21
112.3757315318
  0
LINE
  5
390
100
AcDbEntity
  8
0
100
AcDbLine
 62
7
  6
CONTINUOUS
 10
117.1781623992
 20
100.5034626895
 11
115.8487969058
 21
97.6390713918
  0
LINE
  5
391
100
AcDbEntity
  8
0
100
AcDbLine
 62
7
  6
CONTINUOUS
 10
115.8487969058
 20
96.4143177661
 11
117.3275893227
 21
99.6006800955
  0
LINE
  5
392
100
AcDbEntity
  8
0
100
AcDbLine
 62
7
  6
CONTINUOUS
 10
59.9168933917
 20
41.9528636641
 11
73.9882597522
 21
50.0769223261
  0
LINE
  5
393
100
AcDbEntity
  8
0
100
AcDbLine
 62
7
  6
CONTINUOUS
 10
106.5857466478
 20
68.8969778196
 11
110.2335687064
 21
71.0030362956
  0
LINE
  5
394
100
AcDbEntity
  8
0
100
AcDbLine
 62
7
  6
CONTINUOUS
 10
117.3275893227
 20
111.5216153854
 11
116.3861755978
 21
112.065128557
  0
LINE
  5
395
100
AcDbEntity
  8
0
100
AcDbLine
 62
7
  6
CONTINUOUS
 10
110.2335687064
 20
71.0030362956
 11
110.2335687064
 21
114.4817900078
  0
LINE
  5
396
100
AcDbEntity
  8
0
100
AcDbLine
 62
7
  6
CONTINUOUS
 10
117.3275893227
 20
97.0286974813
 11
115.8487969058
 21
93.842335152
  0
LINE
  5
397
100
AcDbEntity
  8
0
100
AcDbLine
 62
7
  6
CONTINUOUS
 10
115.8487969058
 20
92.6175815264
 11
117.1781623992
 21
95.4819728242
  0
LINE
  5
398
100
AcDbEntity
  8
0
100
AcDbLine
 62
7
  6
CONTINUOUS
 10
110.2335687064
 20
71.0030362956
 11
115.8487969058
 21
75.6330005796
  0
LINE
  5
399
100
AcDbEntity
  8
0
100
AcDbLine
 62
7
  6
CONTINUOUS
 10
117.1781623992
 20
114.9963805936
 11
115.8487969058
 21
115.7638727561
  0
LINE
  5
39A
100
AcDbEntity
  8
0
100
AcDbLine
 62
7
  6
CONTINUOUS
 10
117.2838218372
 20
115.104475264
 11
115.8487969058
 21
115.9329685514
  0
LINE
  5
39B
100
AcDbEntity
  8
0
100
AcDbLine
 62
7
  6
CONTINUOUS
 10
112.5960921701
 20
120.9896617625
 11
115.8487969058
 21
119.1117542917
  0
LINE
  5
39C
100
AcDbEntity
  8
0
100
AcDbLine
 62
7
  6
CONTINUOUS
 10
115.0455717147
 20
119.5952236931
 11
115.0455717147
 21
121.0974571279
  0
LINE
  5
39D
100
AcDbEntity
  8
0
100
AcDbLine
 62
7
  6
CONTINUOUS
 10
115.8487969058
 20
75.6330005796
 11
115.8487969058
 21
119.1117542917
  0
LINE
  5
39E
100
AcDbEntity
  8
0
100
AcDbLine
 62
7
  6
CONTINUOUS
 10
117.3275893227
 20
111.5216153854
 11
117.3275893227
 21
110.7051129685
  0
LINE
  5
39F
100
AcDbEntity
  8
0
100
AcDbLine
 62
7
  6
CONTINUOUS
 10
117.3275893227
 20
100.4171825127
 11
117.3275893227
 21
99.6006800955
  0
LINE
  5
3A0
100
AcDbEntity
  8
0
100
AcDbLine
 62
7
  6
CONTINUOUS
 10
117.3275893227
 20
97.0286974814
 11
117.3275893227
 21
96.2121950645
  0
LINE
  5
3A1
100
AcDbEntity
  8
0
100
AcDbLine
 62
7
  6
CONTINUOUS
 10
117.3275893227
 20
85.9242646086
 11
117.3275893227
 21
85.1077621915
  0
LINE
  5
3A2
100
AcDbEntity
  8
0
100
AcDbLine
 62
7
  6
CONTINUOUS
 10
117.3275893227
 20
114.0935979996
 11
117.3275893227
 21
114.9101004167
  0
LINE
  5
3A3
100
AcDbEntity
  8
0
100
AcDbLine
 62
7
  6
CONTINUOUS
 10
117.3275893227
 20
125.1980308726
 11
117.3275893227
 21
126.0145332895
  0
LINE
  5
3A4
100
AcDbEntity
  8
0
100
AcDbLine
 62
7
  6
CONTINUOUS
 10
117.1781623992
 20
86.0105447855
 11
115.8487969058
 21
83.1461534877
  0
LINE
  5
3A5
100
AcDbEntity
  8
0
100
AcDbLine
 62
7
  6
CONTINUOUS
 10
115.8487969058
 20
81.921399862
 11
117.3275893227
 21
85.1077621915
  0
LINE
  5
3A6
100
AcDbEntity
  8
0
100
AcDbLine
 62
7
  6
CONTINUOUS
 10
114.4345621468
 20
120.7446926952
 11
79.7861950354
 21
140.7485176807
  0
LINE
  5
3A7
100
AcDbEntity
  8
0
100
AcDbLine
 62
7
  6
CONTINUOUS
 10
88.6957181041
 20
142.5447778808
 11
117.3275893227
 21
126.0145332894
  0
ARC
  5
3A8
100
AcDbEntity
  8
0
100
AcDbCircle
 62
7
  6
CONTINUOUS
 10
21.2173027571
 20
133.2491600826
 40
16.2223437227
100
AcDbArc
 50
277.3159494174
 51
280.3672982574
  0
ARC
  5
3A9
100
AcDbEntity
  8
0
100
AcDbCircle
 62
7
  6
CONTINUOUS
 10
30.0407901764
 20
122.5438834659
 40
9.0736679647
100
AcDbArc
 50
233.475908425
 51
234.3393768897
  0
ARC
  5
3AA
100
AcDbEntity
  8
0
100
AcDbCircle
 62
7
  6
CONTINUOUS
 10
29.1968381575
 20
129.1976510337
 40
8.2184580937
100
AcDbArc
 50
236.3306231461
 51
237.2507325453
  0
ARC
  5
3AB
100
AcDbEntity
  8
0
100
AcDbCircle
 62
7
  6
CONTINUOUS
 10
117.2772106989
 20
118.0881305118
 40
2.6928688072
100
AcDbArc
 50
145.9676551461
 51
146.3263167688
  0
ARC
  5
3AC
100
AcDbEntity
  8
0
100
AcDbCircle
 62
7
  6
CONTINUOUS
 10
33.8574237916
 20
122.6632998557
 40
2.5711655673
100
AcDbArc
 50
180.0008964238
 51
185.9177861572
  0
ARC
  5
3AD
100
AcDbEntity
  8
0
100
AcDbCircle
 62
7
  6
CONTINUOUS
 10
45.1347729907
 20
85.0693657273
 40
2.2265275487
100
AcDbArc
 50
261.3879978506
 51
264.4140259118
  0
ARC
  5
3AE
100
AcDbEntity
  8
0
100
AcDbCircle
 62
7
  6
CONTINUOUS
 10
103.928010529
 20
119.2438922649
 40
2.1335699629
100
AcDbArc
 50
60.0033993875
 51
60.9908042704
  0
ARC
  5
3AF
100
AcDbEntity
  8
0
100
AcDbCircle
 62
7
  6
CONTINUOUS
 10
102.8776665368
 20
119.246922555
 40
2.1300819376
100
AcDbArc
 50
119.103003787
 51
119.9975215134
  0
ARC
  5
3B0
100
AcDbEntity
  8
0
100
AcDbCircle
 62
7
  6
CONTINUOUS
 10
76.8774722479
 20
130.4345515063
 40
1.360947048
100
AcDbArc
 50
299.9405914625
 51
303.9656305819
  0
ARC
  5
3B1
100
AcDbEntity
  8
0
100
AcDbCircle
 62
7
  6
CONTINUOUS
 10
39.4008599488
 20
123.9025821564
 40
1.360947048
100
AcDbArc
 50
299.9405914625
 51
303.965630582
  0
ARC
  5
3B2
100
AcDbEntity
  8
0
100
AcDbCircle
 62
7
  6
CONTINUOUS
 10
68.745843476
 20
116.6767612536
 40
1.3609470479
100
AcDbArc
 50
299.9405914623
 51
303.965630582
  0
ARC
  5
3B3
100
AcDbEntity
  8
0
100
AcDbCircle
 62
7
  6
CONTINUOUS
 10
63.6548277378
 20
95.4481413978
 40
1.360947048
100
AcDbArc
 50
299.9405914625
 51
303.965630582
  0
ARC
  5
3B4
100
AcDbEntity
  8
0
100
AcDbCircle
 62
7
  6
CONTINUOUS
 10
76.0482676878
 20
129.3389569071
 40
1.3609469215
100
AcDbArc
 50
119.9405912749
 51
123.9656307691
  0
ARC
  5
3B5
100
AcDbEntity
  8
0
100
AcDbCircle
 62
7
  6
CONTINUOUS
 10
38.5716553887
 20
122.8069875572
 40
1.3609469215
100
AcDbArc
 50
119.9405912749
 51
123.9656307692
  0
ARC
  5
3B6
100
AcDbEntity
  8
0
100
AcDbCircle
 62
7
  6
CONTINUOUS
 10
67.9166389159
 20
115.5811666544
 40
1.3609469215
100
AcDbArc
 50
119.9405912752
 51
123.9656307691
  0
ARC
  5
3B7
100
AcDbEntity
  8
0
100
AcDbCircle
 62
7
  6
CONTINUOUS
 10
62.8256231776
 20
94.3525467986
 40
1.3609469214
100
AcDbArc
 50
119.9405912753
 51
123.9656307692
  0
ARC
  5
3B8
100
AcDbEntity
  8
0
100
AcDbCircle
 62
7
  6
CONTINUOUS
 10
103.0954849345
 20
120.7048742558
 40
1.0117351791
100
AcDbArc
 50
119.9405947073
 51
123.9656301267
  0
ARC
  5
3B9
100
AcDbEntity
  8
0
100
AcDbCircle
 62
7
  6
CONTINUOUS
 10
103.7119195623
 20
121.5193452975
 40
1.0117351791
100
AcDbArc
 50
299.9405947072
 51
303.9656301268
  0
ARC
  5
3BA
100
AcDbEntity
  8
0
100
AcDbCircle
 62
7
  6
CONTINUOUS
 10
102.6105867952
 20
120.8690460179
 40
0.9031012226
100
AcDbArc
 50
219.2801889795
 51
221.5260444527
  0
ARC
  5
3BB
100
AcDbEntity
  8
0
100
AcDbCircle
 62
7
  6
CONTINUOUS
 10
102.5630192894
 20
120.8301326727
 40
0.8416446037
100
AcDbArc
 50
215.1000366602
 51
219.2798068962
  0
ARC
  5
3BC
100
AcDbEntity
  8
0
100
AcDbCircle
 62
7
  6
CONTINUOUS
 10
104.3269404278
 20
120.7734703634
 40
0.741493445
100
AcDbArc
 50
326.927215192
 51
329.716456198
  0
ARC
  5
3BD
100
AcDbEntity
  8
0
100
AcDbCircle
 62
7
  6
CONTINUOUS
 10
76.8014411667
 20
129.5607444239
 40
0.186601269
100
AcDbArc
 50
13.3838828074
 51
15.796517693
  0
ARC
  5
3BE
100
AcDbEntity
  8
0
100
AcDbCircle
 62
7
  6
CONTINUOUS
 10
39.3248288677
 20
123.028775074
 40
0.186601269
100
AcDbArc
 50
13.3838828067
 51
15.796517693
  0
ARC
  5
3BF
100
AcDbEntity
  8
0
100
AcDbCircle
 62
7
  6
CONTINUOUS
 10
103.7422734138
 20
120.7019479255
 40
0.186601269
100
AcDbArc
 50
13.383882807
 51
15.7965176927
  0
ARC
  5
3C0
100
AcDbEntity
  8
0
100
AcDbCircle
 62
7
  6
CONTINUOUS
 10
68.6698123949
 20
115.8029541712
 40
0.186601269
100
AcDbArc
 50
13.383882807
 51
15.7965176932
  0
ARC
  5
3C1
100
AcDbEntity
  8
0
100
AcDbCircle
 62
7
  6
CONTINUOUS
 10
63.5787966567
 20
94.5743343154
 40
0.186601269
100
AcDbArc
 50
13.3838828067
 51
15.7965176933
  0
SPLINE
  5
3C2
100
AcDbEntity
  8
0
100
AcDbSpline
 62
7
  6
CONTINUOUS
 70
0
 71
3
 72
20
 73
16
 74
0
 42
0.0000001
 43
0.0000001
 44
0.0000000001
 40
0.0
 40
0.0
 40
0.0
 40
0.0
 40
0.0329580232
 40
0.0562133424
 40
0.0705655525
 40
0.080296641
 40
0.101915762
 40
0.1359620905
 40
0.1828217246
 40
0.2423595404
 40
0.3143838075
 40
0.3987426775
 40
0.4953211621
 40
0.7243929636
 40
1.0
 40
1.0
 40
1.0
 40
1.0
 10
77.0004755155
 20
129.6220832919
 30
0.0
 10
77.0009102409
 20
129.6229670424
 30
0.0
 10
77.0017886303
 20
129.6246164691
 30
0.0
 10
77.0024764212
 20
129.6259922988
 30
0.0
 10
77.0038881141
 20
129.6281015299
 30
0.0
 10
77.0026615101
 20
129.626425149
 30
0.0
 10
77.001624135
 20
129.6252523567
 30
0.0
 10
76.9994544074
 20
129.6228096817
 30
0.0
 10
76.9965702454
 20
129.6198795448
 30
0.0
 10
76.9926956359
 20
129.616167641
 30
0.0
 10
76.9878862492
 20
129.6118817122
 30
0.0
 10
76.9820751816
 20
129.6070386599
 30
0.0
 10
76.9723987893
 20
129.5995219731
 30
0.0
 10
76.9576539709
 20
129.5892310374
 30
0.0
 10
76.9447911625
 20
129.5813396099
 30
0.0
 10
76.9376585847
 20
129.5772216388
 30
0.0
  0
SPLINE
  5
3C3
100
AcDbEntity
  8
0
100
AcDbSpline
 62
7
  6
CONTINUOUS
 70
0
 71
3
 72
9
 73
5
 74
0
 42
0.0000001
 43
0.0000001
 44
0.0000000001
 40
0.0
 40
0.0
 40
0.0
 40
0.0
 40
0.2446743884
 40
1.0
 40
1.0
 40
1.0
 40
1.0
 10
75.369016672
 20
130.5182764485
 30
0.0
 10
75.380167233
 20
130.5247141892
 30
0.0
 10
75.4260876463
 20
130.5504213918
 30
0.0
 10
75.4733295704
 20
130.5737513123
 30
0.0
 10
75.5095521359
 20
130.59011588
 30
0.0
  0
SPLINE
  5
3C4
100
AcDbEntity
  8
0
100
AcDbSpline
 62
7
  6
CONTINUOUS
 70
0
 71
3
 72
12
 73
8
 74
0
 42
0.0000001
 43
0.0000001
 44
0.0000000001
 40
0.0
 40
0.0
 40
0.0
 40
0.0
 40
0.252030611
 40
0.5014983206
 40
0.6262153126
 40
0.7508725206
 40
1.0
 40
1.0
 40
1.0
 40
1.0
 10
75.162473432
 20
130.370475573
 30
0.0
 10
75.1102425535
 20
130.3236725231
 30
0.0
 10
75.0138064371
 20
130.2216402364
 30
0.0
 10
74.9198740288
 20
130.0733329289
 30
0.0
 10
74.8653375383
 20
129.9453865243
 30
0.0
 10
74.8253095897
 20
129.8123586822
 30
0.0
 10
74.8128700013
 20
129.7078274097
 30
0.0
 10
74.8128700013
 20
129.6385026042
 30
0.0
  0
SPLINE
  5
3C5
100
AcDbEntity
  8
0
100
AcDbSpline
 62
7
  6
CONTINUOUS
 70
0
 71
3
 72
19
 73
15
 74
0
 42
0.0000001
 43
0.0000001
 44
0.0000000001
 40
0.0
 40
0.0
 40
0.0
 40
0.0
 40
0.0503758414
 40
0.1099372762
 40
0.2492043068
 40
0.4042291975
 40
0.5633688854
 40
0.7154998333
 40
0.7852985395
 40
0.8486756805
 40
0.9037454087
 40
0.9485120031
 40
0.9810193496
 40
1.0
 40
1.0
 40
1.0
 40
1.0
 10
76.9376585847
 20
129.5772216388
 30
0.0
 10
76.9222419088
 20
129.5683208702
 30
0.0
 10
76.8874947607
 20
129.5507830904
 30
0.0
 10
76.8055665861
 20
129.518243677
 30
0.0
 10
76.683935107
 20
129.4869667225
 30
0.0
 10
76.5242918674
 20
129.4687310397
 30
0.0
 10
76.3590800602
 20
129.4714937942
 30
0.0
 10
76.2254202547
 20
129.491441719
 30
0.0
 10
76.1278880524
 20
129.5173181588
 30
0.0
 10
76.0650614757
 20
129.5394149921
 30
0.0
 10
76.0124086825
 20
129.5631345047
 30
0.0
 10
75.9716839345
 20
129.5863060353
 30
0.0
 10
75.944024757
 20
129.6061929243
 30
0.0
 10
75.9304277018
 20
129.6183747445
 30
0.0
 10
75.9258752908
 20
129.6233005471
 30
0.0
  0
SPLINE
  5
3C6
100
AcDbEntity
  8
0
100
AcDbSpline
 62
7
  6
CONTINUOUS
 70
0
 71
3
 72
13
 73
9
 74
0
 42
0.0000001
 43
0.0000001
 44
0.0000000001
 40
0.0
 40
0.0
 40
0.0
 40
0.0
 40
0.1249202717
 40
0.2494433727
 40
0.374048896
 40
0.498713574
 40
0.7480766
 40
1.0
 40
1.0
 40
1.0
 40
1.0
 10
78.1128700013
 20
129.6385026042
 30
0.0
 10
78.1128700013
 20
129.6732791281
 30
0.0
 10
78.1087627127
 20
129.7427917936
 30
0.0
 10
78.0904254814
 20
129.8455231436
 30
0.0
 10
78.0604046964
 20
129.9454007595
 30
0.0
 10
78.0058667441
 20
130.0733207488
 30
0.0
 10
77.9119344572
 20
130.2216431665
 30
0.0
 10
77.8154976225
 20
130.3236723678
 30
0.0
 10
77.7632665707
 20
130.370475573
 30
0.0
  0
SPLINE
  5
3C7
100
AcDbEntity
  8
0
100
AcDbSpline
 62
7
  6
CONTINUOUS
 70
0
 71
3
 72
11
 73
7
 74
0
 42
0.0000001
 43
0.0000001
 44
0.0000000001
 40
0.0
 40
0.0
 40
0.0
 40
0.0
 40
0.2479220379
 40
0.5000012275
 40
0.7520792365
 40
1.0
 40
1.0
 40
1.0
 40
1.0
 10
75.8680812235
 20
130.7112092356
 30
0.0
 10
75.9644712643
 20
130.7343882122
 30
0.0
 10
76.1619932047
 20
130.7688773802
 30
0.0
 10
76.462871008
 20
130.785952862
 30
0.0
 10
76.7637482879
 20
130.7688772018
 30
0.0
 10
76.9612692338
 20
130.7343880931
 30
0.0
 10
77.0576587792
 20
130.7112092356
 30
0.0
  0
SPLINE
  5
3C8
100
AcDbEntity
  8
0
100
AcDbSpline
 62
7
  6
CONTINUOUS
 70
0
 71
3
 72
11
 73
7
 74
0
 42
0.0000001
 43
0.0000001
 44
0.0000000001
 40
0.0
 40
0.0
 40
0.0
 40
0.0
 40
0.2740707263
 40
0.5336386237
 40
0.7761001288
 40
1.0
 40
1.0
 40
1.0
 40
1.0
 10
77.0576566971
 20
130.7112063498
 30
0.0
 10
77.1278994907
 20
130.6943135092
 30
0.0
 10
77.2632373327
 20
130.654965893
 30
0.0
 10
77.4529746729
 20
130.5773395966
 30
0.0
 10
77.6206526695
 20
130.4841497864
 30
0.0
 10
77.7193067822
 20
130.4098613914
 30
0.0
 10
77.7632615095
 20
130.3704736904
 30
0.0
  0
SPLINE
  5
3C9
100
AcDbEntity
  8
0
100
AcDbSpline
 62
7
  6
CONTINUOUS
 70
0
 71
3
 72
9
 73
5
 74
0
 42
0.0000001
 43
0.0000001
 44
0.0000000001
 40
0.0
 40
0.0
 40
0.0
 40
0.0
 40
0.2446743914
 40
1.0
 40
1.0
 40
1.0
 40
1.0
 10
77.5567233307
 20
129.2552318575
 30
0.0
 10
77.5455727708
 20
129.2487941145
 30
0.0
 10
77.4996523554
 20
129.2230869154
 30
0.0
 10
77.4524104322
 20
129.1997569936
 30
0.0
 10
77.4161878667
 20
129.183392426
 30
0.0
  0
SPLINE
  5
3CA
100
AcDbEntity
  8
0
100
AcDbSpline
 62
7
  6
CONTINUOUS
 70
0
 71
3
 72
28
 73
24
 74
0
 42
0.0000001
 43
0.0000001
 44
0.0000000001
 40
0.0
 40
0.0
 40
0.0
 40
0.0
 40
0.0696172811
 40
0.1433118696
 40
0.2197425084
 40
0.2974176867
 40
0.3747486969
 40
0.4501759786
 40
0.5222595256
 40
0.5897916202
 40
0.6215897112
 40
0.651971813
 40
0.6809120701
 40
0.708433423
 40
0.7594644982
 40
0.7833761931
 40
0.8064972274
 40
0.829123163
 40
0.8515857471
 40
0.8742285621
 40
0.8973825961
 40
0.9462381753
 40
1.0
 40
1.0
 40
1.0
 40
1.0
 10
77.4161878667
 20
129.183392426
 30
0.0
 10
77.3424518386
 20
129.1500800917
 30
0.0
 10
77.1857646856
 20
129.0920384669
 30
0.0
 10
76.9370555339
 20
129.0318770977
 30
0.0
 10
76.6740550599
 20
128.9974364522
 30
0.0
 10
76.4047283984
 20
128.9897418453
 30
0.0
 10
76.137145654
 20
129.0090358054
 30
0.0
 10
75.879341345
 20
129.0547342387
 30
0.0
 10
75.6390726418
 20
129.1254728591
 30
0.0
 10
75.4557425794
 20
129.2051408132
 30
0.0
 10
75.3248172297
 20
129.2801467771
 30
0.0
 10
75.2372637328
 20
129.339936123
 30
0.0
 10
75.159058055
 20
129.4039995827
 30
0.0
 10
75.0703311992
 20
129.4921008988
 30
0.0
 10
74.9990752035
 20
129.589164947
 30
0.0
 10
74.9508262388
 20
129.6927610163
 30
0.0
 10
74.9270883279
 20
129.7704614855
 30
0.0
 10
74.9152979818
 20
129.8491578886
 30
0.0
 10
74.9155981859
 20
129.9281832827
 30
0.0
 10
74.9279628741
 20
130.0068544702
 30
0.0
 10
74.9609455373
 20
130.1121744759
 30
0.0
 10
75.0339174277
 20
130.2408611593
 30
0.0
 10
75.1159440425
 20
130.3287781459
 30
0.0
 10
75.1624828913
 20
130.3704720536
 30
0.0
  0
SPLINE
  5
3CB
100
AcDbEntity
  8
0
100
AcDbSpline
 62
7
  6
CONTINUOUS
 70
0
 71
3
 72
17
 73
13
 74
0
 42
0.0000001
 43
0.0000001
 44
0.0000000001
 40
0.0
 40
0.0
 40
0.0
 40
0.0
 40
0.0437792585
 40
0.0905081395
 40
0.1409795903
 40
0.1955639276
 40
0.3167077799
 40
0.4513349194
 40
0.5938443559
 40
0.7373365913
 40
0.8747387785
 40
1.0
 40
1.0
 40
1.0
 40
1.0
 10
76.980995353
 20
129.6115413507
 30
0.0
 10
76.977035359
 20
129.6255423883
 30
0.0
 10
76.9654267148
 20
129.6535953506
 30
0.0
 10
76.9390047339
 20
129.6926027128
 30
0.0
 10
76.9037291603
 20
129.7289787075
 30
0.0
 10
76.8438015598
 20
129.774737998
 30
0.0
 10
76.7503617821
 20
129.8206847827
 30
0.0
 10
76.6219733879
 20
129.8553765997
 30
0.0
 10
76.4822633148
 20
129.8692561936
 30
0.0
 10
76.3411776764
 20
129.8612938055
 30
0.0
 10
76.2087875848
 20
129.832129553
 30
0.0
 10
76.1276911795
 20
129.7977969999
 30
0.0
 10
76.0916373975
 20
129.7769814638
 30
0.0
  0
SPLINE
  5
3CC
100
AcDbEntity
  8
0
100
AcDbSpline
 62
7
  6
CONTINUOUS
 70
0
 71
3
 72
9
 73
5
 74
0
 42
0.0000001
 43
0.0000001
 44
0.0000000001
 40
0.0
 40
0.0
 40
0.0
 40
0.0
 40
0.261306736
 40
1.0
 40
1.0
 40
1.0
 40
1.0
 10
75.1446837415
 20
129.0655408171
 30
0.0
 10
75.1280238944
 20
129.0783157805
 30
0.0
 10
75.0655321835
 20
129.1288017232
 30
0.0
 10
75.0082622746
 20
129.1859749511
 30
0.0
 10
74.9707007689
 20
129.2319246895
 30
0.0
  0
SPLINE
  5
3CD
100
AcDbEntity
  8
0
100
AcDbSpline
 62
7
  6
CONTINUOUS
 70
0
 71
3
 72
11
 73
7
 74
0
 42
0.0000001
 43
0.0000001
 44
0.0000000001
 40
0.0
 40
0.0
 40
0.0
 40
0.0
 40
0.2675433981
 40
0.5206113462
 40
0.763106521
 40
1.0
 40
1.0
 40
1.0
 40
1.0
 10
74.9707007689
 20
129.2319246895
 30
0.0
 10
74.9456169696
 20
129.2626102009
 30
0.0
 10
74.9007700266
 20
129.3257564053
 30
0.0
 10
74.8503802428
 20
129.4275233679
 30
0.0
 10
74.8197573224
 20
129.5322174906
 30
0.0
 10
74.812870911
 20
129.6034097266
 30
0.0
 10
74.8128735326
 20
129.6385026041
 30
0.0
  0
SPLINE
  5
3CE
100
AcDbEntity
  8
0
100
AcDbSpline
 62
7
  6
CONTINUOUS
 70
0
 71
3
 72
9
 73
5
 74
0
 42
0.0000001
 43
0.0000001
 44
0.0000000001
 40
0.0
 40
0.0
 40
0.0
 40
0.0
 40
0.2632359569
 40
1.0
 40
1.0
 40
1.0
 40
1.0
 10
76.0916373975
 20
129.7769814638
 30
0.0
 10
76.0839717572
 20
129.7725557308
 30
0.0
 10
76.0553160451
 20
129.7549711696
 30
0.0
 10
76.0285614654
 20
129.7341310889
 30
0.0
 10
76.0108441074
 20
129.7168146729
 30
0.0
  0
SPLINE
  5
3CF
100
AcDbEntity
  8
0
100
AcDbSpline
 62
7
  6
CONTINUOUS
 70
0
 71
3
 72
9
 73
5
 74
0
 42
0.0000001
 43
0.0000001
 44
0.0000000001
 40
0.0
 40
0.0
 40
0.0
 40
0.0
 40
0.5239965964
 40
1.0
 40
1.0
 40
1.0
 40
1.0
 10
76.0108441074
 20
129.7168146729
 30
0.0
 10
75.9949048809
 20
129.7012361495
 30
0.0
 10
75.9673435786
 20
129.6682684191
 30
0.0
 10
75.9494213582
 20
129.6289097047
 30
0.0
 10
75.9441412341
 20
129.6093638208
 30
0.0
  0
SPLINE
  5
3D0
100
AcDbEntity
  8
0
100
AcDbSpline
 62
7
  6
CONTINUOUS
 70
0
 71
3
 72
9
 73
5
 74
0
 42
0.0000001
 43
0.0000001
 44
0.0000000001
 40
0.0
 40
0.0
 40
0.0
 40
0.0
 40
0.2446743965
 40
1.0
 40
1.0
 40
1.0
 40
1.0
 10
77.3417318362
 20
129.4635065822
 30
0.0
 10
77.3327728627
 20
129.4583341479
 30
0.0
 10
77.2958778798
 20
129.4376795715
 30
0.0
 10
77.2579211249
 20
129.41893503
 30
0.0
 10
77.2288179268
 20
129.4057868378
 30
0.0
  0
SPLINE
  5
3D1
100
AcDbEntity
  8
0
100
AcDbSpline
 62
7
  6
CONTINUOUS
 70
0
 71
3
 72
26
 73
22
 74
0
 42
0.0000001
 43
0.0000001
 44
0.0000000001
 40
0.0
 40
0.0
 40
0.0
 40
0.0
 40
0.069993067
 40
0.1442799112
 40
0.2212857582
 40
0.2992449088
 40
0.3763158745
 40
0.4507232855
 40
0.5208921519
 40
0.5856077837
 40
0.6442029898
 40
0.6967939486
 40
0.7212125776
 40
0.744662501
 40
0.767468475
 40
0.7900042805
 40
0.8126686497
 40
0.8358489428
 40
0.8849519084
 40
0.9394071086
 40
1.0
 40
1.0
 40
1.0
 40
1.0
 10
77.2288179268
 20
129.4057868378
 30
0.0
 10
77.164928481
 20
129.3769229753
 30
0.0
 10
77.0286515393
 20
129.3272679063
 30
0.0
 10
76.8120922138
 20
129.2778576147
 30
0.0
 10
76.5833896921
 20
129.25248968
 30
0.0
 10
76.3505273545
 20
129.252046911
 30
0.0
 10
76.1215555581
 20
129.2765489638
 30
0.0
 10
75.9044011219
 20
129.3251495538
 30
0.0
 10
75.706526641
 20
129.3961948261
 30
0.0
 10
75.5346334916
 20
129.4874020876
 30
0.0
 10
75.3945491085
 20
129.5958821826
 30
0.0
 10
75.3062414929
 20
129.7010072415
 30
0.0
 10
75.2582861641
 20
129.7898173273
 30
0.0
 10
75.2339694554
 20
129.8565910732
 30
0.0
 10
75.2207097848
 20
129.9245077027
 30
0.0
 10
75.2186948979
 20
129.9929021123
 30
0.0
 10
75.2279540642
 20
130.0610741766
 30
0.0
 10
75.2556433933
 20
130.1524284573
 30
0.0
 10
75.3200792681
 20
130.2638993144
 30
0.0
 10
75.4357689353
 20
130.3824590614
 30
0.0
 10
75.5314477266
 20
130.4479603682
 30
0.0
 10
75.5840081665
 20
130.478305968
 30
0.0
  0
SPLINE
  5
3D2
100
AcDbEntity
  8
0
100
AcDbSpline
 62
7
  6
CONTINUOUS
 70
0
 71
3
 72
9
 73
5
 74
0
 42
0.0000001
 43
0.0000001
 44
0.0000000001
 40
0.0
 40
0.0
 40
0.0
 40
0.0
 40
0.2446743965
 40
1.0
 40
1.0
 40
1.0
 40
1.0
 10
75.5840081665
 20
130.478305968
 30
0.0
 10
75.59296714
 20
130.4834784023
 30
0.0
 10
75.6298621229
 20
130.5041329787
 30
0.0
 10
75.6678188778
 20
130.5228775202
 30
0.0
 10
75.6969220759
 20
130.5360257124
 30
0.0
  0
SPLINE
  5
3D3
100
AcDbEntity
  8
0
100
AcDbSpline
 62
7
  6
CONTINUOUS
 70
0
 71
3
 72
26
 73
22
 74
0
 42
0.0000001
 43
0.0000001
 44
0.0000000001
 40
0.0
 40
0.0
 40
0.0
 40
0.0
 40
0.069993067
 40
0.1442799112
 40
0.2212857582
 40
0.2992449088
 40
0.3763158745
 40
0.4507232855
 40
0.5208921519
 40
0.5856077837
 40
0.6442029898
 40
0.6967939486
 40
0.7212125776
 40
0.744662501
 40
0.767468475
 40
0.7900042805
 40
0.8126686497
 40
0.8358489428
 40
0.8849519084
 40
0.9394071086
 40
1.0
 40
1.0
 40
1.0
 40
1.0
 10
75.6969220759
 20
130.5360257124
 30
0.0
 10
75.7608115217
 20
130.5648895749
 30
0.0
 10
75.8970884634
 20
130.6145446439
 30
0.0
 10
76.1136477889
 20
130.6639549355
 30
0.0
 10
76.3423503105
 20
130.6893228702
 30
0.0
 10
76.5752126481
 20
130.6897656392
 30
0.0
 10
76.8041844446
 20
130.6652635865
 30
0.0
 10
77.0213388808
 20
130.6166629964
 30
0.0
 10
77.2192133617
 20
130.5456177241
 30
0.0
 10
77.3911065111
 20
130.4544104626
 30
0.0
 10
77.5311908942
 20
130.3459303676
 30
0.0
 10
77.6194985098
 20
130.2408053087
 30
0.0
 10
77.6674538386
 20
130.1519952229
 30
0.0
 10
77.6917705473
 20
130.085221477
 30
0.0
 10
77.7050302178
 20
130.0173048476
 30
0.0
 10
77.7070451047
 20
129.9489104379
 30
0.0
 10
77.6977859385
 20
129.8807383736
 30
0.0
 10
77.6700966094
 20
129.7893840929
 30
0.0
 10
77.6056607346
 20
129.6779132359
 30
0.0
 10
77.4899710673
 20
129.5593534888
 30
0.0
 10
77.3942922761
 20
129.493852182
 30
0.0
 10
77.3417318362
 20
129.4635065822
 30
0.0
  0
SPLINE
  5
3D4
100
AcDbEntity
  8
0
100
AcDbSpline
 62
7
  6
CONTINUOUS
 70
0
 71
3
 72
15
 73
11
 74
0
 42
0.0000001
 43
0.0000001
 44
0.0000000001
 40
0.0
 40
0.0
 40
0.0
 40
0.0
 40
0.1347097048
 40
0.2580430599
 40
0.373275785
 40
0.4852832544
 40
0.5996859839
 40
0.7215248745
 40
0.8543988789
 40
1.0
 40
1.0
 40
1.0
 40
1.0
 10
77.7632615095
 20
130.3704736904
 30
0.0
 10
77.8059040577
 20
130.3322618293
 30
0.0
 10
77.8818073104
 20
130.2520256002
 30
0.0
 10
77.9652021891
 20
130.1154707948
 30
0.0
 10
78.0097088401
 20
129.971415205
 30
0.0
 10
78.0128779546
 20
129.8242927418
 30
0.0
 10
77.9745081767
 20
129.6794679799
 30
0.0
 10
77.8967899254
 20
129.5415117035
 30
0.0
 10
77.7828165962
 20
129.4137556133
 30
0.0
 10
77.6891429895
 20
129.3404138074
 30
0.0
 10
77.637827235
 20
129.30581896
 30
0.0
  0
SPLINE
  5
3D5
100
AcDbEntity
  8
0
100
AcDbSpline
 62
7
  6
CONTINUOUS
 70
0
 71
3
 72
9
 73
5
 74
0
 42
0.0000001
 43
0.0000001
 44
0.0000000001
 40
0.0
 40
0.0
 40
0.0
 40
0.0
 40
0.2632652739
 40
1.0
 40
1.0
 40
1.0
 40
1.0
 10
77.1876574696
 20
129.5524595017
 30
0.0
 10
77.2026533078
 20
129.561117301
 30
0.0
 10
77.2587026158
 20
129.5955160486
 30
0.0
 10
77.31102592
 20
129.6362959643
 30
0.0
 10
77.3456605177
 20
129.670185947
 30
0.0
  0
SPLINE
  5
3D6
100
AcDbEntity
  8
0
100
AcDbSpline
 62
7
  6
CONTINUOUS
 70
0
 71
3
 72
10
 73
6
 74
0
 42
0.0000001
 43
0.0000001
 44
0.0000000001
 40
0.0
 40
0.0
 40
0.0
 40
0.0
 40
0.2426492474
 40
0.4884598477
 40
1.0
 40
1.0
 40
1.0
 40
1.0
 10
78.1128664701
 20
129.6385026043
 30
0.0
 10
78.1128645393
 20
129.612655801
 30
0.0
 10
78.1091686303
 20
129.5605429396
 30
0.0
 10
78.0868893696
 20
129.4561242745
 30
0.0
 10
78.05389012
 20
129.3812507457
 30
0.0
 10
78.0264177437
 20
129.3341943646
 30
0.0
  0
SPLINE
  5
3D7
100
AcDbEntity
  8
0
100
AcDbSpline
 62
7
  6
CONTINUOUS
 70
0
 71
3
 72
9
 73
5
 74
0
 42
0.0000001
 43
0.0000001
 44
0.0000000001
 40
0.0
 40
0.0
 40
0.0
 40
0.0
 40
0.246070437
 40
1.0
 40
1.0
 40
1.0
 40
1.0
 10
78.0264177437
 20
129.3341943646
 30
0.0
 10
78.0228525241
 20
129.3280876366
 30
0.0
 10
78.0080013619
 20
129.303483446
 30
0.0
 10
77.9917348236
 20
129.279738844
 30
0.0
 10
77.9787978465
 20
129.2623598585
 30
0.0
  0
SPLINE
  5
3D8
100
AcDbEntity
  8
0
100
AcDbSpline
 62
7
  6
CONTINUOUS
 70
0
 71
3
 72
9
 73
5
 74
0
 42
0.0000001
 43
0.0000001
 44
0.0000000001
 40
0.0
 40
0.0
 40
0.0
 40
0.0
 40
0.2382269639
 40
1.0
 40
1.0
 40
1.0
 40
1.0
 10
77.9787978465
 20
129.2623598585
 30
0.0
 10
77.9664145698
 20
129.2457246905
 30
0.0
 10
77.9118121915
 20
129.177852542
 30
0.0
 10
77.8475886235
 20
129.1180045316
 30
0.0
 10
77.7955798705
 20
129.0768625689
 30
0.0
  0
SPLINE
  5
3D9
100
AcDbEntity
  8
0
100
AcDbSpline
 62
7
  6
CONTINUOUS
 70
0
 71
3
 72
23
 73
19
 74
0
 42
0.0000001
 43
0.0000001
 44
0.0000000001
 40
0.0
 40
0.0
 40
0.0
 40
0.0
 40
0.0523221034
 40
0.0999924366
 40
0.1450378849
 40
0.1902244741
 40
0.2382616441
 40
0.2911063896
 40
0.3497068738
 40
0.4141211175
 40
0.4837332086
 40
0.5574490884
 40
0.6338553672
 40
0.7113485178
 40
0.7882582877
 40
0.8629423749
 40
0.9339333826
 40
1.0
 40
1.0
 40
1.0
 40
1.0
 10
77.3456605177
 20
129.670185947
 30
0.0
 10
77.3753863761
 20
129.6992727243
 30
0.0
 10
77.4270738167
 20
129.7606909751
 30
0.0
 10
77.4775035275
 20
129.8659733766
 30
0.0
 10
77.493655792
 20
129.9762493919
 30
0.0
 10
77.4740965913
 20
130.0862365648
 30
0.0
 10
77.4205107038
 20
130.1908669545
 30
0.0
 10
77.3361268416
 20
130.2868569126
 30
0.0
 10
77.2242194591
 20
130.3718686288
 30
0.0
 10
77.0883769099
 20
130.4437242447
 30
0.0
 10
76.9328013414
 20
130.5003953704
 30
0.0
 10
76.7623437037
 20
130.5401804701
 30
0.0
 10
76.5823770396
 20
130.5618415474
 30
0.0
 10
76.3986074972
 20
130.5647002667
 30
0.0
 10
76.2168882179
 20
130.5486557366
 30
0.0
 10
76.0429617527
 20
130.5142282263
 30
0.0
 10
75.8823966914
 20
130.4624936353
 30
0.0
 10
75.7835613799
 20
130.4156101156
 30
0.0
 10
75.7380825331
 20
130.3893530485
 30
0.0
  0
SPLINE
  5
3DA
100
AcDbEntity
  8
0
100
AcDbSpline
 62
7
  6
CONTINUOUS
 70
0
 71
3
 72
9
 73
5
 74
0
 42
0.0000001
 43
0.0000001
 44
0.0000000001
 40
0.0
 40
0.0
 40
0.0
 40
0.0
 40
0.2632652739
 40
1.0
 40
1.0
 40
1.0
 40
1.0
 10
75.7380825331
 20
130.3893530485
 30
0.0
 10
75.7230866949
 20
130.3806952492
 30
0.0
 10
75.6670373869
 20
130.3462965016
 30
0.0
 10
75.6147140827
 20
130.3055165859
 30
0.0
 10
75.580079485
 20
130.2716266032
 30
0.0
  0
SPLINE
  5
3DB
100
AcDbEntity
  8
0
100
AcDbSpline
 62
7
  6
CONTINUOUS
 70
0
 71
3
 72
23
 73
19
 74
0
 42
0.0000001
 43
0.0000001
 44
0.0000000001
 40
0.0
 40
0.0
 40
0.0
 40
0.0
 40
0.0523221034
 40
0.0999924366
 40
0.1450378849
 40
0.1902244741
 40
0.2382616441
 40
0.2911063896
 40
0.3497068738
 40
0.4141211175
 40
0.4837332086
 40
0.5574490884
 40
0.6338553672
 40
0.7113485178
 40
0.7882582877
 40
0.8629423749
 40
0.9339333826
 40
1.0
 40
1.0
 40
1.0
 40
1.0
 10
75.580079485
 20
130.2716266032
 30
0.0
 10
75.5503536265
 20
130.2425398259
 30
0.0
 10
75.498666186
 20
130.1811215751
 30
0.0
 10
75.4482364752
 20
130.0758391736
 30
0.0
 10
75.4320842107
 20
129.9655631584
 30
0.0
 10
75.4516434114
 20
129.8555759855
 30
0.0
 10
75.5052292988
 20
129.7509455957
 30
0.0
 10
75.5896131611
 20
129.6549556376
 30
0.0
 10
75.7015205435
 20
129.5699439214
 30
0.0
 10
75.8373630928
 20
129.4980883055
 30
0.0
 10
75.9929386613
 20
129.4414171798
 30
0.0
 10
76.163396299
 20
129.4016320801
 30
0.0
 10
76.343362963
 20
129.3799710028
 30
0.0
 10
76.5271325054
 20
129.3771122835
 30
0.0
 10
76.7088517848
 20
129.3931568136
 30
0.0
 10
76.8827782499
 20
129.4275843239
 30
0.0
 10
77.0433433112
 20
129.4793189149
 30
0.0
 10
77.1421786228
 20
129.5262024346
 30
0.0
 10
77.1876574696
 20
129.5524595017
 30
0.0
  0
SPLINE
  5
3DC
100
AcDbEntity
  8
0
100
AcDbSpline
 62
7
  6
CONTINUOUS
 70
0
 71
3
 72
20
 73
16
 74
0
 42
0.0000001
 43
0.0000001
 44
0.0000000001
 40
0.0
 40
0.0
 40
0.0
 40
0.0
 40
0.0329580232
 40
0.0562133424
 40
0.0705655525
 40
0.080296641
 40
0.101915762
 40
0.1359620905
 40
0.1828217246
 40
0.2423595404
 40
0.3143838075
 40
0.3987426775
 40
0.4953211621
 40
0.7243929636
 40
1.0
 40
1.0
 40
1.0
 40
1.0
 10
39.5238632164
 20
123.090113942
 30
0.0
 10
39.5242979418
 20
123.0909976924
 30
0.0
 10
39.5251763312
 20
123.0926471192
 30
0.0
 10
39.5258641221
 20
123.0940229488
 30
0.0
 10
39.527275815
 20
123.09613218
 30
0.0
 10
39.526049211
 20
123.0944557991
 30
0.0
 10
39.525011836
 20
123.0932830067
 30
0.0
 10
39.5228421083
 20
123.0908403318
 30
0.0
 10
39.5199579463
 20
123.0879101949
 30
0.0
 10
39.5160833368
 20
123.084198291
 30
0.0
 10
39.5112739501
 20
123.0799123623
 30
0.0
 10
39.5054628825
 20
123.07506931
 30
0.0
 10
39.4957864902
 20
123.0675526232
 30
0.0
 10
39.4810416718
 20
123.0572616874
 30
0.0
 10
39.4681788635
 20
123.04937026
 30
0.0
 10
39.4610462856
 20
123.0452522889
 30
0.0
  0
SPLINE
  5
3DD
100
AcDbEntity
  8
0
100
AcDbSpline
 62
7
  6
CONTINUOUS
 70
0
 71
3
 72
9
 73
5
 74
0
 42
0.0000001
 43
0.0000001
 44
0.0000000001
 40
0.0
 40
0.0
 40
0.0
 40
0.0
 40
0.2446743884
 40
1.0
 40
1.0
 40
1.0
 40
1.0
 10
37.8924043729
 20
123.9863070985
 30
0.0
 10
37.9035549339
 20
123.9927448393
 30
0.0
 10
37.9494753472
 20
124.0184520419
 30
0.0
 10
37.9967172713
 20
124.0417819624
 30
0.0
 10
38.0329398368
 20
124.05814653
 30
0.0
  0
SPLINE
  5
3DE
100
AcDbEntity
  8
0
100
AcDbSpline
 62
7
  6
CONTINUOUS
 70
0
 71
3
 72
12
 73
8
 74
0
 42
0.0000001
 43
0.0000001
 44
0.0000000001
 40
0.0
 40
0.0
 40
0.0
 40
0.0
 40
0.252030611
 40
0.5014983206
 40
0.6262153126
 40
0.7508725206
 40
1.0
 40
1.0
 40
1.0
 40
1.0
 10
37.6858611329
 20
123.8385062231
 30
0.0
 10
37.6336302544
 20
123.7917031731
 30
0.0
 10
37.537194138
 20
123.6896708865
 30
0.0
 10
37.4432617297
 20
123.541363579
 30
0.0
 10
37.3887252392
 20
123.4134171744
 30
0.0
 10
37.3486972906
 20
123.2803893323
 30
0.0
 10
37.3362577022
 20
123.1758580598
 30
0.0
 10
37.3362577022
 20
123.1065332543
 30
0.0
  0
SPLINE
  5
3DF
100
AcDbEntity
  8
0
100
AcDbSpline
 62
7
  6
CONTINUOUS
 70
0
 71
3
 72
19
 73
15
 74
0
 42
0.0000001
 43
0.0000001
 44
0.0000000001
 40
0.0
 40
0.0
 40
0.0
 40
0.0
 40
0.0503758414
 40
0.1099372762
 40
0.2492043068
 40
0.4042291975
 40
0.5633688854
 40
0.7154998333
 40
0.7852985395
 40
0.8486756805
 40
0.9037454087
 40
0.9485120031
 40
0.9810193496
 40
1.0
 40
1.0
 40
1.0
 40
1.0
 10
39.4610462856
 20
123.0452522889
 30
0.0
 10
39.4456296097
 20
123.0363515203
 30
0.0
 10
39.4108824616
 20
123.0188137405
 30
0.0
 10
39.328954287
 20
122.986274327
 30
0.0
 10
39.2073228079
 20
122.9549973726
 30
0.0
 10
39.0476795683
 20
122.9367616897
 30
0.0
 10
38.8824677612
 20
122.9395244443
 30
0.0
 10
38.7488079556
 20
122.9594723691
 30
0.0
 10
38.6512757533
 20
122.9853488089
 30
0.0
 10
38.5884491766
 20
123.0074456422
 30
0.0
 10
38.5357963834
 20
123.0311651548
 30
0.0
 10
38.4950716354
 20
123.0543366853
 30
0.0
 10
38.4674124579
 20
123.0742235743
 30
0.0
 10
38.4538154028
 20
123.0864053945
 30
0.0
 10
38.4492629917
 20
123.0913311972
 30
0.0
  0
SPLINE
  5
3E0
100
AcDbEntity
  8
0
100
AcDbSpline
 62
7
  6
CONTINUOUS
 70
0
 71
3
 72
13
 73
9
 74
0
 42
0.0000001
 43
0.0000001
 44
0.0000000001
 40
0.0
 40
0.0
 40
0.0
 40
0.0
 40
0.1249202717
 40
0.2494433727
 40
0.374048896
 40
0.498713574
 40
0.7480766
 40
1.0
 40
1.0
 40
1.0
 40
1.0
 10
40.6362577022
 20
123.1065332543
 30
0.0
 10
40.6362577022
 20
123.1413097782
 30
0.0
 10
40.6321504136
 20
123.2108224436
 30
0.0
 10
40.6138131823
 20
123.3135537937
 30
0.0
 10
40.5837923973
 20
123.4134314095
 30
0.0
 10
40.529254445
 20
123.5413513988
 30
0.0
 10
40.4353221581
 20
123.6896738166
 30
0.0
 10
40.3388853234
 20
123.7917030179
 30
0.0
 10
40.2866542716
 20
123.8385062231
 30
0.0
  0
SPLINE
  5
3E1
100
AcDbEntity
  8
0
100
AcDbSpline
 62
7
  6
CONTINUOUS
 70
0
 71
3
 72
11
 73
7
 74
0
 42
0.0000001
 43
0.0000001
 44
0.0000000001
 40
0.0
 40
0.0
 40
0.0
 40
0.0
 40
0.2479220379
 40
0.5000012275
 40
0.7520792365
 40
1.0
 40
1.0
 40
1.0
 40
1.0
 10
38.3914689244
 20
124.1792398856
 30
0.0
 10
38.4878589652
 20
124.2024188623
 30
0.0
 10
38.6853809056
 20
124.2369080303
 30
0.0
 10
38.9862587089
 20
124.253983512
 30
0.0
 10
39.2871359888
 20
124.2369078519
 30
0.0
 10
39.4846569347
 20
124.2024187432
 30
0.0
 10
39.5810464801
 20
124.1792398856
 30
0.0
  0
SPLINE
  5
3E2
100
AcDbEntity
  8
0
100
AcDbSpline
 62
7
  6
CONTINUOUS
 70
0
 71
3
 72
11
 73
7
 74
0
 42
0.0000001
 43
0.0000001
 44
0.0000000001
 40
0.0
 40
0.0
 40
0.0
 40
0.0
 40
0.2740707263
 40
0.5336386237
 40
0.7761001288
 40
1.0
 40
1.0
 40
1.0
 40
1.0
 10
39.581044398
 20
124.1792369999
 30
0.0
 10
39.6512871916
 20
124.1623441592
 30
0.0
 10
39.7866250336
 20
124.1229965431
 30
0.0
 10
39.9763623738
 20
124.0453702466
 30
0.0
 10
40.1440403704
 20
123.9521804364
 30
0.0
 10
40.2426944831
 20
123.8778920414
 30
0.0
 10
40.2866492104
 20
123.8385043404
 30
0.0
  0
SPLINE
  5
3E3
100
AcDbEntity
  8
0
100
AcDbSpline
 62
7
  6
CONTINUOUS
 70
0
 71
3
 72
9
 73
5
 74
0
 42
0.0000001
 43
0.0000001
 44
0.0000000001
 40
0.0
 40
0.0
 40
0.0
 40
0.0
 40
0.2446743914
 40
1.0
 40
1.0
 40
1.0
 40
1.0
 10
40.0801110316
 20
122.7232625076
 30
0.0
 10
40.0689604717
 20
122.7168247646
 30
0.0
 10
40.0230400563
 20
122.6911175655
 30
0.0
 10
39.9757981331
 20
122.6677876436
 30
0.0
 10
39.9395755676
 20
122.6514230761
 30
0.0
  0
SPLINE
  5
3E4
100
AcDbEntity
  8
0
100
AcDbSpline
 62
7
  6
CONTINUOUS
 70
0
 71
3
 72
28
 73
24
 74
0
 42
0.0000001
 43
0.0000001
 44
0.0000000001
 40
0.0
 40
0.0
 40
0.0
 40
0.0
 40
0.0696172811
 40
0.1433118696
 40
0.2197425084
 40
0.2974176867
 40
0.3747486969
 40
0.4501759786
 40
0.5222595256
 40
0.5897916202
 40
0.6215897112
 40
0.651971813
 40
0.6809120701
 40
0.708433423
 40
0.7594644982
 40
0.7833761931
 40
0.8064972274
 40
0.829123163
 40
0.8515857471
 40
0.8742285621
 40
0.8973825961
 40
0.9462381753
 40
1.0
 40
1.0
 40
1.0
 40
1.0
 10
39.9395755676
 20
122.6514230761
 30
0.0
 10
39.8658395396
 20
122.6181107417
 30
0.0
 10
39.7091523865
 20
122.5600691169
 30
0.0
 10
39.4604432348
 20
122.4999077477
 30
0.0
 10
39.1974427608
 20
122.4654671022
 30
0.0
 10
38.9281160993
 20
122.4577724954
 30
0.0
 10
38.6605333549
 20
122.4770664554
 30
0.0
 10
38.4027290459
 20
122.5227648888
 30
0.0
 10
38.1624603427
 20
122.5935035092
 30
0.0
 10
37.9791302803
 20
122.6731714632
 30
0.0
 10
37.8482049306
 20
122.7481774271
 30
0.0
 10
37.7606514337
 20
122.807966773
 30
0.0
 10
37.6824457559
 20
122.8720302328
 30
0.0
 10
37.5937189001
 20
122.9601315489
 30
0.0
 10
37.5224629044
 20
123.0571955971
 30
0.0
 10
37.4742139397
 20
123.1607916664
 30
0.0
 10
37.4504760288
 20
123.2384921356
 30
0.0
 10
37.4386856828
 20
123.3171885386
 30
0.0
 10
37.4389858868
 20
123.3962139328
 30
0.0
 10
37.451350575
 20
123.4748851202
 30
0.0
 10
37.4843332382
 20
123.5802051259
 30
0.0
 10
37.5573051286
 20
123.7088918093
 30
0.0
 10
37.6393317434
 20
123.796808796
 30
0.0
 10
37.6858705922
 20
123.8385027037
 30
0.0
  0
SPLINE
  5
3E5
100
AcDbEntity
  8
0
100
AcDbSpline
 62
7
  6
CONTINUOUS
 70
0
 71
3
 72
17
 73
13
 74
0
 42
0.0000001
 43
0.0000001
 44
0.0000000001
 40
0.0
 40
0.0
 40
0.0
 40
0.0
 40
0.0437792585
 40
0.0905081395
 40
0.1409795903
 40
0.1955639276
 40
0.3167077799
 40
0.4513349194
 40
0.5938443559
 40
0.7373365913
 40
0.8747387785
 40
1.0
 40
1.0
 40
1.0
 40
1.0
 10
39.504383054
 20
123.0795720008
 30
0.0
 10
39.5004230599
 20
123.0935730383
 30
0.0
 10
39.4888144157
 20
123.1216260006
 30
0.0
 10
39.4623924348
 20
123.1606333628
 30
0.0
 10
39.4271168612
 20
123.1970093575
 30
0.0
 10
39.3671892607
 20
123.242768648
 30
0.0
 10
39.273749483
 20
123.2887154327
 30
0.0
 10
39.1453610888
 20
123.3234072497
 30
0.0
 10
39.0056510157
 20
123.3372868436
 30
0.0
 10
38.8645653773
 20
123.3293244556
 30
0.0
 10
38.7321752857
 20
123.300160203
 30
0.0
 10
38.6510788804
 20
123.26582765
 30
0.0
 10
38.6150250984
 20
123.2450121138
 30
0.0
  0
SPLINE
  5
3E6
100
AcDbEntity
  8
0
100
AcDbSpline
 62
7
  6
CONTINUOUS
 70
0
 71
3
 72
9
 73
5
 74
0
 42
0.0000001
 43
0.0000001
 44
0.0000000001
 40
0.0
 40
0.0
 40
0.0
 40
0.0
 40
0.261306736
 40
1.0
 40
1.0
 40
1.0
 40
1.0
 10
37.6680714424
 20
122.5335714671
 30
0.0
 10
37.6514115953
 20
122.5463464305
 30
0.0
 10
37.5889198844
 20
122.5968323732
 30
0.0
 10
37.5316499755
 20
122.6540056011
 30
0.0
 10
37.4940884698
 20
122.6999553395
 30
0.0
  0
SPLINE
  5
3E7
100
AcDbEntity
  8
0
100
AcDbSpline
 62
7
  6
CONTINUOUS
 70
0
 71
3
 72
11
 73
7
 74
0
 42
0.0000001
 43
0.0000001
 44
0.0000000001
 40
0.0
 40
0.0
 40
0.0
 40
0.0
 40
0.2675433981
 40
0.5206113462
 40
0.763106521
 40
1.0
 40
1.0
 40
1.0
 40
1.0
 10
37.4940884698
 20
122.6999553395
 30
0.0
 10
37.4690046705
 20
122.730640851
 30
0.0
 10
37.4241577275
 20
122.7937870554
 30
0.0
 10
37.3737679437
 20
122.8955540179
 30
0.0
 10
37.3431450233
 20
123.0002481407
 30
0.0
 10
37.3362586119
 20
123.0714403767
 30
0.0
 10
37.3362612335
 20
123.1065332542
 30
0.0
  0
SPLINE
  5
3E8
100
AcDbEntity
  8
0
100
AcDbSpline
 62
7
  6
CONTINUOUS
 70
0
 71
3
 72
9
 73
5
 74
0
 42
0.0000001
 43
0.0000001
 44
0.0000000001
 40
0.0
 40
0.0
 40
0.0
 40
0.0
 40
0.2632359569
 40
1.0
 40
1.0
 40
1.0
 40
1.0
 10
38.6150250984
 20
123.2450121138
 30
0.0
 10
38.6073594581
 20
123.2405863808
 30
0.0
 10
38.578703746
 20
123.2230018196
 30
0.0
 10
38.5519491663
 20
123.202161739
 30
0.0
 10
38.5342318083
 20
123.184845323
 30
0.0
  0
SPLINE
  5
3E9
100
AcDbEntity
  8
0
100
AcDbSpline
 62
7
  6
CONTINUOUS
 70
0
 71
3
 72
9
 73
5
 74
0
 42
0.0000001
 43
0.0000001
 44
0.0000000001
 40
0.0
 40
0.0
 40
0.0
 40
0.0
 40
0.5239965964
 40
1.0
 40
1.0
 40
1.0
 40
1.0
 10
38.5342318083
 20
123.184845323
 30
0.0
 10
38.5182925818
 20
123.1692667996
 30
0.0
 10
38.4907312795
 20
123.1362990692
 30
0.0
 10
38.4728090591
 20
123.0969403548
 30
0.0
 10
38.467528935
 20
123.0773944708
 30
0.0
  0
SPLINE
  5
3EA
100
AcDbEntity
  8
0
100
AcDbSpline
 62
7
  6
CONTINUOUS
 70
0
 71
3
 72
9
 73
5
 74
0
 42
0.0000001
 43
0.0000001
 44
0.0000000001
 40
0.0
 40
0.0
 40
0.0
 40
0.0
 40
0.2446743965
 40
1.0
 40
1.0
 40
1.0
 40
1.0
 10
39.8651195371
 20
122.9315372323
 30
0.0
 10
39.8561605636
 20
122.926364798
 30
0.0
 10
39.8192655807
 20
122.9057102216
 30
0.0
 10
39.7813088258
 20
122.8869656801
 30
0.0
 10
39.7522056277
 20
122.8738174879
 30
0.0
  0
SPLINE
  5
3EB
100
AcDbEntity
  8
0
100
AcDbSpline
 62
7
  6
CONTINUOUS
 70
0
 71
3
 72
26
 73
22
 74
0
 42
0.0000001
 43
0.0000001
 44
0.0000000001
 40
0.0
 40
0.0
 40
0.0
 40
0.0
 40
0.069993067
 40
0.1442799112
 40
0.2212857582
 40
0.2992449088
 40
0.3763158745
 40
0.4507232855
 40
0.5208921519
 40
0.5856077837
 40
0.6442029898
 40
0.6967939486
 40
0.7212125776
 40
0.744662501
 40
0.767468475
 40
0.7900042805
 40
0.8126686497
 40
0.8358489428
 40
0.8849519084
 40
0.9394071086
 40
1.0
 40
1.0
 40
1.0
 40
1.0
 10
39.7522056277
 20
122.8738174879
 30
0.0
 10
39.6883161819
 20
122.8449536253
 30
0.0
 10
39.5520392402
 20
122.7952985563
 30
0.0
 10
39.3354799147
 20
122.7458882648
 30
0.0
 10
39.106777393
 20
122.72052033
 30
0.0
 10
38.8739150554
 20
122.7200775611
 30
0.0
 10
38.644943259
 20
122.7445796138
 30
0.0
 10
38.4277888228
 20
122.7931802038
 30
0.0
 10
38.2299143419
 20
122.8642254762
 30
0.0
 10
38.0580211925
 20
122.9554327377
 30
0.0
 10
37.9179368094
 20
123.0639128327
 30
0.0
 10
37.8296291938
 20
123.1690378916
 30
0.0
 10
37.781673865
 20
123.2578479773
 30
0.0
 10
37.7573571563
 20
123.3246217233
 30
0.0
 10
37.7440974857
 20
123.3925383527
 30
0.0
 10
37.7420825988
 20
123.4609327623
 30
0.0
 10
37.7513417651
 20
123.5291048266
 30
0.0
 10
37.7790310942
 20
123.6204591074
 30
0.0
 10
37.843466969
 20
123.7319299644
 30
0.0
 10
37.9591566362
 20
123.8504897115
 30
0.0
 10
38.0548354275
 20
123.9159910183
 30
0.0
 10
38.1073958674
 20
123.946336618
 30
0.0
  0
SPLINE
  5
3EC
100
AcDbEntity
  8
0
100
AcDbSpline
 62
7
  6
CONTINUOUS
 70
0
 71
3
 72
9
 73
5
 74
0
 42
0.0000001
 43
0.0000001
 44
0.0000000001
 40
0.0
 40
0.0
 40
0.0
 40
0.0
 40
0.2446743965
 40
1.0
 40
1.0
 40
1.0
 40
1.0
 10
38.1073958674
 20
123.946336618
 30
0.0
 10
38.1163548409
 20
123.9515090524
 30
0.0
 10
38.1532498238
 20
123.9721636287
 30
0.0
 10
38.1912065787
 20
123.9909081703
 30
0.0
 10
38.2203097768
 20
124.0040563624
 30
0.0
  0
SPLINE
  5
3ED
100
AcDbEntity
  8
0
100
AcDbSpline
 62
7
  6
CONTINUOUS
 70
0
 71
3
 72
26
 73
22
 74
0
 42
0.0000001
 43
0.0000001
 44
0.0000000001
 40
0.0
 40
0.0
 40
0.0
 40
0.0
 40
0.069993067
 40
0.1442799112
 40
0.2212857582
 40
0.2992449088
 40
0.3763158745
 40
0.4507232855
 40
0.5208921519
 40
0.5856077837
 40
0.6442029898
 40
0.6967939486
 40
0.7212125776
 40
0.744662501
 40
0.767468475
 40
0.7900042805
 40
0.8126686497
 40
0.8358489428
 40
0.8849519084
 40
0.9394071086
 40
1.0
 40
1.0
 40
1.0
 40
1.0
 10
38.2203097768
 20
124.0040563624
 30
0.0
 10
38.2841992226
 20
124.032920225
 30
0.0
 10
38.4204761643
 20
124.082575294
 30
0.0
 10
38.6370354898
 20
124.1319855856
 30
0.0
 10
38.8657380114
 20
124.1573535203
 30
0.0
 10
39.098600349
 20
124.1577962893
 30
0.0
 10
39.3275721455
 20
124.1332942365
 30
0.0
 10
39.5447265817
 20
124.0846936465
 30
0.0
 10
39.7426010626
 20
124.0136483741
 30
0.0
 10
39.914494212
 20
123.9224411127
 30
0.0
 10
40.0545785951
 20
123.8139610176
 30
0.0
 10
40.1428862107
 20
123.7088359588
 30
0.0
 10
40.1908415395
 20
123.620025873
 30
0.0
 10
40.2151582482
 20
123.5532521271
 30
0.0
 10
40.2284179187
 20
123.4853354976
 30
0.0
 10
40.2304328056
 20
123.416941088
 30
0.0
 10
40.2211736394
 20
123.3487690237
 30
0.0
 10
40.1934843103
 20
123.2574147429
 30
0.0
 10
40.1290484355
 20
123.1459438859
 30
0.0
 10
40.0133587682
 20
123.0273841389
 30
0.0
 10
39.917679977
 20
122.961882832
 30
0.0
 10
39.8651195371
 20
122.9315372323
 30
0.0
  0
SPLINE
  5
3EE
100
AcDbEntity
  8
0
100
AcDbSpline
 62
7
  6
CONTINUOUS
 70
0
 71
3
 72
15
 73
11
 74
0
 42
0.0000001
 43
0.0000001
 44
0.0000000001
 40
0.0
 40
0.0
 40
0.0
 40
0.0
 40
0.1347097048
 40
0.2580430599
 40
0.373275785
 40
0.4852832544
 40
0.5996859839
 40
0.7215248745
 40
0.8543988789
 40
1.0
 40
1.0
 40
1.0
 40
1.0
 10
40.2866492104
 20
123.8385043404
 30
0.0
 10
40.3292917586
 20
123.8002924793
 30
0.0
 10
40.4051950113
 20
123.7200562502
 30
0.0
 10
40.48858989
 20
123.5835014449
 30
0.0
 10
40.533096541
 20
123.4394458551
 30
0.0
 10
40.5362656555
 20
123.2923233918
 30
0.0
 10
40.4978958777
 20
123.1474986299
 30
0.0
 10
40.4201776263
 20
123.0095423535
 30
0.0
 10
40.3062042971
 20
122.8817862633
 30
0.0
 10
40.2125306904
 20
122.8084444575
 30
0.0
 10
40.1612149359
 20
122.7738496101
 30
0.0
  0
SPLINE
  5
3EF
100
AcDbEntity
  8
0
100
AcDbSpline
 62
7
  6
CONTINUOUS
 70
0
 71
3
 72
9
 73
5
 74
0
 42
0.0000001
 43
0.0000001
 44
0.0000000001
 40
0.0
 40
0.0
 40
0.0
 40
0.0
 40
0.2632652739
 40
1.0
 40
1.0
 40
1.0
 40
1.0
 10
39.7110451705
 20
123.0204901518
 30
0.0
 10
39.7260410087
 20
123.0291479511
 30
0.0
 10
39.7820903167
 20
123.0635466986
 30
0.0
 10
39.8344136209
 20
123.1043266143
 30
0.0
 10
39.8690482186
 20
123.1382165971
 30
0.0
  0
SPLINE
  5
3F0
100
AcDbEntity
  8
0
100
AcDbSpline
 62
7
  6
CONTINUOUS
 70
0
 71
3
 72
10
 73
6
 74
0
 42
0.0000001
 43
0.0000001
 44
0.0000000001
 40
0.0
 40
0.0
 40
0.0
 40
0.0
 40
0.2426492474
 40
0.4884598477
 40
1.0
 40
1.0
 40
1.0
 40
1.0
 10
40.636254171
 20
123.1065332544
 30
0.0
 10
40.6362522402
 20
123.0806864511
 30
0.0
 10
40.6325563312
 20
123.0285735896
 30
0.0
 10
40.6102770705
 20
122.9241549245
 30
0.0
 10
40.5772778209
 20
122.8492813958
 30
0.0
 10
40.5498054446
 20
122.8022250147
 30
0.0
  0
SPLINE
  5
3F1
100
AcDbEntity
  8
0
100
AcDbSpline
 62
7
  6
CONTINUOUS
 70
0
 71
3
 72
9
 73
5
 74
0
 42
0.0000001
 43
0.0000001
 44
0.0000000001
 40
0.0
 40
0.0
 40
0.0
 40
0.0
 40
0.246070437
 40
1.0
 40
1.0
 40
1.0
 40
1.0
 10
40.5498054446
 20
122.8022250147
 30
0.0
 10
40.546240225
 20
122.7961182866
 30
0.0
 10
40.5313890628
 20
122.7715140961
 30
0.0
 10
40.5151225245
 20
122.7477694941
 30
0.0
 10
40.5021855474
 20
122.7303905085
 30
0.0
  0
SPLINE
  5
3F2
100
AcDbEntity
  8
0
100
AcDbSpline
 62
7
  6
CONTINUOUS
 70
0
 71
3
 72
9
 73
5
 74
0
 42
0.0000001
 43
0.0000001
 44
0.0000000001
 40
0.0
 40
0.0
 40
0.0
 40
0.0
 40
0.2382269639
 40
1.0
 40
1.0
 40
1.0
 40
1.0
 10
40.5021855474
 20
122.7303905085
 30
0.0
 10
40.4898022707
 20
122.7137553406
 30
0.0
 10
40.4351998924
 20
122.645883192
 30
0.0
 10
40.3709763244
 20
122.5860351816
 30
0.0
 10
40.3189675714
 20
122.544893219
 30
0.0
  0
SPLINE
  5
3F3
100
AcDbEntity
  8
0
100
AcDbSpline
 62
7
  6
CONTINUOUS
 70
0
 71
3
 72
23
 73
19
 74
0
 42
0.0000001
 43
0.0000001
 44
0.0000000001
 40
0.0
 40
0.0
 40
0.0
 40
0.0
 40
0.0523221034
 40
0.0999924366
 40
0.1450378849
 40
0.1902244741
 40
0.2382616441
 40
0.2911063896
 40
0.3497068738
 40
0.4141211175
 40
0.4837332086
 40
0.5574490884
 40
0.6338553672
 40
0.7113485178
 40
0.7882582877
 40
0.8629423749
 40
0.9339333826
 40
1.0
 40
1.0
 40
1.0
 40
1.0
 10
39.8690482186
 20
123.1382165971
 30
0.0
 10
39.898774077
 20
123.1673033744
 30
0.0
 10
39.9504615176
 20
123.2287216251
 30
0.0
 10
40.0008912284
 20
123.3340040266
 30
0.0
 10
40.0170434929
 20
123.4442800419
 30
0.0
 10
39.9974842922
 20
123.5542672148
 30
0.0
 10
39.9438984047
 20
123.6588976046
 30
0.0
 10
39.8595145425
 20
123.7548875627
 30
0.0
 10
39.74760716
 20
123.8398992788
 30
0.0
 10
39.6117646108
 20
123.9117548948
 30
0.0
 10
39.4561890423
 20
123.9684260205
 30
0.0
 10
39.2857314046
 20
124.0082111202
 30
0.0
 10
39.1057647406
 20
124.0298721975
 30
0.0
 10
38.9219951982
 20
124.0327309168
 30
0.0
 10
38.7402759188
 20
124.0166863867
 30
0.0
 10
38.5663494536
 20
123.9822588764
 30
0.0
 10
38.4057843923
 20
123.9305242853
 30
0.0
 10
38.3069490808
 20
123.8836407657
 30
0.0
 10
38.261470234
 20
123.8573836985
 30
0.0
  0
SPLINE
  5
3F4
100
AcDbEntity
  8
0
100
AcDbSpline
 62
7
  6
CONTINUOUS
 70
0
 71
3
 72
9
 73
5
 74
0
 42
0.0000001
 43
0.0000001
 44
0.0000000001
 40
0.0
 40
0.0
 40
0.0
 40
0.0
 40
0.2632652739
 40
1.0
 40
1.0
 40
1.0
 40
1.0
 10
38.261470234
 20
123.8573836985
 30
0.0
 10
38.2464743958
 20
123.8487258992
 30
0.0
 10
38.1904250878
 20
123.8143271517
 30
0.0
 10
38.1381017836
 20
123.773547236
 30
0.0
 10
38.1034671859
 20
123.7396572533
 30
0.0
  0
SPLINE
  5
3F5
100
AcDbEntity
  8
0
100
AcDbSpline
 62
7
  6
CONTINUOUS
 70
0
 71
3
 72
23
 73
19
 74
0
 42
0.0000001
 43
0.0000001
 44
0.0000000001
 40
0.0
 40
0.0
 40
0.0
 40
0.0
 40
0.0523221034
 40
0.0999924366
 40
0.1450378849
 40
0.1902244741
 40
0.2382616441
 40
0.2911063896
 40
0.3497068738
 40
0.4141211175
 40
0.4837332086
 40
0.5574490884
 40
0.6338553672
 40
0.7113485178
 40
0.7882582877
 40
0.8629423749
 40
0.9339333826
 40
1.0
 40
1.0
 40
1.0
 40
1.0
 10
38.1034671859
 20
123.7396572533
 30
0.0
 10
38.0737413274
 20
123.7105704759
 30
0.0
 10
38.0220538869
 20
123.6491522252
 30
0.0
 10
37.9716241761
 20
123.5438698237
 30
0.0
 10
37.9554719116
 20
123.4335938084
 30
0.0
 10
37.9750311123
 20
123.3236066355
 30
0.0
 10
38.0286169997
 20
123.2189762457
 30
0.0
 10
38.113000862
 20
123.1229862877
 30
0.0
 10
38.2249082444
 20
123.0379745715
 30
0.0
 10
38.3607507937
 20
122.9661189556
 30
0.0
 10
38.5163263622
 20
122.9094478298
 30
0.0
 10
38.6867839999
 20
122.8696627302
 30
0.0
 10
38.8667506639
 20
122.8480016528
 30
0.0
 10
39.0505202063
 20
122.8451429336
 30
0.0
 10
39.2322394857
 20
122.8611874637
 30
0.0
 10
39.4061659508
 20
122.895614974
 30
0.0
 10
39.5667310121
 20
122.947349565
 30
0.0
 10
39.6655663237
 20
122.9942330847
 30
0.0
 10
39.7110451705
 20
123.0204901518
 30
0.0
  0
SPLINE
  5
3F6
100
AcDbEntity
  8
0
100
AcDbSpline
 62
7
  6
CONTINUOUS
 70
0
 71
3
 72
20
 73
16
 74
0
 42
0.0000001
 43
0.0000001
 44
0.0000000001
 40
0.0
 40
0.0
 40
0.0
 40
0.0
 40
0.0329580232
 40
0.0562133424
 40
0.0705655525
 40
0.080296641
 40
0.101915762
 40
0.1359620905
 40
0.1828217246
 40
0.2423595404
 40
0.3143838075
 40
0.3987426775
 40
0.4953211621
 40
0.7243929636
 40
1.0
 40
1.0
 40
1.0
 40
1.0
 10
103.9413077625
 20
120.7632867935
 30
0.0
 10
103.9417424879
 20
120.764170544
 30
0.0
 10
103.9426208773
 20
120.7658199707
 30
0.0
 10
103.9433086682
 20
120.7671958003
 30
0.0
 10
103.9447203612
 20
120.7693050315
 30
0.0
 10
103.9434937571
 20
120.7676286506
 30
0.0
 10
103.9424563821
 20
120.7664558582
 30
0.0
 10
103.9402866545
 20
120.7640131833
 30
0.0
 10
103.9374024925
 20
120.7610830464
 30
0.0
 10
103.9335278829
 20
120.7573711426
 30
0.0
 10
103.9287184962
 20
120.7530852138
 30
0.0
 10
103.9229074286
 20
120.7482421615
 30
0.0
 10
103.9132310363
 20
120.7407254747
 30
0.0
 10
103.898486218
 20
120.730434539
 30
0.0
 10
103.8856234096
 20
120.7225431115
 30
0.0
 10
103.8784908317
 20
120.7184251404
 30
0.0
  0
SPLINE
  5
3F7
100
AcDbEntity
  8
0
100
AcDbSpline
 62
7
  6
CONTINUOUS
 70
0
 71
3
 72
14
 73
10
 74
0
 42
0.0000001
 43
0.0000001
 44
0.0000000001
 40
0.0
 40
0.0
 40
0.0
 40
0.0
 40
0.256085094
 40
0.3814112559
 40
0.5056047724
 40
0.6292587193
 40
0.7528219276
 40
0.8762572584
 40
1.0
 40
1.0
 40
1.0
 40
1.0
 10
102.3405271759
 20
121.6063487794
 30
0.0
 10
102.2571755416
 20
121.5582259775
 30
0.0
 10
102.1389582845
 20
121.4748076686
 30
0.0
 10
102.0041043306
 20
121.3404274858
 30
0.0
 10
101.9173980648
 20
121.2296801444
 30
0.0
 10
101.846511324
 20
121.1089124867
 30
0.0
 10
101.7937933263
 20
120.9794124831
 30
0.0
 10
101.7610604745
 20
120.8434340518
 30
0.0
 10
101.7537022484
 20
120.7503655627
 30
0.0
 10
101.7537022484
 20
120.7038585681
 30
0.0
  0
SPLINE
  5
3F8
100
AcDbEntity
  8
0
100
AcDbSpline
 62
7
  6
CONTINUOUS
 70
0
 71
3
 72
19
 73
15
 74
0
 42
0.0000001
 43
0.0000001
 44
0.0000000001
 40
0.0
 40
0.0
 40
0.0
 40
0.0
 40
0.0503758414
 40
0.1099372762
 40
0.2492043068
 40
0.4042291975
 40
0.5633688854
 40
0.7154998333
 40
0.7852985395
 40
0.8486756805
 40
0.9037454087
 40
0.9485120031
 40
0.9810193496
 40
1.0
 40
1.0
 40
1.0
 40
1.0
 10
103.8784908317
 20
120.7184251404
 30
0.0
 10
103.8630741559
 20
120.7095243718
 30
0.0
 10
103.8283270078
 20
120.691986592
 30
0.0
 10
103.7463988331
 20
120.6594471786
 30
0.0
 10
103.624767354
 20
120.6281702241
 30
0.0
 10
103.4651241145
 20
120.6099345413
 30
0.0
 10
103.2999123073
 20
120.6126972958
 30
0.0
 10
103.1662525018
 20
120.6326452206
 30
0.0
 10
103.0687202994
 20
120.6585216604
 30
0.0
 10
103.0058937228
 20
120.6806184937
 30
0.0
 10
102.9532409296
 20
120.7043380063
 30
0.0
 10
102.9125161816
 20
120.7275095369
 30
0.0
 10
102.8848570041
 20
120.7473964259
 30
0.0
 10
102.8712599489
 20
120.7595782461
 30
0.0
 10
102.8667075379
 20
120.7645040487
 30
0.0
  0
SPLINE
  5
3F9
100
AcDbEntity
  8
0
100
AcDbSpline
 62
7
  6
CONTINUOUS
 70
0
 71
3
 72
21
 73
17
 74
0
 42
0.0000001
 43
0.0000001
 44
0.0000000001
 40
0.0
 40
0.0
 40
0.0
 40
0.0
 40
0.0575161247
 40
0.0862570014
 40
0.115033177
 40
0.1725665015
 40
0.2305005071
 40
0.2893686694
 40
0.3496719158
 40
0.4117693688
 40
0.4757360462
 40
0.6080971896
 40
0.7428745572
 40
0.8095475985
 40
0.874866706
 40
1.0
 40
1.0
 40
1.0
 40
1.0
 10
105.0537022484
 20
120.7038585681
 30
0.0
 10
105.0537022484
 20
120.7678713906
 30
0.0
 10
105.0431539906
 20
120.8642883367
 30
0.0
 10
105.0088976884
 20
120.9878155159
 30
0.0
 10
104.9621464988
 20
121.107247146
 30
0.0
 10
104.8812615381
 20
121.2471781652
 30
0.0
 10
104.7546195036
 20
121.3953996424
 30
0.0
 10
104.6035464728
 20
121.5231857779
 30
0.0
 10
104.4321379481
 20
121.6306896544
 30
0.0
 10
104.2436167788
 20
121.7183538321
 30
0.0
 10
103.9704834499
 20
121.8100044033
 30
0.0
 10
103.6049747745
 20
121.8730921971
 30
0.0
 10
103.2314063206
 20
121.8698534268
 30
0.0
 10
102.9372123305
 20
121.8266845675
 30
0.0
 10
102.6591418412
 20
121.7581946447
 30
0.0
 10
102.4611366754
 20
121.6759822917
 30
0.0
 10
102.3405271759
 20
121.6063487794
 30
0.0
  0
SPLINE
  5
3FA
100
AcDbEntity
  8
0
100
AcDbSpline
 62
7
  6
CONTINUOUS
 70
0
 71
3
 72
26
 73
22
 74
0
 42
0.0000001
 43
0.0000001
 44
0.0000000001
 40
0.0
 40
0.0
 40
0.0
 40
0.0
 40
0.0664797511
 40
0.1381241161
 40
0.213528264
 40
0.2909896409
 40
0.3686422754
 40
0.4446073972
 40
0.517131549
 40
0.5847437158
 40
0.646432073
 40
0.7018658954
 40
0.7516645275
 40
0.7750343605
 40
0.7977689678
 40
0.8202567039
 40
0.842907132
 40
0.8661152025
 40
0.8902246775
 40
0.9421092625
 40
1.0
 40
1.0
 40
1.0
 40
1.0
 10
104.2168784323
 20
120.642632909
 30
0.0
 10
104.1626347416
 20
120.6113154861
 30
0.0
 10
104.0442413299
 20
120.5558700432
 30
0.0
 10
103.8515721958
 20
120.4962416303
 30
0.0
 10
103.6429223322
 20
120.4585983151
 30
0.0
 10
103.4257680437
 20
120.4442839536
 30
0.0
 10
103.2078201545
 20
120.4538082492
 30
0.0
 10
102.9968570106
 20
120.4868271501
 30
0.0
 10
102.8003656959
 20
120.5421845115
 30
0.0
 10
102.6252530612
 20
120.6179651178
 30
0.0
 10
102.4775870857
 20
120.7117478925
 30
0.0
 10
102.3625262329
 20
120.820629071
 30
0.0
 10
102.2962227886
 20
120.9240241995
 30
0.0
 10
102.265742597
 20
121.0094424548
 30
0.0
 10
102.2538921769
 20
121.0732680879
 30
0.0
 10
102.2527656553
 20
121.1375028486
 30
0.0
 10
102.2623746932
 20
121.201469788
 30
0.0
 10
102.2825935592
 20
121.2644990135
 30
0.0
 10
102.3243063257
 20
121.3484862901
 30
0.0
 10
102.4038028504
 20
121.4482767663
 30
0.0
 10
102.4850076191
 20
121.5134909418
 30
0.0
 10
102.5302330526
 20
121.5439799599
 30
0.0
  0
SPLINE
  5
3FB
100
AcDbEntity
  8
0
100
AcDbSpline
 62
7
  6
CONTINUOUS
 70
0
 71
3
 72
9
 73
5
 74
0
 42
0.0000001
 43
0.0000001
 44
0.0000000001
 40
0.0
 40
0.0
 40
0.0
 40
0.0
 40
0.2632652739
 40
1.0
 40
1.0
 40
1.0
 40
1.0
 10
104.1284897167
 20
120.6936630033
 30
0.0
 10
104.1434855548
 20
120.7023208026
 30
0.0
 10
104.1995348628
 20
120.7367195502
 30
0.0
 10
104.251858167
 20
120.7774994659
 30
0.0
 10
104.2864927647
 20
120.8113894486
 30
0.0
  0
SPLINE
  5
3FC
100
AcDbEntity
  8
0
100
AcDbSpline
 62
7
  6
CONTINUOUS
 70
0
 71
3
 72
23
 73
19
 74
0
 42
0.0000001
 43
0.0000001
 44
0.0000000001
 40
0.0
 40
0.0
 40
0.0
 40
0.0
 40
0.0523221034
 40
0.0999924366
 40
0.1450378849
 40
0.1902244741
 40
0.2382616441
 40
0.2911063896
 40
0.3497068738
 40
0.4141211175
 40
0.4837332086
 40
0.5574490884
 40
0.6338553672
 40
0.7113485178
 40
0.7882582877
 40
0.8629423749
 40
0.9339333826
 40
1.0
 40
1.0
 40
1.0
 40
1.0
 10
104.2864927647
 20
120.8113894486
 30
0.0
 10
104.3162186232
 20
120.8404762259
 30
0.0
 10
104.3679060637
 20
120.9018944767
 30
0.0
 10
104.4183357745
 20
121.0071768782
 30
0.0
 10
104.434488039
 20
121.1174528934
 30
0.0
 10
104.4149288384
 20
121.2274400663
 30
0.0
 10
104.3613429509
 20
121.3320704561
 30
0.0
 10
104.2769590886
 20
121.4280604142
 30
0.0
 10
104.1650517062
 20
121.5130721304
 30
0.0
 10
104.0292091569
 20
121.5849277463
 30
0.0
 10
103.8736335884
 20
121.641598872
 30
0.0
 10
103.7031759508
 20
121.6813839717
 30
0.0
 10
103.5232092867
 20
121.703045049
 30
0.0
 10
103.3394397443
 20
121.7059037683
 30
0.0
 10
103.157720465
 20
121.6898592382
 30
0.0
 10
102.9837939998
 20
121.6554317279
 30
0.0
 10
102.8232289385
 20
121.6036971369
 30
0.0
 10
102.724393627
 20
121.5568136172
 30
0.0
 10
102.6789147801
 20
121.5305565501
 30
0.0
  0
SPLINE
  5
3FD
100
AcDbEntity
  8
0
100
AcDbSpline
 62
7
  6
CONTINUOUS
 70
0
 71
3
 72
9
 73
5
 74
0
 42
0.0000001
 43
0.0000001
 44
0.0000000001
 40
0.0
 40
0.0
 40
0.0
 40
0.0
 40
0.2632652739
 40
1.0
 40
1.0
 40
1.0
 40
1.0
 10
102.6789147801
 20
121.5305565501
 30
0.0
 10
102.6639189419
 20
121.5218987508
 30
0.0
 10
102.607869634
 20
121.4875000032
 30
0.0
 10
102.5555463297
 20
121.4467200875
 30
0.0
 10
102.520911732
 20
121.4128301048
 30
0.0
  0
SPLINE
  5
3FE
100
AcDbEntity
  8
0
100
AcDbSpline
 62
7
  6
CONTINUOUS
 70
0
 71
3
 72
23
 73
19
 74
0
 42
0.0000001
 43
0.0000001
 44
0.0000000001
 40
0.0
 40
0.0
 40
0.0
 40
0.0
 40
0.0523221034
 40
0.0999924366
 40
0.1450378849
 40
0.1902244741
 40
0.2382616441
 40
0.2911063896
 40
0.3497068738
 40
0.4141211175
 40
0.4837332086
 40
0.5574490884
 40
0.6338553672
 40
0.7113485178
 40
0.7882582877
 40
0.8629423749
 40
0.9339333826
 40
1.0
 40
1.0
 40
1.0
 40
1.0
 10
102.520911732
 20
121.4128301048
 30
0.0
 10
102.4911858736
 20
121.3837433275
 30
0.0
 10
102.439498433
 20
121.3223250767
 30
0.0
 10
102.3890687222
 20
121.2170426752
 30
0.0
 10
102.3729164577
 20
121.1067666599
 30
0.0
 10
102.3924756584
 20
120.996779487
 30
0.0
 10
102.4460615459
 20
120.8921490973
 30
0.0
 10
102.5304454081
 20
120.7961591392
 30
0.0
 10
102.6423527906
 20
120.711147423
 30
0.0
 10
102.7781953398
 20
120.6392918071
 30
0.0
 10
102.9337709084
 20
120.5826206814
 30
0.0
 10
103.104228546
 20
120.5428355817
 30
0.0
 10
103.2841952101
 20
120.5211745044
 30
0.0
 10
103.4679647525
 20
120.5183157851
 30
0.0
 10
103.6496840318
 20
120.5343603152
 30
0.0
 10
103.823610497
 20
120.5687878255
 30
0.0
 10
103.9841755583
 20
120.6205224165
 30
0.0
 10
104.0830108698
 20
120.6674059362
 30
0.0
 10
104.1284897167
 20
120.6936630033
 30
0.0
  0
SPLINE
  5
3FF
100
AcDbEntity
  8
0
100
AcDbSpline
 62
7
  6
CONTINUOUS
 70
0
 71
3
 72
17
 73
13
 74
0
 42
0.0000001
 43
0.0000001
 44
0.0000000001
 40
0.0
 40
0.0
 40
0.0
 40
0.0
 40
0.0437792585
 40
0.0905081395
 40
0.1409795903
 40
0.1955639276
 40
0.3167077799
 40
0.4513349194
 40
0.5938443559
 40
0.7373365913
 40
0.8747387785
 40
1.0
 40
1.0
 40
1.0
 40
1.0
 10
103.9218276001
 20
120.7527448523
 30
0.0
 10
103.917867606
 20
120.7667458898
 30
0.0
 10
103.9062589618
 20
120.7947988522
 30
0.0
 10
103.879836981
 20
120.8338062144
 30
0.0
 10
103.8445614074
 20
120.8701822091
 30
0.0
 10
103.7846338069
 20
120.9159414995
 30
0.0
 10
103.6911940291
 20
120.9618882843
 30
0.0
 10
103.5628056349
 20
120.9965801013
 30
0.0
 10
103.4230955618
 20
121.0104596952
 30
0.0
 10
103.2820099234
 20
121.0024973071
 30
0.0
 10
103.1496198319
 20
120.9733330546
 30
0.0
 10
103.0685234266
 20
120.9390005015
 30
0.0
 10
103.0324696446
 20
120.9181849653
 30
0.0
  0
SPLINE
  5
400
100
AcDbEntity
  8
0
100
AcDbSpline
 62
7
  6
CONTINUOUS
 70
0
 71
3
 72
11
 73
7
 74
0
 42
0.0000001
 43
0.0000001
 44
0.0000000001
 40
0.0
 40
0.0
 40
0.0
 40
0.0
 40
0.2639571515
 40
0.5162933534
 40
0.7603213217
 40
1.0
 40
1.0
 40
1.0
 40
1.0
 10
101.8744283043
 20
120.3461821646
 30
0.0
 10
101.855064906
 20
120.3737819344
 30
0.0
 10
101.8205457369
 20
120.4302514052
 30
0.0
 10
101.7821645796
 20
120.5198487653
 30
0.0
 10
101.7589113786
 20
120.6113424845
 30
0.0
 10
101.7537034927
 20
120.6732448063
 30
0.0
 10
101.7537057796
 20
120.703858568
 30
0.0
  0
SPLINE
  5
401
100
AcDbEntity
  8
0
100
AcDbSpline
 62
7
  6
CONTINUOUS
 70
0
 71
3
 72
9
 73
5
 74
0
 42
0.0000001
 43
0.0000001
 44
0.0000000001
 40
0.0
 40
0.0
 40
0.0
 40
0.0
 40
0.2632359569
 40
1.0
 40
1.0
 40
1.0
 40
1.0
 10
103.0324696446
 20
120.9181849653
 30
0.0
 10
103.0248040043
 20
120.9137592323
 30
0.0
 10
102.9961482922
 20
120.8961746712
 30
0.0
 10
102.9693937125
 20
120.8753345905
 30
0.0
 10
102.9516763544
 20
120.8580181745
 30
0.0
  0
SPLINE
  5
402
100
AcDbEntity
  8
0
100
AcDbSpline
 62
7
  6
CONTINUOUS
 70
0
 71
3
 72
9
 73
5
 74
0
 42
0.0000001
 43
0.0000001
 44
0.0000000001
 40
0.0
 40
0.0
 40
0.0
 40
0.0
 40
0.5239965964
 40
1.0
 40
1.0
 40
1.0
 40
1.0
 10
102.9516763544
 20
120.8580181745
 30
0.0
 10
102.935737128
 20
120.8424396511
 30
0.0
 10
102.9081758256
 20
120.8094719207
 30
0.0
 10
102.8902536053
 20
120.7701132063
 30
0.0
 10
102.8849734811
 20
120.7505673223
 30
0.0
  0
SPLINE
  5
403
100
AcDbEntity
  8
0
100
AcDbSpline
 62
7
  6
CONTINUOUS
 70
0
 71
3
 72
10
 73
6
 74
0
 42
0.0000001
 43
0.0000001
 44
0.0000000001
 40
0.0
 40
0.0
 40
0.0
 40
0.0
 40
0.2426492474
 40
0.4884598477
 40
1.0
 40
1.0
 40
1.0
 40
1.0
 10
105.0536987172
 20
120.7038585682
 30
0.0
 10
105.0536967863
 20
120.6780117649
 30
0.0
 10
105.0500008773
 20
120.6258989035
 30
0.0
 10
105.0277216166
 20
120.5214802384
 30
0.0
 10
104.994722367
 20
120.4466067096
 30
0.0
 10
104.9672499907
 20
120.3995503285
 30
0.0
  0
SPLINE
  5
404
100
AcDbEntity
  8
0
100
AcDbSpline
 62
7
  6
CONTINUOUS
 70
0
 71
3
 72
9
 73
5
 74
0
 42
0.0000001
 43
0.0000001
 44
0.0000000001
 40
0.0
 40
0.0
 40
0.0
 40
0.0
 40
0.2432061679
 40
1.0
 40
1.0
 40
1.0
 40
1.0
 10
104.9482956349
 20
120.3688344338
 30
0.0
 10
104.9418125522
 20
120.3588718127
 30
0.0
 10
104.9142042088
 20
120.3185308795
 30
0.0
 10
104.8829543941
 20
120.2807188161
 30
0.0
 10
104.8577807836
 20
120.2536202618
 30
0.0
  0
SPLINE
  5
405
100
AcDbEntity
  8
0
100
AcDbSpline
 62
7
  6
CONTINUOUS
 70
0
 71
3
 72
26
 73
22
 74
0
 42
0.0000001
 43
0.0000001
 44
0.0000000001
 40
0.0
 40
0.0
 40
0.0
 40
0.0
 40
0.0664797511
 40
0.1381241161
 40
0.213528264
 40
0.2909896409
 40
0.3686422754
 40
0.4446073972
 40
0.517131549
 40
0.5847437158
 40
0.646432073
 40
0.7018658954
 40
0.7516645275
 40
0.7750343605
 40
0.7977689678
 40
0.8202567039
 40
0.842907132
 40
0.8661152025
 40
0.8902246775
 40
0.9421092625
 40
1.0
 40
1.0
 40
1.0
 40
1.0
 10
102.5905260645
 20
121.5815866444
 30
0.0
 10
102.6447697552
 20
121.6129040673
 30
0.0
 10
102.7631631669
 20
121.6683495102
 30
0.0
 10
102.955832301
 20
121.7279779231
 30
0.0
 10
103.1644821646
 20
121.7656212383
 30
0.0
 10
103.3816364531
 20
121.7799355998
 30
0.0
 10
103.5995843423
 20
121.7704113042
 30
0.0
 10
103.8105474861
 20
121.7373924032
 30
0.0
 10
104.0070388008
 20
121.6820350419
 30
0.0
 10
104.1821514356
 20
121.6062544356
 30
0.0
 10
104.3298174111
 20
121.5124716609
 30
0.0
 10
104.4448782638
 20
121.4035904824
 30
0.0
 10
104.5111817082
 20
121.3001953539
 30
0.0
 10
104.5416618998
 20
121.2147770986
 30
0.0
 10
104.5535123198
 20
121.1509514655
 30
0.0
 10
104.5546388415
 20
121.0867167048
 30
0.0
 10
104.5450298036
 20
121.0227497654
 30
0.0
 10
104.5248109376
 20
120.9597205399
 30
0.0
 10
104.4830981711
 20
120.8757332633
 30
0.0
 10
104.4036016464
 20
120.7759427871
 30
0.0
 10
104.3223968777
 20
120.7107286116
 30
0.0
 10
104.2771714442
 20
120.6802395935
 30
0.0
  0
SPLINE
  5
406
100
AcDbEntity
  8
0
100
AcDbSpline
 62
7
  6
CONTINUOUS
 70
0
 71
3
 72
20
 73
16
 74
0
 42
0.0000001
 43
0.0000001
 44
0.0000000001
 40
0.0
 40
0.0
 40
0.0
 40
0.0
 40
0.0329580232
 40
0.0562133424
 40
0.0705655525
 40
0.080296641
 40
0.101915762
 40
0.1359620905
 40
0.1828217246
 40
0.2423595404
 40
0.3143838075
 40
0.3987426775
 40
0.4953211621
 40
0.7243929636
 40
1.0
 40
1.0
 40
1.0
 40
1.0
 10
68.8688467436
 20
115.8642930392
 30
0.0
 10
68.869281469
 20
115.8651767897
 30
0.0
 10
68.8701598584
 20
115.8668262164
 30
0.0
 10
68.8708476493
 20
115.8682020461
 30
0.0
 10
68.8722593422
 20
115.8703112773
 30
0.0
 10
68.8710327382
 20
115.8686348964
 30
0.0
 10
68.8699953631
 20
115.867462104
 30
0.0
 10
68.8678256355
 20
115.865019429
 30
0.0
 10
68.8649414735
 20
115.8620892922
 30
0.0
 10
68.861066864
 20
115.8583773883
 30
0.0
 10
68.8562574773
 20
115.8540914596
 30
0.0
 10
68.8504464097
 20
115.8492484072
 30
0.0
 10
68.8407700174
 20
115.8417317204
 30
0.0
 10
68.826025199
 20
115.8314407847
 30
0.0
 10
68.8131623906
 20
115.8235493572
 30
0.0
 10
68.8060298127
 20
115.8194313861
 30
0.0
  0
SPLINE
  5
407
100
AcDbEntity
  8
0
100
AcDbSpline
 62
7
  6
CONTINUOUS
 70
0
 71
3
 72
9
 73
5
 74
0
 42
0.0000001
 43
0.0000001
 44
0.0000000001
 40
0.0
 40
0.0
 40
0.0
 40
0.0
 40
0.2446743884
 40
1.0
 40
1.0
 40
1.0
 40
1.0
 10
67.2373879001
 20
116.7604861958
 30
0.0
 10
67.2485384611
 20
116.7669239365
 30
0.0
 10
67.2944588744
 20
116.7926311392
 30
0.0
 10
67.3417007984
 20
116.8159610597
 30
0.0
 10
67.377923364
 20
116.8323256273
 30
0.0
  0
SPLINE
  5
408
100
AcDbEntity
  8
0
100
AcDbSpline
 62
7
  6
CONTINUOUS
 70
0
 71
3
 72
12
 73
8
 74
0
 42
0.0000001
 43
0.0000001
 44
0.0000000001
 40
0.0
 40
0.0
 40
0.0
 40
0.0
 40
0.252030611
 40
0.5014983206
 40
0.6262153126
 40
0.7508725206
 40
1.0
 40
1.0
 40
1.0
 40
1.0
 10
67.0308446601
 20
116.6126853203
 30
0.0
 10
66.9786137815
 20
116.5658822704
 30
0.0
 10
66.8821776652
 20
116.4638499837
 30
0.0
 10
66.7882452569
 20
116.3155426763
 30
0.0
 10
66.7337087664
 20
116.1875962716
 30
0.0
 10
66.6936808178
 20
116.0545684295
 30
0.0
 10
66.6812412294
 20
115.9500371571
 30
0.0
 10
66.6812412294
 20
115.8807123516
 30
0.0
  0
SPLINE
  5
409
100
AcDbEntity
  8
0
100
AcDbSpline
 62
7
  6
CONTINUOUS
 70
0
 71
3
 72
19
 73
15
 74
0
 42
0.0000001
 43
0.0000001
 44
0.0000000001
 40
0.0
 40
0.0
 40
0.0
 40
0.0
 40
0.0503758414
 40
0.1099372762
 40
0.2492043068
 40
0.4042291975
 40
0.5633688854
 40
0.7154998333
 40
0.7852985395
 40
0.8486756805
 40
0.9037454087
 40
0.9485120031
 40
0.9810193496
 40
1.0
 40
1.0
 40
1.0
 40
1.0
 10
68.8060298127
 20
115.8194313861
 30
0.0
 10
68.7906131369
 20
115.8105306175
 30
0.0
 10
68.7558659888
 20
115.7929928378
 30
0.0
 10
68.6739378142
 20
115.7604534243
 30
0.0
 10
68.5523063351
 20
115.7291764698
 30
0.0
 10
68.3926630955
 20
115.710940787
 30
0.0
 10
68.2274512883
 20
115.7137035416
 30
0.0
 10
68.0937914828
 20
115.7336514663
 30
0.0
 10
67.9962592805
 20
115.7595279061
 30
0.0
 10
67.9334327038
 20
115.7816247394
 30
0.0
 10
67.8807799106
 20
115.805344252
 30
0.0
 10
67.8400551626
 20
115.8285157826
 30
0.0
 10
67.8123959851
 20
115.8484026716
 30
0.0
 10
67.7987989299
 20
115.8605844918
 30
0.0
 10
67.7942465189
 20
115.8655102944
 30
0.0
  0
SPLINE
  5
40A
100
AcDbEntity
  8
0
100
AcDbSpline
 62
7
  6
CONTINUOUS
 70
0
 71
3
 72
13
 73
9
 74
0
 42
0.0000001
 43
0.0000001
 44
0.0000000001
 40
0.0
 40
0.0
 40
0.0
 40
0.0
 40
0.1249202717
 40
0.2494433727
 40
0.374048896
 40
0.498713574
 40
0.7480766
 40
1.0
 40
1.0
 40
1.0
 40
1.0
 10
69.9812412294
 20
115.8807123516
 30
0.0
 10
69.9812412294
 20
115.9154888755
 30
0.0
 10
69.9771339408
 20
115.9850015409
 30
0.0
 10
69.9587967095
 20
116.087732891
 30
0.0
 10
69.9287759245
 20
116.1876105068
 30
0.0
 10
69.8742379722
 20
116.3155304961
 30
0.0
 10
69.7803056853
 20
116.4638529138
 30
0.0
 10
69.6838688506
 20
116.5658821152
 30
0.0
 10
69.6316377988
 20
116.6126853203
 30
0.0
  0
SPLINE
  5
40B
100
AcDbEntity
  8
0
100
AcDbSpline
 62
7
  6
CONTINUOUS
 70
0
 71
3
 72
11
 73
7
 74
0
 42
0.0000001
 43
0.0000001
 44
0.0000000001
 40
0.0
 40
0.0
 40
0.0
 40
0.0
 40
0.2479220379
 40
0.5000012275
 40
0.7520792365
 40
1.0
 40
1.0
 40
1.0
 40
1.0
 10
67.7364524516
 20
116.9534189829
 30
0.0
 10
67.8328424924
 20
116.9765979596
 30
0.0
 10
68.0303644328
 20
117.0110871275
 30
0.0
 10
68.3312422361
 20
117.0281626093
 30
0.0
 10
68.632119516
 20
117.0110869491
 30
0.0
 10
68.8296404619
 20
116.9765978404
 30
0.0
 10
68.9260300072
 20
116.9534189829
 30
0.0
  0
SPLINE
  5
40C
100
AcDbEntity
  8
0
100
AcDbSpline
 62
7
  6
CONTINUOUS
 70
0
 71
3
 72
11
 73
7
 74
0
 42
0.0000001
 43
0.0000001
 44
0.0000000001
 40
0.0
 40
0.0
 40
0.0
 40
0.0
 40
0.2740707263
 40
0.5336386237
 40
0.7761001288
 40
1.0
 40
1.0
 40
1.0
 40
1.0
 10
68.9260279252
 20
116.9534160972
 30
0.0
 10
68.9962707188
 20
116.9365232565
 30
0.0
 10
69.1316085607
 20
116.8971756403
 30
0.0
 10
69.321345901
 20
116.8195493439
 30
0.0
 10
69.4890238976
 20
116.7263595337
 30
0.0
 10
69.5876780103
 20
116.6520711387
 30
0.0
 10
69.6316327376
 20
116.6126834377
 30
0.0
  0
SPLINE
  5
40D
100
AcDbEntity
  8
0
100
AcDbSpline
 62
7
  6
CONTINUOUS
 70
0
 71
3
 72
9
 73
5
 74
0
 42
0.0000001
 43
0.0000001
 44
0.0000000001
 40
0.0
 40
0.0
 40
0.0
 40
0.0
 40
0.2446743914
 40
1.0
 40
1.0
 40
1.0
 40
1.0
 10
69.4250945588
 20
115.4974416048
 30
0.0
 10
69.4139439989
 20
115.4910038618
 30
0.0
 10
69.3680235835
 20
115.4652966628
 30
0.0
 10
69.3207816603
 20
115.4419667409
 30
0.0
 10
69.2845590948
 20
115.4256021734
 30
0.0
  0
SPLINE
  5
40E
100
AcDbEntity
  8
0
100
AcDbSpline
 62
7
  6
CONTINUOUS
 70
0
 71
3
 72
28
 73
24
 74
0
 42
0.0000001
 43
0.0000001
 44
0.0000000001
 40
0.0
 40
0.0
 40
0.0
 40
0.0
 40
0.0696172811
 40
0.1433118696
 40
0.2197425084
 40
0.2974176867
 40
0.3747486969
 40
0.4501759786
 40
0.5222595256
 40
0.5897916202
 40
0.6215897112
 40
0.651971813
 40
0.6809120701
 40
0.708433423
 40
0.7594644982
 40
0.7833761931
 40
0.8064972274
 40
0.829123163
 40
0.8515857471
 40
0.8742285621
 40
0.8973825961
 40
0.9462381753
 40
1.0
 40
1.0
 40
1.0
 40
1.0
 10
69.2845590948
 20
115.4256021734
 30
0.0
 10
69.2108230667
 20
115.392289839
 30
0.0
 10
69.0541359137
 20
115.3342482142
 30
0.0
 10
68.805426762
 20
115.274086845
 30
0.0
 10
68.542426288
 20
115.2396461995
 30
0.0
 10
68.2730996265
 20
115.2319515926
 30
0.0
 10
68.0055168821
 20
115.2512455527
 30
0.0
 10
67.7477125731
 20
115.296943986
 30
0.0
 10
67.5074438699
 20
115.3676826064
 30
0.0
 10
67.3241138074
 20
115.4473505605
 30
0.0
 10
67.1931884578
 20
115.5223565244
 30
0.0
 10
67.1056349609
 20
115.5821458703
 30
0.0
 10
67.0274292831
 20
115.64620933
 30
0.0
 10
66.9387024273
 20
115.7343106461
 30
0.0
 10
66.8674464316
 20
115.8313746944
 30
0.0
 10
66.8191974669
 20
115.9349707636
 30
0.0
 10
66.795459556
 20
116.0126712328
 30
0.0
 10
66.7836692099
 20
116.0913676359
 30
0.0
 10
66.783969414
 20
116.17039303
 30
0.0
 10
66.7963341022
 20
116.2490642175
 30
0.0
 10
66.8293167654
 20
116.3543842232
 30
0.0
 10
66.9022886558
 20
116.4830709066
 30
0.0
 10
66.9843152706
 20
116.5709878932
 30
0.0
 10
67.0308541194
 20
116.6126818009
 30
0.0
  0
SPLINE
  5
40F
100
AcDbEntity
  8
0
100
AcDbSpline
 62
7
  6
CONTINUOUS
 70
0
 71
3
 72
17
 73
13
 74
0
 42
0.0000001
 43
0.0000001
 44
0.0000000001
 40
0.0
 40
0.0
 40
0.0
 40
0.0
 40
0.0437792585
 40
0.0905081395
 40
0.1409795903
 40
0.1955639276
 40
0.3167077799
 40
0.4513349194
 40
0.5938443559
 40
0.7373365913
 40
0.8747387785
 40
1.0
 40
1.0
 40
1.0
 40
1.0
 10
68.8493665811
 20
115.8537510981
 30
0.0
 10
68.845406587
 20
115.8677521356
 30
0.0
 10
68.8337979429
 20
115.8958050979
 30
0.0
 10
68.807375962
 20
115.9348124601
 30
0.0
 10
68.7721003884
 20
115.9711884548
 30
0.0
 10
68.7121727879
 20
116.0169477453
 30
0.0
 10
68.6187330101
 20
116.06289453
 30
0.0
 10
68.490344616
 20
116.097586347
 30
0.0
 10
68.3506345429
 20
116.1114659409
 30
0.0
 10
68.2095489045
 20
116.1035035528
 30
0.0
 10
68.0771588129
 20
116.0743393003
 30
0.0
 10
67.9960624076
 20
116.0400067472
 30
0.0
 10
67.9600086256
 20
116.0191912111
 30
0.0
  0
SPLINE
  5
410
100
AcDbEntity
  8
0
100
AcDbSpline
 62
7
  6
CONTINUOUS
 70
0
 71
3
 72
9
 73
5
 74
0
 42
0.0000001
 43
0.0000001
 44
0.0000000001
 40
0.0
 40
0.0
 40
0.0
 40
0.0
 40
0.261306736
 40
1.0
 40
1.0
 40
1.0
 40
1.0
 10
67.0130549696
 20
115.3077505644
 30
0.0
 10
66.9963951225
 20
115.3205255278
 30
0.0
 10
66.9339034116
 20
115.3710114705
 30
0.0
 10
66.8766335027
 20
115.4281846984
 30
0.0
 10
66.839071997
 20
115.4741344368
 30
0.0
  0
SPLINE
  5
411
100
AcDbEntity
  8
0
100
AcDbSpline
 62
7
  6
CONTINUOUS
 70
0
 71
3
 72
11
 73
7
 74
0
 42
0.0000001
 43
0.0000001
 44
0.0000000001
 40
0.0
 40
0.0
 40
0.0
 40
0.0
 40
0.2675433981
 40
0.5206113462
 40
0.763106521
 40
1.0
 40
1.0
 40
1.0
 40
1.0
 10
66.839071997
 20
115.4741344368
 30
0.0
 10
66.8139881977
 20
115.5048199483
 30
0.0
 10
66.7691412547
 20
115.5679661526
 30
0.0
 10
66.7187514709
 20
115.6697331152
 30
0.0
 10
66.6881285505
 20
115.7744272379
 30
0.0
 10
66.6812421391
 20
115.8456194739
 30
0.0
 10
66.6812447607
 20
115.8807123515
 30
0.0
  0
SPLINE
  5
412
100
AcDbEntity
  8
0
100
AcDbSpline
 62
7
  6
CONTINUOUS
 70
0
 71
3
 72
9
 73
5
 74
0
 42
0.0000001
 43
0.0000001
 44
0.0000000001
 40
0.0
 40
0.0
 40
0.0
 40
0.0
 40
0.2632359569
 40
1.0
 40
1.0
 40
1.0
 40
1.0
 10
67.9600086256
 20
116.0191912111
 30
0.0
 10
67.9523429853
 20
116.0147654781
 30
0.0
 10
67.9236872732
 20
115.9971809169
 30
0.0
 10
67.8969326935
 20
115.9763408362
 30
0.0
 10
67.8792153355
 20
115.9590244202
 30
0.0
  0
SPLINE
  5
413
100
AcDbEntity
  8
0
100
AcDbSpline
 62
7
  6
CONTINUOUS
 70
0
 71
3
 72
9
 73
5
 74
0
 42
0.0000001
 43
0.0000001
 44
0.0000000001
 40
0.0
 40
0.0
 40
0.0
 40
0.0
 40
0.5239965964
 40
1.0
 40
1.0
 40
1.0
 40
1.0
 10
67.8792153355
 20
115.9590244202
 30
0.0
 10
67.863276109
 20
115.9434458968
 30
0.0
 10
67.8357148067
 20
115.9104781664
 30
0.0
 10
67.8177925863
 20
115.871119452
 30
0.0
 10
67.8125124622
 20
115.8515735681
 30
0.0
  0
SPLINE
  5
414
100
AcDbEntity
  8
0
100
AcDbSpline
 62
7
  6
CONTINUOUS
 70
0
 71
3
 72
9
 73
5
 74
0
 42
0.0000001
 43
0.0000001
 44
0.0000000001
 40
0.0
 40
0.0
 40
0.0
 40
0.0
 40
0.2446743965
 40
1.0
 40
1.0
 40
1.0
 40
1.0
 10
69.2101030643
 20
115.7057163296
 30
0.0
 10
69.2011440908
 20
115.7005438952
 30
0.0
 10
69.1642491079
 20
115.6798893189
 30
0.0
 10
69.126292353
 20
115.6611447773
 30
0.0
 10
69.0971891549
 20
115.6479965852
 30
0.0
  0
SPLINE
  5
415
100
AcDbEntity
  8
0
100
AcDbSpline
 62
7
  6
CONTINUOUS
 70
0
 71
3
 72
26
 73
22
 74
0
 42
0.0000001
 43
0.0000001
 44
0.0000000001
 40
0.0
 40
0.0
 40
0.0
 40
0.0
 40
0.069993067
 40
0.1442799112
 40
0.2212857582
 40
0.2992449088
 40
0.3763158745
 40
0.4507232855
 40
0.5208921519
 40
0.5856077837
 40
0.6442029898
 40
0.6967939486
 40
0.7212125776
 40
0.744662501
 40
0.767468475
 40
0.7900042805
 40
0.8126686497
 40
0.8358489428
 40
0.8849519084
 40
0.9394071086
 40
1.0
 40
1.0
 40
1.0
 40
1.0
 10
69.0971891549
 20
115.6479965852
 30
0.0
 10
69.0332997091
 20
115.6191327226
 30
0.0
 10
68.8970227674
 20
115.5694776536
 30
0.0
 10
68.6804634419
 20
115.520067362
 30
0.0
 10
68.4517609202
 20
115.4946994273
 30
0.0
 10
68.2188985826
 20
115.4942566583
 30
0.0
 10
67.9899267862
 20
115.5187587111
 30
0.0
 10
67.77277235
 20
115.5673593011
 30
0.0
 10
67.5748978691
 20
115.6384045735
 30
0.0
 10
67.4030047197
 20
115.7296118349
 30
0.0
 10
67.2629203366
 20
115.83809193
 30
0.0
 10
67.174612721
 20
115.9432169888
 30
0.0
 10
67.1266573922
 20
116.0320270746
 30
0.0
 10
67.1023406835
 20
116.0988008205
 30
0.0
 10
67.0890810129
 20
116.16671745
 30
0.0
 10
67.087066126
 20
116.2351118596
 30
0.0
 10
67.0963252923
 20
116.3032839239
 30
0.0
 10
67.1240146213
 20
116.3946382047
 30
0.0
 10
67.1884504962
 20
116.5061090617
 30
0.0
 10
67.3041401634
 20
116.6246688087
 30
0.0
 10
67.3998189547
 20
116.6901701156
 30
0.0
 10
67.4523793946
 20
116.7205157153
 30
0.0
  0
SPLINE
  5
416
100
AcDbEntity
  8
0
100
AcDbSpline
 62
7
  6
CONTINUOUS
 70
0
 71
3
 72
9
 73
5
 74
0
 42
0.0000001
 43
0.0000001
 44
0.0000000001
 40
0.0
 40
0.0
 40
0.0
 40
0.0
 40
0.2446743965
 40
1.0
 40
1.0
 40
1.0
 40
1.0
 10
67.4523793946
 20
116.7205157153
 30
0.0
 10
67.4613383681
 20
116.7256881496
 30
0.0
 10
67.498233351
 20
116.746342726
 30
0.0
 10
67.5361901059
 20
116.7650872675
 30
0.0
 10
67.565293304
 20
116.7782354597
 30
0.0
  0
SPLINE
  5
417
100
AcDbEntity
  8
0
100
AcDbSpline
 62
7
  6
CONTINUOUS
 70
0
 71
3
 72
26
 73
22
 74
0
 42
0.0000001
 43
0.0000001
 44
0.0000000001
 40
0.0
 40
0.0
 40
0.0
 40
0.0
 40
0.069993067
 40
0.1442799112
 40
0.2212857582
 40
0.2992449088
 40
0.3763158745
 40
0.4507232855
 40
0.5208921519
 40
0.5856077837
 40
0.6442029898
 40
0.6967939486
 40
0.7212125776
 40
0.744662501
 40
0.767468475
 40
0.7900042805
 40
0.8126686497
 40
0.8358489428
 40
0.8849519084
 40
0.9394071086
 40
1.0
 40
1.0
 40
1.0
 40
1.0
 10
67.565293304
 20
116.7782354597
 30
0.0
 10
67.6291827498
 20
116.8070993223
 30
0.0
 10
67.7654596915
 20
116.8567543913
 30
0.0
 10
67.982019017
 20
116.9061646828
 30
0.0
 10
68.2107215386
 20
116.9315326176
 30
0.0
 10
68.4435838762
 20
116.9319753865
 30
0.0
 10
68.6725556727
 20
116.9074733338
 30
0.0
 10
68.8897101089
 20
116.8588727438
 30
0.0
 10
69.0875845898
 20
116.7878274714
 30
0.0
 10
69.2594777392
 20
116.6966202099
 30
0.0
 10
69.3995621223
 20
116.5881401149
 30
0.0
 10
69.4878697379
 20
116.483015056
 30
0.0
 10
69.5358250667
 20
116.3942049703
 30
0.0
 10
69.5601417753
 20
116.3274312243
 30
0.0
 10
69.5734014459
 20
116.2595145949
 30
0.0
 10
69.5754163328
 20
116.1911201853
 30
0.0
 10
69.5661571665
 20
116.122948121
 30
0.0
 10
69.5384678375
 20
116.0315938402
 30
0.0
 10
69.4740319627
 20
115.9201229832
 30
0.0
 10
69.3583422954
 20
115.8015632361
 30
0.0
 10
69.2626635042
 20
115.7360619293
 30
0.0
 10
69.2101030643
 20
115.7057163296
 30
0.0
  0
SPLINE
  5
418
100
AcDbEntity
  8
0
100
AcDbSpline
 62
7
  6
CONTINUOUS
 70
0
 71
3
 72
15
 73
11
 74
0
 42
0.0000001
 43
0.0000001
 44
0.0000000001
 40
0.0
 40
0.0
 40
0.0
 40
0.0
 40
0.1347097048
 40
0.2580430599
 40
0.373275785
 40
0.4852832544
 40
0.5996859839
 40
0.7215248745
 40
0.8543988789
 40
1.0
 40
1.0
 40
1.0
 40
1.0
 10
69.6316327376
 20
116.6126834377
 30
0.0
 10
69.6742752858
 20
116.5744715766
 30
0.0
 10
69.7501785385
 20
116.4942353475
 30
0.0
 10
69.8335734172
 20
116.3576805422
 30
0.0
 10
69.8780800682
 20
116.2136249523
 30
0.0
 10
69.8812491827
 20
116.0665024891
 30
0.0
 10
69.8428794048
 20
115.9216777272
 30
0.0
 10
69.7651611534
 20
115.7837214508
 30
0.0
 10
69.6511878243
 20
115.6559653606
 30
0.0
 10
69.5575142176
 20
115.5826235547
 30
0.0
 10
69.5061984631
 20
115.5480287074
 30
0.0
  0
SPLINE
  5
419
100
AcDbEntity
  8
0
100
AcDbSpline
 62
7
  6
CONTINUOUS
 70
0
 71
3
 72
9
 73
5
 74
0
 42
0.0000001
 43
0.0000001
 44
0.0000000001
 40
0.0
 40
0.0
 40
0.0
 40
0.0
 40
0.2632652739
 40
1.0
 40
1.0
 40
1.0
 40
1.0
 10
69.0560286977
 20
115.794669249
 30
0.0
 10
69.0710245359
 20
115.8033270484
 30
0.0
 10
69.1270738439
 20
115.8377257959
 30
0.0
 10
69.1793971481
 20
115.8785057116
 30
0.0
 10
69.2140317458
 20
115.9123956943
 30
0.0
  0
SPLINE
  5
41A
100
AcDbEntity
  8
0
100
AcDbSpline
 62
7
  6
CONTINUOUS
 70
0
 71
3
 72
10
 73
6
 74
0
 42
0.0000001
 43
0.0000001
 44
0.0000000001
 40
0.0
 40
0.0
 40
0.0
 40
0.0
 40
0.2426492474
 40
0.4884598477
 40
1.0
 40
1.0
 40
1.0
 40
1.0
 10
69.9812376982
 20
115.8807123516
 30
0.0
 10
69.9812357674
 20
115.8548655483
 30
0.0
 10
69.9775398584
 20
115.8027526869
 30
0.0
 10
69.9552605977
 20
115.6983340218
 30
0.0
 10
69.9222613481
 20
115.623460493
 30
0.0
 10
69.8947889718
 20
115.5764041119
 30
0.0
  0
SPLINE
  5
41B
100
AcDbEntity
  8
0
100
AcDbSpline
 62
7
  6
CONTINUOUS
 70
0
 71
3
 72
9
 73
5
 74
0
 42
0.0000001
 43
0.0000001
 44
0.0000000001
 40
0.0
 40
0.0
 40
0.0
 40
0.0
 40
0.246070437
 40
1.0
 40
1.0
 40
1.0
 40
1.0
 10
69.8947889718
 20
115.5764041119
 30
0.0
 10
69.8912237522
 20
115.5702973839
 30
0.0
 10
69.87637259
 20
115.5456931933
 30
0.0
 10
69.8601060517
 20
115.5219485914
 30
0.0
 10
69.8471690746
 20
115.5045696058
 30
0.0
  0
SPLINE
  5
41C
100
AcDbEntity
  8
0
100
AcDbSpline
 62
7
  6
CONTINUOUS
 70
0
 71
3
 72
9
 73
5
 74
0
 42
0.0000001
 43
0.0000001
 44
0.0000000001
 40
0.0
 40
0.0
 40
0.0
 40
0.0
 40
0.2382269639
 40
1.0
 40
1.0
 40
1.0
 40
1.0
 10
69.8471690746
 20
115.5045696058
 30
0.0
 10
69.8347857979
 20
115.4879344378
 30
0.0
 10
69.7801834196
 20
115.4200622893
 30
0.0
 10
69.7159598516
 20
115.3602142789
 30
0.0
 10
69.6639510986
 20
115.3190723162
 30
0.0
  0
SPLINE
  5
41D
100
AcDbEntity
  8
0
100
AcDbSpline
 62
7
  6
CONTINUOUS
 70
0
 71
3
 72
23
 73
19
 74
0
 42
0.0000001
 43
0.0000001
 44
0.0000000001
 40
0.0
 40
0.0
 40
0.0
 40
0.0
 40
0.0523221034
 40
0.0999924366
 40
0.1450378849
 40
0.1902244741
 40
0.2382616441
 40
0.2911063896
 40
0.3497068738
 40
0.4141211175
 40
0.4837332086
 40
0.5574490884
 40
0.6338553672
 40
0.7113485178
 40
0.7882582877
 40
0.8629423749
 40
0.9339333826
 40
1.0
 40
1.0
 40
1.0
 40
1.0
 10
69.2140317458
 20
115.9123956943
 30
0.0
 10
69.2437576042
 20
115.9414824717
 30
0.0
 10
69.2954450448
 20
116.0029007224
 30
0.0
 10
69.3458747556
 20
116.1081831239
 30
0.0
 10
69.3620270201
 20
116.2184591392
 30
0.0
 10
69.3424678194
 20
116.3284463121
 30
0.0
 10
69.2888819319
 20
116.4330767019
 30
0.0
 10
69.2044980697
 20
116.5290666599
 30
0.0
 10
69.0925906872
 20
116.6140783761
 30
0.0
 10
68.956748138
 20
116.685933992
 30
0.0
 10
68.8011725694
 20
116.7426051178
 30
0.0
 10
68.6307149318
 20
116.7823902174
 30
0.0
 10
68.4507482677
 20
116.8040512948
 30
0.0
 10
68.2669787253
 20
116.806910014
 30
0.0
 10
68.085259446
 20
116.7908654839
 30
0.0
 10
67.9113329808
 20
116.7564379736
 30
0.0
 10
67.7507679195
 20
116.7047033826
 30
0.0
 10
67.651932608
 20
116.6578198629
 30
0.0
 10
67.6064537612
 20
116.6315627958
 30
0.0
  0
SPLINE
  5
41E
100
AcDbEntity
  8
0
100
AcDbSpline
 62
7
  6
CONTINUOUS
 70
0
 71
3
 72
9
 73
5
 74
0
 42
0.0000001
 43
0.0000001
 44
0.0000000001
 40
0.0
 40
0.0
 40
0.0
 40
0.0
 40
0.2632652739
 40
1.0
 40
1.0
 40
1.0
 40
1.0
 10
67.6064537612
 20
116.6315627958
 30
0.0
 10
67.591457923
 20
116.6229049965
 30
0.0
 10
67.535408615
 20
116.588506249
 30
0.0
 10
67.4830853108
 20
116.5477263333
 30
0.0
 10
67.4484507131
 20
116.5138363505
 30
0.0
  0
SPLINE
  5
41F
100
AcDbEntity
  8
0
100
AcDbSpline
 62
7
  6
CONTINUOUS
 70
0
 71
3
 72
23
 73
19
 74
0
 42
0.0000001
 43
0.0000001
 44
0.0000000001
 40
0.0
 40
0.0
 40
0.0
 40
0.0
 40
0.0523221034
 40
0.0999924366
 40
0.1450378849
 40
0.1902244741
 40
0.2382616441
 40
0.2911063896
 40
0.3497068738
 40
0.4141211175
 40
0.4837332086
 40
0.5574490884
 40
0.6338553672
 40
0.7113485178
 40
0.7882582877
 40
0.8629423749
 40
0.9339333826
 40
1.0
 40
1.0
 40
1.0
 40
1.0
 10
67.4484507131
 20
116.5138363505
 30
0.0
 10
67.4187248546
 20
116.4847495732
 30
0.0
 10
67.3670374141
 20
116.4233313225
 30
0.0
 10
67.3166077033
 20
116.318048921
 30
0.0
 10
67.3004554388
 20
116.2077729057
 30
0.0
 10
67.3200146395
 20
116.0977857328
 30
0.0
 10
67.3736005269
 20
115.993155343
 30
0.0
 10
67.4579843892
 20
115.8971653849
 30
0.0
 10
67.5698917716
 20
115.8121536688
 30
0.0
 10
67.7057343209
 20
115.7402980528
 30
0.0
 10
67.8613098894
 20
115.6836269271
 30
0.0
 10
68.031767527
 20
115.6438418274
 30
0.0
 10
68.2117341911
 20
115.6221807501
 30
0.0
 10
68.3955037335
 20
115.6193220308
 30
0.0
 10
68.5772230129
 20
115.6353665609
 30
0.0
 10
68.751149478
 20
115.6697940712
 30
0.0
 10
68.9117145393
 20
115.7215286623
 30
0.0
 10
69.0105498509
 20
115.7684121819
 30
0.0
 10
69.0560286977
 20
115.794669249
 30
0.0
  0
SPLINE
  5
420
100
AcDbEntity
  8
0
100
AcDbSpline
 62
7
  6
CONTINUOUS
 70
0
 71
3
 72
20
 73
16
 74
0
 42
0.0000001
 43
0.0000001
 44
0.0000000001
 40
0.0
 40
0.0
 40
0.0
 40
0.0
 40
0.0329580232
 40
0.0562133424
 40
0.0705655525
 40
0.080296641
 40
0.101915762
 40
0.1359620905
 40
0.1828217246
 40
0.2423595404
 40
0.3143838075
 40
0.3987426775
 40
0.4953211621
 40
0.7243929636
 40
1.0
 40
1.0
 40
1.0
 40
1.0
 10
63.7778310053
 20
94.6356731834
 30
0.0
 10
63.7782657307
 20
94.6365569339
 30
0.0
 10
63.7791441202
 20
94.6382063606
 30
0.0
 10
63.7798319111
 20
94.6395821902
 30
0.0
 10
63.781243604
 20
94.6416914214
 30
0.0
 10
63.7800169999
 20
94.6400150405
 30
0.0
 10
63.7789796249
 20
94.6388422481
 30
0.0
 10
63.7768098973
 20
94.6363995732
 30
0.0
 10
63.7739257353
 20
94.6334694363
 30
0.0
 10
63.7700511257
 20
94.6297575325
 30
0.0
 10
63.765241739
 20
94.6254716037
 30
0.0
 10
63.7594306714
 20
94.6206285514
 30
0.0
 10
63.7497542791
 20
94.6131118646
 30
0.0
 10
63.7350094608
 20
94.6028209289
 30
0.0
 10
63.7221466524
 20
94.5949295014
 30
0.0
 10
63.7150140745
 20
94.5908115303
 30
0.0
  0
SPLINE
  5
421
100
AcDbEntity
  8
0
100
AcDbSpline
 62
7
  6
CONTINUOUS
 70
0
 71
3
 72
9
 73
5
 74
0
 42
0.0000001
 43
0.0000001
 44
0.0000000001
 40
0.0
 40
0.0
 40
0.0
 40
0.0
 40
0.2446743885
 40
1.0
 40
1.0
 40
1.0
 40
1.0
 10
62.1463721619
 20
95.5318663399
 30
0.0
 10
62.1575227229
 20
95.5383040807
 30
0.0
 10
62.2034431362
 20
95.5640112833
 30
0.0
 10
62.2506850602
 20
95.5873412038
 30
0.0
 10
62.2869076258
 20
95.6037057714
 30
0.0
  0
SPLINE
  5
422
100
AcDbEntity
  8
0
100
AcDbSpline
 62
7
  6
CONTINUOUS
 70
0
 71
3
 72
13
 73
9
 74
0
 42
0.0000001
 43
0.0000001
 44
0.0000000001
 40
0.0
 40
0.0
 40
0.0
 40
0.0
 40
0.1249202717
 40
0.2494433727
 40
0.374048896
 40
0.498713574
 40
0.7480766
 40
1.0
 40
1.0
 40
1.0
 40
1.0
 10
64.8902254912
 20
94.6520924957
 30
0.0
 10
64.8902254912
 20
94.6868690196
 30
0.0
 10
64.8861182025
 20
94.7563816851
 30
0.0
 10
64.8677809712
 20
94.8591130351
 30
0.0
 10
64.8377601862
 20
94.958990651
 30
0.0
 10
64.7832222339
 20
95.0869106403
 30
0.0
 10
64.689289947
 20
95.235233058
 30
0.0
 10
64.5928531123
 20
95.3372622593
 30
0.0
 10
64.5406220606
 20
95.3840654645
 30
0.0
  0
SPLINE
  5
423
100
AcDbEntity
  8
0
100
AcDbSpline
 62
7
  6
CONTINUOUS
 70
0
 71
3
 72
19
 73
15
 74
0
 42
0.0000001
 43
0.0000001
 44
0.0000000001
 40
0.0
 40
0.0
 40
0.0
 40
0.0
 40
0.0503758414
 40
0.1099372762
 40
0.2492043068
 40
0.4042291975
 40
0.5633688854
 40
0.7154998333
 40
0.7852985395
 40
0.8486756805
 40
0.9037454087
 40
0.9485120031
 40
0.9810193496
 40
1.0
 40
1.0
 40
1.0
 40
1.0
 10
63.7150140745
 20
94.5908115303
 30
0.0
 10
63.6995973987
 20
94.5819107617
 30
0.0
 10
63.6648502506
 20
94.5643729819
 30
0.0
 10
63.5829220759
 20
94.5318335685
 30
0.0
 10
63.4612905969
 20
94.500556614
 30
0.0
 10
63.3016473573
 20
94.4823209312
 30
0.0
 10
63.1364355501
 20
94.4850836857
 30
0.0
 10
63.0027757446
 20
94.5050316105
 30
0.0
 10
62.9052435422
 20
94.5309080503
 30
0.0
 10
62.8424169656
 20
94.5530048836
 30
0.0
 10
62.7897641724
 20
94.5767243962
 30
0.0
 10
62.7490394244
 20
94.5998959268
 30
0.0
 10
62.7213802469
 20
94.6197828157
 30
0.0
 10
62.7077831917
 20
94.631964636
 30
0.0
 10
62.7032307807
 20
94.6368904386
 30
0.0
  0
SPLINE
  5
424
100
AcDbEntity
  8
0
100
AcDbSpline
 62
7
  6
CONTINUOUS
 70
0
 71
3
 72
12
 73
8
 74
0
 42
0.0000001
 43
0.0000001
 44
0.0000000001
 40
0.0
 40
0.0
 40
0.0
 40
0.0
 40
0.252030611
 40
0.5014983206
 40
0.6262153126
 40
0.7508725206
 40
1.0
 40
1.0
 40
1.0
 40
1.0
 10
61.9398289218
 20
95.3840654645
 30
0.0
 10
61.8875980433
 20
95.3372624146
 30
0.0
 10
61.791161927
 20
95.2352301279
 30
0.0
 10
61.6972295186
 20
95.0869228204
 30
0.0
 10
61.6426930282
 20
94.9589764158
 30
0.0
 10
61.6026650796
 20
94.8259485737
 30
0.0
 10
61.5902254912
 20
94.7214173012
 30
0.0
 10
61.5902254912
 20
94.6520924957
 30
0.0
  0
SPLINE
  5
425
100
AcDbEntity
  8
0
100
AcDbSpline
 62
7
  6
CONTINUOUS
 70
0
 71
3
 72
11
 73
7
 74
0
 42
0.0000001
 43
0.0000001
 44
0.0000000001
 40
0.0
 40
0.0
 40
0.0
 40
0.0
 40
0.2479220379
 40
0.5000012275
 40
0.7520792365
 40
1.0
 40
1.0
 40
1.0
 40
1.0
 10
62.6454367134
 20
95.7247991271
 30
0.0
 10
62.7418267542
 20
95.7479781037
 30
0.0
 10
62.9393486945
 20
95.7824672717
 30
0.0
 10
63.2402264978
 20
95.7995427535
 30
0.0
 10
63.5411037778
 20
95.7824670933
 30
0.0
 10
63.7386247237
 20
95.7479779846
 30
0.0
 10
63.835014269
 20
95.7247991271
 30
0.0
  0
SPLINE
  5
426
100
AcDbEntity
  8
0
100
AcDbSpline
 62
7
  6
CONTINUOUS
 70
0
 71
3
 72
11
 73
7
 74
0
 42
0.0000001
 43
0.0000001
 44
0.0000000001
 40
0.0
 40
0.0
 40
0.0
 40
0.0
 40
0.2740707263
 40
0.5336386237
 40
0.7761001288
 40
1.0
 40
1.0
 40
1.0
 40
1.0
 10
63.835012187
 20
95.7247962413
 30
0.0
 10
63.9052549806
 20
95.7079034006
 30
0.0
 10
64.0405928225
 20
95.6685557845
 30
0.0
 10
64.2303301627
 20
95.590929488
 30
0.0
 10
64.3980081593
 20
95.4977396778
 30
0.0
 10
64.4966622721
 20
95.4234512829
 30
0.0
 10
64.5406169994
 20
95.3840635819
 30
0.0
  0
SPLINE
  5
427
100
AcDbEntity
  8
0
100
AcDbSpline
 62
7
  6
CONTINUOUS
 70
0
 71
3
 72
9
 73
5
 74
0
 42
0.0000001
 43
0.0000001
 44
0.0000000001
 40
0.0
 40
0.0
 40
0.0
 40
0.0
 40
0.2446743914
 40
1.0
 40
1.0
 40
1.0
 40
1.0
 10
64.3340788205
 20
94.268821749
 30
0.0
 10
64.3229282606
 20
94.262384006
 30
0.0
 10
64.2770078453
 20
94.2366768069
 30
0.0
 10
64.229765922
 20
94.2133468851
 30
0.0
 10
64.1935433566
 20
94.1969823175
 30
0.0
  0
SPLINE
  5
428
100
AcDbEntity
  8
0
100
AcDbSpline
 62
7
  6
CONTINUOUS
 70
0
 71
3
 72
28
 73
24
 74
0
 42
0.0000001
 43
0.0000001
 44
0.0000000001
 40
0.0
 40
0.0
 40
0.0
 40
0.0
 40
0.0696172811
 40
0.1433118696
 40
0.2197425084
 40
0.2974176867
 40
0.3747486969
 40
0.4501759786
 40
0.5222595256
 40
0.5897916202
 40
0.6215897112
 40
0.651971813
 40
0.6809120701
 40
0.708433423
 40
0.7594644982
 40
0.7833761931
 40
0.8064972274
 40
0.829123163
 40
0.8515857471
 40
0.8742285621
 40
0.8973825961
 40
0.9462381753
 40
1.0
 40
1.0
 40
1.0
 40
1.0
 10
64.1935433566
 20
94.1969823175
 30
0.0
 10
64.1198073285
 20
94.1636699831
 30
0.0
 10
63.9631201754
 20
94.1056283584
 30
0.0
 10
63.7144110238
 20
94.0454669891
 30
0.0
 10
63.4514105498
 20
94.0110263437
 30
0.0
 10
63.1820838883
 20
94.0033317368
 30
0.0
 10
62.9145011438
 20
94.0226256968
 30
0.0
 10
62.6566968349
 20
94.0683241302
 30
0.0
 10
62.4164281316
 20
94.1390627506
 30
0.0
 10
62.2330980692
 20
94.2187307047
 30
0.0
 10
62.1021727195
 20
94.2937366685
 30
0.0
 10
62.0146192226
 20
94.3535260144
 30
0.0
 10
61.9364135448
 20
94.4175894742
 30
0.0
 10
61.8476866891
 20
94.5056907903
 30
0.0
 10
61.7764306934
 20
94.6027548385
 30
0.0
 10
61.7281817286
 20
94.7063509078
 30
0.0
 10
61.7044438178
 20
94.784051377
 30
0.0
 10
61.6926534717
 20
94.8627477801
 30
0.0
 10
61.6929536758
 20
94.9417731742
 30
0.0
 10
61.7053183639
 20
95.0204443616
 30
0.0
 10
61.7383010272
 20
95.1257643674
 30
0.0
 10
61.8112729175
 20
95.2544510508
 30
0.0
 10
61.8932995323
 20
95.3423680374
 30
0.0
 10
61.9398383811
 20
95.3840619451
 30
0.0
  0
SPLINE
  5
429
100
AcDbEntity
  8
0
100
AcDbSpline
 62
7
  6
CONTINUOUS
 70
0
 71
3
 72
9
 73
5
 74
0
 42
0.0000001
 43
0.0000001
 44
0.0000000001
 40
0.0
 40
0.0
 40
0.0
 40
0.0
 40
0.261306736
 40
1.0
 40
1.0
 40
1.0
 40
1.0
 10
61.9220392314
 20
94.0791307085
 30
0.0
 10
61.9053793842
 20
94.0919056719
 30
0.0
 10
61.8428876734
 20
94.1423916146
 30
0.0
 10
61.7856177644
 20
94.1995648426
 30
0.0
 10
61.7480562588
 20
94.2455145809
 30
0.0
  0
SPLINE
  5
42A
100
AcDbEntity
  8
0
100
AcDbSpline
 62
7
  6
CONTINUOUS
 70
0
 71
3
 72
11
 73
7
 74
0
 42
0.0000001
 43
0.0000001
 44
0.0000000001
 40
0.0
 40
0.0
 40
0.0
 40
0.0
 40
0.2675433981
 40
0.5206113462
 40
0.763106521
 40
1.0
 40
1.0
 40
1.0
 40
1.0
 10
61.7480562588
 20
94.2455145809
 30
0.0
 10
61.7229724595
 20
94.2762000924
 30
0.0
 10
61.6781255165
 20
94.3393462968
 30
0.0
 10
61.6277357327
 20
94.4411132594
 30
0.0
 10
61.5971128122
 20
94.5458073821
 30
0.0
 10
61.5902264009
 20
94.6169996181
 30
0.0
 10
61.5902290224
 20
94.6520924956
 30
0.0
  0
SPLINE
  5
42B
100
AcDbEntity
  8
0
100
AcDbSpline
 62
7
  6
CONTINUOUS
 70
0
 71
3
 72
17
 73
13
 74
0
 42
0.0000001
 43
0.0000001
 44
0.0000000001
 40
0.0
 40
0.0
 40
0.0
 40
0.0
 40
0.0437792585
 40
0.0905081395
 40
0.1409795903
 40
0.1955639276
 40
0.3167077799
 40
0.4513349194
 40
0.5938443559
 40
0.7373365913
 40
0.8747387785
 40
1.0
 40
1.0
 40
1.0
 40
1.0
 10
63.7583508429
 20
94.6251312422
 30
0.0
 10
63.7543908488
 20
94.6391322797
 30
0.0
 10
63.7427822046
 20
94.6671852421
 30
0.0
 10
63.7163602238
 20
94.7061926043
 30
0.0
 10
63.6810846502
 20
94.7425685989
 30
0.0
 10
63.6211570497
 20
94.7883278894
 30
0.0
 10
63.5277172719
 20
94.8342746741
 30
0.0
 10
63.3993288778
 20
94.8689664912
 30
0.0
 10
63.2596188047
 20
94.8828460851
 30
0.0
 10
63.1185331662
 20
94.874883697
 30
0.0
 10
62.9861430747
 20
94.8457194445
 30
0.0
 10
62.9050466694
 20
94.8113868914
 30
0.0
 10
62.8689928874
 20
94.7905713552
 30
0.0
  0
SPLINE
  5
42C
100
AcDbEntity
  8
0
100
AcDbSpline
 62
7
  6
CONTINUOUS
 70
0
 71
3
 72
15
 73
11
 74
0
 42
0.0000001
 43
0.0000001
 44
0.0000000001
 40
0.0
 40
0.0
 40
0.0
 40
0.0
 40
0.1347097048
 40
0.2580430599
 40
0.373275785
 40
0.4852832544
 40
0.5996859839
 40
0.7215248745
 40
0.8543988789
 40
1.0
 40
1.0
 40
1.0
 40
1.0
 10
64.5406169994
 20
95.3840635819
 30
0.0
 10
64.5832595475
 20
95.3458517207
 30
0.0
 10
64.6591628003
 20
95.2656154916
 30
0.0
 10
64.742557679
 20
95.1290606863
 30
0.0
 10
64.78706433
 20
94.9850050965
 30
0.0
 10
64.7902334445
 20
94.8378826333
 30
0.0
 10
64.7518636666
 20
94.6930578713
 30
0.0
 10
64.6741454152
 20
94.5551015949
 30
0.0
 10
64.5601720861
 20
94.4273455047
 30
0.0
 10
64.4664984793
 20
94.3540036989
 30
0.0
 10
64.4151827249
 20
94.3194088515
 30
0.0
  0
SPLINE
  5
42D
100
AcDbEntity
  8
0
100
AcDbSpline
 62
7
  6
CONTINUOUS
 70
0
 71
3
 72
9
 73
5
 74
0
 42
0.0000001
 43
0.0000001
 44
0.0000000001
 40
0.0
 40
0.0
 40
0.0
 40
0.0
 40
0.2632359569
 40
1.0
 40
1.0
 40
1.0
 40
1.0
 10
62.8689928874
 20
94.7905713552
 30
0.0
 10
62.8613272471
 20
94.7861456222
 30
0.0
 10
62.832671535
 20
94.768561061
 30
0.0
 10
62.8059169553
 20
94.7477209804
 30
0.0
 10
62.7881995973
 20
94.7304045644
 30
0.0
  0
SPLINE
  5
42E
100
AcDbEntity
  8
0
100
AcDbSpline
 62
7
  6
CONTINUOUS
 70
0
 71
3
 72
9
 73
5
 74
0
 42
0.0000001
 43
0.0000001
 44
0.0000000001
 40
0.0
 40
0.0
 40
0.0
 40
0.0
 40
0.5239965964
 40
1.0
 40
1.0
 40
1.0
 40
1.0
 10
62.7881995973
 20
94.7304045644
 30
0.0
 10
62.7722603708
 20
94.714826041
 30
0.0
 10
62.7446990684
 20
94.6818583106
 30
0.0
 10
62.7267768481
 20
94.6424995962
 30
0.0
 10
62.721496724
 20
94.6229537122
 30
0.0
  0
SPLINE
  5
42F
100
AcDbEntity
  8
0
100
AcDbSpline
 62
7
  6
CONTINUOUS
 70
0
 71
3
 72
10
 73
6
 74
0
 42
0.0000001
 43
0.0000001
 44
0.0000000001
 40
0.0
 40
0.0
 40
0.0
 40
0.0
 40
0.2426492474
 40
0.4884598477
 40
1.0
 40
1.0
 40
1.0
 40
1.0
 10
64.89022196
 20
94.6520924958
 30
0.0
 10
64.8902200291
 20
94.6262456925
 30
0.0
 10
64.8865241201
 20
94.574132831
 30
0.0
 10
64.8642448594
 20
94.469714166
 30
0.0
 10
64.8312456098
 20
94.3948406372
 30
0.0
 10
64.8037732335
 20
94.3477842561
 30
0.0
  0
SPLINE
  5
430
100
AcDbEntity
  8
0
100
AcDbSpline
 62
7
  6
CONTINUOUS
 70
0
 71
3
 72
9
 73
5
 74
0
 42
0.0000001
 43
0.0000001
 44
0.0000000001
 40
0.0
 40
0.0
 40
0.0
 40
0.0
 40
0.246070437
 40
1.0
 40
1.0
 40
1.0
 40
1.0
 10
64.8037732335
 20
94.3477842561
 30
0.0
 10
64.800208014
 20
94.3416775281
 30
0.0
 10
64.7853568518
 20
94.3170733375
 30
0.0
 10
64.7690903135
 20
94.2933287355
 30
0.0
 10
64.7561533364
 20
94.2759497499
 30
0.0
  0
SPLINE
  5
431
100
AcDbEntity
  8
0
100
AcDbSpline
 62
7
  6
CONTINUOUS
 70
0
 71
3
 72
9
 73
5
 74
0
 42
0.0000001
 43
0.0000001
 44
0.0000000001
 40
0.0
 40
0.0
 40
0.0
 40
0.0
 40
0.2382269639
 40
1.0
 40
1.0
 40
1.0
 40
1.0
 10
64.7561533364
 20
94.2759497499
 30
0.0
 10
64.7437700597
 20
94.259314582
 30
0.0
 10
64.6891676813
 20
94.1914424334
 30
0.0
 10
64.6249441134
 20
94.131594423
 30
0.0
 10
64.5729353604
 20
94.0904524604
 30
0.0
  0
SPLINE
  5
432
100
AcDbEntity
  8
0
100
AcDbSpline
 62
7
  6
CONTINUOUS
 70
0
 71
3
 72
9
 73
5
 74
0
 42
0.0000001
 43
0.0000001
 44
0.0000000001
 40
0.0
 40
0.0
 40
0.0
 40
0.0
 40
0.2446743965
 40
1.0
 40
1.0
 40
1.0
 40
1.0
 10
62.3613636564
 20
95.4918958594
 30
0.0
 10
62.3703226299
 20
95.4970682938
 30
0.0
 10
62.4072176127
 20
95.5177228701
 30
0.0
 10
62.4451743677
 20
95.5364674117
 30
0.0
 10
62.4742775657
 20
95.5496156038
 30
0.0
  0
SPLINE
  5
433
100
AcDbEntity
  8
0
100
AcDbSpline
 62
7
  6
CONTINUOUS
 70
0
 71
3
 72
26
 73
22
 74
0
 42
0.0000001
 43
0.0000001
 44
0.0000000001
 40
0.0
 40
0.0
 40
0.0
 40
0.0
 40
0.069993067
 40
0.1442799112
 40
0.2212857582
 40
0.2992449088
 40
0.3763158745
 40
0.4507232855
 40
0.5208921519
 40
0.5856077837
 40
0.6442029898
 40
0.6967939486
 40
0.7212125776
 40
0.744662501
 40
0.767468475
 40
0.7900042805
 40
0.8126686497
 40
0.8358489428
 40
0.8849519084
 40
0.9394071086
 40
1.0
 40
1.0
 40
1.0
 40
1.0
 10
62.4742775657
 20
95.5496156038
 30
0.0
 10
62.5381670115
 20
95.5784794664
 30
0.0
 10
62.6744439532
 20
95.6281345354
 30
0.0
 10
62.8910032788
 20
95.677544827
 30
0.0
 10
63.1197058004
 20
95.7029127617
 30
0.0
 10
63.352568138
 20
95.7033555307
 30
0.0
 10
63.5815399344
 20
95.6788534779
 30
0.0
 10
63.7986943706
 20
95.6302528879
 30
0.0
 10
63.9965688516
 20
95.5592076156
 30
0.0
 10
64.168462001
 20
95.4680003541
 30
0.0
 10
64.308546384
 20
95.3595202591
 30
0.0
 10
64.3968539997
 20
95.2543952002
 30
0.0
 10
64.4448093285
 20
95.1655851144
 30
0.0
 10
64.4691260371
 20
95.0988113685
 30
0.0
 10
64.4823857077
 20
95.030894739
 30
0.0
 10
64.4844005946
 20
94.9625003294
 30
0.0
 10
64.4751414283
 20
94.8943282651
 30
0.0
 10
64.4474520993
 20
94.8029739844
 30
0.0
 10
64.3830162244
 20
94.6915031273
 30
0.0
 10
64.2673265572
 20
94.5729433803
 30
0.0
 10
64.171647766
 20
94.5074420734
 30
0.0
 10
64.119087326
 20
94.4770964737
 30
0.0
  0
SPLINE
  5
434
100
AcDbEntity
  8
0
100
AcDbSpline
 62
7
  6
CONTINUOUS
 70
0
 71
3
 72
9
 73
5
 74
0
 42
0.0000001
 43
0.0000001
 44
0.0000000001
 40
0.0
 40
0.0
 40
0.0
 40
0.0
 40
0.2446743965
 40
1.0
 40
1.0
 40
1.0
 40
1.0
 10
64.119087326
 20
94.4770964737
 30
0.0
 10
64.1101283525
 20
94.4719240394
 30
0.0
 10
64.0732333697
 20
94.451269463
 30
0.0
 10
64.0352766147
 20
94.4325249215
 30
0.0
 10
64.0061734167
 20
94.4193767293
 30
0.0
  0
SPLINE
  5
435
100
AcDbEntity
  8
0
100
AcDbSpline
 62
7
  6
CONTINUOUS
 70
0
 71
3
 72
26
 73
22
 74
0
 42
0.0000001
 43
0.0000001
 44
0.0000000001
 40
0.0
 40
0.0
 40
0.0
 40
0.0
 40
0.069993067
 40
0.1442799112
 40
0.2212857582
 40
0.2992449088
 40
0.3763158745
 40
0.4507232855
 40
0.5208921519
 40
0.5856077837
 40
0.6442029898
 40
0.6967939486
 40
0.7212125776
 40
0.744662501
 40
0.767468475
 40
0.7900042805
 40
0.8126686497
 40
0.8358489428
 40
0.8849519084
 40
0.9394071086
 40
1.0
 40
1.0
 40
1.0
 40
1.0
 10
64.0061734167
 20
94.4193767293
 30
0.0
 10
63.9422839708
 20
94.3905128668
 30
0.0
 10
63.8060070292
 20
94.3408577977
 30
0.0
 10
63.5894477036
 20
94.2914475062
 30
0.0
 10
63.360745182
 20
94.2660795714
 30
0.0
 10
63.1278828444
 20
94.2656368025
 30
0.0
 10
62.898911048
 20
94.2901388552
 30
0.0
 10
62.6817566118
 20
94.3387394452
 30
0.0
 10
62.4838821308
 20
94.4097847176
 30
0.0
 10
62.3119889814
 20
94.5009919791
 30
0.0
 10
62.1719045984
 20
94.6094720741
 30
0.0
 10
62.0835969827
 20
94.714597133
 30
0.0
 10
62.0356416539
 20
94.8034072188
 30
0.0
 10
62.0113249453
 20
94.8701809647
 30
0.0
 10
61.9980652747
 20
94.9380975941
 30
0.0
 10
61.9960503878
 20
95.0064920037
 30
0.0
 10
62.0053095541
 20
95.0746640681
 30
0.0
 10
62.0329988831
 20
95.1660183488
 30
0.0
 10
62.097434758
 20
95.2774892058
 30
0.0
 10
62.2131244252
 20
95.3960489529
 30
0.0
 10
62.3088032164
 20
95.4615502597
 30
0.0
 10
62.3613636564
 20
95.4918958594
 30
0.0
  0
SPLINE
  5
436
100
AcDbEntity
  8
0
100
AcDbSpline
 62
7
  6
CONTINUOUS
 70
0
 71
3
 72
9
 73
5
 74
0
 42
0.0000001
 43
0.0000001
 44
0.0000000001
 40
0.0
 40
0.0
 40
0.0
 40
0.0
 40
0.2632652739
 40
1.0
 40
1.0
 40
1.0
 40
1.0
 10
63.9650129595
 20
94.5660493932
 30
0.0
 10
63.9800087976
 20
94.5747071925
 30
0.0
 10
64.0360581056
 20
94.60910594
 30
0.0
 10
64.0883814099
 20
94.6498858557
 30
0.0
 10
64.1230160075
 20
94.6837758385
 30
0.0
  0
SPLINE
  5
437
100
AcDbEntity
  8
0
100
AcDbSpline
 62
7
  6
CONTINUOUS
 70
0
 71
3
 72
23
 73
19
 74
0
 42
0.0000001
 43
0.0000001
 44
0.0000000001
 40
0.0
 40
0.0
 40
0.0
 40
0.0
 40
0.0523221034
 40
0.0999924366
 40
0.1450378849
 40
0.1902244741
 40
0.2382616441
 40
0.2911063896
 40
0.3497068738
 40
0.4141211175
 40
0.4837332086
 40
0.5574490884
 40
0.6338553672
 40
0.7113485178
 40
0.7882582877
 40
0.8629423749
 40
0.9339333826
 40
1.0
 40
1.0
 40
1.0
 40
1.0
 10
64.1230160075
 20
94.6837758385
 30
0.0
 10
64.152741866
 20
94.7128626158
 30
0.0
 10
64.2044293065
 20
94.7742808666
 30
0.0
 10
64.2548590174
 20
94.879563268
 30
0.0
 10
64.2710112818
 20
94.9898392833
 30
0.0
 10
64.2514520812
 20
95.0998264562
 30
0.0
 10
64.1978661937
 20
95.204456846
 30
0.0
 10
64.1134823314
 20
95.3004468041
 30
0.0
 10
64.001574949
 20
95.3854585203
 30
0.0
 10
63.8657323997
 20
95.4573141362
 30
0.0
 10
63.7101568312
 20
95.5139852619
 30
0.0
 10
63.5396991936
 20
95.5537703616
 30
0.0
 10
63.3597325295
 20
95.5754314389
 30
0.0
 10
63.1759629871
 20
95.5782901582
 30
0.0
 10
62.9942437078
 20
95.5622456281
 30
0.0
 10
62.8203172426
 20
95.5278181178
 30
0.0
 10
62.6597521813
 20
95.4760835267
 30
0.0
 10
62.5609168698
 20
95.4292000071
 30
0.0
 10
62.5154380229
 20
95.40294294
 30
0.0
  0
SPLINE
  5
438
100
AcDbEntity
  8
0
100
AcDbSpline
 62
7
  6
CONTINUOUS
 70
0
 71
3
 72
9
 73
5
 74
0
 42
0.0000001
 43
0.0000001
 44
0.0000000001
 40
0.0
 40
0.0
 40
0.0
 40
0.0
 40
0.2632652739
 40
1.0
 40
1.0
 40
1.0
 40
1.0
 10
62.5154380229
 20
95.40294294
 30
0.0
 10
62.5004421848
 20
95.3942851407
 30
0.0
 10
62.4443928768
 20
95.3598863931
 30
0.0
 10
62.3920695725
 20
95.3191064774
 30
0.0
 10
62.3574349748
 20
95.2852164947
 30
0.0
  0
SPLINE
  5
439
100
AcDbEntity
  8
0
100
AcDbSpline
 62
7
  6
CONTINUOUS
 70
0
 71
3
 72
23
 73
19
 74
0
 42
0.0000001
 43
0.0000001
 44
0.0000000001
 40
0.0
 40
0.0
 40
0.0
 40
0.0
 40
0.0523221034
 40
0.0999924366
 40
0.1450378849
 40
0.1902244741
 40
0.2382616441
 40
0.2911063896
 40
0.3497068738
 40
0.4141211175
 40
0.4837332086
 40
0.5574490884
 40
0.6338553672
 40
0.7113485178
 40
0.7882582877
 40
0.8629423749
 40
0.9339333826
 40
1.0
 40
1.0
 40
1.0
 40
1.0
 10
62.3574349748
 20
95.2852164947
 30
0.0
 10
62.3277091164
 20
95.2561297174
 30
0.0
 10
62.2760216759
 20
95.1947114666
 30
0.0
 10
62.225591965
 20
95.0894290651
 30
0.0
 10
62.2094397006
 20
94.9791530498
 30
0.0
 10
62.2289989012
 20
94.8691658769
 30
0.0
 10
62.2825847887
 20
94.7645354871
 30
0.0
 10
62.3669686509
 20
94.6685455291
 30
0.0
 10
62.4788760334
 20
94.5835338129
 30
0.0
 10
62.6147185826
 20
94.511678197
 30
0.0
 10
62.7702941512
 20
94.4550070712
 30
0.0
 10
62.9407517888
 20
94.4152219716
 30
0.0
 10
63.1207184529
 20
94.3935608942
 30
0.0
 10
63.3044879953
 20
94.390702175
 30
0.0
 10
63.4862072746
 20
94.4067467051
 30
0.0
 10
63.6601337398
 20
94.4411742154
 30
0.0
 10
63.8206988011
 20
94.4929088064
 30
0.0
 10
63.9195341126
 20
94.5397923261
 30
0.0
 10
63.9650129595
 20
94.5660493932
 30
0.0
  0
SPLINE
  5
43A
100
AcDbEntity
  8
0
100
AcDbSpline
 62
7
  6
CONTINUOUS
 70
0
 71
3
 72
11
 73
7
 74
0
 42
0.0000001
 43
0.0000001
 44
0.0000000001
 40
0.0
 40
0.0
 40
0.0
 40
0.0
 40
0.2178616687
 40
0.4524915051
 40
0.7121628673
 40
1.0
 40
1.0
 40
1.0
 40
1.0
 10
27.2922783644
 20
124.0060385179
 30
0.0
 10
27.2939078473
 20
124.0239245615
 30
0.0
 10
27.3034675575
 20
124.0606990303
 30
0.0
 10
27.3341996458
 20
124.1114786166
 30
0.0
 10
27.379978781
 20
124.1575641022
 30
0.0
 10
27.417483554
 20
124.183132026
 30
0.0
 10
27.4380332978
 20
124.1949963553
 30
0.0
  0
SPLINE
  5
43B
100
AcDbEntity
  8
0
100
AcDbSpline
 62
7
  6
CONTINUOUS
 70
0
 71
3
 72
10
 73
6
 74
0
 42
0.0000001
 43
0.0000001
 44
0.0000000001
 40
0.0
 40
0.0
 40
0.0
 40
0.0
 40
0.2282827322
 40
0.4751676619
 40
1.0
 40
1.0
 40
1.0
 40
1.0
 10
27.4380332978
 20
124.1949963553
 30
0.0
 10
27.4633835875
 20
124.2096322645
 30
0.0
 10
27.5190229141
 20
124.2352674446
 30
0.0
 10
27.6423066253
 20
124.2714771751
 30
0.0
 10
27.7421518734
 20
124.280750465
 30
0.0
 10
27.8094351071
 20
124.279363036
 30
0.0
  0
SPLINE
  5
43C
100
AcDbEntity
  8
0
100
AcDbSpline
 62
7
  6
CONTINUOUS
 70
0
 71
3
 72
9
 73
5
 74
0
 42
0.0000001
 43
0.0000001
 44
0.0000000001
 40
0.0
 40
0.0
 40
0.0
 40
0.0
 40
0.2411879821
 40
1.0
 40
1.0
 40
1.0
 40
1.0
 10
28.7070730618
 20
122.3892420174
 30
0.0
 10
28.7124826547
 20
122.3937177348
 30
0.0
 10
28.7353436005
 20
122.4117504018
 30
0.0
 10
28.7598030578
 20
122.4277218631
 30
0.0
 10
28.778933038
 20
122.4387664964
 30
0.0
  0
SPLINE
  5
43D
100
AcDbEntity
  8
0
100
AcDbSpline
 62
7
  6
CONTINUOUS
 70
0
 71
3
 72
15
 73
11
 74
0
 42
0.0000001
 43
0.0000001
 44
0.0000000001
 40
0.0
 40
0.0
 40
0.0
 40
0.0
 40
0.1184458305
 40
0.2473368898
 40
0.3827920645
 40
0.5201600701
 40
0.6545793033
 40
0.7815144563
 40
0.8973327438
 40
1.0
 40
1.0
 40
1.0
 40
1.0
 10
28.778933038
 20
122.4387664964
 30
0.0
 10
28.8154992118
 20
122.4598778606
 30
0.0
 10
28.8965336424
 20
122.4960490812
 30
0.0
 10
29.0288763116
 20
122.5311199527
 30
0.0
 10
29.1715253869
 20
122.5480776147
 30
0.0
 10
29.3171019831
 20
122.546020067
 30
0.0
 10
29.4581326532
 20
122.5250737485
 30
0.0
 10
29.5874358967
 20
122.4862579998
 30
0.0
 10
29.6984275741
 20
122.4315535966
 30
0.0
 10
29.7604284955
 20
122.3829465998
 30
0.0
 10
29.7857132984
 20
122.3564869843
 30
0.0
  0
SPLINE
  5
43E
100
AcDbEntity
  8
0
100
AcDbSpline
 62
7
  6
CONTINUOUS
 70
0
 71
3
 72
9
 73
5
 74
0
 42
0.0000001
 43
0.0000001
 44
0.0000000001
 40
0.0
 40
0.0
 40
0.0
 40
0.0
 40
0.5254671288
 40
1.0
 40
1.0
 40
1.0
 40
1.0
 10
30.3448773943
 20
122.3395067525
 30
0.0
 10
30.3605292356
 20
122.3390315353
 30
0.0
 10
30.3905031675
 20
122.3415939088
 30
0.0
 10
30.4191366249
 20
122.351603046
 30
0.0
 10
30.4313832816
 20
122.3586736143
 30
0.0
  0
SPLINE
  5
43F
100
AcDbEntity
  8
0
100
AcDbSpline
 62
7
  6
CONTINUOUS
 70
0
 71
3
 72
11
 73
7
 74
0
 42
0.0000001
 43
0.0000001
 44
0.0000000001
 40
0.0
 40
0.0
 40
0.0
 40
0.0
 40
0.288074093
 40
0.5478375817
 40
0.7821173077
 40
1.0
 40
1.0
 40
1.0
 40
1.0
 10
30.4313832816
 20
122.3586736143
 30
0.0
 10
30.4361028397
 20
122.3613984362
 30
0.0
 10
30.4447078398
 20
122.3672798505
 30
0.0
 10
30.4551992501
 20
122.3778701243
 30
0.0
 10
30.4621727666
 20
122.3895815005
 30
0.0
 10
30.4642459309
 20
122.3980349487
 30
0.0
 10
30.4646199586
 20
122.4021397592
 30
0.0
  0
SPLINE
  5
440
100
AcDbEntity
  8
0
100
AcDbSpline
 62
7
  6
CONTINUOUS
 70
0
 71
3
 72
9
 73
5
 74
0
 42
0.0000001
 43
0.0000001
 44
0.0000000001
 40
0.0
 40
0.0
 40
0.0
 40
0.0
 40
0.2388160215
 40
1.0
 40
1.0
 40
1.0
 40
1.0
 10
30.408207667
 20
123.2854074471
 30
0.0
 10
30.418930839
 20
123.2915984365
 30
0.0
 10
30.4646328596
 20
123.3161286041
 30
0.0
 10
30.5131217246
 20
123.3353052205
 30
0.0
 10
30.5507257447
 20
123.3472830091
 30
0.0
  0
SPLINE
  5
441
100
AcDbEntity
  8
0
100
AcDbSpline
 62
7
  6
CONTINUOUS
 70
0
 71
3
 72
13
 73
9
 74
0
 42
0.0000001
 43
0.0000001
 44
0.0000000001
 40
0.0
 40
0.0
 40
0.0
 40
0.0
 40
0.2982119524
 40
0.4343422375
 40
0.5614707633
 40
0.7908042925
 40
0.8968452149
 40
1.0
 40
1.0
 40
1.0
 40
1.0
 10
28.1263138973
 20
123.4209051431
 30
0.0
 10
28.1658861525
 20
123.4049625462
 30
0.0
 10
28.2219087098
 20
123.3768565509
 30
0.0
 10
28.2867448527
 20
123.3291115498
 30
0.0
 10
28.337870532
 20
123.2804801891
 30
0.0
 10
28.3760040066
 20
123.2246004295
 30
0.0
 10
28.3952345697
 20
123.1645028839
 30
0.0
 10
28.3984066395
 20
123.1344833835
 30
0.0
 10
28.3984058142
 20
123.1197257912
 30
0.0
  0
SPLINE
  5
442
100
AcDbEntity
  8
0
100
AcDbSpline
 62
7
  6
CONTINUOUS
 70
0
 71
3
 72
11
 73
7
 74
0
 42
0.0000001
 43
0.0000001
 44
0.0000000001
 40
0.0
 40
0.0
 40
0.0
 40
0.0
 40
0.2177740838
 40
0.4509362765
 40
0.7102176099
 40
1.0
 40
1.0
 40
1.0
 40
1.0
 10
30.2218996354
 20
123.0257180331
 30
0.0
 10
30.2219009901
 20
123.0499458418
 30
0.0
 10
30.2308430866
 20
123.1004515494
 30
0.0
 10
30.2691353583
 20
123.1708013844
 30
0.0
 10
30.3296414084
 20
123.2344211256
 30
0.0
 10
30.3802879372
 20
123.2692880799
 30
0.0
 10
30.408207667
 20
123.2854074471
 30
0.0
  0
SPLINE
  5
443
100
AcDbEntity
  8
0
100
AcDbSpline
 62
7
  6
CONTINUOUS
 70
0
 71
3
 72
13
 73
9
 74
0
 42
0.0000001
 43
0.0000001
 44
0.0000000001
 40
0.0
 40
0.0
 40
0.0
 40
0.0
 40
0.0916038849
 40
0.1893272679
 40
0.2973620112
 40
0.4177861053
 40
0.693039698
 40
1.0
 40
1.0
 40
1.0
 40
1.0
 10
28.040013446
 20
122.4718800061
 30
0.0
 10
28.0400171818
 20
122.4676887984
 30
0.0
 10
28.0415052694
 20
122.4589717515
 30
0.0
 10
28.0478993319
 20
122.4467622521
 30
0.0
 10
28.0580516264
 20
122.4356412098
 30
0.0
 10
28.0768485466
 20
122.4220920309
 30
0.0
 10
28.1072505424
 20
122.4102547791
 30
0.0
 10
28.1338709102
 20
122.406648457
 30
0.0
 10
28.147908982
 20
122.4062220892
 30
0.0
  0
SPLINE
  5
444
100
AcDbEntity
  8
0
100
AcDbSpline
 62
7
  6
CONTINUOUS
 70
0
 71
3
 72
9
 73
5
 74
0
 42
0.0000001
 43
0.0000001
 44
0.0000000001
 40
0.0
 40
0.0
 40
0.0
 40
0.0
 40
0.2388160215
 40
1.0
 40
1.0
 40
1.0
 40
1.0
 10
28.2120977826
 20
122.8600363772
 30
0.0
 10
28.2013746105
 20
122.8538453879
 30
0.0
 10
28.15567259
 20
122.8293152203
 30
0.0
 10
28.107183725
 20
122.8101386039
 30
0.0
 10
28.0695797049
 20
122.7981608152
 30
0.0
  0
SPLINE
  5
445
100
AcDbEntity
  8
0
100
AcDbSpline
 62
7
  6
CONTINUOUS
 70
0
 71
3
 72
13
 73
9
 74
0
 42
0.0000001
 43
0.0000001
 44
0.0000000001
 40
0.0
 40
0.0
 40
0.0
 40
0.0
 40
0.2982119524
 40
0.4343422375
 40
0.5614707633
 40
0.7908042925
 40
0.8968452149
 40
1.0
 40
1.0
 40
1.0
 40
1.0
 10
30.4939915523
 20
122.7245386813
 30
0.0
 10
30.4544192971
 20
122.7404812781
 30
0.0
 10
30.3983967398
 20
122.7685872735
 30
0.0
 10
30.3335605969
 20
122.8163322745
 30
0.0
 10
30.2824349176
 20
122.8649636352
 30
0.0
 10
30.244301443
 20
122.9208433948
 30
0.0
 10
30.2250708798
 20
122.9809409404
 30
0.0
 10
30.2218988101
 20
123.0109604408
 30
0.0
 10
30.2218996354
 20
123.0257180331
 30
0.0
  0
SPLINE
  5
446
100
AcDbEntity
  8
0
100
AcDbSpline
 62
7
  6
CONTINUOUS
 70
0
 71
3
 72
11
 73
7
 74
0
 42
0.0000001
 43
0.0000001
 44
0.0000000001
 40
0.0
 40
0.0
 40
0.0
 40
0.0
 40
0.2582485629
 40
0.5095745251
 40
0.7560251764
 40
1.0
 40
1.0
 40
1.0
 40
1.0
 10
31.6010079823
 20
123.9212938529
 30
0.0
 10
31.5497559363
 20
123.8210055602
 30
0.0
 10
31.4589790323
 20
123.6175789419
 30
0.0
 10
31.3595542198
 20
123.3024445288
 30
0.0
 10
31.2996268125
 20
122.9837731516
 30
0.0
 10
31.2862593307
 20
122.7696602128
 30
0.0
 10
31.2862582247
 20
122.6632596284
 30
0.0
  0
SPLINE
  5
447
100
AcDbEntity
  8
0
100
AcDbSpline
 62
7
  6
CONTINUOUS
 70
0
 71
3
 72
9
 73
5
 74
0
 42
0.0000001
 43
0.0000001
 44
0.0000000001
 40
0.0
 40
0.0
 40
0.0
 40
0.0
 40
0.2411879821
 40
1.0
 40
1.0
 40
1.0
 40
1.0
 10
29.9132323878
 20
123.7562018069
 30
0.0
 10
29.9078227949
 20
123.7517260895
 30
0.0
 10
29.8849618491
 20
123.7336934225
 30
0.0
 10
29.8605023917
 20
123.7177219612
 30
0.0
 10
29.8413724116
 20
123.7066773279
 30
0.0
  0
SPLINE
  5
448
100
AcDbEntity
  8
0
100
AcDbSpline
 62
7
  6
CONTINUOUS
 70
0
 71
3
 72
15
 73
11
 74
0
 42
0.0000001
 43
0.0000001
 44
0.0000000001
 40
0.0
 40
0.0
 40
0.0
 40
0.0
 40
0.1184458305
 40
0.2473368898
 40
0.3827920645
 40
0.5201600701
 40
0.6545793033
 40
0.7815144563
 40
0.8973327438
 40
1.0
 40
1.0
 40
1.0
 40
1.0
 10
29.8413724116
 20
123.7066773279
 30
0.0
 10
29.8048062378
 20
123.6855659637
 30
0.0
 10
29.7237718072
 20
123.6493947431
 30
0.0
 10
29.591429138
 20
123.6143238716
 30
0.0
 10
29.4487800627
 20
123.5973662096
 30
0.0
 10
29.3032034665
 20
123.5994237573
 30
0.0
 10
29.1621727964
 20
123.6203700758
 30
0.0
 10
29.0328695529
 20
123.6591858245
 30
0.0
 10
28.9218778755
 20
123.7138902277
 30
0.0
 10
28.8598769541
 20
123.7624972246
 30
0.0
 10
28.8345921512
 20
123.78895684
 30
0.0
  0
SPLINE
  5
449
100
AcDbEntity
  8
0
100
AcDbSpline
 62
7
  6
CONTINUOUS
 70
0
 71
3
 72
13
 73
9
 74
0
 42
0.0000001
 43
0.0000001
 44
0.0000000001
 40
0.0
 40
0.0
 40
0.0
 40
0.0
 40
0.0916038849
 40
0.1893272679
 40
0.2973620112
 40
0.4177861053
 40
0.693039698
 40
1.0
 40
1.0
 40
1.0
 40
1.0
 10
30.5802920036
 20
123.6735638182
 30
0.0
 10
30.5802882678
 20
123.6777550259
 30
0.0
 10
30.5788001802
 20
123.6864720728
 30
0.0
 10
30.5724061177
 20
123.6986815722
 30
0.0
 10
30.5622538232
 20
123.7098026145
 30
0.0
 10
30.543456903
 20
123.7233517933
 30
0.0
 10
30.5130549072
 20
123.7351890452
 30
0.0
 10
30.4864345395
 20
123.7387953673
 30
0.0
 10
30.4723964677
 20
123.7392217351
 30
0.0
  0
SPLINE
  5
44A
100
AcDbEntity
  8
0
100
AcDbSpline
 62
7
  6
CONTINUOUS
 70
0
 71
3
 72
11
 73
7
 74
0
 42
0.0000001
 43
0.0000001
 44
0.0000000001
 40
0.0
 40
0.0
 40
0.0
 40
0.0
 40
0.2177740838
 40
0.4509362765
 40
0.7102176099
 40
1.0
 40
1.0
 40
1.0
 40
1.0
 10
28.3984058142
 20
123.1197257912
 30
0.0
 10
28.3984044594
 20
123.0954979826
 30
0.0
 10
28.389462363
 20
123.0449922749
 30
0.0
 10
28.3511700913
 20
122.9746424399
 30
0.0
 10
28.2906640412
 20
122.9110226987
 30
0.0
 10
28.2400175124
 20
122.8761557445
 30
0.0
 10
28.2120977826
 20
122.8600363772
 30
0.0
  0
SPLINE
  5
44B
100
AcDbEntity
  8
0
100
AcDbSpline
 62
7
  6
CONTINUOUS
 70
0
 71
3
 72
9
 73
5
 74
0
 42
0.0000001
 43
0.0000001
 44
0.0000000001
 40
0.0
 40
0.0
 40
0.0
 40
0.0
 40
0.5254671288
 40
1.0
 40
1.0
 40
1.0
 40
1.0
 10
28.2754280553
 20
123.8059370718
 30
0.0
 10
28.2597762141
 20
123.806412289
 30
0.0
 10
28.2298022821
 20
123.8038499155
 30
0.0
 10
28.2011688247
 20
123.7938407783
 30
0.0
 10
28.188922168
 20
123.78677021
 30
0.0
  0
SPLINE
  5
44C
100
AcDbEntity
  8
0
100
AcDbSpline
 62
7
  6
CONTINUOUS
 70
0
 71
3
 72
11
 73
7
 74
0
 42
0.0000001
 43
0.0000001
 44
0.0000000001
 40
0.0
 40
0.0
 40
0.0
 40
0.0
 40
0.288074093
 40
0.5478375817
 40
0.7821173077
 40
1.0
 40
1.0
 40
1.0
 40
1.0
 10
28.188922168
 20
123.78677021
 30
0.0
 10
28.1842026099
 20
123.7840453881
 30
0.0
 10
28.1755976098
 20
123.7781639738
 30
0.0
 10
28.1651061995
 20
123.7675737
 30
0.0
 10
28.158132683
 20
123.7558623238
 30
0.0
 10
28.1560595187
 20
123.7474088756
 30
0.0
 10
28.155685491
 20
123.7433040651
 30
0.0
  0
SPLINE
  5
44D
100
AcDbEntity
  8
0
100
AcDbSpline
 62
7
  6
CONTINUOUS
 70
0
 71
3
 72
9
 73
5
 74
0
 42
0.0000001
 43
0.0000001
 44
0.0000000001
 40
0.0
 40
0.0
 40
0.0
 40
0.0
 40
0.5147429881
 40
1.0
 40
1.0
 40
1.0
 40
1.0
 10
27.2889175216
 20
125.5208432781
 30
0.0
 10
26.8329226613
 20
125.328828997
 30
0.0
 10
25.9636334637
 20
124.9146694362
 30
0.0
 10
25.1420140443
 20
124.4112813905
 30
0.0
 10
24.7601438393
 20
124.1434504515
 30
0.0
  0
SPLINE
  5
44E
100
AcDbEntity
  8
0
100
AcDbSpline
 62
7
  6
CONTINUOUS
 70
0
 71
3
 72
11
 73
7
 74
0
 42
0.0000001
 43
0.0000001
 44
0.0000000001
 40
0.0
 40
0.0
 40
0.0
 40
0.0
 40
0.2891944443
 40
0.5494142452
 40
0.7835939827
 40
1.0
 40
1.0
 40
1.0
 40
1.0
 10
24.7601438393
 20
124.1434504515
 30
0.0
 10
24.6654070643
 20
124.0770056613
 30
0.0
 10
24.4942192301
 20
123.937142739
 30
0.0
 10
24.29159973
 20
123.6948715008
 30
0.0
 10
24.163869747
 20
123.4372402808
 30
0.0
 10
24.1333812214
 20
123.2560296248
 30
0.0
 10
24.1333741597
 20
123.1694393468
 30
0.0
  0
SPLINE
  5
44F
100
AcDbEntity
  8
0
100
AcDbSpline
 62
7
  6
CONTINUOUS
 70
0
 71
3
 72
9
 73
5
 74
0
 42
0.0000001
 43
0.0000001
 44
0.0000000001
 40
0.0
 40
0.0
 40
0.0
 40
0.0
 40
0.5370487854
 40
1.0
 40
1.0
 40
1.0
 40
1.0
 10
27.5279338473
 20
122.1781831132
 30
0.0
 10
27.4606383676
 20
122.1754132613
 30
0.0
 10
27.3343820182
 20
122.1843032867
 30
0.0
 10
27.2134744232
 20
122.2276599522
 30
0.0
 10
27.1646337974
 20
122.2590530159
 30
0.0
  0
SPLINE
  5
450
100
AcDbEntity
  8
0
100
AcDbSpline
 62
7
  6
CONTINUOUS
 70
0
 71
3
 72
11
 73
7
 74
0
 42
0.0000001
 43
0.0000001
 44
0.0000000001
 40
0.0
 40
0.0
 40
0.0
 40
0.0
 40
0.2812371951
 40
0.5365690934
 40
0.7724227207
 40
1.0
 40
1.0
 40
1.0
 40
1.0
 10
27.1646337974
 20
122.2590530159
 30
0.0
 10
27.1478316041
 20
122.2698528842
 30
0.0
 10
27.1173749771
 20
122.2931968673
 30
0.0
 10
27.0814867511
 20
122.3353436541
 30
0.0
 10
27.0591879489
 20
122.3819783647
 30
0.0
 10
27.0542062441
 20
122.4150991744
 30
0.0
 10
27.0541994042
 20
122.4312619449
 30
0.0
  0
SPLINE
  5
451
100
AcDbEntity
  8
0
100
AcDbSpline
 62
7
  6
CONTINUOUS
 70
0
 71
3
 72
9
 73
5
 74
0
 42
0.0000001
 43
0.0000001
 44
0.0000000001
 40
0.0
 40
0.0
 40
0.0
 40
0.0
 40
0.2416113544
 40
1.0
 40
1.0
 40
1.0
 40
1.0
 10
24.7509963319
 20
115.171669998
 30
0.0
 10
24.8588554304
 20
115.0942726283
 30
0.0
 10
25.3121961367
 20
114.7836267753
 30
0.0
 10
25.7911348799
 20
114.5109268244
 30
0.0
 10
26.1634076073
 20
114.3237000275
 30
0.0
  0
SPLINE
  5
452
100
AcDbEntity
  8
0
100
AcDbSpline
 62
7
  6
CONTINUOUS
 70
0
 71
3
 72
9
 73
5
 74
0
 42
0.0000001
 43
0.0000001
 44
0.0000000001
 40
0.0
 40
0.0
 40
0.0
 40
0.0
 40
0.4869300171
 40
1.0
 40
1.0
 40
1.0
 40
1.0
 10
26.1634076073
 20
114.3237000275
 30
0.0
 10
25.6942744292
 20
114.5232422456
 30
0.0
 10
24.7033977599
 20
114.8701911295
 30
0.0
 10
23.6806730432
 20
115.1041505904
 30
0.0
 10
23.1516512307
 20
115.1973859191
 30
0.0
  0
SPLINE
  5
453
100
AcDbEntity
  8
0
100
AcDbSpline
 62
7
  6
CONTINUOUS
 70
0
 71
3
 72
11
 73
7
 74
0
 42
0.0000001
 43
0.0000001
 44
0.0000000001
 40
0.0
 40
0.0
 40
0.0
 40
0.0
 40
0.2247092874
 40
0.4609650257
 40
0.7177660681
 40
1.0
 40
1.0
 40
1.0
 40
1.0
 10
24.1333775526
 20
116.1040806376
 30
0.0
 10
24.1333715788
 20
116.0271940137
 30
0.0
 10
24.1567827135
 20
115.8686564998
 30
0.0
 10
24.2587342041
 20
115.6423686454
 30
0.0
 10
24.4227258137
 20
115.4312781276
 30
0.0
 10
24.5628970386
 20
115.3096995476
 30
0.0
 10
24.6404992567
 20
115.2522232766
 30
0.0
  0
SPLINE
  5
454
100
AcDbEntity
  8
0
100
AcDbSpline
 62
7
  6
CONTINUOUS
 70
0
 71
3
 72
9
 73
5
 74
0
 42
0.0000001
 43
0.0000001
 44
0.0000000001
 40
0.0
 40
0.0
 40
0.0
 40
0.0
 40
0.4824244727
 40
1.0
 40
1.0
 40
1.0
 40
1.0
 10
24.7509505079
 20
122.2855503079
 30
0.0
 10
25.0892085377
 20
122.0681168322
 30
0.0
 10
25.8234064013
 20
121.6678040965
 30
0.0
 10
26.5992112616
 20
121.3580318066
 30
0.0
 10
27.0074450186
 20
121.2185224685
 30
0.0
  0
SPLINE
  5
455
100
AcDbEntity
  8
0
100
AcDbSpline
 62
7
  6
CONTINUOUS
 70
0
 71
3
 72
11
 73
7
 74
0
 42
0.0000001
 43
0.0000001
 44
0.0000000001
 40
0.0
 40
0.0
 40
0.0
 40
0.0
 40
0.2284327618
 40
0.4647854311
 40
0.7197844541
 40
1.0
 40
1.0
 40
1.0
 40
1.0
 10
24.1333741597
 20
123.1694393468
 30
0.0
 10
24.1333679781
 20
123.0936417422
 30
0.0
 10
24.1562040587
 20
122.9384817817
 30
0.0
 10
24.2583224709
 20
122.7193942136
 30
0.0
 10
24.4228858302
 20
122.5203125701
 30
0.0
 10
24.5631300646
 20
122.4093604792
 30
0.0
 10
24.64052754
 20
122.3578347355
 30
0.0
  0
SPLINE
  5
456
100
AcDbEntity
  8
0
100
AcDbSpline
 62
7
  6
CONTINUOUS
 70
0
 71
3
 72
9
 73
5
 74
0
 42
0.0000001
 43
0.0000001
 44
0.0000000001
 40
0.0
 40
0.0
 40
0.0
 40
0.0
 40
0.2661139372
 40
1.0
 40
1.0
 40
1.0
 40
1.0
 10
55.9797621988
 20
44.0219271686
 30
0.0
 10
55.9468786843
 20
44.00807541
 30
0.0
 10
55.8216145967
 20
43.9603885602
 30
0.0
 10
55.6885445006
 20
43.9312728974
 30
0.0
 10
55.5903137207
 20
43.9254519089
 30
0.0
  0
SPLINE
  5
457
100
AcDbEntity
  8
0
100
AcDbSpline
 62
7
  6
CONTINUOUS
 70
0
 71
3
 72
11
 73
7
 74
0
 42
0.0000001
 43
0.0000001
 44
0.0000000001
 40
0.0
 40
0.0
 40
0.0
 40
0.0
 40
0.2277296783
 40
0.4753716505
 40
0.7356886132
 40
1.0
 40
1.0
 40
1.0
 40
1.0
 10
56.8763339382
 20
50.5261308599
 30
0.0
 10
56.7855184856
 20
50.4736988469
 30
0.0
 10
56.6070143082
 20
50.3446192679
 30
0.0
 10
56.3666731082
 20
50.1042823527
 30
0.0
 10
56.1519290563
 20
49.8195139287
 30
0.0
 10
56.0325460622
 20
49.6085551314
 30
0.0
 10
55.9797621988
 20
49.498887077
 30
0.0
  0
SPLINE
  5
458
100
AcDbEntity
  8
0
100
AcDbSpline
 62
7
  6
CONTINUOUS
 70
0
 71
3
 72
15
 73
11
 74
0
 42
0.0000001
 43
0.0000001
 44
0.0000000001
 40
0.0
 40
0.0
 40
0.0
 40
0.0
 40
0.1528306187
 40
0.300923739
 40
0.4417570683
 40
0.5735187835
 40
0.6949267673
 40
0.8056347874
 40
0.9065743839
 40
1.0
 40
1.0
 40
1.0
 40
1.0
 10
55.9797621988
 20
49.498887077
 30
0.0
 10
55.9424430318
 20
49.4213497356
 30
0.0
 10
55.876131285
 20
49.2650906372
 30
0.0
 10
55.8020115332
 20
49.0272178027
 30
0.0
 10
55.7562282796
 20
48.7942934074
 30
0.0
 10
55.7399583562
 20
48.5724241359
 30
0.0
 10
55.7537970912
 20
48.3672228041
 30
0.0
 10
55.7976746242
 20
48.1837912998
 30
0.0
 10
55.871091805
 20
48.0270232215
 30
0.0
 10
55.9411075661
 20
47.9409789725
 30
0.0
 10
55.9797621988
 20
47.9053012175
 30
0.0
  0
SPLINE
  5
459
100
AcDbEntity
  8
0
100
AcDbSpline
 62
7
  6
CONTINUOUS
 70
0
 71
3
 72
11
 73
7
 74
0
 42
0.0000001
 43
0.0000001
 44
0.0000000001
 40
0.0
 40
0.0
 40
0.0
 40
0.0
 40
0.289777178
 40
0.5490714024
 40
0.7822268829
 40
1.0
 40
1.0
 40
1.0
 40
1.0
 10
56.8763339382
 20
46.9743453454
 30
0.0
 10
56.8763339382
 20
46.9236638622
 30
0.0
 10
56.8839971072
 20
46.8273026465
 30
0.0
 10
56.9230493973
 20
46.6949151616
 30
0.0
 10
56.9887373725
 20
46.5874887708
 30
0.0
 10
57.050464479
 20
46.5356092959
 30
0.0
 10
57.0834499342
 20
46.5165655636
 30
0.0
  0
SPLINE
  5
45A
100
AcDbEntity
  8
0
100
AcDbSpline
 62
7
  6
CONTINUOUS
 70
0
 71
3
 72
15
 73
11
 74
0
 42
0.0000001
 43
0.0000001
 44
0.0000000001
 40
0.0
 40
0.0
 40
0.0
 40
0.0
 40
0.1141462769
 40
0.2373347432
 40
0.3669750849
 40
0.4999983967
 40
0.6330219315
 40
0.7626629244
 40
0.8858524171
 40
1.0
 40
1.0
 40
1.0
 40
1.0
 10
57.5834377754
 20
52.6898552106
 30
0.0
 10
57.5350343339
 20
52.6619096375
 30
0.0
 10
57.4394223576
 20
52.5948786089
 30
0.0
 10
57.3078576027
 20
52.4718036545
 30
0.0
 10
57.1866287183
 20
52.3262990036
 30
0.0
 10
57.0802731726
 20
52.163863129
 30
0.0
 10
56.9927780586
 20
51.9905378751
 30
0.0
 10
56.9273821951
 20
51.8127971182
 30
0.0
 10
56.8865786499
 20
51.6373197052
 30
0.0
 10
56.8763339382
 20
51.5210006756
 30
0.0
 10
56.8763339382
 20
51.4651086396
 30
0.0
  0
SPLINE
  5
45B
100
AcDbEntity
  8
0
100
AcDbSpline
 62
7
  6
CONTINUOUS
 70
0
 71
3
 72
11
 73
7
 74
0
 42
0.0000001
 43
0.0000001
 44
0.0000000001
 40
0.0
 40
0.0
 40
0.0
 40
0.0
 40
0.2177745347
 40
0.4509306045
 40
0.7102242968
 40
1.0
 40
1.0
 40
1.0
 40
1.0
 10
58.0834256165
 20
52.7393767292
 30
0.0
 10
58.0504412533
 20
52.7584198311
 30
0.0
 10
57.9746511515
 20
52.785935298
 30
0.0
 10
57.8487779722
 20
52.7891089129
 30
0.0
 10
57.7146064814
 20
52.7567368223
 30
0.0
 10
57.6273273307
 20
52.7151947059
 30
0.0
 10
57.5834377754
 20
52.6898552106
 30
0.0
  0
SPLINE
  5
45C
100
AcDbEntity
  8
0
100
AcDbSpline
 62
7
  6
CONTINUOUS
 70
0
 71
3
 72
12
 73
8
 74
0
 42
0.0000001
 43
0.0000001
 44
0.0000000001
 40
0.0
 40
0.0
 40
0.0
 40
0.0
 40
0.2895857718
 40
0.5486355659
 40
0.7816401088
 40
0.89184402
 40
1.0
 40
1.0
 40
1.0
 40
1.0
 10
52.4215603336
 20
46.2803049566
 30
0.0
 10
52.4215603336
 20
46.178931411
 30
0.0
 10
52.436918303
 20
45.9861847798
 30
0.0
 10
52.5148596516
 20
45.7215203229
 30
0.0
 10
52.6268456962
 20
45.5388990322
 30
0.0
 10
52.7399625388
 20
45.4276792167
 30
0.0
 10
52.8029966365
 20
45.3836646226
 30
0.0
 10
52.8357857418
 20
45.364733995
 30
0.0
  0
SPLINE
  5
45D
100
AcDbEntity
  8
0
100
AcDbSpline
 62
7
  6
CONTINUOUS
 70
0
 71
3
 72
9
 73
5
 74
0
 42
0.0000001
 43
0.0000001
 44
0.0000000001
 40
0.0
 40
0.0
 40
0.0
 40
0.0
 40
0.2407661808
 40
1.0
 40
1.0
 40
1.0
 40
1.0
 10
53.6463001058
 20
54.7294556159
 30
0.0
 10
53.6122433848
 20
54.7044764933
 30
0.0
 10
53.4736959316
 20
54.5967906705
 30
0.0
 10
53.3466453466
 20
54.4746004065
 30
0.0
 10
53.2568516278
 20
54.3762371926
 30
0.0
  0
SPLINE
  5
45E
100
AcDbEntity
  8
0
100
AcDbSpline
 62
7
  6
CONTINUOUS
 70
0
 71
3
 72
12
 73
8
 74
0
 42
0.0000001
 43
0.0000001
 44
0.0000000001
 40
0.0
 40
0.0
 40
0.0
 40
0.0
 40
0.2579254245
 40
0.5196281372
 40
0.7709791293
 40
0.8889615557
 40
1.0
 40
1.0
 40
1.0
 40
1.0
 10
53.2568516278
 20
54.3762371926
 30
0.0
 10
53.1302338886
 20
54.2375356451
 30
0.0
 10
52.9003710874
 20
53.9342190825
 30
0.0
 10
52.6372803317
 20
53.4358471729
 30
0.0
 10
52.4922047506
 20
52.9969012817
 30
0.0
 10
52.4322399706
 20
52.6517974192
 30
0.0
 10
52.4215603336
 20
52.4849236387
 30
0.0
 10
52.4215603336
 20
52.404073085
 30
0.0
  0
SPLINE
  5
45F
100
AcDbEntity
  8
0
100
AcDbSpline
 62
7
  6
CONTINUOUS
 70
0
 71
3
 72
10
 73
6
 74
0
 42
0.0000001
 43
0.0000001
 44
0.0000000001
 40
0.0
 40
0.0
 40
0.0
 40
0.0
 40
0.2295348066
 40
0.4754744768
 40
1.0
 40
1.0
 40
1.0
 40
1.0
 10
55.9570795196
 20
49.1380281431
 30
0.0
 10
55.9570795196
 20
49.0899803738
 30
0.0
 10
55.9495114499
 20
48.9903567542
 30
0.0
 10
55.9077770854
 20
48.7848924445
 30
0.0
 10
55.8491706906
 20
48.6329571226
 30
0.0
 10
55.8002270283
 20
48.5346721024
 30
0.0
  0
SPLINE
  5
460
100
AcDbEntity
  8
0
100
AcDbSpline
 62
7
  6
CONTINUOUS
 70
0
 71
3
 72
11
 73
7
 74
0
 42
0.0000001
 43
0.0000001
 44
0.0000000001
 40
0.0
 40
0.0
 40
0.0
 40
0.0
 40
0.289777178
 40
0.5490714024
 40
0.7822268829
 40
1.0
 40
1.0
 40
1.0
 40
1.0
 10
58.2905416126
 20
52.2815969473
 30
0.0
 10
58.2905416126
 20
52.3322784305
 30
0.0
 10
58.2828784436
 20
52.4286396463
 30
0.0
 10
58.2438261535
 20
52.5610271311
 30
0.0
 10
58.1781381783
 20
52.668453522
 30
0.0
 10
58.1164110718
 20
52.7203329968
 30
0.0
 10
58.0834256165
 20
52.7393767292
 30
0.0
  0
SPLINE
  5
461
100
AcDbEntity
  8
0
100
AcDbSpline
 62
7
  6
CONTINUOUS
 70
0
 71
3
 72
12
 73
8
 74
0
 42
0.0000001
 43
0.0000001
 44
0.0000000001
 40
0.0
 40
0.0
 40
0.0
 40
0.0
 40
0.1081559724
 40
0.2183598761
 40
0.4513644089
 40
0.7104142123
 40
1.0
 40
1.0
 40
1.0
 40
1.0
 10
55.1692478344
 20
44.0175395044
 30
0.0
 10
55.1364587318
 20
44.0364701314
 30
0.0
 10
55.0734246379
 20
44.0804847213
 30
0.0
 10
54.9603077989
 20
44.191704528
 30
0.0
 10
54.848321752
 20
44.374325814
 30
0.0
 10
54.7703803998
 20
44.6389902756
 30
0.0
 10
54.7550224265
 20
44.8317369155
 30
0.0
 10
54.7550224265
 20
44.9331104666
 30
0.0
  0
SPLINE
  5
462
100
AcDbEntity
  8
0
100
AcDbSpline
 62
7
  6
CONTINUOUS
 70
0
 71
3
 72
12
 73
8
 74
0
 42
0.0000001
 43
0.0000001
 44
0.0000000001
 40
0.0
 40
0.0
 40
0.0
 40
0.0
 40
0.1110384338
 40
0.2290208417
 40
0.4803718244
 40
0.7420745441
 40
1.0
 40
1.0
 40
1.0
 40
1.0
 10
54.7550224265
 20
51.0568785951
 30
0.0
 10
54.7550224265
 20
51.1377291411
 30
0.0
 10
54.7657020568
 20
51.3046029009
 30
0.0
 10
54.8256668326
 20
51.6497067358
 30
0.0
 10
54.970742395
 20
52.0886526163
 30
0.0
 10
55.2338331515
 20
52.5870245501
 30
0.0
 10
55.4636959662
 20
52.8903411383
 30
0.0
 10
55.5903137207
 20
53.0290427027
 30
0.0
  0
SPLINE
  5
463
100
AcDbEntity
  8
0
100
AcDbSpline
 62
7
  6
CONTINUOUS
 70
0
 71
3
 72
12
 73
8
 74
0
 42
0.0000001
 43
0.0000001
 44
0.0000000001
 40
0.0
 40
0.0
 40
0.0
 40
0.0
 40
0.1081969924
 40
0.2183911065
 40
0.4513868557
 40
0.710423376
 40
1.0
 40
1.0
 40
1.0
 40
1.0
 10
56.0763520513
 20
47.8340863661
 30
0.0
 10
56.1025902886
 20
47.8189332553
 30
0.0
 10
56.1582971912
 20
47.7928478933
 30
0.0
 10
56.2806107654
 20
47.758997027
 30
0.0
 10
56.4519086961
 20
47.754460124
 30
0.0
 10
56.6664350947
 20
47.8063226544
 30
0.0
 10
56.806105087
 20
47.872776721
 30
0.0
 10
56.8763339382
 20
47.9133231251
 30
0.0
  0
SPLINE
  5
464
100
AcDbEntity
  8
0
100
AcDbSpline
 62
7
  6
CONTINUOUS
 70
0
 71
3
 72
11
 73
7
 74
0
 42
0.0000001
 43
0.0000001
 44
0.0000000001
 40
0.0
 40
0.0
 40
0.0
 40
0.0
 40
0.2177745347
 40
0.4509306045
 40
0.7102242968
 40
1.0
 40
1.0
 40
1.0
 40
1.0
 10
57.0834499342
 20
46.5165655636
 30
0.0
 10
57.1164342975
 20
46.4975224617
 30
0.0
 10
57.1922243993
 20
46.4700069948
 30
0.0
 10
57.3180975786
 20
46.4668333799
 30
0.0
 10
57.4522690694
 20
46.4992054704
 30
0.0
 10
57.5395482201
 20
46.5407475868
 30
0.0
 10
57.5834377754
 20
46.5660870821
 30
0.0
  0
SPLINE
  5
465
100
AcDbEntity
  8
0
100
AcDbSpline
 62
7
  6
CONTINUOUS
 70
0
 71
3
 72
9
 73
5
 74
0
 42
0.0000001
 43
0.0000001
 44
0.0000000001
 40
0.0
 40
0.0
 40
0.0
 40
0.0
 40
0.2588362163
 40
1.0
 40
1.0
 40
1.0
 40
1.0
 10
55.5903137207
 20
53.0290427027
 30
0.0
 10
55.6209246346
 20
53.0625749799
 30
0.0
 10
55.7420666207
 20
53.1894334301
 30
0.0
 10
55.8749281456
 20
53.3053699108
 30
0.0
 10
55.9797621988
 20
53.382261126
 30
0.0
  0
SPLINE
  5
466
100
AcDbEntity
  8
0
100
AcDbSpline
 62
7
  6
CONTINUOUS
 70
0
 71
3
 72
15
 73
11
 74
0
 42
0.0000001
 43
0.0000001
 44
0.0000000001
 40
0.0
 40
0.0
 40
0.0
 40
0.0
 40
0.1141462769
 40
0.2373347432
 40
0.3669750849
 40
0.4999983967
 40
0.6330219315
 40
0.7626629244
 40
0.8858524171
 40
1.0
 40
1.0
 40
1.0
 40
1.0
 10
57.5834377754
 20
46.5660870821
 30
0.0
 10
57.6318412169
 20
46.5940326553
 30
0.0
 10
57.7274531932
 20
46.6610636838
 30
0.0
 10
57.8590179481
 20
46.7841386383
 30
0.0
 10
57.9802468325
 20
46.9296432891
 30
0.0
 10
58.0866023782
 20
47.0920791637
 30
0.0
 10
58.1740974922
 20
47.2654044176
 30
0.0
 10
58.2394933557
 20
47.4431451746
 30
0.0
 10
58.2802969008
 20
47.6186225876
 30
0.0
 10
58.2905416126
 20
47.7349416172
 30
0.0
 10
58.2905416126
 20
47.7908336531
 30
0.0
  0
SPLINE
  5
467
100
AcDbEntity
  8
0
100
AcDbSpline
 62
7
  6
CONTINUOUS
 70
0
 71
3
 72
9
 73
5
 74
0
 42
0.0000001
 43
0.0000001
 44
0.0000000001
 40
0.0
 40
0.0
 40
0.0
 40
0.0
 40
0.2661139372
 40
1.0
 40
1.0
 40
1.0
 40
1.0
 10
55.9797621988
 20
58.5148450726
 30
0.0
 10
55.9468786843
 20
58.500993314
 30
0.0
 10
55.8216145967
 20
58.4533064643
 30
0.0
 10
55.6885445006
 20
58.4241908015
 30
0.0
 10
55.5903137207
 20
58.4183698129
 30
0.0
  0
SPLINE
  5
468
100
AcDbEntity
  8
0
100
AcDbSpline
 62
7
  6
CONTINUOUS
 70
0
 71
3
 72
11
 73
7
 74
0
 42
0.0000001
 43
0.0000001
 44
0.0000000001
 40
0.0
 40
0.0
 40
0.0
 40
0.0
 40
0.2277296783
 40
0.4753716505
 40
0.7356886132
 40
1.0
 40
1.0
 40
1.0
 40
1.0
 10
56.8763339382
 20
65.019048764
 30
0.0
 10
56.7855184856
 20
64.9666167509
 30
0.0
 10
56.6070143082
 20
64.837537172
 30
0.0
 10
56.3666731082
 20
64.5972002568
 30
0.0
 10
56.1519290563
 20
64.3124318328
 30
0.0
 10
56.0325460622
 20
64.1014730354
 30
0.0
 10
55.9797621988
 20
63.9918049811
 30
0.0
  0
SPLINE
  5
469
100
AcDbEntity
  8
0
100
AcDbSpline
 62
7
  6
CONTINUOUS
 70
0
 71
3
 72
15
 73
11
 74
0
 42
0.0000001
 43
0.0000001
 44
0.0000000001
 40
0.0
 40
0.0
 40
0.0
 40
0.0
 40
0.1528306187
 40
0.300923739
 40
0.4417570683
 40
0.5735187835
 40
0.6949267673
 40
0.8056347874
 40
0.9065743839
 40
1.0
 40
1.0
 40
1.0
 40
1.0
 10
55.9797621988
 20
63.9918049811
 30
0.0
 10
55.9424430318
 20
63.9142676396
 30
0.0
 10
55.876131285
 20
63.7580085412
 30
0.0
 10
55.8020115332
 20
63.5201357067
 30
0.0
 10
55.7562282796
 20
63.2872113114
 30
0.0
 10
55.7399583562
 20
63.0653420399
 30
0.0
 10
55.7537970912
 20
62.8601407082
 30
0.0
 10
55.7976746242
 20
62.6767092039
 30
0.0
 10
55.871091805
 20
62.5199411255
 30
0.0
 10
55.9411075661
 20
62.4338968765
 30
0.0
 10
55.9797621988
 20
62.3982191216
 30
0.0
  0
SPLINE
  5
46A
100
AcDbEntity
  8
0
100
AcDbSpline
 62
7
  6
CONTINUOUS
 70
0
 71
3
 72
11
 73
7
 74
0
 42
0.0000001
 43
0.0000001
 44
0.0000000001
 40
0.0
 40
0.0
 40
0.0
 40
0.0
 40
0.289777178
 40
0.5490714024
 40
0.7822268829
 40
1.0
 40
1.0
 40
1.0
 40
1.0
 10
56.8763339382
 20
61.4672632494
 30
0.0
 10
56.8763339382
 20
61.4165817663
 30
0.0
 10
56.8839971072
 20
61.3202205505
 30
0.0
 10
56.9230493973
 20
61.1878330657
 30
0.0
 10
56.9887373725
 20
61.0804066748
 30
0.0
 10
57.050464479
 20
61.0285272
 30
0.0
 10
57.0834499342
 20
61.0094834676
 30
0.0
  0
SPLINE
  5
46B
100
AcDbEntity
  8
0
100
AcDbSpline
 62
7
  6
CONTINUOUS
 70
0
 71
3
 72
15
 73
11
 74
0
 42
0.0000001
 43
0.0000001
 44
0.0000000001
 40
0.0
 40
0.0
 40
0.0
 40
0.0
 40
0.1141462769
 40
0.2373347432
 40
0.3669750849
 40
0.4999983967
 40
0.6330219315
 40
0.7626629244
 40
0.8858524171
 40
1.0
 40
1.0
 40
1.0
 40
1.0
 10
57.5834377754
 20
67.1827731147
 30
0.0
 10
57.5350343339
 20
67.1548275415
 30
0.0
 10
57.4394223576
 20
67.087796513
 30
0.0
 10
57.3078576027
 20
66.9647215585
 30
0.0
 10
57.1866287183
 20
66.8192169077
 30
0.0
 10
57.0802731726
 20
66.6567810331
 30
0.0
 10
56.9927780586
 20
66.4834557792
 30
0.0
 10
56.9273821951
 20
66.3057150222
 30
0.0
 10
56.8865786499
 20
66.1302376092
 30
0.0
 10
56.8763339382
 20
66.0139185796
 30
0.0
 10
56.8763339382
 20
65.9580265437
 30
0.0
  0
SPLINE
  5
46C
100
AcDbEntity
  8
0
100
AcDbSpline
 62
7
  6
CONTINUOUS
 70
0
 71
3
 72
11
 73
7
 74
0
 42
0.0000001
 43
0.0000001
 44
0.0000000001
 40
0.0
 40
0.0
 40
0.0
 40
0.0
 40
0.2177745347
 40
0.4509306045
 40
0.7102242968
 40
1.0
 40
1.0
 40
1.0
 40
1.0
 10
58.0834256165
 20
67.2322946332
 30
0.0
 10
58.0504412533
 20
67.2513377351
 30
0.0
 10
57.9746511515
 20
67.278853202
 30
0.0
 10
57.8487779722
 20
67.2820268169
 30
0.0
 10
57.7146064814
 20
67.2496547264
 30
0.0
 10
57.6273273307
 20
67.20811261
 30
0.0
 10
57.5834377754
 20
67.1827731147
 30
0.0
  0
SPLINE
  5
46D
100
AcDbEntity
  8
0
100
AcDbSpline
 62
7
  6
CONTINUOUS
 70
0
 71
3
 72
12
 73
8
 74
0
 42
0.0000001
 43
0.0000001
 44
0.0000000001
 40
0.0
 40
0.0
 40
0.0
 40
0.0
 40
0.2895857718
 40
0.5486355659
 40
0.7816401088
 40
0.89184402
 40
1.0
 40
1.0
 40
1.0
 40
1.0
 10
52.4215603336
 20
60.7732228606
 30
0.0
 10
52.4215603336
 20
60.6718493151
 30
0.0
 10
52.436918303
 20
60.4791026839
 30
0.0
 10
52.5148596516
 20
60.2144382269
 30
0.0
 10
52.6268456962
 20
60.0318169363
 30
0.0
 10
52.7399625388
 20
59.9205971207
 30
0.0
 10
52.8029966365
 20
59.8765825267
 30
0.0
 10
52.8357857418
 20
59.8576518991
 30
0.0
  0
SPLINE
  5
46E
100
AcDbEntity
  8
0
100
AcDbSpline
 62
7
  6
CONTINUOUS
 70
0
 71
3
 72
9
 73
5
 74
0
 42
0.0000001
 43
0.0000001
 44
0.0000000001
 40
0.0
 40
0.0
 40
0.0
 40
0.0
 40
0.2407661808
 40
1.0
 40
1.0
 40
1.0
 40
1.0
 10
53.6463001058
 20
69.2223735199
 30
0.0
 10
53.6122433848
 20
69.1973943974
 30
0.0
 10
53.4736959316
 20
69.0897085745
 30
0.0
 10
53.3466453466
 20
68.9675183105
 30
0.0
 10
53.2568516278
 20
68.8691550966
 30
0.0
  0
SPLINE
  5
46F
100
AcDbEntity
  8
0
100
AcDbSpline
 62
7
  6
CONTINUOUS
 70
0
 71
3
 72
12
 73
8
 74
0
 42
0.0000001
 43
0.0000001
 44
0.0000000001
 40
0.0
 40
0.0
 40
0.0
 40
0.0
 40
0.2579254245
 40
0.5196281372
 40
0.7709791293
 40
0.8889615557
 40
1.0
 40
1.0
 40
1.0
 40
1.0
 10
53.2568516278
 20
68.8691550966
 30
0.0
 10
53.1302338886
 20
68.7304535491
 30
0.0
 10
52.9003710874
 20
68.4271369865
 30
0.0
 10
52.6372803317
 20
67.9287650769
 30
0.0
 10
52.4922047506
 20
67.4898191858
 30
0.0
 10
52.4322399706
 20
67.1447153232
 30
0.0
 10
52.4215603336
 20
66.9778415427
 30
0.0
 10
52.4215603336
 20
66.8969909891
 30
0.0
  0
SPLINE
  5
470
100
AcDbEntity
  8
0
100
AcDbSpline
 62
7
  6
CONTINUOUS
 70
0
 71
3
 72
10
 73
6
 74
0
 42
0.0000001
 43
0.0000001
 44
0.0000000001
 40
0.0
 40
0.0
 40
0.0
 40
0.0
 40
0.2295348066
 40
0.4754744768
 40
1.0
 40
1.0
 40
1.0
 40
1.0
 10
55.9570795196
 20
63.6309460471
 30
0.0
 10
55.9570795196
 20
63.5828982778
 30
0.0
 10
55.9495114499
 20
63.4832746583
 30
0.0
 10
55.9077770854
 20
63.2778103485
 30
0.0
 10
55.8491706906
 20
63.1258750267
 30
0.0
 10
55.8002270283
 20
63.0275900064
 30
0.0
  0
SPLINE
  5
471
100
AcDbEntity
  8
0
100
AcDbSpline
 62
7
  6
CONTINUOUS
 70
0
 71
3
 72
11
 73
7
 74
0
 42
0.0000001
 43
0.0000001
 44
0.0000000001
 40
0.0
 40
0.0
 40
0.0
 40
0.0
 40
0.289777178
 40
0.5490714024
 40
0.7822268829
 40
1.0
 40
1.0
 40
1.0
 40
1.0
 10
58.2905416126
 20
66.7745148514
 30
0.0
 10
58.2905416126
 20
66.8251963346
 30
0.0
 10
58.2828784436
 20
66.9215575503
 30
0.0
 10
58.2438261535
 20
67.0539450352
 30
0.0
 10
58.1781381783
 20
67.161371426
 30
0.0
 10
58.1164110718
 20
67.2132509008
 30
0.0
 10
58.0834256165
 20
67.2322946332
 30
0.0
  0
SPLINE
  5
472
100
AcDbEntity
  8
0
100
AcDbSpline
 62
7
  6
CONTINUOUS
 70
0
 71
3
 72
12
 73
8
 74
0
 42
0.0000001
 43
0.0000001
 44
0.0000000001
 40
0.0
 40
0.0
 40
0.0
 40
0.0
 40
0.1081559724
 40
0.2183598761
 40
0.4513644089
 40
0.7104142123
 40
1.0
 40
1.0
 40
1.0
 40
1.0
 10
55.1692478344
 20
58.5104574085
 30
0.0
 10
55.1364587318
 20
58.5293880355
 30
0.0
 10
55.0734246379
 20
58.5734026253
 30
0.0
 10
54.9603077989
 20
58.6846224321
 30
0.0
 10
54.848321752
 20
58.867243718
 30
0.0
 10
54.7703803998
 20
59.1319081796
 30
0.0
 10
54.7550224265
 20
59.3246548196
 30
0.0
 10
54.7550224265
 20
59.4260283707
 30
0.0
  0
SPLINE
  5
473
100
AcDbEntity
  8
0
100
AcDbSpline
 62
7
  6
CONTINUOUS
 70
0
 71
3
 72
12
 73
8
 74
0
 42
0.0000001
 43
0.0000001
 44
0.0000000001
 40
0.0
 40
0.0
 40
0.0
 40
0.0
 40
0.1110384338
 40
0.2290208417
 40
0.4803718244
 40
0.7420745441
 40
1.0
 40
1.0
 40
1.0
 40
1.0
 10
54.7550224265
 20
65.5497964992
 30
0.0
 10
54.7550224265
 20
65.6306470452
 30
0.0
 10
54.7657020568
 20
65.7975208049
 30
0.0
 10
54.8256668326
 20
66.1426246398
 30
0.0
 10
54.970742395
 20
66.5815705203
 30
0.0
 10
55.2338331515
 20
67.0799424541
 30
0.0
 10
55.4636959662
 20
67.3832590423
 30
0.0
 10
55.5903137207
 20
67.5219606067
 30
0.0
  0
SPLINE
  5
474
100
AcDbEntity
  8
0
100
AcDbSpline
 62
7
  6
CONTINUOUS
 70
0
 71
3
 72
12
 73
8
 74
0
 42
0.0000001
 43
0.0000001
 44
0.0000000001
 40
0.0
 40
0.0
 40
0.0
 40
0.0
 40
0.1081969924
 40
0.2183911065
 40
0.4513868557
 40
0.710423376
 40
1.0
 40
1.0
 40
1.0
 40
1.0
 10
56.0763520513
 20
62.3270042701
 30
0.0
 10
56.1025902886
 20
62.3118511593
 30
0.0
 10
56.1582971912
 20
62.2857657973
 30
0.0
 10
56.2806107654
 20
62.251914931
 30
0.0
 10
56.4519086961
 20
62.247378028
 30
0.0
 10
56.6664350947
 20
62.2992405585
 30
0.0
 10
56.806105087
 20
62.365694625
 30
0.0
 10
56.8763339382
 20
62.4062410291
 30
0.0
  0
SPLINE
  5
475
100
AcDbEntity
  8
0
100
AcDbSpline
 62
7
  6
CONTINUOUS
 70
0
 71
3
 72
11
 73
7
 74
0
 42
0.0000001
 43
0.0000001
 44
0.0000000001
 40
0.0
 40
0.0
 40
0.0
 40
0.0
 40
0.2177745347
 40
0.4509306045
 40
0.7102242968
 40
1.0
 40
1.0
 40
1.0
 40
1.0
 10
57.0834499342
 20
61.0094834676
 30
0.0
 10
57.1164342975
 20
60.9904403657
 30
0.0
 10
57.1922243993
 20
60.9629248988
 30
0.0
 10
57.3180975786
 20
60.9597512839
 30
0.0
 10
57.4522690694
 20
60.9921233744
 30
0.0
 10
57.5395482201
 20
61.0336654909
 30
0.0
 10
57.5834377754
 20
61.0590049862
 30
0.0
  0
SPLINE
  5
476
100
AcDbEntity
  8
0
100
AcDbSpline
 62
7
  6
CONTINUOUS
 70
0
 71
3
 72
9
 73
5
 74
0
 42
0.0000001
 43
0.0000001
 44
0.0000000001
 40
0.0
 40
0.0
 40
0.0
 40
0.0
 40
0.2588362163
 40
1.0
 40
1.0
 40
1.0
 40
1.0
 10
55.5903137207
 20
67.5219606067
 30
0.0
 10
55.6209246346
 20
67.5554928839
 30
0.0
 10
55.7420666207
 20
67.6823513341
 30
0.0
 10
55.8749281456
 20
67.7982878148
 30
0.0
 10
55.9797621988
 20
67.87517903
 30
0.0
  0
SPLINE
  5
477
100
AcDbEntity
  8
0
100
AcDbSpline
 62
7
  6
CONTINUOUS
 70
0
 71
3
 72
15
 73
11
 74
0
 42
0.0000001
 43
0.0000001
 44
0.0000000001
 40
0.0
 40
0.0
 40
0.0
 40
0.0
 40
0.1141462769
 40
0.2373347432
 40
0.3669750849
 40
0.4999983967
 40
0.6330219315
 40
0.7626629244
 40
0.8858524171
 40
1.0
 40
1.0
 40
1.0
 40
1.0
 10
57.5834377754
 20
61.0590049862
 30
0.0
 10
57.6318412169
 20
61.0869505593
 30
0.0
 10
57.7274531932
 20
61.1539815879
 30
0.0
 10
57.8590179481
 20
61.2770565423
 30
0.0
 10
57.9802468325
 20
61.4225611932
 30
0.0
 10
58.0866023782
 20
61.5849970678
 30
0.0
 10
58.1740974922
 20
61.7583223217
 30
0.0
 10
58.2394933557
 20
61.9360630786
 30
0.0
 10
58.2802969008
 20
62.1115404916
 30
0.0
 10
58.2905416126
 20
62.2278595212
 30
0.0
 10
58.2905416126
 20
62.2837515572
 30
0.0
  0
SPLINE
  5
478
100
AcDbEntity
  8
0
100
AcDbSpline
 62
7
  6
CONTINUOUS
 70
0
 71
3
 72
9
 73
5
 74
0
 42
0.0000001
 43
0.0000001
 44
0.0000000001
 40
0.0
 40
0.0
 40
0.0
 40
0.0
 40
0.2661139372
 40
1.0
 40
1.0
 40
1.0
 40
1.0
 10
55.9797621988
 20
73.0077629767
 30
0.0
 10
55.9468786843
 20
72.9939112181
 30
0.0
 10
55.8216145967
 20
72.9462243683
 30
0.0
 10
55.6885445006
 20
72.9171087055
 30
0.0
 10
55.5903137207
 20
72.911287717
 30
0.0
  0
SPLINE
  5
479
100
AcDbEntity
  8
0
100
AcDbSpline
 62
7
  6
CONTINUOUS
 70
0
 71
3
 72
11
 73
7
 74
0
 42
0.0000001
 43
0.0000001
 44
0.0000000001
 40
0.0
 40
0.0
 40
0.0
 40
0.0
 40
0.2277296783
 40
0.4753716505
 40
0.7356886132
 40
1.0
 40
1.0
 40
1.0
 40
1.0
 10
56.8763339382
 20
79.511966668
 30
0.0
 10
56.7855184856
 20
79.459534655
 30
0.0
 10
56.6070143082
 20
79.330455076
 30
0.0
 10
56.3666731082
 20
79.0901181608
 30
0.0
 10
56.1519290563
 20
78.8053497368
 30
0.0
 10
56.0325460622
 20
78.5943909395
 30
0.0
 10
55.9797621988
 20
78.4847228851
 30
0.0
  0
SPLINE
  5
47A
100
AcDbEntity
  8
0
100
AcDbSpline
 62
7
  6
CONTINUOUS
 70
0
 71
3
 72
15
 73
11
 74
0
 42
0.0000001
 43
0.0000001
 44
0.0000000001
 40
0.0
 40
0.0
 40
0.0
 40
0.0
 40
0.1528306187
 40
0.300923739
 40
0.4417570683
 40
0.5735187835
 40
0.6949267673
 40
0.8056347874
 40
0.9065743839
 40
1.0
 40
1.0
 40
1.0
 40
1.0
 10
55.9797621988
 20
78.4847228851
 30
0.0
 10
55.9424430318
 20
78.4071855437
 30
0.0
 10
55.876131285
 20
78.2509264453
 30
0.0
 10
55.8020115332
 20
78.0130536108
 30
0.0
 10
55.7562282796
 20
77.7801292155
 30
0.0
 10
55.7399583562
 20
77.558259944
 30
0.0
 10
55.7537970912
 20
77.3530586122
 30
0.0
 10
55.7976746242
 20
77.1696271079
 30
0.0
 10
55.871091805
 20
77.0128590296
 30
0.0
 10
55.9411075661
 20
76.9268147806
 30
0.0
 10
55.9797621988
 20
76.8911370256
 30
0.0
  0
SPLINE
  5
47B
100
AcDbEntity
  8
0
100
AcDbSpline
 62
7
  6
CONTINUOUS
 70
0
 71
3
 72
11
 73
7
 74
0
 42
0.0000001
 43
0.0000001
 44
0.0000000001
 40
0.0
 40
0.0
 40
0.0
 40
0.0
 40
0.289777178
 40
0.5490714024
 40
0.7822268829
 40
1.0
 40
1.0
 40
1.0
 40
1.0
 10
56.8763339382
 20
75.9601811535
 30
0.0
 10
56.8763339382
 20
75.9094996703
 30
0.0
 10
56.8839971072
 20
75.8131384546
 30
0.0
 10
56.9230493973
 20
75.6807509697
 30
0.0
 10
56.9887373725
 20
75.5733245789
 30
0.0
 10
57.050464479
 20
75.521445104
 30
0.0
 10
57.0834499342
 20
75.5024013717
 30
0.0
  0
SPLINE
  5
47C
100
AcDbEntity
  8
0
100
AcDbSpline
 62
7
  6
CONTINUOUS
 70
0
 71
3
 72
15
 73
11
 74
0
 42
0.0000001
 43
0.0000001
 44
0.0000000001
 40
0.0
 40
0.0
 40
0.0
 40
0.0
 40
0.1141462769
 40
0.2373347432
 40
0.3669750849
 40
0.4999983967
 40
0.6330219315
 40
0.7626629244
 40
0.8858524171
 40
1.0
 40
1.0
 40
1.0
 40
1.0
 10
57.5834377754
 20
81.6756910187
 30
0.0
 10
57.5350343339
 20
81.6477454456
 30
0.0
 10
57.4394223576
 20
81.580714417
 30
0.0
 10
57.3078576027
 20
81.4576394626
 30
0.0
 10
57.1866287183
 20
81.3121348117
 30
0.0
 10
57.0802731726
 20
81.1496989371
 30
0.0
 10
56.9927780586
 20
80.9763736832
 30
0.0
 10
56.9273821951
 20
80.7986329263
 30
0.0
 10
56.8865786499
 20
80.6231555133
 30
0.0
 10
56.8763339382
 20
80.5068364837
 30
0.0
 10
56.8763339382
 20
80.4509444477
 30
0.0
  0
SPLINE
  5
47D
100
AcDbEntity
  8
0
100
AcDbSpline
 62
7
  6
CONTINUOUS
 70
0
 71
3
 72
12
 73
8
 74
0
 42
0.0000001
 43
0.0000001
 44
0.0000000001
 40
0.0
 40
0.0
 40
0.0
 40
0.0
 40
0.2895857718
 40
0.5486355659
 40
0.7816401088
 40
0.89184402
 40
1.0
 40
1.0
 40
1.0
 40
1.0
 10
52.4215603336
 20
75.2661407647
 30
0.0
 10
52.4215603336
 20
75.1647672191
 30
0.0
 10
52.436918303
 20
74.9720205879
 30
0.0
 10
52.5148596516
 20
74.707356131
 30
0.0
 10
52.6268456962
 20
74.5247348403
 30
0.0
 10
52.7399625388
 20
74.4135150248
 30
0.0
 10
52.8029966365
 20
74.3695004307
 30
0.0
 10
52.8357857418
 20
74.3505698031
 30
0.0
  0
SPLINE
  5
47E
100
AcDbEntity
  8
0
100
AcDbSpline
 62
7
  6
CONTINUOUS
 70
0
 71
3
 72
11
 73
7
 74
0
 42
0.0000001
 43
0.0000001
 44
0.0000000001
 40
0.0
 40
0.0
 40
0.0
 40
0.0
 40
0.2177745347
 40
0.4509306045
 40
0.7102242968
 40
1.0
 40
1.0
 40
1.0
 40
1.0
 10
58.0834256165
 20
81.7252125373
 30
0.0
 10
58.0504412533
 20
81.7442556392
 30
0.0
 10
57.9746511515
 20
81.7717711061
 30
0.0
 10
57.8487779722
 20
81.774944721
 30
0.0
 10
57.7146064814
 20
81.7425726304
 30
0.0
 10
57.6273273307
 20
81.701030514
 30
0.0
 10
57.5834377754
 20
81.6756910187
 30
0.0
  0
SPLINE
  5
47F
100
AcDbEntity
  8
0
100
AcDbSpline
 62
7
  6
CONTINUOUS
 70
0
 71
3
 72
9
 73
5
 74
0
 42
0.0000001
 43
0.0000001
 44
0.0000000001
 40
0.0
 40
0.0
 40
0.0
 40
0.0
 40
0.2407661808
 40
1.0
 40
1.0
 40
1.0
 40
1.0
 10
53.6463001058
 20
83.715291424
 30
0.0
 10
53.6122433848
 20
83.6903123014
 30
0.0
 10
53.4736959316
 20
83.5826264786
 30
0.0
 10
53.3466453466
 20
83.4604362146
 30
0.0
 10
53.2568516278
 20
83.3620730007
 30
0.0
  0
SPLINE
  5
480
100
AcDbEntity
  8
0
100
AcDbSpline
 62
7
  6
CONTINUOUS
 70
0
 71
3
 72
12
 73
8
 74
0
 42
0.0000001
 43
0.0000001
 44
0.0000000001
 40
0.0
 40
0.0
 40
0.0
 40
0.0
 40
0.2579254245
 40
0.5196281372
 40
0.7709791293
 40
0.8889615557
 40
1.0
 40
1.0
 40
1.0
 40
1.0
 10
53.2568516278
 20
83.3620730007
 30
0.0
 10
53.1302338886
 20
83.2233714532
 30
0.0
 10
52.9003710874
 20
82.9200548906
 30
0.0
 10
52.6372803317
 20
82.421682981
 30
0.0
 10
52.4922047506
 20
81.9827370898
 30
0.0
 10
52.4322399706
 20
81.6376332273
 30
0.0
 10
52.4215603336
 20
81.4707594468
 30
0.0
 10
52.4215603336
 20
81.3899088931
 30
0.0
  0
SPLINE
  5
481
100
AcDbEntity
  8
0
100
AcDbSpline
 62
7
  6
CONTINUOUS
 70
0
 71
3
 72
10
 73
6
 74
0
 42
0.0000001
 43
0.0000001
 44
0.0000000001
 40
0.0
 40
0.0
 40
0.0
 40
0.0
 40
0.2295348066
 40
0.4754744768
 40
1.0
 40
1.0
 40
1.0
 40
1.0
 10
55.9570795196
 20
78.1238639512
 30
0.0
 10
55.9570795196
 20
78.0758161819
 30
0.0
 10
55.9495114499
 20
77.9761925623
 30
0.0
 10
55.9077770854
 20
77.7707282526
 30
0.0
 10
55.8491706906
 20
77.6187929307
 30
0.0
 10
55.8002270283
 20
77.5205079105
 30
0.0
  0
SPLINE
  5
482
100
AcDbEntity
  8
0
100
AcDbSpline
 62
7
  6
CONTINUOUS
 70
0
 71
3
 72
12
 73
8
 74
0
 42
0.0000001
 43
0.0000001
 44
0.0000000001
 40
0.0
 40
0.0
 40
0.0
 40
0.0
 40
0.1081559724
 40
0.2183598761
 40
0.4513644089
 40
0.7104142123
 40
1.0
 40
1.0
 40
1.0
 40
1.0
 10
55.1692478344
 20
73.0033753125
 30
0.0
 10
55.1364587318
 20
73.0223059395
 30
0.0
 10
55.0734246379
 20
73.0663205294
 30
0.0
 10
54.9603077989
 20
73.1775403361
 30
0.0
 10
54.848321752
 20
73.3601616221
 30
0.0
 10
54.7703803998
 20
73.6248260837
 30
0.0
 10
54.7550224265
 20
73.8175727236
 30
0.0
 10
54.7550224265
 20
73.9189462747
 30
0.0
  0
SPLINE
  5
483
100
AcDbEntity
  8
0
100
AcDbSpline
 62
7
  6
CONTINUOUS
 70
0
 71
3
 72
12
 73
8
 74
0
 42
0.0000001
 43
0.0000001
 44
0.0000000001
 40
0.0
 40
0.0
 40
0.0
 40
0.0
 40
0.1081969924
 40
0.2183911065
 40
0.4513868557
 40
0.710423376
 40
1.0
 40
1.0
 40
1.0
 40
1.0
 10
56.0763520513
 20
76.8199221742
 30
0.0
 10
56.1025902886
 20
76.8047690634
 30
0.0
 10
56.1582971912
 20
76.7786837014
 30
0.0
 10
56.2806107654
 20
76.7448328351
 30
0.0
 10
56.4519086961
 20
76.7402959321
 30
0.0
 10
56.6664350947
 20
76.7921584625
 30
0.0
 10
56.806105087
 20
76.8586125291
 30
0.0
 10
56.8763339382
 20
76.8991589332
 30
0.0
  0
SPLINE
  5
484
100
AcDbEntity
  8
0
100
AcDbSpline
 62
7
  6
CONTINUOUS
 70
0
 71
3
 72
12
 73
8
 74
0
 42
0.0000001
 43
0.0000001
 44
0.0000000001
 40
0.0
 40
0.0
 40
0.0
 40
0.0
 40
0.1110384338
 40
0.2290208417
 40
0.4803718244
 40
0.7420745441
 40
1.0
 40
1.0
 40
1.0
 40
1.0
 10
54.7550224265
 20
80.0427144032
 30
0.0
 10
54.7550224265
 20
80.1235649492
 30
0.0
 10
54.7657020568
 20
80.290438709
 30
0.0
 10
54.8256668326
 20
80.6355425439
 30
0.0
 10
54.970742395
 20
81.0744884244
 30
0.0
 10
55.2338331515
 20
81.5728603582
 30
0.0
 10
55.4636959662
 20
81.8761769464
 30
0.0
 10
55.5903137207
 20
82.0148785108
 30
0.0
  0
SPLINE
  5
485
100
AcDbEntity
  8
0
100
AcDbSpline
 62
7
  6
CONTINUOUS
 70
0
 71
3
 72
11
 73
7
 74
0
 42
0.0000001
 43
0.0000001
 44
0.0000000001
 40
0.0
 40
0.0
 40
0.0
 40
0.0
 40
0.2177745347
 40
0.4509306045
 40
0.7102242968
 40
1.0
 40
1.0
 40
1.0
 40
1.0
 10
57.0834499342
 20
75.5024013717
 30
0.0
 10
57.1164342975
 20
75.4833582698
 30
0.0
 10
57.1922243993
 20
75.4558428029
 30
0.0
 10
57.3180975786
 20
75.452669188
 30
0.0
 10
57.4522690694
 20
75.4850412785
 30
0.0
 10
57.5395482201
 20
75.5265833949
 30
0.0
 10
57.5834377754
 20
75.5519228902
 30
0.0
  0
SPLINE
  5
486
100
AcDbEntity
  8
0
100
AcDbSpline
 62
7
  6
CONTINUOUS
 70
0
 71
3
 72
15
 73
11
 74
0
 42
0.0000001
 43
0.0000001
 44
0.0000000001
 40
0.0
 40
0.0
 40
0.0
 40
0.0
 40
0.1141462769
 40
0.2373347432
 40
0.3669750849
 40
0.4999983967
 40
0.6330219315
 40
0.7626629244
 40
0.8858524171
 40
1.0
 40
1.0
 40
1.0
 40
1.0
 10
57.5834377754
 20
75.5519228902
 30
0.0
 10
57.6318412169
 20
75.5798684634
 30
0.0
 10
57.7274531932
 20
75.6468994919
 30
0.0
 10
57.8590179481
 20
75.7699744464
 30
0.0
 10
57.9802468325
 20
75.9154790972
 30
0.0
 10
58.0866023782
 20
76.0779149718
 30
0.0
 10
58.1740974922
 20
76.2512402257
 30
0.0
 10
58.2394933557
 20
76.4289809827
 30
0.0
 10
58.2802969008
 20
76.6044583957
 30
0.0
 10
58.2905416126
 20
76.7207774253
 30
0.0
 10
58.2905416126
 20
76.7766694612
 30
0.0
  0
SPLINE
  5
487
100
AcDbEntity
  8
0
100
AcDbSpline
 62
7
  6
CONTINUOUS
 70
0
 71
3
 72
11
 73
7
 74
0
 42
0.0000001
 43
0.0000001
 44
0.0000000001
 40
0.0
 40
0.0
 40
0.0
 40
0.0
 40
0.289777178
 40
0.5490714024
 40
0.7822268829
 40
1.0
 40
1.0
 40
1.0
 40
1.0
 10
58.2905416126
 20
81.2674327554
 30
0.0
 10
58.2905416126
 20
81.3181142386
 30
0.0
 10
58.2828784436
 20
81.4144754544
 30
0.0
 10
58.2438261535
 20
81.5468629392
 30
0.0
 10
58.1781381783
 20
81.6542893301
 30
0.0
 10
58.1164110718
 20
81.7061688049
 30
0.0
 10
58.0834256165
 20
81.7252125373
 30
0.0
  0
SPLINE
  5
488
100
AcDbEntity
  8
0
100
AcDbSpline
 62
7
  6
CONTINUOUS
 70
0
 71
3
 72
9
 73
5
 74
0
 42
0.0000001
 43
0.0000001
 44
0.0000000001
 40
0.0
 40
0.0
 40
0.0
 40
0.0
 40
0.2588362163
 40
1.0
 40
1.0
 40
1.0
 40
1.0
 10
55.5903137207
 20
82.0148785108
 30
0.0
 10
55.6209246346
 20
82.048410788
 30
0.0
 10
55.7420666207
 20
82.1752692382
 30
0.0
 10
55.8749281456
 20
82.2912057189
 30
0.0
 10
55.9797621988
 20
82.3680969341
 30
0.0
  0
SPLINE
  5
489
100
AcDbEntity
  8
0
100
AcDbSpline
 62
7
  6
CONTINUOUS
 70
0
 71
3
 72
9
 73
5
 74
0
 42
0.0000001
 43
0.0000001
 44
0.0000000001
 40
0.0
 40
0.0
 40
0.0
 40
0.0
 40
0.4717780952
 40
1.0
 40
1.0
 40
1.0
 40
1.0
 10
15.3713469995
 20
70.8084653787
 30
0.0
 10
15.3208261788
 20
70.837781887
 30
0.0
 10
15.2228654828
 20
70.9200007608
 30
0.0
 10
15.1726191858
 20
71.0380395005
 30
0.0
 10
15.156910202
 20
71.1015238072
 30
0.0
  0
SPLINE
  5
48A
100
AcDbEntity
  8
0
100
AcDbSpline
 62
7
  6
CONTINUOUS
 70
0
 71
3
 72
9
 73
5
 74
0
 42
0.0000001
 43
0.0000001
 44
0.0000000001
 40
0.0
 40
0.0
 40
0.0
 40
0.0
 40
0.2503562527
 40
1.0
 40
1.0
 40
1.0
 40
1.0
 10
44.174983957
 20
54.1792107064
 30
0.0
 10
44.2297545432
 20
54.147594112
 30
0.0
 10
44.4529931827
 20
54.0301818508
 30
0.0
 10
44.7007633032
 20
53.9513665951
 30
0.0
 10
44.8894856206
 20
53.9358017261
 30
0.0
  0
SPLINE
  5
48B
100
AcDbEntity
  8
0
100
AcDbSpline
 62
7
  6
CONTINUOUS
 70
0
 71
3
 72
11
 73
7
 74
0
 42
0.0000001
 43
0.0000001
 44
0.0000000001
 40
0.0
 40
0.0
 40
0.0
 40
0.0
 40
0.2177817009
 40
0.4509079353
 40
0.7102947134
 40
1.0
 40
1.0
 40
1.0
 40
1.0
 10
15.1317949388
 20
60.609469319
 30
0.0
 10
15.1317949564
 20
60.5142482847
 30
0.0
 10
15.1669838445
 20
60.3157775081
 30
0.0
 10
15.3174452542
 20
60.0392442129
 30
0.0
 10
15.5553033494
 20
59.789269461
 30
0.0
 10
15.7543242881
 20
59.652192008
 30
0.0
 10
15.8640228711
 20
59.5888589343
 30
0.0
  0
SPLINE
  5
48C
100
AcDbEntity
  8
0
100
AcDbSpline
 62
7
  6
CONTINUOUS
 70
0
 71
3
 72
11
 73
7
 74
0
 42
0.0000001
 43
0.0000001
 44
0.0000000001
 40
0.0
 40
0.0
 40
0.0
 40
0.0
 40
0.2178555755
 40
0.4509686098
 40
0.7102617926
 40
1.0
 40
1.0
 40
1.0
 40
1.0
 10
15.1318228641
 20
61.834222996
 30
0.0
 10
15.1318102306
 20
61.9294755743
 30
0.0
 10
15.1669505686
 20
62.1279914935
 30
0.0
 10
15.3175024341
 20
62.4044573588
 30
0.0
 10
15.5552666622
 20
62.6544601983
 30
0.0
 10
15.7542984296
 20
62.7914842715
 30
0.0
 10
15.8640081513
 20
62.8548248308
 30
0.0
  0
SPLINE
  5
48D
100
AcDbEntity
  8
0
100
AcDbSpline
 62
7
  6
CONTINUOUS
 70
0
 71
3
 72
11
 73
7
 74
0
 42
0.0000001
 43
0.0000001
 44
0.0000000001
 40
0.0
 40
0.0
 40
0.0
 40
0.0
 40
0.2372542274
 40
0.5000017851
 40
0.7627483734
 40
1.0
 40
1.0
 40
1.0
 40
1.0
 10
19.9298552152
 20
66.5086325832
 30
0.0
 10
19.9298552152
 20
66.3231510708
 30
0.0
 10
19.8603129627
 20
65.9319940567
 30
0.0
 10
19.6177459393
 20
65.3824310459
 30
0.0
 10
19.2630975403
 20
64.8975802202
 30
0.0
 10
18.9591192563
 20
64.6417773938
 30
0.0
 10
18.7984890759
 20
64.5490380695
 30
0.0
  0
SPLINE
  5
48E
100
AcDbEntity
  8
0
100
AcDbSpline
 62
7
  6
CONTINUOUS
 70
0
 71
3
 72
11
 73
7
 74
0
 42
0.0000001
 43
0.0000001
 44
0.0000000001
 40
0.0
 40
0.0
 40
0.0
 40
0.0
 40
0.2177821605
 40
0.4509085882
 40
0.7102951949
 40
1.0
 40
1.0
 40
1.0
 40
1.0
 10
15.1317949388
 20
72.5304046089
 30
0.0
 10
15.1317949655
 20
72.6256246177
 30
0.0
 10
15.1669830269
 20
72.8240931059
 30
0.0
 10
15.3174411957
 20
73.1006237221
 30
0.0
 10
15.5552944588
 20
73.3505966215
 30
0.0
 10
15.7543116203
 20
73.4876735516
 30
0.0
 10
15.8640081513
 20
73.5510064952
 30
0.0
  0
SPLINE
  5
48F
100
AcDbEntity
  8
0
100
AcDbSpline
 62
7
  6
CONTINUOUS
 70
0
 71
3
 72
9
 73
5
 74
0
 42
0.0000001
 43
0.0000001
 44
0.0000000001
 40
0.0
 40
0.0
 40
0.0
 40
0.0
 40
0.2408692492
 40
1.0
 40
1.0
 40
1.0
 40
1.0
 10
30.7415629127
 20
61.8588111597
 30
0.0
 10
30.7415629127
 20
61.8656469724
 30
0.0
 10
30.74092864
 20
61.8940254931
 30
0.0
 10
30.7379072203
 20
61.9223314713
 30
0.0
 10
30.7345273126
 20
61.9436086446
 30
0.0
  0
SPLINE
  5
490
100
AcDbEntity
  8
0
100
AcDbSpline
 62
7
  6
CONTINUOUS
 70
0
 71
3
 72
9
 73
5
 74
0
 42
0.0000001
 43
0.0000001
 44
0.0000000001
 40
0.0
 40
0.0
 40
0.0
 40
0.0
 40
0.2396840461
 40
1.0
 40
1.0
 40
1.0
 40
1.0
 10
53.8637788583
 20
44.8377389493
 30
0.0
 10
53.8437369488
 20
44.8311863235
 30
0.0
 10
53.7609317956
 20
44.8013804146
 30
0.0
 10
53.6815587854
 20
44.762368125
 30
0.0
 10
53.6236321462
 20
44.7289243639
 30
0.0
  0
SPLINE
  5
491
100
AcDbEntity
  8
0
100
AcDbSpline
 62
7
  6
CONTINUOUS
 70
0
 71
3
 72
11
 73
7
 74
0
 42
0.0000001
 43
0.0000001
 44
0.0000000001
 40
0.0
 40
0.0
 40
0.0
 40
0.0
 40
0.2209430166
 40
0.4592712793
 40
0.7185883287
 40
1.0
 40
1.0
 40
1.0
 40
1.0
 10
46.0174847588
 20
51.4472733769
 30
0.0
 10
46.0889300336
 20
51.5294972767
 30
0.0
 10
46.2166695816
 20
51.719177927
 30
0.0
 10
46.3502935922
 20
52.0494638291
 30
0.0
 10
46.4301788819
 20
52.4268308403
 30
0.0
 10
46.4464699082
 20
52.6938698854
 30
0.0
 10
46.4464699082
 20
52.8326091227
 30
0.0
  0
SPLINE
  5
492
100
AcDbEntity
  8
0
100
AcDbSpline
 62
7
  6
CONTINUOUS
 70
0
 71
3
 72
11
 73
7
 74
0
 42
0.0000001
 43
0.0000001
 44
0.0000000001
 40
0.0
 40
0.0
 40
0.0
 40
0.0
 40
0.2279723256
 40
0.4775432631
 40
0.7387716657
 40
1.0
 40
1.0
 40
1.0
 40
1.0
 10
43.4752691143
 20
43.6478591168
 30
0.0
 10
43.6387473066
 20
43.5534770737
 30
0.0
 10
44.0049388972
 20
43.3960190386
 30
0.0
 10
44.6031023383
 20
43.256607075
 30
0.0
 10
45.2429463083
 20
43.2090113659
 30
0.0
 10
45.6763249892
 20
43.2412280691
 30
0.0
 10
45.8900863739
 20
43.2742971484
 30
0.0
  0
SPLINE
  5
493
100
AcDbEntity
  8
0
100
AcDbSpline
 62
7
  6
CONTINUOUS
 70
0
 71
3
 72
9
 73
5
 74
0
 42
0.0000001
 43
0.0000001
 44
0.0000000001
 40
0.0
 40
0.0
 40
0.0
 40
0.0
 40
0.2508589776
 40
1.0
 40
1.0
 40
1.0
 40
1.0
 10
44.8894856206
 20
53.9358017261
 30
0.0
 10
44.9730294809
 20
53.928911448
 30
0.0
 10
45.3067863139
 20
53.9113287358
 30
0.0
 10
45.6426948046
 20
53.9322071134
 30
0.0
 10
45.8900863739
 20
53.9704788126
 30
0.0
  0
SPLINE
  5
494
100
AcDbEntity
  8
0
100
AcDbSpline
 62
7
  6
CONTINUOUS
 70
0
 71
3
 72
9
 73
5
 74
0
 42
0.0000001
 43
0.0000001
 44
0.0000000001
 40
0.0
 40
0.0
 40
0.0
 40
0.0
 40
0.230331273
 40
1.0
 40
1.0
 40
1.0
 40
1.0
 10
46.3115935172
 20
51.8624400999
 30
0.0
 10
46.2334944665
 20
51.8707587474
 30
0.0
 10
45.8967813822
 20
51.9293515188
 30
0.0
 10
45.5777273276
 20
52.0685449307
 30
0.0
 10
45.350437764
 20
52.1997676527
 30
0.0
  0
SPLINE
  5
495
100
AcDbEntity
  8
0
100
AcDbSpline
 62
7
  6
CONTINUOUS
 70
0
 71
3
 72
11
 73
7
 74
0
 42
0.0000001
 43
0.0000001
 44
0.0000000001
 40
0.0
 40
0.0
 40
0.0
 40
0.0
 40
0.2897052857
 40
0.5490919933
 40
0.7822182543
 40
1.0
 40
1.0
 40
1.0
 40
1.0
 10
15.8640228711
 20
71.5097942242
 30
0.0
 10
15.754324288
 20
71.5731272978
 30
0.0
 10
15.5553033512
 20
71.7102046999
 30
0.0
 10
15.3174452851
 20
71.9601794636
 30
0.0
 10
15.1669838866
 20
72.236712746
 30
0.0
 10
15.1317949121
 20
72.4351835546
 30
0.0
 10
15.1317949388
 20
72.5304046089
 30
0.0
  0
SPLINE
  5
496
100
AcDbEntity
  8
0
100
AcDbSpline
 62
7
  6
CONTINUOUS
 70
0
 71
3
 72
11
 73
7
 74
0
 42
0.0000001
 43
0.0000001
 44
0.0000000001
 40
0.0
 40
0.0
 40
0.0
 40
0.0
 40
0.2612283343
 40
0.5224567369
 40
0.7720276744
 40
1.0
 40
1.0
 40
1.0
 40
1.0
 10
45.8900863739
 20
55.1952324383
 30
0.0
 10
45.6763249892
 20
55.162163359
 30
0.0
 10
45.2429463083
 20
55.1299466558
 30
0.0
 10
44.6031023383
 20
55.1775423648
 30
0.0
 10
44.0049388972
 20
55.3169543284
 30
0.0
 10
43.6387473066
 20
55.4744123635
 30
0.0
 10
43.4752691143
 20
55.5687944066
 30
0.0
  0
SPLINE
  5
497
100
AcDbEntity
  8
0
100
AcDbSpline
 62
7
  6
CONTINUOUS
 70
0
 71
3
 72
9
 73
5
 74
0
 42
0.0000001
 43
0.0000001
 44
0.0000000001
 40
0.0
 40
0.0
 40
0.0
 40
0.0
 40
0.542639478
 40
1.0
 40
1.0
 40
1.0
 40
1.0
 10
15.8640228711
 20
70.693291807
 30
0.0
 10
15.7721023771
 20
70.6988932478
 30
0.0
 10
15.6031068941
 20
70.7163239913
 30
0.0
 10
15.4384809835
 20
70.7695084898
 30
0.0
 10
15.3713469995
 20
70.8084653787
 30
0.0
  0
SPLINE
  5
498
100
AcDbEntity
  8
0
100
AcDbSpline
 62
7
  6
CONTINUOUS
 70
0
 71
3
 72
9
 73
5
 74
0
 42
0.0000001
 43
0.0000001
 44
0.0000000001
 40
0.0
 40
0.0
 40
0.0
 40
0.0
 40
0.4761106809
 40
1.0
 40
1.0
 40
1.0
 40
1.0
 10
36.4762227836
 20
58.5888037614
 30
0.0
 10
36.4762227836
 20
58.2811209157
 30
0.0
 10
36.5622096158
 20
57.6342932188
 30
0.0
 10
36.7704884068
 20
57.0187310798
 30
0.0
 10
36.905207933
 20
56.7081298388
 30
0.0
  0
SPLINE
  5
499
100
AcDbEntity
  8
0
100
AcDbSpline
 62
7
  6
CONTINUOUS
 70
0
 71
3
 72
11
 73
7
 74
0
 42
0.0000001
 43
0.0000001
 44
0.0000000001
 40
0.0
 40
0.0
 40
0.0
 40
0.0
 40
0.2372444228
 40
0.5000010918
 40
0.7627571666
 40
1.0
 40
1.0
 40
1.0
 40
1.0
 10
23.8825985788
 20
65.8187464786
 30
0.0
 10
23.8825985788
 20
65.7607858998
 30
0.0
 10
23.9043440092
 20
65.6385538876
 30
0.0
 10
23.9801134619
 20
65.4667973733
 30
0.0
 10
24.0909746956
 20
65.3153016622
 30
0.0
 10
24.1859581601
 20
65.2353544963
 30
0.0
 10
24.2361534413
 20
65.2063748928
 30
0.0
  0
SPLINE
  5
49A
100
AcDbEntity
  8
0
100
AcDbSpline
 62
7
  6
CONTINUOUS
 70
0
 71
3
 72
11
 73
7
 74
0
 42
0.0000001
 43
0.0000001
 44
0.0000000001
 40
0.0
 40
0.0
 40
0.0
 40
0.0
 40
0.2277335828
 40
0.4761037499
 40
0.7368284309
 40
1.0
 40
1.0
 40
1.0
 40
1.0
 10
40.4713806605
 20
55.0166288589
 30
0.0
 10
40.2541115744
 20
55.1420663865
 30
0.0
 10
39.8280523529
 20
55.4542392014
 30
0.0
 10
39.2600234479
 20
56.0381885751
 30
0.0
 10
38.7600829115
 20
56.7299589516
 30
0.0
 10
38.4886445655
 20
57.2417874945
 30
0.0
 10
38.3714596699
 20
57.5069680955
 30
0.0
  0
SPLINE
  5
49B
100
AcDbEntity
  8
0
100
AcDbSpline
 62
7
  6
CONTINUOUS
 70
0
 71
3
 72
9
 73
5
 74
0
 42
0.0000001
 43
0.0000001
 44
0.0000000001
 40
0.0
 40
0.0
 40
0.0
 40
0.0
 40
0.2564372713
 40
1.0
 40
1.0
 40
1.0
 40
1.0
 10
43.7240853961
 20
54.2818247721
 30
0.0
 10
43.7585773817
 20
54.2619112655
 30
0.0
 10
43.8941979651
 20
54.1862180809
 30
0.0
 10
44.0343362527
 20
54.1185243276
 30
0.0
 10
44.1407588584
 20
54.0736827375
 30
0.0
  0
SPLINE
  5
49C
100
AcDbEntity
  8
0
100
AcDbSpline
 62
7
  6
CONTINUOUS
 70
0
 71
3
 72
9
 73
5
 74
0
 42
0.0000001
 43
0.0000001
 44
0.0000000001
 40
0.0
 40
0.0
 40
0.0
 40
0.0
 40
0.2548814461
 40
1.0
 40
1.0
 40
1.0
 40
1.0
 10
44.1407588584
 20
54.0736827375
 30
0.0
 10
44.1640361616
 20
54.0638747529
 30
0.0
 10
44.2557909242
 20
54.0264245439
 30
0.0
 10
44.3492777196
 20
53.9931800892
 30
0.0
 10
44.4197572417
 20
53.9711487556
 30
0.0
  0
SPLINE
  5
49D
100
AcDbEntity
  8
0
100
AcDbSpline
 62
7
  6
CONTINUOUS
 70
0
 71
3
 72
9
 73
5
 74
0
 42
0.0000001
 43
0.0000001
 44
0.0000000001
 40
0.0
 40
0.0
 40
0.0
 40
0.0
 40
0.2569918812
 40
1.0
 40
1.0
 40
1.0
 40
1.0
 10
44.4197572417
 20
53.9711487556
 30
0.0
 10
44.4512130708
 20
53.9613159156
 30
0.0
 10
44.5742590735
 20
53.9251772419
 30
0.0
 10
44.6999244314
 20
53.8977584588
 30
0.0
 10
44.7940923968
 20
53.8832178518
 30
0.0
  0
SPLINE
  5
49E
100
AcDbEntity
  8
0
100
AcDbSpline
 62
7
  6
CONTINUOUS
 70
0
 71
3
 72
9
 73
5
 74
0
 42
0.0000001
 43
0.0000001
 44
0.0000000001
 40
0.0
 40
0.0
 40
0.0
 40
0.0
 40
0.5148085974
 40
1.0
 40
1.0
 40
1.0
 40
1.0
 10
44.9180444315
 20
53.8675755747
 30
0.0
 10
45.0470674001
 20
53.8549962266
 30
0.0
 10
45.3007424346
 20
53.8532311266
 30
0.0
 10
45.549486136
 20
53.9062780509
 30
0.0
 10
45.6650081513
 20
53.9460503057
 30
0.0
  0
SPLINE
  5
49F
100
AcDbEntity
  8
0
100
AcDbSpline
 62
7
  6
CONTINUOUS
 70
0
 71
3
 72
10
 73
6
 74
0
 42
0.0000001
 43
0.0000001
 44
0.0000000001
 40
0.0
 40
0.0
 40
0.0
 40
0.0
 40
0.524430535
 40
0.770458154
 40
1.0
 40
1.0
 40
1.0
 40
1.0
 10
44.2004807637
 20
50.7117332465
 30
0.0
 10
44.461564997
 20
50.7440791176
 30
0.0
 10
44.8432341022
 20
50.8189610136
 30
0.0
 10
45.3175392448
 20
50.9842030473
 30
0.0
 10
45.5333312875
 20
51.0878574424
 30
0.0
 10
45.6330551796
 20
51.1454296654
 30
0.0
  0
SPLINE
  5
4A0
100
AcDbEntity
  8
0
100
AcDbSpline
 62
7
  6
CONTINUOUS
 70
0
 71
3
 72
10
 73
6
 74
0
 42
0.0000001
 43
0.0000001
 44
0.0000000001
 40
0.0
 40
0.0
 40
0.0
 40
0.0
 40
0.2668553448
 40
0.5279520864
 40
1.0
 40
1.0
 40
1.0
 40
1.0
 10
36.905207933
 20
56.7081298389
 30
0.0
 10
36.9861670454
 20
56.5214753762
 30
0.0
 10
37.125539269
 20
56.1432410122
 30
0.0
 10
37.3503424252
 20
55.4146580466
 30
0.0
 10
37.4951683131
 20
54.8746694154
 30
0.0
 10
37.5908457887
 20
54.5277214494
 30
0.0
  0
SPLINE
  5
4A1
100
AcDbEntity
  8
0
100
AcDbSpline
 62
7
  6
CONTINUOUS
 70
0
 71
3
 72
10
 73
6
 74
0
 42
0.0000001
 43
0.0000001
 44
0.0000000001
 40
0.0
 40
0.0
 40
0.0
 40
0.0
 40
0.2066178076
 40
0.4531279565
 40
1.0
 40
1.0
 40
1.0
 40
1.0
 10
15.156910202
 20
61.6300957685
 30
0.0
 10
15.18048578
 20
61.5348203998
 30
0.0
 10
15.2524082791
 20
61.3308814196
 30
0.0
 10
15.4635720801
 20
60.9047668892
 30
0.0
 10
15.6887311073
 20
60.5970843564
 30
0.0
 10
15.8640228711
 20
60.4053613512
 30
0.0
  0
SPLINE
  5
4A2
100
AcDbEntity
  8
0
100
AcDbSpline
 62
7
  6
CONTINUOUS
 70
0
 71
3
 72
9
 73
5
 74
0
 42
0.0000001
 43
0.0000001
 44
0.0000000001
 40
0.0
 40
0.0
 40
0.0
 40
0.0
 40
0.24783927
 40
1.0
 40
1.0
 40
1.0
 40
1.0
 10
45.8900863739
 20
44.4990507739
 30
0.0
 10
45.8082406543
 20
44.4863891671
 30
0.0
 10
45.4765056848
 20
44.4454665586
 30
0.0
 10
45.1399812087
 20
44.4437140692
 30
0.0
 10
44.8894856206
 20
44.4643736874
 30
0.0
  0
SPLINE
  5
4A3
100
AcDbEntity
  8
0
100
AcDbSpline
 62
7
  6
CONTINUOUS
 70
0
 71
3
 72
11
 73
7
 74
0
 42
0.0000001
 43
0.0000001
 44
0.0000000001
 40
0.0
 40
0.0
 40
0.0
 40
0.0
 40
0.2081582609
 40
0.4453281361
 40
0.7106378032
 40
1.0
 40
1.0
 40
1.0
 40
1.0
 10
43.4752691143
 20
44.4643615337
 30
0.0
 10
43.5732452828
 20
44.4583910729
 30
0.0
 10
43.7834405362
 20
44.4561670482
 30
0.0
 10
44.118369787
 20
44.4668381386
 30
0.0
 10
44.4914822692
 20
44.4790537298
 30
0.0
 10
44.7534973661
 20
44.4755893157
 30
0.0
 10
44.8894856206
 20
44.4643736874
 30
0.0
  0
SPLINE
  5
4A4
100
AcDbEntity
  8
0
100
AcDbSpline
 62
7
  6
CONTINUOUS
 70
0
 71
3
 72
9
 73
5
 74
0
 42
0.0000001
 43
0.0000001
 44
0.0000000001
 40
0.0
 40
0.0
 40
0.0
 40
0.0
 40
0.2469905277
 40
1.0
 40
1.0
 40
1.0
 40
1.0
 10
43.4752691143
 20
54.7522919895
 30
0.0
 10
43.5256163736
 20
54.6972253528
 30
0.0
 10
43.7365543474
 20
54.4810795311
 30
0.0
 10
43.9779748239
 20
54.2929352125
 30
0.0
 10
44.174983957
 20
54.1792107064
 30
0.0
  0
SPLINE
  5
4A5
100
AcDbEntity
  8
0
100
AcDbSpline
 62
7
  6
CONTINUOUS
 70
0
 71
3
 72
9
 73
5
 74
0
 42
0.0000001
 43
0.0000001
 44
0.0000000001
 40
0.0
 40
0.0
 40
0.0
 40
0.0
 40
0.2586622356
 40
1.0
 40
1.0
 40
1.0
 40
1.0
 10
54.7544457262
 20
44.116217245
 30
0.0
 10
54.7539341269
 20
44.1348166652
 30
0.0
 10
54.7505384801
 20
44.2066698246
 30
0.0
 10
54.7413452933
 20
44.2783035021
 30
0.0
 10
54.7307131789
 20
44.3305598085
 30
0.0
  0
SPLINE
  5
4A6
100
AcDbEntity
  8
0
100
AcDbSpline
 62
7
  6
CONTINUOUS
 70
0
 71
3
 72
9
 73
5
 74
0
 42
0.0000001
 43
0.0000001
 44
0.0000000001
 40
0.0
 40
0.0
 40
0.0
 40
0.0
 40
0.5159007403
 40
1.0
 40
1.0
 40
1.0
 40
1.0
 10
53.3554707968
 20
54.4782923535
 30
0.0
 10
53.3285954187
 20
54.5352280791
 30
0.0
 10
53.2624895287
 20
54.6400247452
 30
0.0
 10
53.1665824005
 20
54.7194584625
 30
0.0
 10
53.1154363772
 20
54.7490289074
 30
0.0
  0
SPLINE
  5
4A7
100
AcDbEntity
  8
0
100
AcDbSpline
 62
7
  6
CONTINUOUS
 70
0
 71
3
 72
11
 73
7
 74
0
 42
0.0000001
 43
0.0000001
 44
0.0000000001
 40
0.0
 40
0.0
 40
0.0
 40
0.0
 40
0.2372518718
 40
0.4999985497
 40
0.7627460178
 40
1.0
 40
1.0
 40
1.0
 40
1.0
 10
53.6236321465
 20
56.6498596541
 30
0.0
 10
53.784262493
 20
56.7425990743
 30
0.0
 10
54.0882409467
 20
56.9984021299
 30
0.0
 10
54.4428893381
 20
57.4832531987
 30
0.0
 10
54.6854561472
 20
58.0328160946
 30
0.0
 10
54.754998286
 20
58.4239728471
 30
0.0
 10
54.754998286
 20
58.6094541677
 30
0.0
  0
SPLINE
  5
4A8
100
AcDbEntity
  8
0
100
AcDbSpline
 62
7
  6
CONTINUOUS
 70
0
 71
3
 72
9
 73
5
 74
0
 42
0.0000001
 43
0.0000001
 44
0.0000000001
 40
0.0
 40
0.0
 40
0.0
 40
0.0
 40
0.4717780952
 40
1.0
 40
1.0
 40
1.0
 40
1.0
 10
15.3713469995
 20
85.3013832827
 30
0.0
 10
15.3208261788
 20
85.3306997911
 30
0.0
 10
15.2228654828
 20
85.4129186648
 30
0.0
 10
15.1726191858
 20
85.5309574045
 30
0.0
 10
15.156910202
 20
85.5944417112
 30
0.0
  0
SPLINE
  5
4A9
100
AcDbEntity
  8
0
100
AcDbSpline
 62
7
  6
CONTINUOUS
 70
0
 71
3
 72
9
 73
5
 74
0
 42
0.0000001
 43
0.0000001
 44
0.0000000001
 40
0.0
 40
0.0
 40
0.0
 40
0.0
 40
0.2503562527
 40
1.0
 40
1.0
 40
1.0
 40
1.0
 10
44.174983957
 20
68.6721286105
 30
0.0
 10
44.2297545432
 20
68.640512016
 30
0.0
 10
44.4529931827
 20
68.5230997549
 30
0.0
 10
44.7007633032
 20
68.4442844991
 30
0.0
 10
44.8894856206
 20
68.4287196301
 30
0.0
  0
SPLINE
  5
4AA
100
AcDbEntity
  8
0
100
AcDbSpline
 62
7
  6
CONTINUOUS
 70
0
 71
3
 72
11
 73
7
 74
0
 42
0.0000001
 43
0.0000001
 44
0.0000000001
 40
0.0
 40
0.0
 40
0.0
 40
0.0
 40
0.2177817009
 40
0.4509079353
 40
0.7102947134
 40
1.0
 40
1.0
 40
1.0
 40
1.0
 10
15.1317949388
 20
75.1023872231
 30
0.0
 10
15.1317949564
 20
75.0071661887
 30
0.0
 10
15.1669838445
 20
74.8086954122
 30
0.0
 10
15.3174452542
 20
74.532162117
 30
0.0
 10
15.5553033494
 20
74.282187365
 30
0.0
 10
15.7543242881
 20
74.1451099121
 30
0.0
 10
15.8640228711
 20
74.0817768384
 30
0.0
  0
SPLINE
  5
4AB
100
AcDbEntity
  8
0
100
AcDbSpline
 62
7
  6
CONTINUOUS
 70
0
 71
3
 72
11
 73
7
 74
0
 42
0.0000001
 43
0.0000001
 44
0.0000000001
 40
0.0
 40
0.0
 40
0.0
 40
0.0
 40
0.2178555755
 40
0.4509686098
 40
0.7102617926
 40
1.0
 40
1.0
 40
1.0
 40
1.0
 10
15.1318228641
 20
76.3271409001
 30
0.0
 10
15.1318102306
 20
76.4223934784
 30
0.0
 10
15.1669505686
 20
76.6209093976
 30
0.0
 10
15.3175024341
 20
76.8973752628
 30
0.0
 10
15.5552666622
 20
77.1473781023
 30
0.0
 10
15.7542984296
 20
77.2844021756
 30
0.0
 10
15.8640081513
 20
77.3477427349
 30
0.0
  0
SPLINE
  5
4AC
100
AcDbEntity
  8
0
100
AcDbSpline
 62
7
  6
CONTINUOUS
 70
0
 71
3
 72
11
 73
7
 74
0
 42
0.0000001
 43
0.0000001
 44
0.0000000001
 40
0.0
 40
0.0
 40
0.0
 40
0.0
 40
0.2372542274
 40
0.5000017851
 40
0.7627483734
 40
1.0
 40
1.0
 40
1.0
 40
1.0
 10
19.9298552152
 20
81.0015504872
 30
0.0
 10
19.9298552152
 20
80.8160689749
 30
0.0
 10
19.8603129627
 20
80.4249119608
 30
0.0
 10
19.6177459393
 20
79.8753489499
 30
0.0
 10
19.2630975403
 20
79.3904981242
 30
0.0
 10
18.9591192563
 20
79.1346952979
 30
0.0
 10
18.7984890759
 20
79.0419559735
 30
0.0
  0
SPLINE
  5
4AD
100
AcDbEntity
  8
0
100
AcDbSpline
 62
7
  6
CONTINUOUS
 70
0
 71
3
 72
11
 73
7
 74
0
 42
0.0000001
 43
0.0000001
 44
0.0000000001
 40
0.0
 40
0.0
 40
0.0
 40
0.0
 40
0.2177821605
 40
0.4509085882
 40
0.7102951949
 40
1.0
 40
1.0
 40
1.0
 40
1.0
 10
15.1317949388
 20
87.0233225129
 30
0.0
 10
15.1317949655
 20
87.1185425217
 30
0.0
 10
15.1669830269
 20
87.3170110099
 30
0.0
 10
15.3174411957
 20
87.5935416261
 30
0.0
 10
15.5552944588
 20
87.8435145255
 30
0.0
 10
15.7543116203
 20
87.9805914556
 30
0.0
 10
15.8640081513
 20
88.0439243992
 30
0.0
  0
SPLINE
  5
4AE
100
AcDbEntity
  8
0
100
AcDbSpline
 62
7
  6
CONTINUOUS
 70
0
 71
3
 72
9
 73
5
 74
0
 42
0.0000001
 43
0.0000001
 44
0.0000000001
 40
0.0
 40
0.0
 40
0.0
 40
0.0
 40
0.2408692492
 40
1.0
 40
1.0
 40
1.0
 40
1.0
 10
30.7415629127
 20
76.3517290638
 30
0.0
 10
30.7415629127
 20
76.3585648764
 30
0.0
 10
30.74092864
 20
76.3869433972
 30
0.0
 10
30.7379072203
 20
76.4152493754
 30
0.0
 10
30.7345273126
 20
76.4365265486
 30
0.0
  0
SPLINE
  5
4AF
100
AcDbEntity
  8
0
100
AcDbSpline
 62
7
  6
CONTINUOUS
 70
0
 71
3
 72
9
 73
5
 74
0
 42
0.0000001
 43
0.0000001
 44
0.0000000001
 40
0.0
 40
0.0
 40
0.0
 40
0.0
 40
0.2396840461
 40
1.0
 40
1.0
 40
1.0
 40
1.0
 10
53.8637788583
 20
59.3306568534
 30
0.0
 10
53.8437369488
 20
59.3241042275
 30
0.0
 10
53.7609317956
 20
59.2942983187
 30
0.0
 10
53.6815587854
 20
59.2552860291
 30
0.0
 10
53.6236321462
 20
59.221842268
 30
0.0
  0
SPLINE
  5
4B0
100
AcDbEntity
  8
0
100
AcDbSpline
 62
7
  6
CONTINUOUS
 70
0
 71
3
 72
11
 73
7
 74
0
 42
0.0000001
 43
0.0000001
 44
0.0000000001
 40
0.0
 40
0.0
 40
0.0
 40
0.0
 40
0.2209430166
 40
0.4592712793
 40
0.7185883287
 40
1.0
 40
1.0
 40
1.0
 40
1.0
 10
46.0174847588
 20
65.940191281
 30
0.0
 10
46.0889300336
 20
66.0224151808
 30
0.0
 10
46.2166695816
 20
66.212095831
 30
0.0
 10
46.3502935922
 20
66.5423817332
 30
0.0
 10
46.4301788819
 20
66.9197487443
 30
0.0
 10
46.4464699082
 20
67.1867877894
 30
0.0
 10
46.4464699082
 20
67.3255270267
 30
0.0
  0
SPLINE
  5
4B1
100
AcDbEntity
  8
0
100
AcDbSpline
 62
7
  6
CONTINUOUS
 70
0
 71
3
 72
11
 73
7
 74
0
 42
0.0000001
 43
0.0000001
 44
0.0000000001
 40
0.0
 40
0.0
 40
0.0
 40
0.0
 40
0.2279723256
 40
0.4775432631
 40
0.7387716657
 40
1.0
 40
1.0
 40
1.0
 40
1.0
 10
43.4752691143
 20
58.1407770208
 30
0.0
 10
43.6387473066
 20
58.0463949777
 30
0.0
 10
44.0049388972
 20
57.8889369427
 30
0.0
 10
44.6031023383
 20
57.749524979
 30
0.0
 10
45.2429463083
 20
57.70192927
 30
0.0
 10
45.6763249892
 20
57.7341459732
 30
0.0
 10
45.8900863739
 20
57.7672150525
 30
0.0
  0
SPLINE
  5
4B2
100
AcDbEntity
  8
0
100
AcDbSpline
 62
7
  6
CONTINUOUS
 70
0
 71
3
 72
9
 73
5
 74
0
 42
0.0000001
 43
0.0000001
 44
0.0000000001
 40
0.0
 40
0.0
 40
0.0
 40
0.0
 40
0.2508589776
 40
1.0
 40
1.0
 40
1.0
 40
1.0
 10
44.8894856206
 20
68.4287196301
 30
0.0
 10
44.9730294809
 20
68.4218293521
 30
0.0
 10
45.3067863139
 20
68.4042466399
 30
0.0
 10
45.6426948046
 20
68.4251250174
 30
0.0
 10
45.8900863739
 20
68.4633967166
 30
0.0
  0
SPLINE
  5
4B3
100
AcDbEntity
  8
0
100
AcDbSpline
 62
7
  6
CONTINUOUS
 70
0
 71
3
 72
9
 73
5
 74
0
 42
0.0000001
 43
0.0000001
 44
0.0000000001
 40
0.0
 40
0.0
 40
0.0
 40
0.0
 40
0.230331273
 40
1.0
 40
1.0
 40
1.0
 40
1.0
 10
46.3115935172
 20
66.355358004
 30
0.0
 10
46.2334944665
 20
66.3636766514
 30
0.0
 10
45.8967813822
 20
66.4222694228
 30
0.0
 10
45.5777273276
 20
66.5614628347
 30
0.0
 10
45.350437764
 20
66.6926855568
 30
0.0
  0
SPLINE
  5
4B4
100
AcDbEntity
  8
0
100
AcDbSpline
 62
7
  6
CONTINUOUS
 70
0
 71
3
 72
11
 73
7
 74
0
 42
0.0000001
 43
0.0000001
 44
0.0000000001
 40
0.0
 40
0.0
 40
0.0
 40
0.0
 40
0.2897052857
 40
0.5490919933
 40
0.7822182543
 40
1.0
 40
1.0
 40
1.0
 40
1.0
 10
15.8640228711
 20
86.0027121282
 30
0.0
 10
15.754324288
 20
86.0660452019
 30
0.0
 10
15.5553033512
 20
86.203122604
 30
0.0
 10
15.3174452851
 20
86.4530973677
 30
0.0
 10
15.1669838866
 20
86.72963065
 30
0.0
 10
15.1317949121
 20
86.9281014586
 30
0.0
 10
15.1317949388
 20
87.0233225129
 30
0.0
  0
SPLINE
  5
4B5
100
AcDbEntity
  8
0
100
AcDbSpline
 62
7
  6
CONTINUOUS
 70
0
 71
3
 72
11
 73
7
 74
0
 42
0.0000001
 43
0.0000001
 44
0.0000000001
 40
0.0
 40
0.0
 40
0.0
 40
0.0
 40
0.2612283343
 40
0.5224567369
 40
0.7720276744
 40
1.0
 40
1.0
 40
1.0
 40
1.0
 10
45.8900863739
 20
69.6881503423
 30
0.0
 10
45.6763249892
 20
69.6550812631
 30
0.0
 10
45.2429463083
 20
69.6228645598
 30
0.0
 10
44.6031023383
 20
69.6704602689
 30
0.0
 10
44.0049388972
 20
69.8098722325
 30
0.0
 10
43.6387473066
 20
69.9673302675
 30
0.0
 10
43.4752691143
 20
70.0617123107
 30
0.0
  0
SPLINE
  5
4B6
100
AcDbEntity
  8
0
100
AcDbSpline
 62
7
  6
CONTINUOUS
 70
0
 71
3
 72
9
 73
5
 74
0
 42
0.0000001
 43
0.0000001
 44
0.0000000001
 40
0.0
 40
0.0
 40
0.0
 40
0.0
 40
0.542639478
 40
1.0
 40
1.0
 40
1.0
 40
1.0
 10
15.8640228711
 20
85.1862097111
 30
0.0
 10
15.7721023771
 20
85.1918111518
 30
0.0
 10
15.6031068941
 20
85.2092418954
 30
0.0
 10
15.4384809835
 20
85.2624263938
 30
0.0
 10
15.3713469995
 20
85.3013832827
 30
0.0
  0
SPLINE
  5
4B7
100
AcDbEntity
  8
0
100
AcDbSpline
 62
7
  6
CONTINUOUS
 70
0
 71
3
 72
9
 73
5
 74
0
 42
0.0000001
 43
0.0000001
 44
0.0000000001
 40
0.0
 40
0.0
 40
0.0
 40
0.0
 40
0.4761106809
 40
1.0
 40
1.0
 40
1.0
 40
1.0
 10
36.4762227836
 20
73.0817216655
 30
0.0
 10
36.4762227836
 20
72.7740388198
 30
0.0
 10
36.5622096158
 20
72.1272111229
 30
0.0
 10
36.7704884068
 20
71.5116489839
 30
0.0
 10
36.905207933
 20
71.2010477429
 30
0.0
  0
SPLINE
  5
4B8
100
AcDbEntity
  8
0
100
AcDbSpline
 62
7
  6
CONTINUOUS
 70
0
 71
3
 72
11
 73
7
 74
0
 42
0.0000001
 43
0.0000001
 44
0.0000000001
 40
0.0
 40
0.0
 40
0.0
 40
0.0
 40
0.2372444228
 40
0.5000010918
 40
0.7627571666
 40
1.0
 40
1.0
 40
1.0
 40
1.0
 10
23.8825985788
 20
80.3116643826
 30
0.0
 10
23.8825985788
 20
80.2537038039
 30
0.0
 10
23.9043440092
 20
80.1314717917
 30
0.0
 10
23.9801134619
 20
79.9597152774
 30
0.0
 10
24.0909746956
 20
79.8082195662
 30
0.0
 10
24.1859581601
 20
79.7282724003
 30
0.0
 10
24.2361534413
 20
79.6992927968
 30
0.0
  0
SPLINE
  5
4B9
100
AcDbEntity
  8
0
100
AcDbSpline
 62
7
  6
CONTINUOUS
 70
0
 71
3
 72
11
 73
7
 74
0
 42
0.0000001
 43
0.0000001
 44
0.0000000001
 40
0.0
 40
0.0
 40
0.0
 40
0.0
 40
0.2277335828
 40
0.4761037499
 40
0.7368284309
 40
1.0
 40
1.0
 40
1.0
 40
1.0
 10
40.4713806605
 20
69.509546763
 30
0.0
 10
40.2541115744
 20
69.6349842905
 30
0.0
 10
39.8280523529
 20
69.9471571054
 30
0.0
 10
39.2600234479
 20
70.5311064791
 30
0.0
 10
38.7600829115
 20
71.2228768557
 30
0.0
 10
38.4886445655
 20
71.7347053986
 30
0.0
 10
38.3714596699
 20
71.9998859995
 30
0.0
  0
SPLINE
  5
4BA
100
AcDbEntity
  8
0
100
AcDbSpline
 62
7
  6
CONTINUOUS
 70
0
 71
3
 72
9
 73
5
 74
0
 42
0.0000001
 43
0.0000001
 44
0.0000000001
 40
0.0
 40
0.0
 40
0.0
 40
0.0
 40
0.2564372713
 40
1.0
 40
1.0
 40
1.0
 40
1.0
 10
43.7240853961
 20
68.7747426762
 30
0.0
 10
43.7585773817
 20
68.7548291695
 30
0.0
 10
43.8941979651
 20
68.6791359849
 30
0.0
 10
44.0343362527
 20
68.6114422316
 30
0.0
 10
44.1407588584
 20
68.5666006416
 30
0.0
  0
SPLINE
  5
4BB
100
AcDbEntity
  8
0
100
AcDbSpline
 62
7
  6
CONTINUOUS
 70
0
 71
3
 72
9
 73
5
 74
0
 42
0.0000001
 43
0.0000001
 44
0.0000000001
 40
0.0
 40
0.0
 40
0.0
 40
0.0
 40
0.2548814461
 40
1.0
 40
1.0
 40
1.0
 40
1.0
 10
44.1407588584
 20
68.5666006416
 30
0.0
 10
44.1640361616
 20
68.5567926569
 30
0.0
 10
44.2557909242
 20
68.5193424479
 30
0.0
 10
44.3492777196
 20
68.4860979933
 30
0.0
 10
44.4197572417
 20
68.4640666597
 30
0.0
  0
SPLINE
  5
4BC
100
AcDbEntity
  8
0
100
AcDbSpline
 62
7
  6
CONTINUOUS
 70
0
 71
3
 72
9
 73
5
 74
0
 42
0.0000001
 43
0.0000001
 44
0.0000000001
 40
0.0
 40
0.0
 40
0.0
 40
0.0
 40
0.2569918812
 40
1.0
 40
1.0
 40
1.0
 40
1.0
 10
44.4197572417
 20
68.4640666597
 30
0.0
 10
44.4512130708
 20
68.4542338197
 30
0.0
 10
44.5742590735
 20
68.4180951459
 30
0.0
 10
44.6999244314
 20
68.3906763628
 30
0.0
 10
44.7940923968
 20
68.3761357558
 30
0.0
  0
SPLINE
  5
4BD
100
AcDbEntity
  8
0
100
AcDbSpline
 62
7
  6
CONTINUOUS
 70
0
 71
3
 72
9
 73
5
 74
0
 42
0.0000001
 43
0.0000001
 44
0.0000000001
 40
0.0
 40
0.0
 40
0.0
 40
0.0
 40
0.5148085974
 40
1.0
 40
1.0
 40
1.0
 40
1.0
 10
44.9180444315
 20
68.3604934787
 30
0.0
 10
45.0470674001
 20
68.3479141307
 30
0.0
 10
45.3007424346
 20
68.3461490306
 30
0.0
 10
45.549486136
 20
68.399195955
 30
0.0
 10
45.6650081513
 20
68.4389682098
 30
0.0
  0
SPLINE
  5
4BE
100
AcDbEntity
  8
0
100
AcDbSpline
 62
7
  6
CONTINUOUS
 70
0
 71
3
 72
10
 73
6
 74
0
 42
0.0000001
 43
0.0000001
 44
0.0000000001
 40
0.0
 40
0.0
 40
0.0
 40
0.0
 40
0.524430535
 40
0.770458154
 40
1.0
 40
1.0
 40
1.0
 40
1.0
 10
44.2004807637
 20
65.2046511505
 30
0.0
 10
44.461564997
 20
65.2369970217
 30
0.0
 10
44.8432341022
 20
65.3118789177
 30
0.0
 10
45.3175392448
 20
65.4771209513
 30
0.0
 10
45.5333312875
 20
65.5807753465
 30
0.0
 10
45.6330551796
 20
65.6383475695
 30
0.0
  0
SPLINE
  5
4BF
100
AcDbEntity
  8
0
100
AcDbSpline
 62
7
  6
CONTINUOUS
 70
0
 71
3
 72
10
 73
6
 74
0
 42
0.0000001
 43
0.0000001
 44
0.0000000001
 40
0.0
 40
0.0
 40
0.0
 40
0.0
 40
0.2668553448
 40
0.5279520864
 40
1.0
 40
1.0
 40
1.0
 40
1.0
 10
36.905207933
 20
71.2010477429
 30
0.0
 10
36.9861670454
 20
71.0143932802
 30
0.0
 10
37.125539269
 20
70.6361589162
 30
0.0
 10
37.3503424252
 20
69.9075759507
 30
0.0
 10
37.4951683131
 20
69.3675873194
 30
0.0
 10
37.5908457887
 20
69.0206393534
 30
0.0
  0
SPLINE
  5
4C0
100
AcDbEntity
  8
0
100
AcDbSpline
 62
7
  6
CONTINUOUS
 70
0
 71
3
 72
10
 73
6
 74
0
 42
0.0000001
 43
0.0000001
 44
0.0000000001
 40
0.0
 40
0.0
 40
0.0
 40
0.0
 40
0.2066178076
 40
0.4531279565
 40
1.0
 40
1.0
 40
1.0
 40
1.0
 10
15.156910202
 20
76.1230136725
 30
0.0
 10
15.18048578
 20
76.0277383039
 30
0.0
 10
15.2524082791
 20
75.8237993237
 30
0.0
 10
15.4635720801
 20
75.3976847933
 30
0.0
 10
15.6887311073
 20
75.0900022605
 30
0.0
 10
15.8640228711
 20
74.8982792553
 30
0.0
  0
SPLINE
  5
4C1
100
AcDbEntity
  8
0
100
AcDbSpline
 62
7
  6
CONTINUOUS
 70
0
 71
3
 72
9
 73
5
 74
0
 42
0.0000001
 43
0.0000001
 44
0.0000000001
 40
0.0
 40
0.0
 40
0.0
 40
0.0
 40
0.24783927
 40
1.0
 40
1.0
 40
1.0
 40
1.0
 10
45.8900863739
 20
58.9919686779
 30
0.0
 10
45.8082406543
 20
58.9793070712
 30
0.0
 10
45.4765056848
 20
58.9383844626
 30
0.0
 10
45.1399812087
 20
58.9366319733
 30
0.0
 10
44.8894856206
 20
58.9572915914
 30
0.0
  0
SPLINE
  5
4C2
100
AcDbEntity
  8
0
100
AcDbSpline
 62
7
  6
CONTINUOUS
 70
0
 71
3
 72
11
 73
7
 74
0
 42
0.0000001
 43
0.0000001
 44
0.0000000001
 40
0.0
 40
0.0
 40
0.0
 40
0.0
 40
0.2081582609
 40
0.4453281361
 40
0.7106378032
 40
1.0
 40
1.0
 40
1.0
 40
1.0
 10
43.4752691143
 20
58.9572794377
 30
0.0
 10
43.5732452828
 20
58.951308977
 30
0.0
 10
43.7834405362
 20
58.9490849523
 30
0.0
 10
44.118369787
 20
58.9597560426
 30
0.0
 10
44.4914822692
 20
58.9719716338
 30
0.0
 10
44.7534973661
 20
58.9685072197
 30
0.0
 10
44.8894856206
 20
58.9572915914
 30
0.0
  0
SPLINE
  5
4C3
100
AcDbEntity
  8
0
100
AcDbSpline
 62
7
  6
CONTINUOUS
 70
0
 71
3
 72
9
 73
5
 74
0
 42
0.0000001
 43
0.0000001
 44
0.0000000001
 40
0.0
 40
0.0
 40
0.0
 40
0.0
 40
0.2469905277
 40
1.0
 40
1.0
 40
1.0
 40
1.0
 10
43.4752691143
 20
69.2452098935
 30
0.0
 10
43.5256163736
 20
69.1901432568
 30
0.0
 10
43.7365543474
 20
68.9739974352
 30
0.0
 10
43.9779748239
 20
68.7858531166
 30
0.0
 10
44.174983957
 20
68.6721286105
 30
0.0
  0
SPLINE
  5
4C4
100
AcDbEntity
  8
0
100
AcDbSpline
 62
7
  6
CONTINUOUS
 70
0
 71
3
 72
9
 73
5
 74
0
 42
0.0000001
 43
0.0000001
 44
0.0000000001
 40
0.0
 40
0.0
 40
0.0
 40
0.0
 40
0.2586622356
 40
1.0
 40
1.0
 40
1.0
 40
1.0
 10
54.7544457262
 20
58.6091351491
 30
0.0
 10
54.7539341269
 20
58.6277345692
 30
0.0
 10
54.7505384801
 20
58.6995877286
 30
0.0
 10
54.7413452933
 20
58.7712214061
 30
0.0
 10
54.7307131789
 20
58.8234777126
 30
0.0
  0
SPLINE
  5
4C5
100
AcDbEntity
  8
0
100
AcDbSpline
 62
7
  6
CONTINUOUS
 70
0
 71
3
 72
9
 73
5
 74
0
 42
0.0000001
 43
0.0000001
 44
0.0000000001
 40
0.0
 40
0.0
 40
0.0
 40
0.0
 40
0.5159007403
 40
1.0
 40
1.0
 40
1.0
 40
1.0
 10
53.3554707968
 20
68.9712102575
 30
0.0
 10
53.3285954187
 20
69.0281459832
 30
0.0
 10
53.2624895287
 20
69.1329426493
 30
0.0
 10
53.1665824005
 20
69.2123763666
 30
0.0
 10
53.1154363772
 20
69.2419468114
 30
0.0
  0
SPLINE
  5
4C6
100
AcDbEntity
  8
0
100
AcDbSpline
 62
7
  6
CONTINUOUS
 70
0
 71
3
 72
11
 73
7
 74
0
 42
0.0000001
 43
0.0000001
 44
0.0000000001
 40
0.0
 40
0.0
 40
0.0
 40
0.0
 40
0.2372518718
 40
0.4999985497
 40
0.7627460178
 40
1.0
 40
1.0
 40
1.0
 40
1.0
 10
53.6236321465
 20
71.1427775582
 30
0.0
 10
53.784262493
 20
71.2355169784
 30
0.0
 10
54.0882409467
 20
71.491320034
 30
0.0
 10
54.4428893381
 20
71.9761711027
 30
0.0
 10
54.6854561472
 20
72.5257339986
 30
0.0
 10
54.754998286
 20
72.9168907512
 30
0.0
 10
54.754998286
 20
73.1023720718
 30
0.0
  0
SPLINE
  5
4C7
100
AcDbEntity
  8
0
100
AcDbSpline
 62
7
  6
CONTINUOUS
 70
0
 71
3
 72
11
 73
7
 74
0
 42
0.0000001
 43
0.0000001
 44
0.0000000001
 40
0.0
 40
0.0
 40
0.0
 40
0.0
 40
0.2895411595
 40
0.5491183966
 40
0.7822559144
 40
1.0
 40
1.0
 40
1.0
 40
1.0
 10
113.3031960073
 20
121.3979059164
 30
0.0
 10
113.3031960073
 20
121.3168837533
 30
0.0
 10
113.3155672737
 20
121.1627127896
 30
0.0
 10
113.3778922467
 20
120.9508549285
 30
0.0
 10
113.48302275
 20
120.7788851094
 30
0.0
 10
113.5818521926
 20
120.6959906987
 30
0.0
 10
113.6346204816
 20
120.6655256113
 30
0.0
  0
SPLINE
  5
4C8
100
AcDbEntity
  8
0
100
AcDbSpline
 62
7
  6
CONTINUOUS
 70
0
 71
3
 72
11
 73
7
 74
0
 42
0.0000001
 43
0.0000001
 44
0.0000000001
 40
0.0
 40
0.0
 40
0.0
 40
0.0
 40
0.2059957193
 40
0.4348826082
 40
0.6993256679
 40
1.0
 40
1.0
 40
1.0
 40
1.0
 10
61.8238382523
 20
131.4864627926
 30
0.0
 10
61.823816149
 20
131.4124499789
 30
0.0
 10
61.8608200245
 20
131.2548183288
 30
0.0
 10
62.0117217501
 20
131.0480044054
 30
0.0
 10
62.2413603025
 20
130.8738958809
 30
0.0
 10
62.4272981752
 20
130.788700585
 30
0.0
 10
62.5289177743
 20
130.7520402996
 30
0.0
  0
SPLINE
  5
4C9
100
AcDbEntity
  8
0
100
AcDbSpline
 62
7
  6
CONTINUOUS
 70
0
 71
3
 72
11
 73
7
 74
0
 42
0.0000001
 43
0.0000001
 44
0.0000000001
 40
0.0
 40
0.0
 40
0.0
 40
0.0
 40
0.2177314296
 40
0.4508652856
 40
0.7104423869
 40
1.0
 40
1.0
 40
1.0
 40
1.0
 10
32.5037671138
 20
120.4996469833
 30
0.0
 10
32.5037706737
 20
120.5472451625
 30
0.0
 10
32.5212648116
 20
120.6464814301
 30
0.0
 10
32.5965374804
 20
120.7847806972
 30
0.0
 10
32.7155265309
 20
120.9097079034
 30
0.0
 10
32.8150049722
 20
120.9782980102
 30
0.0
 10
32.8698245246
 20
121.0099479046
 30
0.0
  0
SPLINE
  5
4CA
100
AcDbEntity
  8
0
100
AcDbSpline
 62
7
  6
CONTINUOUS
 70
0
 71
3
 72
11
 73
7
 74
0
 42
0.0000001
 43
0.0000001
 44
0.0000000001
 40
0.0
 40
0.0
 40
0.0
 40
0.0
 40
0.2177817009
 40
0.4509079353
 40
0.7102947134
 40
1.0
 40
1.0
 40
1.0
 40
1.0
 10
101.1537134756
 20
121.2345851393
 30
0.0
 10
101.1537134915
 20
121.1488862083
 30
0.0
 10
101.1853834908
 20
120.9702625094
 30
0.0
 10
101.3207987594
 20
120.7213825438
 30
0.0
 10
101.5348710451
 20
120.496405267
 30
0.0
 10
101.7139898899
 20
120.3730355593
 30
0.0
 10
101.8127186146
 20
120.3160357931
 30
0.0
  0
SPLINE
  5
4CB
100
AcDbEntity
  8
0
100
AcDbSpline
 62
7
  6
CONTINUOUS
 70
0
 71
3
 72
11
 73
7
 74
0
 42
0.0000001
 43
0.0000001
 44
0.0000000001
 40
0.0
 40
0.0
 40
0.0
 40
0.0
 40
0.2177817009
 40
0.4509079353
 40
0.7102947134
 40
1.0
 40
1.0
 40
1.0
 40
1.0
 10
74.2128812285
 20
130.0933816377
 30
0.0
 10
74.2128812444
 20
130.0076827067
 30
0.0
 10
74.2445512437
 20
129.8290590079
 30
0.0
 10
74.3799665124
 20
129.5801790422
 30
0.0
 10
74.5940387981
 20
129.3552017654
 30
0.0
 10
74.7731576429
 20
129.2318320578
 30
0.0
 10
74.8718863676
 20
129.1748322915
 30
0.0
  0
SPLINE
  5
4CC
100
AcDbEntity
  8
0
100
AcDbSpline
 62
7
  6
CONTINUOUS
 70
0
 71
3
 72
11
 73
7
 74
0
 42
0.0000001
 43
0.0000001
 44
0.0000000001
 40
0.0
 40
0.0
 40
0.0
 40
0.0
 40
0.2177817009
 40
0.4509079353
 40
0.7102947134
 40
1.0
 40
1.0
 40
1.0
 40
1.0
 10
66.0812524566
 20
116.335591385
 30
0.0
 10
66.0812524725
 20
116.2498924541
 30
0.0
 10
66.1129224718
 20
116.0712687552
 30
0.0
 10
66.2483377405
 20
115.8223887895
 30
0.0
 10
66.4624100262
 20
115.5974115127
 30
0.0
 10
66.641528871
 20
115.4740418051
 30
0.0
 10
66.7402575957
 20
115.4170420388
 30
0.0
  0
SPLINE
  5
4CD
100
AcDbEntity
  8
0
100
AcDbSpline
 62
7
  6
CONTINUOUS
 70
0
 71
3
 72
11
 73
7
 74
0
 42
0.0000001
 43
0.0000001
 44
0.0000000001
 40
0.0
 40
0.0
 40
0.0
 40
0.0
 40
0.2177817009
 40
0.4509079353
 40
0.7102947134
 40
1.0
 40
1.0
 40
1.0
 40
1.0
 10
36.7362689294
 20
123.5614122878
 30
0.0
 10
36.7362689453
 20
123.4757133568
 30
0.0
 10
36.7679389446
 20
123.2970896579
 30
0.0
 10
36.9033542133
 20
123.0482096922
 30
0.0
 10
37.117426499
 20
122.8232324155
 30
0.0
 10
37.2965453438
 20
122.6998627078
 30
0.0
 10
37.3952740685
 20
122.6428629415
 30
0.0
  0
SPLINE
  5
4CE
100
AcDbEntity
  8
0
100
AcDbSpline
 62
7
  6
CONTINUOUS
 70
0
 71
3
 72
11
 73
7
 74
0
 42
0.0000001
 43
0.0000001
 44
0.0000000001
 40
0.0
 40
0.0
 40
0.0
 40
0.0
 40
0.2177817009
 40
0.4509079353
 40
0.7102947134
 40
1.0
 40
1.0
 40
1.0
 40
1.0
 10
60.9902367184
 20
95.1069715292
 30
0.0
 10
60.9902367343
 20
95.0212725982
 30
0.0
 10
61.0219067336
 20
94.8426488993
 30
0.0
 10
61.1573220022
 20
94.5937689337
 30
0.0
 10
61.371394288
 20
94.3687916569
 30
0.0
 10
61.5505131327
 20
94.2454219492
 30
0.0
 10
61.6492418575
 20
94.1884221829
 30
0.0
  0
SPLINE
  5
4CF
100
AcDbEntity
  8
0
100
AcDbSpline
 62
7
  6
CONTINUOUS
 70
0
 71
3
 72
12
 73
8
 74
0
 42
0.0000001
 43
0.0000001
 44
0.0000000001
 40
0.0
 40
0.0
 40
0.0
 40
0.0
 40
0.1081727011
 40
0.218361355
 40
0.451364077
 40
0.7104196766
 40
1.0
 40
1.0
 40
1.0
 40
1.0
 10
31.6862583946
 20
123.5614122861
 30
0.0
 10
31.6862438836
 20
123.6996232656
 30
0.0
 10
31.7103051413
 20
123.9791994539
 30
0.0
 10
31.8555300559
 20
124.5396900955
 30
0.0
 10
32.2283500813
 20
125.2269370256
 30
0.0
 10
32.9227186447
 20
125.956274697
 30
0.0
 10
33.5039325878
 20
126.3565739476
 30
0.0
 10
33.8243567087
 20
126.5415697957
 30
0.0
  0
SPLINE
  5
4D0
100
AcDbEntity
  8
0
100
AcDbSpline
 62
7
  6
CONTINUOUS
 70
0
 71
3
 72
13
 73
9
 74
0
 42
0.0000001
 43
0.0000001
 44
0.0000000001
 40
0.0
 40
0.0
 40
0.0
 40
0.0
 40
0.1142249338
 40
0.2375584468
 40
0.4999994088
 40
0.7624406902
 40
0.885774603
 40
1.0
 40
1.0
 40
1.0
 40
1.0
 10
85.1601841982
 20
142.5447693825
 30
0.0
 10
85.2811678853
 20
142.6146189299
 30
0.0
 10
85.5458481855
 20
142.737836389
 30
0.0
 10
86.1323510154
 20
142.9160320723
 30
0.0
 10
86.9279481643
 20
143.0025379126
 30
0.0
 10
87.7235461802
 20
142.9160358416
 30
0.0
 10
88.3100513666
 20
142.7378429906
 30
0.0
 10
88.5747334226
 20
142.614626839
 30
0.0
 10
88.6957181041
 20
142.5447778808
 30
0.0
  0
SPLINE
  5
4D1
100
AcDbEntity
  8
0
100
AcDbSpline
 62
7
  6
CONTINUOUS
 70
0
 71
3
 72
11
 73
7
 74
0
 42
0.0000001
 43
0.0000001
 44
0.0000000001
 40
0.0
 40
0.0
 40
0.0
 40
0.0
 40
0.2277712323
 40
0.4764431395
 40
0.7372946891
 40
1.0
 40
1.0
 40
1.0
 40
1.0
 10
33.8243567087
 20
126.5415697957
 30
0.0
 10
34.2748353369
 20
126.8016522005
 30
0.0
 10
35.278925936
 20
127.2410462943
 30
0.0
 10
36.919413865
 20
127.6473448908
 30
0.0
 10
38.680971177
 20
127.8145960747
 30
0.0
 10
39.8801366445
 20
127.7590180069
 30
0.0
 10
40.4757864656
 20
127.687340218
 30
0.0
  0
SPLINE
  5
4D2
100
AcDbEntity
  8
0
100
AcDbSpline
 62
7
  6
CONTINUOUS
 70
0
 71
3
 72
11
 73
7
 74
0
 42
0.0000001
 43
0.0000001
 44
0.0000000001
 40
0.0
 40
0.0
 40
0.0
 40
0.0
 40
0.2372398078
 40
0.4999994051
 40
0.7627593222
 40
1.0
 40
1.0
 40
1.0
 40
1.0
 10
56.6638300808
 20
137.0334557681
 30
0.0
 10
56.8646082479
 20
137.1493744049
 30
0.0
 10
57.3315152905
 20
137.3185271034
 30
0.0
 10
58.078041248
 20
137.3995700637
 30
0.0
 10
58.8245684404
 20
137.3185305741
 30
0.0
 10
59.2914774664
 20
137.1493801808
 30
0.0
 10
59.4922572056
 20
137.0334625668
 30
0.0
  0
SPLINE
  5
4D3
100
AcDbEntity
  8
0
100
AcDbSpline
 62
7
  6
CONTINUOUS
 70
0
 71
3
 72
13
 73
9
 74
0
 42
0.0000001
 43
0.0000001
 44
0.0000000001
 40
0.0
 40
0.0
 40
0.0
 40
0.0
 40
0.1142253587
 40
0.237559206
 40
0.5000004539
 40
0.7624414493
 40
0.885775028
 40
1.0
 40
1.0
 40
1.0
 40
1.0
 10
61.6492418575
 20
94.1884221829
 30
0.0
 10
61.7581280343
 20
94.1255581416
 30
0.0
 10
61.9963417638
 20
94.0146636183
 30
0.0
 10
62.5241962893
 20
93.8542901
 30
0.0
 10
63.2402344118
 20
93.7764381544
 30
0.0
 10
63.9562719376
 20
93.8542933288
 30
0.0
 10
64.4841246268
 20
94.0146694914
 30
0.0
 10
64.7223370179
 20
94.1255652178
 30
0.0
 10
64.8312223728
 20
94.1884298315
 30
0.0
  0
SPLINE
  5
4D4
100
AcDbEntity
  8
0
100
AcDbSpline
 62
7
  6
CONTINUOUS
 70
0
 71
3
 72
11
 73
7
 74
0
 42
0.0000001
 43
0.0000001
 44
0.0000000001
 40
0.0
 40
0.0
 40
0.0
 40
0.0
 40
0.2897048043
 40
0.5490913404
 40
0.7822177947
 40
1.0
 40
1.0
 40
1.0
 40
1.0
 10
64.8312223728
 20
94.1884298315
 30
0.0
 10
64.9299492507
 20
94.2454294808
 30
0.0
 10
65.1090646944
 20
94.3687986721
 30
0.0
 10
65.3231326048
 20
94.593774292
 30
0.0
 10
65.4585449468
 20
94.8426518351
 30
0.0
 10
65.4902142799
 20
95.0212735033
 30
0.0
 10
65.490214264
 20
95.1069715291
 30
0.0
  0
SPLINE
  5
4D5
100
AcDbEntity
  8
0
100
AcDbSpline
 62
7
  6
CONTINUOUS
 70
0
 71
3
 72
13
 73
9
 74
0
 42
0.0000001
 43
0.0000001
 44
0.0000000001
 40
0.0
 40
0.0
 40
0.0
 40
0.0
 40
0.1142253587
 40
0.237559206
 40
0.5000004539
 40
0.7624414493
 40
0.885775028
 40
1.0
 40
1.0
 40
1.0
 40
1.0
 10
37.3952740685
 20
122.6428629415
 30
0.0
 10
37.5041602453
 20
122.5799989002
 30
0.0
 10
37.7423739748
 20
122.4691043769
 30
0.0
 10
38.2702285004
 20
122.3087308586
 30
0.0
 10
38.9862666228
 20
122.2308789129
 30
0.0
 10
39.7023041487
 20
122.3087340874
 30
0.0
 10
40.2301568379
 20
122.46911025
 30
0.0
 10
40.4683692289
 20
122.5800059764
 30
0.0
 10
40.5772545838
 20
122.6428705901
 30
0.0
  0
SPLINE
  5
4D6
100
AcDbEntity
  8
0
100
AcDbSpline
 62
7
  6
CONTINUOUS
 70
0
 71
3
 72
11
 73
7
 74
0
 42
0.0000001
 43
0.0000001
 44
0.0000000001
 40
0.0
 40
0.0
 40
0.0
 40
0.0
 40
0.2897048043
 40
0.5490913404
 40
0.7822177947
 40
1.0
 40
1.0
 40
1.0
 40
1.0
 10
40.5772545838
 20
122.6428705901
 30
0.0
 10
40.6759814617
 20
122.6998702394
 30
0.0
 10
40.8550969054
 20
122.8232394306
 30
0.0
 10
41.0691648159
 20
123.0482150506
 30
0.0
 10
41.2045771579
 20
123.2970925937
 30
0.0
 10
41.2362464909
 20
123.4757142619
 30
0.0
 10
41.236246475
 20
123.5614122877
 30
0.0
  0
SPLINE
  5
4D7
100
AcDbEntity
  8
0
100
AcDbSpline
 62
7
  6
CONTINUOUS
 70
0
 71
3
 72
13
 73
9
 74
0
 42
0.0000001
 43
0.0000001
 44
0.0000000001
 40
0.0
 40
0.0
 40
0.0
 40
0.0
 40
0.1142253587
 40
0.237559206
 40
0.5000004539
 40
0.7624414493
 40
0.885775028
 40
1.0
 40
1.0
 40
1.0
 40
1.0
 10
66.7402575957
 20
115.4170420388
 30
0.0
 10
66.8491437725
 20
115.3541779975
 30
0.0
 10
67.087357502
 20
115.2432834741
 30
0.0
 10
67.6152120276
 20
115.0829099559
 30
0.0
 10
68.33125015
 20
115.0050580102
 30
0.0
 10
69.0472876759
 20
115.0829131847
 30
0.0
 10
69.5751403651
 20
115.2432893473
 30
0.0
 10
69.8133527561
 20
115.3541850736
 30
0.0
 10
69.922238111
 20
115.4170496873
 30
0.0
  0
SPLINE
  5
4D8
100
AcDbEntity
  8
0
100
AcDbSpline
 62
7
  6
CONTINUOUS
 70
0
 71
3
 72
11
 73
7
 74
0
 42
0.0000001
 43
0.0000001
 44
0.0000000001
 40
0.0
 40
0.0
 40
0.0
 40
0.0
 40
0.2897048043
 40
0.5490913404
 40
0.7822177947
 40
1.0
 40
1.0
 40
1.0
 40
1.0
 10
69.922238111
 20
115.4170496873
 30
0.0
 10
70.0209649889
 20
115.4740493366
 30
0.0
 10
70.2000804326
 20
115.5974185279
 30
0.0
 10
70.4141483431
 20
115.8223941479
 30
0.0
 10
70.5495606851
 20
116.0712716909
 30
0.0
 10
70.5812300181
 20
116.2498933591
 30
0.0
 10
70.5812300022
 20
116.335591385
 30
0.0
  0
SPLINE
  5
4D9
100
AcDbEntity
  8
0
100
AcDbSpline
 62
7
  6
CONTINUOUS
 70
0
 71
3
 72
13
 73
9
 74
0
 42
0.0000001
 43
0.0000001
 44
0.0000000001
 40
0.0
 40
0.0
 40
0.0
 40
0.0
 40
0.1142253587
 40
0.237559206
 40
0.5000004539
 40
0.7624414493
 40
0.885775028
 40
1.0
 40
1.0
 40
1.0
 40
1.0
 10
74.8718863676
 20
129.1748322915
 30
0.0
 10
74.9807725444
 20
129.1119682501
 30
0.0
 10
75.2189862739
 20
129.0010737268
 30
0.0
 10
75.7468407995
 20
128.8407002085
 30
0.0
 10
76.4628789219
 20
128.7628482629
 30
0.0
 10
77.1789164478
 20
128.8407034373
 30
0.0
 10
77.706769137
 20
129.0010795999
 30
0.0
 10
77.944981528
 20
129.1119753263
 30
0.0
 10
78.0538668829
 20
129.17483994
 30
0.0
  0
SPLINE
  5
4DA
100
AcDbEntity
  8
0
100
AcDbSpline
 62
7
  6
CONTINUOUS
 70
0
 71
3
 72
11
 73
7
 74
0
 42
0.0000001
 43
0.0000001
 44
0.0000000001
 40
0.0
 40
0.0
 40
0.0
 40
0.0
 40
0.2897048043
 40
0.5490913404
 40
0.7822177947
 40
1.0
 40
1.0
 40
1.0
 40
1.0
 10
78.0538668829
 20
129.17483994
 30
0.0
 10
78.1525937608
 20
129.2318395893
 30
0.0
 10
78.3317092045
 20
129.3552087806
 30
0.0
 10
78.545777115
 20
129.5801844006
 30
0.0
 10
78.681189457
 20
129.8290619436
 30
0.0
 10
78.71285879
 20
130.0076836118
 30
0.0
 10
78.7128587741
 20
130.0933816377
 30
0.0
  0
SPLINE
  5
4DB
100
AcDbEntity
  8
0
100
AcDbSpline
 62
7
  6
CONTINUOUS
 70
0
 71
3
 72
13
 73
9
 74
0
 42
0.0000001
 43
0.0000001
 44
0.0000000001
 40
0.0
 40
0.0
 40
0.0
 40
0.0
 40
0.1142253587
 40
0.237559206
 40
0.5000004539
 40
0.7624414493
 40
0.885775028
 40
1.0
 40
1.0
 40
1.0
 40
1.0
 10
101.8127186146
 20
120.3160357931
 30
0.0
 10
101.9216047915
 20
120.2531717517
 30
0.0
 10
102.159818521
 20
120.1422772284
 30
0.0
 10
102.6876730465
 20
119.9819037101
 30
0.0
 10
103.403711169
 20
119.9040517645
 30
0.0
 10
104.1197486948
 20
119.9819069389
 30
0.0
 10
104.647601384
 20
120.1422831015
 30
0.0
 10
104.8858137751
 20
120.2531788279
 30
0.0
 10
104.99469913
 20
120.3160434416
 30
0.0
  0
SPLINE
  5
4DC
100
AcDbEntity
  8
0
100
AcDbSpline
 62
7
  6
CONTINUOUS
 70
0
 71
3
 72
11
 73
7
 74
0
 42
0.0000001
 43
0.0000001
 44
0.0000000001
 40
0.0
 40
0.0
 40
0.0
 40
0.0
 40
0.2897048043
 40
0.5490913404
 40
0.7822177947
 40
1.0
 40
1.0
 40
1.0
 40
1.0
 10
104.99469913
 20
120.3160434416
 30
0.0
 10
105.0934260079
 20
120.3730430909
 30
0.0
 10
105.2725414516
 20
120.4964122822
 30
0.0
 10
105.486609362
 20
120.7213879022
 30
0.0
 10
105.622021704
 20
120.9702654452
 30
0.0
 10
105.6536910371
 20
121.1488871134
 30
0.0
 10
105.6536910212
 20
121.2345851392
 30
0.0
  0
SPLINE
  5
4DD
100
AcDbEntity
  8
0
100
AcDbSpline
 62
7
  6
CONTINUOUS
 70
0
 71
3
 72
11
 73
7
 74
0
 42
0.0000001
 43
0.0000001
 44
0.0000000001
 40
0.0
 40
0.0
 40
0.0
 40
0.0
 40
0.2177821605
 40
0.4509085882
 40
0.7102951949
 40
1.0
 40
1.0
 40
1.0
 40
1.0
 10
27.0868021851
 20
119.4789639503
 30
0.0
 10
27.0868022065
 20
119.5551399573
 30
0.0
 10
27.1149526556
 20
119.7139147479
 30
0.0
 10
27.2353191907
 20
119.9351392409
 30
0.0
 10
27.4256018011
 20
120.1351175604
 30
0.0
 10
27.5848155303
 20
120.2447791044
 30
0.0
 10
27.6725727551
 20
120.2954454594
 30
0.0
  0
SPLINE
  5
4DE
100
AcDbEntity
  8
0
100
AcDbSpline
 62
7
  6
CONTINUOUS
 70
0
 71
3
 72
14
 73
10
 74
0
 42
0.0000001
 43
0.0000001
 44
0.0000000001
 40
0.0
 40
0.0
 40
0.0
 40
0.0
 40
0.104700298
 40
0.2220376874
 40
0.3495931674
 40
0.4838999613
 40
0.7544221078
 40
0.8823693605
 40
1.0
 40
1.0
 40
1.0
 40
1.0
 10
65.6145247295
 20
128.9594636947
 30
0.0
 10
65.6774174809
 20
128.900540824
 30
0.0
 10
65.8275476258
 20
128.7931685028
 30
0.0
 10
66.0904368423
 20
128.6731121044
 30
0.0
 10
66.3924606086
 20
128.5895075467
 30
0.0
 10
66.8277544254
 20
128.5319309801
 30
0.0
 10
67.2717568524
 20
128.5580634742
 30
0.0
 10
67.6827754204
 20
128.6696321301
 30
0.0
 10
67.8683352887
 20
128.7530223983
 30
0.0
 10
67.9521890042
 20
128.8014350746
 30
0.0
  0
SPLINE
  5
4DF
100
AcDbEntity
  8
0
100
AcDbSpline
 62
7
  6
CONTINUOUS
 70
0
 71
3
 72
11
 73
7
 74
0
 42
0.0000001
 43
0.0000001
 44
0.0000000001
 40
0.0
 40
0.0
 40
0.0
 40
0.0
 40
0.2896898461
 40
0.549093301
 40
0.7822196381
 40
1.0
 40
1.0
 40
1.0
 40
1.0
 10
67.9521890042
 20
128.8014350746
 30
0.0
 10
68.0180033351
 20
128.8394327694
 30
0.0
 10
68.1374081225
 20
128.9216863777
 30
0.0
 10
68.2801304902
 20
129.0716568608
 30
0.0
 10
68.3704093703
 20
129.2375859815
 30
0.0
 10
68.3914899902
 20
129.3566648459
 30
0.0
 10
68.3915123853
 20
129.4137962107
 30
0.0
  0
SPLINE
  5
4E0
100
AcDbEntity
  8
0
100
AcDbSpline
 62
7
  6
CONTINUOUS
 70
0
 71
3
 72
9
 73
5
 74
0
 42
0.0000001
 43
0.0000001
 44
0.0000000001
 40
0.0
 40
0.0
 40
0.0
 40
0.0
 40
0.5286801826
 40
1.0
 40
1.0
 40
1.0
 40
1.0
 10
62.5289177743
 20
130.7520402996
 30
0.0
 10
63.1234492814
 20
130.5375571197
 30
0.0
 10
64.219607222
 20
130.0449293065
 30
0.0
 10
65.2033302605
 20
129.344702979
 30
0.0
 10
65.6145247295
 20
128.9594636947
 30
0.0
  0
SPLINE
  5
4E1
100
AcDbEntity
  8
0
100
AcDbSpline
 62
7
  6
CONTINUOUS
 70
0
 71
3
 72
11
 73
7
 74
0
 42
0.0000001
 43
0.0000001
 44
0.0000000001
 40
0.0
 40
0.0
 40
0.0
 40
0.0
 40
0.2177817009
 40
0.4509079353
 40
0.7102947134
 40
1.0
 40
1.0
 40
1.0
 40
1.0
 10
15.1317949388
 20
89.5953051271
 30
0.0
 10
15.1317949564
 20
89.5000840928
 30
0.0
 10
15.1669838445
 20
89.3016133162
 30
0.0
 10
15.3174452542
 20
89.025080021
 30
0.0
 10
15.5553033494
 20
88.7751052691
 30
0.0
 10
15.7543242881
 20
88.6380278161
 30
0.0
 10
15.8640228711
 20
88.5746947424
 30
0.0
  0
SPLINE
  5
4E2
100
AcDbEntity
  8
0
100
AcDbSpline
 62
7
  6
CONTINUOUS
 70
0
 71
3
 72
11
 73
7
 74
0
 42
0.0000001
 43
0.0000001
 44
0.0000000001
 40
0.0
 40
0.0
 40
0.0
 40
0.0
 40
0.2178555755
 40
0.4509686098
 40
0.7102617926
 40
1.0
 40
1.0
 40
1.0
 40
1.0
 10
15.1318228641
 20
90.8200588041
 30
0.0
 10
15.1318102306
 20
90.9153113824
 30
0.0
 10
15.1669505686
 20
91.1138273016
 30
0.0
 10
15.3175024341
 20
91.3902931669
 30
0.0
 10
15.5552666622
 20
91.6402960064
 30
0.0
 10
15.7542984296
 20
91.7773200796
 30
0.0
 10
15.8640081513
 20
91.8406606389
 30
0.0
  0
SPLINE
  5
4E3
100
AcDbEntity
  8
0
100
AcDbSpline
 62
7
  6
CONTINUOUS
 70
0
 71
3
 72
11
 73
7
 74
0
 42
0.0000001
 43
0.0000001
 44
0.0000000001
 40
0.0
 40
0.0
 40
0.0
 40
0.0
 40
0.2372542275
 40
0.5000017852
 40
0.7627483734
 40
1.0
 40
1.0
 40
1.0
 40
1.0
 10
21.237997314
 20
106.9459017401
 30
0.0
 10
21.237997314
 20
106.7604202277
 30
0.0
 10
21.1684550615
 20
106.3692632136
 30
0.0
 10
20.925888038
 20
105.8197002028
 30
0.0
 10
20.571239639
 20
105.3348493771
 30
0.0
 10
20.2672613549
 20
105.0790465508
 30
0.0
 10
20.1066311745
 20
104.9863072265
 30
0.0
  0
SPLINE
  5
4E4
100
AcDbEntity
  8
0
100
AcDbSpline
 62
7
  6
CONTINUOUS
 70
0
 71
3
 72
11
 73
7
 74
0
 42
0.0000001
 43
0.0000001
 44
0.0000000001
 40
0.0
 40
0.0
 40
0.0
 40
0.0
 40
0.2372542274
 40
0.5000017851
 40
0.7627483734
 40
1.0
 40
1.0
 40
1.0
 40
1.0
 10
19.9298552152
 20
95.4944683913
 30
0.0
 10
19.9298552152
 20
95.3089868789
 30
0.0
 10
19.8603129627
 20
94.9178298648
 30
0.0
 10
19.6177459393
 20
94.368266854
 30
0.0
 10
19.2630975403
 20
93.8834160283
 30
0.0
 10
18.9591192563
 20
93.6276132019
 30
0.0
 10
18.7984890759
 20
93.5348738776
 30
0.0
  0
SPLINE
  5
4E5
100
AcDbEntity
  8
0
100
AcDbSpline
 62
7
  6
CONTINUOUS
 70
0
 71
3
 72
11
 73
7
 74
0
 42
0.0000001
 43
0.0000001
 44
0.0000000001
 40
0.0
 40
0.0
 40
0.0
 40
0.0
 40
0.2177821605
 40
0.4509085882
 40
0.7102951949
 40
1.0
 40
1.0
 40
1.0
 40
1.0
 10
15.1317949388
 20
101.516240417
 30
0.0
 10
15.1317949655
 20
101.6114604258
 30
0.0
 10
15.1669830269
 20
101.809928914
 30
0.0
 10
15.3174411957
 20
102.0864595302
 30
0.0
 10
15.5552944588
 20
102.3364324296
 30
0.0
 10
15.7543116203
 20
102.4735093597
 30
0.0
 10
15.8640081513
 20
102.5368423033
 30
0.0
  0
SPLINE
  5
4E6
100
AcDbEntity
  8
0
100
AcDbSpline
 62
7
  6
CONTINUOUS
 70
0
 71
3
 72
9
 73
5
 74
0
 42
0.0000001
 43
0.0000001
 44
0.0000000001
 40
0.0
 40
0.0
 40
0.0
 40
0.0
 40
0.5001495831
 40
1.0
 40
1.0
 40
1.0
 40
1.0
 10
44.8894856206
 20
82.9216375342
 30
0.0
 10
44.7633289865
 20
82.9320422998
 30
0.0
 10
44.5140379958
 20
82.9922185122
 30
0.0
 10
44.2844540605
 20
83.1016319164
 30
0.0
 10
44.1749012033
 20
83.1648993121
 30
0.0
  0
SPLINE
  5
4E7
100
AcDbEntity
  8
0
100
AcDbSpline
 62
7
  6
CONTINUOUS
 70
0
 71
3
 72
9
 73
5
 74
0
 42
0.0000001
 43
0.0000001
 44
0.0000000001
 40
0.0
 40
0.0
 40
0.0
 40
0.0
 40
0.2396840461
 40
1.0
 40
1.0
 40
1.0
 40
1.0
 10
53.8637788583
 20
73.8235747574
 30
0.0
 10
53.8437369487
 20
73.8170221316
 30
0.0
 10
53.7609317957
 20
73.7872162227
 30
0.0
 10
53.6815587855
 20
73.7482039332
 30
0.0
 10
53.6236321464
 20
73.7147601721
 30
0.0
  0
SPLINE
  5
4E8
100
AcDbEntity
  8
0
100
AcDbSpline
 62
7
  6
CONTINUOUS
 70
0
 71
3
 72
9
 73
5
 74
0
 42
0.0000001
 43
0.0000001
 44
0.0000000001
 40
0.0
 40
0.0
 40
0.0
 40
0.0
 40
0.2408692492
 40
1.0
 40
1.0
 40
1.0
 40
1.0
 10
30.7415629127
 20
90.8446469678
 30
0.0
 10
30.7415629127
 20
90.8514827805
 30
0.0
 10
30.74092864
 20
90.8798613012
 30
0.0
 10
30.7379072203
 20
90.9081672794
 30
0.0
 10
30.7345273126
 20
90.9294444527
 30
0.0
  0
SPLINE
  5
4E9
100
AcDbEntity
  8
0
100
AcDbSpline
 62
7
  6
CONTINUOUS
 70
0
 71
3
 72
11
 73
7
 74
0
 42
0.0000001
 43
0.0000001
 44
0.0000000001
 40
0.0
 40
0.0
 40
0.0
 40
0.0
 40
0.2209430166
 40
0.4592712793
 40
0.7185883287
 40
1.0
 40
1.0
 40
1.0
 40
1.0
 10
46.0174847588
 20
80.433109185
 30
0.0
 10
46.0889300336
 20
80.5153330848
 30
0.0
 10
46.2166695816
 20
80.7050137351
 30
0.0
 10
46.3502935922
 20
81.0352996372
 30
0.0
 10
46.4301788819
 20
81.4126666484
 30
0.0
 10
46.4464699082
 20
81.6797056935
 30
0.0
 10
46.4464699082
 20
81.8184449308
 30
0.0
  0
SPLINE
  5
4EA
100
AcDbEntity
  8
0
100
AcDbSpline
 62
7
  6
CONTINUOUS
 70
0
 71
3
 72
11
 73
7
 74
0
 42
0.0000001
 43
0.0000001
 44
0.0000000001
 40
0.0
 40
0.0
 40
0.0
 40
0.0
 40
0.2279723256
 40
0.4775432631
 40
0.7387716657
 40
1.0
 40
1.0
 40
1.0
 40
1.0
 10
43.4752691143
 20
72.6336949249
 30
0.0
 10
43.6387473066
 20
72.5393128818
 30
0.0
 10
44.0049388972
 20
72.3818548467
 30
0.0
 10
44.6031023382
 20
72.2424428831
 30
0.0
 10
45.2429463082
 20
72.194847174
 30
0.0
 10
45.6763249891
 20
72.2270638772
 30
0.0
 10
45.8900863739
 20
72.2601329565
 30
0.0
  0
SPLINE
  5
4EB
100
AcDbEntity
  8
0
100
AcDbSpline
 62
7
  6
CONTINUOUS
 70
0
 71
3
 72
9
 73
5
 74
0
 42
0.0000001
 43
0.0000001
 44
0.0000000001
 40
0.0
 40
0.0
 40
0.0
 40
0.0
 40
0.2508589776
 40
1.0
 40
1.0
 40
1.0
 40
1.0
 10
44.8894856206
 20
82.9216375342
 30
0.0
 10
44.9730294809
 20
82.9147472561
 30
0.0
 10
45.3067863139
 20
82.8971645439
 30
0.0
 10
45.6426948046
 20
82.9180429215
 30
0.0
 10
45.8900863739
 20
82.9563146207
 30
0.0
  0
SPLINE
  5
4EC
100
AcDbEntity
  8
0
100
AcDbSpline
 62
7
  6
CONTINUOUS
 70
0
 71
3
 72
10
 73
6
 74
0
 42
0.0000001
 43
0.0000001
 44
0.0000000001
 40
0.0
 40
0.0
 40
0.0
 40
0.0
 40
0.2279237497
 40
0.4766089193
 40
1.0
 40
1.0
 40
1.0
 40
1.0
 10
32.8698245246
 20
121.0099479046
 30
0.0
 10
32.9447227071
 20
121.0531901323
 30
0.0
 10
33.1114179539
 20
121.1266548546
 30
0.0
 10
33.4799788196
 20
121.2207192609
 30
0.0
 10
33.7780072076
 20
121.2304344976
 30
0.0
 10
33.975538469
 20
121.2098698393
 30
0.0
  0
SPLINE
  5
4ED
100
AcDbEntity
  8
0
100
AcDbSpline
 62
7
  6
CONTINUOUS
 70
0
 71
3
 72
10
 73
6
 74
0
 42
0.0000001
 43
0.0000001
 44
0.0000000001
 40
0.0
 40
0.0
 40
0.0
 40
0.0
 40
0.5117805053
 40
0.7623881123
 40
1.0
 40
1.0
 40
1.0
 40
1.0
 10
37.3403563256
 20
118.3107024179
 30
0.0
 10
37.7619716565
 20
118.2520045281
 30
0.0
 10
38.4042339911
 20
118.2415977403
 30
0.0
 10
39.2261945935
 20
118.3770107752
 30
0.0
 10
39.6165083008
 20
118.4951301857
 30
0.0
 10
39.8006720221
 20
118.5668540954
 30
0.0
  0
SPLINE
  5
4EE
100
AcDbEntity
  8
0
100
AcDbSpline
 62
7
  6
CONTINUOUS
 70
0
 71
3
 72
9
 73
5
 74
0
 42
0.0000001
 43
0.0000001
 44
0.0000000001
 40
0.0
 40
0.0
 40
0.0
 40
0.0
 40
0.2586622356
 40
1.0
 40
1.0
 40
1.0
 40
1.0
 10
54.7544457262
 20
73.1020530531
 30
0.0
 10
54.7539341269
 20
73.1206524733
 30
0.0
 10
54.7505384801
 20
73.1925056327
 30
0.0
 10
54.7413452933
 20
73.2641393102
 30
0.0
 10
54.7307131789
 20
73.3163956166
 30
0.0
  0
SPLINE
  5
4EF
100
AcDbEntity
  8
0
100
AcDbSpline
 62
7
  6
CONTINUOUS
 70
0
 71
3
 72
9
 73
5
 74
0
 42
0.0000001
 43
0.0000001
 44
0.0000000001
 40
0.0
 40
0.0
 40
0.0
 40
0.0
 40
0.5159007403
 40
1.0
 40
1.0
 40
1.0
 40
1.0
 10
53.3554707968
 20
83.4641281616
 30
0.0
 10
53.3285954187
 20
83.5210638872
 30
0.0
 10
53.2624895287
 20
83.6258605533
 30
0.0
 10
53.1665824005
 20
83.7052942706
 30
0.0
 10
53.1154363772
 20
83.7348647155
 30
0.0
  0
SPLINE
  5
4F0
100
AcDbEntity
  8
0
100
AcDbSpline
 62
7
  6
CONTINUOUS
 70
0
 71
3
 72
11
 73
7
 74
0
 42
0.0000001
 43
0.0000001
 44
0.0000000001
 40
0.0
 40
0.0
 40
0.0
 40
0.0
 40
0.2372518718
 40
0.4999985497
 40
0.7627460178
 40
1.0
 40
1.0
 40
1.0
 40
1.0
 10
53.6236321465
 20
85.6356954622
 30
0.0
 10
53.784262493
 20
85.7284348824
 30
0.0
 10
54.0882409467
 20
85.984237938
 30
0.0
 10
54.4428893381
 20
86.4690890068
 30
0.0
 10
54.6854561472
 20
87.0186519027
 30
0.0
 10
54.754998286
 20
87.4098086552
 30
0.0
 10
54.754998286
 20
87.5952899758
 30
0.0
  0
SPLINE
  5
4F1
100
AcDbEntity
  8
0
100
AcDbSpline
 62
7
  6
CONTINUOUS
 70
0
 71
3
 72
11
 73
7
 74
0
 42
0.0000001
 43
0.0000001
 44
0.0000000001
 40
0.0
 40
0.0
 40
0.0
 40
0.0
 40
0.2177817009
 40
0.4509079353
 40
0.7102947134
 40
1.0
 40
1.0
 40
1.0
 40
1.0
 10
70.5812300022
 20
116.335591385
 30
0.0
 10
70.5812299863
 20
116.4212903159
 30
0.0
 10
70.549559987
 20
116.5999140148
 30
0.0
 10
70.4141447184
 20
116.8487939805
 30
0.0
 10
70.2000724327
 20
117.0737712573
 30
0.0
 10
70.0209535879
 20
117.1971409649
 30
0.0
 10
69.9222248632
 20
117.2541407312
 30
0.0
  0
SPLINE
  5
4F2
100
AcDbEntity
  8
0
100
AcDbSpline
 62
7
  6
CONTINUOUS
 70
0
 71
3
 72
9
 73
5
 74
0
 42
0.0000001
 43
0.0000001
 44
0.0000000001
 40
0.0
 40
0.0
 40
0.0
 40
0.0
 40
0.230331273
 40
1.0
 40
1.0
 40
1.0
 40
1.0
 10
46.3115935172
 20
80.848275908
 30
0.0
 10
46.2334944665
 20
80.8565945555
 30
0.0
 10
45.8967813822
 20
80.9151873269
 30
0.0
 10
45.5777273276
 20
81.0543807388
 30
0.0
 10
45.350437764
 20
81.1856034608
 30
0.0
  0
SPLINE
  5
4F3
100
AcDbEntity
  8
0
100
AcDbSpline
 62
7
  6
CONTINUOUS
 70
0
 71
3
 72
10
 73
6
 74
0
 42
0.0000001
 43
0.0000001
 44
0.0000000001
 40
0.0
 40
0.0
 40
0.0
 40
0.0
 40
0.2295417538
 40
0.475569321
 40
1.0
 40
1.0
 40
1.0
 40
1.0
 10
45.6330551865
 20
80.1312654753
 30
0.0
 10
45.5333313362
 20
80.0736932715
 30
0.0
 10
45.3175393554
 20
79.9700389129
 30
0.0
 10
44.8432342251
 20
79.804796841
 30
0.0
 10
44.4615650698
 20
79.7299149348
 30
0.0
 10
44.2004807637
 20
79.6975690546
 30
0.0
  0
SPLINE
  5
4F4
100
AcDbEntity
  8
0
100
AcDbSpline
 62
7
  6
CONTINUOUS
 70
0
 71
3
 72
11
 73
7
 74
0
 42
0.0000001
 43
0.0000001
 44
0.0000000001
 40
0.0
 40
0.0
 40
0.0
 40
0.0
 40
0.2177817009
 40
0.4509079353
 40
0.7102947134
 40
1.0
 40
1.0
 40
1.0
 40
1.0
 10
105.6536910212
 20
121.2345851392
 30
0.0
 10
105.6536910053
 20
121.3202840702
 30
0.0
 10
105.622021006
 20
121.4989077691
 30
0.0
 10
105.4866057373
 20
121.7477877348
 30
0.0
 10
105.2725334516
 20
121.9727650115
 30
0.0
 10
105.0934146068
 20
122.0961347192
 30
0.0
 10
104.9946858821
 20
122.1531344855
 30
0.0
  0
SPLINE
  5
4F5
100
AcDbEntity
  8
0
100
AcDbSpline
 62
7
  6
CONTINUOUS
 70
0
 71
3
 72
9
 73
5
 74
0
 42
0.0000001
 43
0.0000001
 44
0.0000000001
 40
0.0
 40
0.0
 40
0.0
 40
0.0
 40
0.2401130214
 40
1.0
 40
1.0
 40
1.0
 40
1.0
 10
66.2907276981
 20
115.8214854248
 30
0.0
 10
66.3055700344
 20
115.8399324763
 30
0.0
 10
66.3696835348
 20
115.9149022249
 30
0.0
 10
66.4424037402
 20
115.9823247293
 30
0.0
 10
66.5006961203
 20
116.0294044047
 30
0.0
  0
SPLINE
  5
4F6
100
AcDbEntity
  8
0
100
AcDbSpline
 62
7
  6
CONTINUOUS
 70
0
 71
3
 72
9
 73
5
 74
0
 42
0.0000001
 43
0.0000001
 44
0.0000000001
 40
0.0
 40
0.0
 40
0.0
 40
0.0
 40
0.2421061346
 40
1.0
 40
1.0
 40
1.0
 40
1.0
 10
66.5006961203
 20
116.0294044047
 30
0.0
 10
66.5189074098
 20
116.044112701
 30
0.0
 10
66.5954278779
 20
116.1032466958
 30
0.0
 10
66.6767816938
 20
116.1560399787
 30
0.0
 10
66.7402443479
 20
116.1926799404
 30
0.0
  0
SPLINE
  5
4F7
100
AcDbEntity
  8
0
100
AcDbSpline
 62
7
  6
CONTINUOUS
 70
0
 71
3
 72
11
 73
7
 74
0
 42
0.0000001
 43
0.0000001
 44
0.0000000001
 40
0.0
 40
0.0
 40
0.0
 40
0.0
 40
0.2177817009
 40
0.4509079353
 40
0.7102947134
 40
1.0
 40
1.0
 40
1.0
 40
1.0
 10
41.236246475
 20
123.5614122877
 30
0.0
 10
41.2362464592
 20
123.6471112187
 30
0.0
 10
41.2045764598
 20
123.8257349176
 30
0.0
 10
41.0691611912
 20
124.0746148832
 30
0.0
 10
40.8550889055
 20
124.29959216
 30
0.0
 10
40.6759700607
 20
124.4229618677
 30
0.0
 10
40.577241336
 20
124.4799616339
 30
0.0
  0
SPLINE
  5
4F8
100
AcDbEntity
  8
0
100
AcDbSpline
 62
7
  6
CONTINUOUS
 70
0
 71
3
 72
13
 73
9
 74
0
 42
0.0000001
 43
0.0000001
 44
0.0000000001
 40
0.0
 40
0.0
 40
0.0
 40
0.0
 40
0.1142253587
 40
0.237559206
 40
0.5000004539
 40
0.7624414493
 40
0.885775028
 40
1.0
 40
1.0
 40
1.0
 40
1.0
 10
64.8312091249
 20
96.0255208754
 30
0.0
 10
64.7223229481
 20
96.0883849167
 30
0.0
 10
64.4841092186
 20
96.19927944
 30
0.0
 10
63.9562546931
 20
96.3596529583
 30
0.0
 10
63.2402165706
 20
96.4375049039
 30
0.0
 10
62.5241790448
 20
96.3596497295
 30
0.0
 10
61.9963263556
 20
96.1992735669
 30
0.0
 10
61.7581139645
 20
96.0883778405
 30
0.0
 10
61.6492286096
 20
96.0255132268
 30
0.0
  0
SPLINE
  5
4F9
100
AcDbEntity
  8
0
100
AcDbSpline
 62
7
  6
CONTINUOUS
 70
0
 71
3
 72
11
 73
7
 74
0
 42
0.0000001
 43
0.0000001
 44
0.0000000001
 40
0.0
 40
0.0
 40
0.0
 40
0.0
 40
0.2897048043
 40
0.5490913404
 40
0.7822177947
 40
1.0
 40
1.0
 40
1.0
 40
1.0
 10
61.6492286096
 20
96.0255132268
 30
0.0
 10
61.5505017317
 20
95.9685135775
 30
0.0
 10
61.371386288
 20
95.8451443863
 30
0.0
 10
61.1573183776
 20
95.6201687663
 30
0.0
 10
61.0219060356
 20
95.3712912232
 30
0.0
 10
60.9902367025
 20
95.192669555
 30
0.0
 10
60.9902367184
 20
95.1069715292
 30
0.0
  0
SPLINE
  5
4FA
100
AcDbEntity
  8
0
100
AcDbSpline
 62
7
  6
CONTINUOUS
 70
0
 71
3
 72
11
 73
7
 74
0
 42
0.0000001
 43
0.0000001
 44
0.0000000001
 40
0.0
 40
0.0
 40
0.0
 40
0.0
 40
0.2897052857
 40
0.5490919933
 40
0.7822182543
 40
1.0
 40
1.0
 40
1.0
 40
1.0
 10
15.8640228711
 20
100.4956300323
 30
0.0
 10
15.754324288
 20
100.5589631059
 30
0.0
 10
15.5553033512
 20
100.696040508
 30
0.0
 10
15.3174452851
 20
100.9460152717
 30
0.0
 10
15.1669838866
 20
101.2225485541
 30
0.0
 10
15.1317949121
 20
101.4210193627
 30
0.0
 10
15.1317949388
 20
101.516240417
 30
0.0
  0
SPLINE
  5
4FB
100
AcDbEntity
  8
0
100
AcDbSpline
 62
7
  6
CONTINUOUS
 70
0
 71
3
 72
13
 73
9
 74
0
 42
0.0000001
 43
0.0000001
 44
0.0000000001
 40
0.0
 40
0.0
 40
0.0
 40
0.0
 40
0.1142253587
 40
0.237559206
 40
0.5000004539
 40
0.7624414493
 40
0.885775028
 40
1.0
 40
1.0
 40
1.0
 40
1.0
 10
40.577241336
 20
124.4799616339
 30
0.0
 10
40.4683551591
 20
124.5428256753
 30
0.0
 10
40.2301414296
 20
124.6537201986
 30
0.0
 10
39.7022869041
 20
124.8140937169
 30
0.0
 10
38.9862487817
 20
124.8919456625
 30
0.0
 10
38.2702112558
 20
124.8140904881
 30
0.0
 10
37.7423585666
 20
124.6537143255
 30
0.0
 10
37.5041461755
 20
124.5428185991
 30
0.0
 10
37.3952608207
 20
124.4799539854
 30
0.0
  0
SPLINE
  5
4FC
100
AcDbEntity
  8
0
100
AcDbSpline
 62
7
  6
CONTINUOUS
 70
0
 71
3
 72
11
 73
7
 74
0
 42
0.0000001
 43
0.0000001
 44
0.0000000001
 40
0.0
 40
0.0
 40
0.0
 40
0.0
 40
0.2612283343
 40
0.5224567369
 40
0.7720276744
 40
1.0
 40
1.0
 40
1.0
 40
1.0
 10
45.8900863739
 20
84.1810682464
 30
0.0
 10
45.6763249892
 20
84.1479991671
 30
0.0
 10
45.2429463083
 20
84.1157824639
 30
0.0
 10
44.6031023383
 20
84.1633781729
 30
0.0
 10
44.0049388972
 20
84.3027901365
 30
0.0
 10
43.6387473066
 20
84.4602481716
 30
0.0
 10
43.4752691143
 20
84.5546302147
 30
0.0
  0
SPLINE
  5
4FD
100
AcDbEntity
  8
0
100
AcDbSpline
 62
7
  6
CONTINUOUS
 70
0
 71
3
 72
11
 73
7
 74
0
 42
0.0000001
 43
0.0000001
 44
0.0000000001
 40
0.0
 40
0.0
 40
0.0
 40
0.0
 40
0.2897048043
 40
0.5490913404
 40
0.7822177947
 40
1.0
 40
1.0
 40
1.0
 40
1.0
 10
37.3952608207
 20
124.4799539854
 30
0.0
 10
37.2965339427
 20
124.4229543361
 30
0.0
 10
37.117418499
 20
124.2995851448
 30
0.0
 10
36.9033505886
 20
124.0746095248
 30
0.0
 10
36.7679382466
 20
123.8257319818
 30
0.0
 10
36.7362689136
 20
123.6471103136
 30
0.0
 10
36.7362689294
 20
123.5614122878
 30
0.0
  0
SPLINE
  5
4FE
100
AcDbEntity
  8
0
100
AcDbSpline
 62
7
  6
CONTINUOUS
 70
0
 71
3
 72
9
 73
5
 74
0
 42
0.0000001
 43
0.0000001
 44
0.0000000001
 40
0.0
 40
0.0
 40
0.0
 40
0.0
 40
0.2401130214
 40
1.0
 40
1.0
 40
1.0
 40
1.0
 10
36.9457441709
 20
123.0473063275
 30
0.0
 10
36.9605865072
 20
123.065753379
 30
0.0
 10
37.0247000076
 20
123.1407231276
 30
0.0
 10
37.097420213
 20
123.208145632
 30
0.0
 10
37.1557125931
 20
123.2552253074
 30
0.0
  0
SPLINE
  5
4FF
100
AcDbEntity
  8
0
100
AcDbSpline
 62
7
  6
CONTINUOUS
 70
0
 71
3
 72
9
 73
5
 74
0
 42
0.0000001
 43
0.0000001
 44
0.0000000001
 40
0.0
 40
0.0
 40
0.0
 40
0.0
 40
0.2421061346
 40
1.0
 40
1.0
 40
1.0
 40
1.0
 10
37.1557125931
 20
123.2552253074
 30
0.0
 10
37.1739238826
 20
123.2699336037
 30
0.0
 10
37.2504443507
 20
123.3290675985
 30
0.0
 10
37.3317981666
 20
123.3818608815
 30
0.0
 10
37.3952608207
 20
123.4185008431
 30
0.0
  0
SPLINE
  5
500
100
AcDbEntity
  8
0
100
AcDbSpline
 62
7
  6
CONTINUOUS
 70
0
 71
3
 72
13
 73
9
 74
0
 42
0.0000001
 43
0.0000001
 44
0.0000000001
 40
0.0
 40
0.0
 40
0.0
 40
0.0
 40
0.1142253587
 40
0.237559206
 40
0.5000004539
 40
0.7624414493
 40
0.885775028
 40
1.0
 40
1.0
 40
1.0
 40
1.0
 10
69.9222248632
 20
117.2541407312
 30
0.0
 10
69.8133386863
 20
117.3170047725
 30
0.0
 10
69.5751249568
 20
117.4278992959
 30
0.0
 10
69.0472704313
 20
117.5882728141
 30
0.0
 10
68.3312323088
 20
117.6661247598
 30
0.0
 10
67.615194783
 20
117.5882695854
 30
0.0
 10
67.0873420938
 20
117.4278934227
 30
0.0
 10
66.8491297027
 20
117.3169976964
 30
0.0
 10
66.7402443479
 20
117.2541330827
 30
0.0
  0
SPLINE
  5
501
100
AcDbEntity
  8
0
100
AcDbSpline
 62
7
  6
CONTINUOUS
 70
0
 71
3
 72
11
 73
7
 74
0
 42
0.0000001
 43
0.0000001
 44
0.0000000001
 40
0.0
 40
0.0
 40
0.0
 40
0.0
 40
0.2897048043
 40
0.5490913404
 40
0.7822177947
 40
1.0
 40
1.0
 40
1.0
 40
1.0
 10
66.7402443479
 20
117.2541330827
 30
0.0
 10
66.6415174699
 20
117.1971334334
 30
0.0
 10
66.4624020262
 20
117.0737642421
 30
0.0
 10
66.2483341158
 20
116.8487886221
 30
0.0
 10
66.1129217738
 20
116.5999110791
 30
0.0
 10
66.0812524407
 20
116.4212894109
 30
0.0
 10
66.0812524566
 20
116.335591385
 30
0.0
  0
SPLINE
  5
502
100
AcDbEntity
  8
0
100
AcDbSpline
 62
7
  6
CONTINUOUS
 70
0
 71
3
 72
10
 73
6
 74
0
 42
0.0000001
 43
0.0000001
 44
0.0000000001
 40
0.0
 40
0.0
 40
0.0
 40
0.0
 40
0.2313494623
 40
0.4712366196
 40
1.0
 40
1.0
 40
1.0
 40
1.0
 10
68.3915123853
 20
129.4137962107
 30
0.0
 10
68.3915280667
 20
129.4538004951
 30
0.0
 10
68.381529011
 20
129.5356148135
 30
0.0
 10
68.3210667722
 20
129.6988981784
 30
0.0
 10
68.2352480183
 20
129.8056165124
 30
0.0
 10
68.1685241035
 20
129.868128718
 30
0.0
  0
SPLINE
  5
503
100
AcDbEntity
  8
0
100
AcDbSpline
 62
7
  6
CONTINUOUS
 70
0
 71
3
 72
9
 73
5
 74
0
 42
0.0000001
 43
0.0000001
 44
0.0000000001
 40
0.0
 40
0.0
 40
0.0
 40
0.0
 40
0.4761106809
 40
1.0
 40
1.0
 40
1.0
 40
1.0
 10
36.4762227836
 20
87.5746395695
 30
0.0
 10
36.4762227836
 20
87.2669567238
 30
0.0
 10
36.5622096158
 20
86.6201290269
 30
0.0
 10
36.7704884068
 20
86.0045668879
 30
0.0
 10
36.905207933
 20
85.6939656469
 30
0.0
  0
SPLINE
  5
504
100
AcDbEntity
  8
0
100
AcDbSpline
 62
7
  6
CONTINUOUS
 70
0
 71
3
 72
11
 73
7
 74
0
 42
0.0000001
 43
0.0000001
 44
0.0000000001
 40
0.0
 40
0.0
 40
0.0
 40
0.0
 40
0.2372444228
 40
0.5000010918
 40
0.7627571666
 40
1.0
 40
1.0
 40
1.0
 40
1.0
 10
23.8825985788
 20
94.8045822867
 30
0.0
 10
23.8825985788
 20
94.7466217079
 30
0.0
 10
23.9043440092
 20
94.6243896957
 30
0.0
 10
23.9801134619
 20
94.4526331814
 30
0.0
 10
24.0909746956
 20
94.3011374703
 30
0.0
 10
24.1859581601
 20
94.2211903044
 30
0.0
 10
24.2361534413
 20
94.1922107009
 30
0.0
  0
SPLINE
  5
505
100
AcDbEntity
  8
0
100
AcDbSpline
 62
7
  6
CONTINUOUS
 70
0
 71
3
 72
9
 73
5
 74
0
 42
0.0000001
 43
0.0000001
 44
0.0000000001
 40
0.0
 40
0.0
 40
0.0
 40
0.0
 40
0.4739446135
 40
1.0
 40
1.0
 40
1.0
 40
1.0
 10
35.0350362421
 20
117.3614149608
 30
0.0
 10
35.078015918
 20
117.4779382551
 30
0.0
 10
35.2086136598
 20
117.7098054716
 30
0.0
 10
35.392377239
 20
117.8999403531
 30
0.0
 10
35.497108047
 20
117.9895776413
 30
0.0
  0
SPLINE
  5
506
100
AcDbEntity
  8
0
100
AcDbSpline
 62
7
  6
CONTINUOUS
 70
0
 71
3
 72
11
 73
7
 74
0
 42
0.0000001
 43
0.0000001
 44
0.0000000001
 40
0.0
 40
0.0
 40
0.0
 40
0.0
 40
0.2177817009
 40
0.4509079353
 40
0.7102947134
 40
1.0
 40
1.0
 40
1.0
 40
1.0
 10
65.490214264
 20
95.1069715291
 30
0.0
 10
65.4902142481
 20
95.1926704601
 30
0.0
 10
65.4585442488
 20
95.371294159
 30
0.0
 10
65.3231289802
 20
95.6201741246
 30
0.0
 10
65.1090566944
 20
95.8451514014
 30
0.0
 10
64.9299378496
 20
95.9685211091
 30
0.0
 10
64.8312091249
 20
96.0255208754
 30
0.0
  0
SPLINE
  5
507
100
AcDbEntity
  8
0
100
AcDbSpline
 62
7
  6
CONTINUOUS
 70
0
 71
3
 72
11
 73
7
 74
0
 42
0.0000001
 43
0.0000001
 44
0.0000000001
 40
0.0
 40
0.0
 40
0.0
 40
0.0
 40
0.2177456295
 40
0.4508837762
 40
0.7104602913
 40
1.0
 40
1.0
 40
1.0
 40
1.0
 10
113.6346204816
 20
120.6655256113
 30
0.0
 10
113.6873870552
 20
120.6350615142
 30
0.0
 10
113.8085866482
 20
120.5909231177
 30
0.0
 10
114.0100744615
 20
120.5858634695
 30
0.0
 10
114.2247023003
 20
120.6378150718
 30
0.0
 10
114.3643979208
 20
120.7041836022
 30
0.0
 10
114.4345621469
 20
120.7446926952
 30
0.0
  0
SPLINE
  5
508
100
AcDbEntity
  8
0
100
AcDbSpline
 62
7
  6
CONTINUOUS
 70
0
 71
3
 72
11
 73
7
 74
0
 42
0.0000001
 43
0.0000001
 44
0.0000000001
 40
0.0
 40
0.0
 40
0.0
 40
0.0
 40
0.2277335828
 40
0.4761037499
 40
0.7368284309
 40
1.0
 40
1.0
 40
1.0
 40
1.0
 10
40.4713806605
 20
84.002464667
 30
0.0
 10
40.2541115744
 20
84.1279021946
 30
0.0
 10
39.8280523529
 20
84.4400750095
 30
0.0
 10
39.2600234479
 20
85.0240243832
 30
0.0
 10
38.7600829115
 20
85.7157947597
 30
0.0
 10
38.4886445655
 20
86.2276233026
 30
0.0
 10
38.3714596699
 20
86.4928039036
 30
0.0
  0
SPLINE
  5
509
100
AcDbEntity
  8
0
100
AcDbSpline
 62
7
  6
CONTINUOUS
 70
0
 71
3
 72
9
 73
5
 74
0
 42
0.0000001
 43
0.0000001
 44
0.0000000001
 40
0.0
 40
0.0
 40
0.0
 40
0.0
 40
0.2564372695
 40
1.0
 40
1.0
 40
1.0
 40
1.0
 10
43.7240853961
 20
83.2676605802
 30
0.0
 10
43.7585773729
 20
83.2477470786
 30
0.0
 10
43.8941979226
 20
83.1720539122
 30
0.0
 10
44.0343361742
 20
83.1043601731
 30
0.0
 10
44.1407587523
 20
83.0595185904
 30
0.0
  0
SPLINE
  5
50A
100
AcDbEntity
  8
0
100
AcDbSpline
 62
7
  6
CONTINUOUS
 70
0
 71
3
 72
9
 73
5
 74
0
 42
0.0000001
 43
0.0000001
 44
0.0000000001
 40
0.0
 40
0.0
 40
0.0
 40
0.0
 40
0.2548814479
 40
1.0
 40
1.0
 40
1.0
 40
1.0
 10
44.1407587523
 20
83.0595185904
 30
0.0
 10
44.1640360643
 20
83.049710601
 30
0.0
 10
44.2557908613
 20
83.0122603747
 30
0.0
 10
44.3492776925
 20
82.9790159058
 30
0.0
 10
44.4197572417
 20
82.9569845637
 30
0.0
  0
SPLINE
  5
50B
100
AcDbEntity
  8
0
100
AcDbSpline
 62
7
  6
CONTINUOUS
 70
0
 71
3
 72
9
 73
5
 74
0
 42
0.0000001
 43
0.0000001
 44
0.0000000001
 40
0.0
 40
0.0
 40
0.0
 40
0.0
 40
0.2571315138
 40
1.0
 40
1.0
 40
1.0
 40
1.0
 10
44.4197572417
 20
82.9569845637
 30
0.0
 10
44.4518313699
 20
82.9469584484
 30
0.0
 10
44.577240254
 20
82.9101720144
 30
0.0
 10
44.7053717614
 20
82.8824517931
 30
0.0
 10
44.801367274
 20
82.8679421984
 30
0.0
  0
SPLINE
  5
50C
100
AcDbEntity
  8
0
100
AcDbSpline
 62
7
  6
CONTINUOUS
 70
0
 71
3
 72
9
 73
5
 74
0
 42
0.0000001
 43
0.0000001
 44
0.0000000001
 40
0.0
 40
0.0
 40
0.0
 40
0.0
 40
0.5148085974
 40
1.0
 40
1.0
 40
1.0
 40
1.0
 10
44.9180444315
 20
82.8534113828
 30
0.0
 10
45.0470674001
 20
82.8408320347
 30
0.0
 10
45.3007424346
 20
82.8390669347
 30
0.0
 10
45.549486136
 20
82.892113859
 30
0.0
 10
45.6650081513
 20
82.9318861138
 30
0.0
  0
SPLINE
  5
50D
100
AcDbEntity
  8
0
100
AcDbSpline
 62
7
  6
CONTINUOUS
 70
0
 71
3
 72
13
 73
9
 74
0
 42
0.0000001
 43
0.0000001
 44
0.0000000001
 40
0.0
 40
0.0
 40
0.0
 40
0.0
 40
0.1142253587
 40
0.237559206
 40
0.5000004539
 40
0.7624414493
 40
0.885775028
 40
1.0
 40
1.0
 40
1.0
 40
1.0
 10
78.0538536351
 20
131.0119309839
 30
0.0
 10
77.9449674582
 20
131.0747950252
 30
0.0
 10
77.7067537287
 20
131.1856895485
 30
0.0
 10
77.1788992032
 20
131.3460630668
 30
0.0
 10
76.4628610807
 20
131.4239150125
 30
0.0
 10
75.7468235549
 20
131.346059838
 30
0.0
 10
75.2189708657
 20
131.1856836754
 30
0.0
 10
74.9807584746
 20
131.0747879491
 30
0.0
 10
74.8718731198
 20
131.0119233353
 30
0.0
  0
SPLINE
  5
50E
100
AcDbEntity
  8
0
100
AcDbSpline
 62
7
  6
CONTINUOUS
 70
0
 71
3
 72
11
 73
7
 74
0
 42
0.0000001
 43
0.0000001
 44
0.0000000001
 40
0.0
 40
0.0
 40
0.0
 40
0.0
 40
0.2897048043
 40
0.5490913404
 40
0.7822177947
 40
1.0
 40
1.0
 40
1.0
 40
1.0
 10
74.8718731198
 20
131.0119233353
 30
0.0
 10
74.7731462418
 20
130.9549236861
 30
0.0
 10
74.5940307981
 20
130.8315544948
 30
0.0
 10
74.3799628877
 20
130.6065788748
 30
0.0
 10
74.2445505457
 20
130.3577013318
 30
0.0
 10
74.2128812127
 20
130.1790796635
 30
0.0
 10
74.2128812285
 20
130.0933816377
 30
0.0
  0
SPLINE
  5
50F
100
AcDbEntity
  8
0
100
AcDbSpline
 62
7
  6
CONTINUOUS
 70
0
 71
3
 72
13
 73
9
 74
0
 42
0.0000001
 43
0.0000001
 44
0.0000000001
 40
0.0
 40
0.0
 40
0.0
 40
0.0
 40
0.1142253587
 40
0.237559206
 40
0.5000004539
 40
0.7624414493
 40
0.885775028
 40
1.0
 40
1.0
 40
1.0
 40
1.0
 10
104.9946858821
 20
122.1531344855
 30
0.0
 10
104.8857997053
 20
122.2159985268
 30
0.0
 10
104.6475859758
 20
122.3268930501
 30
0.0
 10
104.1197314503
 20
122.4872665684
 30
0.0
 10
103.4036933278
 20
122.565118514
 30
0.0
 10
102.6876558019
 20
122.4872633396
 30
0.0
 10
102.1598031128
 20
122.326887177
 30
0.0
 10
101.9215907217
 20
122.2159914506
 30
0.0
 10
101.8127053668
 20
122.1531268369
 30
0.0
  0
SPLINE
  5
510
100
AcDbEntity
  8
0
100
AcDbSpline
 62
7
  6
CONTINUOUS
 70
0
 71
3
 72
11
 73
7
 74
0
 42
0.0000001
 43
0.0000001
 44
0.0000000001
 40
0.0
 40
0.0
 40
0.0
 40
0.0
 40
0.2897048043
 40
0.5490913404
 40
0.7822177947
 40
1.0
 40
1.0
 40
1.0
 40
1.0
 10
101.8127053668
 20
122.1531268369
 30
0.0
 10
101.7139784889
 20
122.0961271876
 30
0.0
 10
101.5348630452
 20
121.9727579964
 30
0.0
 10
101.3207951347
 20
121.7477823764
 30
0.0
 10
101.1853827927
 20
121.4989048333
 30
0.0
 10
101.1537134597
 20
121.3202831651
 30
0.0
 10
101.1537134756
 20
121.2345851393
 30
0.0
  0
SPLINE
  5
511
100
AcDbEntity
  8
0
100
AcDbSpline
 62
7
  6
CONTINUOUS
 70
0
 71
3
 72
9
 73
5
 74
0
 42
0.0000001
 43
0.0000001
 44
0.0000000001
 40
0.0
 40
0.0
 40
0.0
 40
0.0
 40
0.2419168962
 40
1.0
 40
1.0
 40
1.0
 40
1.0
 10
101.363188717
 20
120.720479179
 30
0.0
 10
101.3752272026
 20
120.7354414167
 30
0.0
 10
101.4264910791
 20
120.7960771169
 30
0.0
 10
101.4834631493
 20
120.8518043906
 30
0.0
 10
101.5288726234
 20
120.8912942395
 30
0.0
  0
SPLINE
  5
512
100
AcDbEntity
  8
0
100
AcDbSpline
 62
7
  6
CONTINUOUS
 70
0
 71
3
 72
9
 73
5
 74
0
 42
0.0000001
 43
0.0000001
 44
0.0000000001
 40
0.0
 40
0.0
 40
0.0
 40
0.0
 40
0.2402986193
 40
1.0
 40
1.0
 40
1.0
 40
1.0
 10
101.5288726234
 20
120.8912942395
 30
0.0
 10
101.5498907615
 20
120.9095724316
 30
0.0
 10
101.6394180724
 20
120.9832567192
 30
0.0
 10
101.7364425146
 20
121.0476435792
 30
0.0
 10
101.8127053668
 20
121.0916736947
 30
0.0
  0
SPLINE
  5
513
100
AcDbEntity
  8
0
100
AcDbSpline
 62
7
  6
CONTINUOUS
 70
0
 71
3
 72
15
 73
11
 74
0
 42
0.0000001
 43
0.0000001
 44
0.0000000001
 40
0.0
 40
0.0
 40
0.0
 40
0.0
 40
0.09056985
 40
0.1959908107
 40
0.3175598931
 40
0.4523250021
 40
0.594712638
 40
0.7378949653
 40
0.8750149119
 40
1.0
 40
1.0
 40
1.0
 40
1.0
 10
37.6147438538
 20
114.3703536259
 30
0.0
 10
37.6359873858
 20
114.3023414476
 30
0.0
 10
37.7176314187
 20
114.1658872366
 30
0.0
 10
37.9125481154
 20
114.0048058307
 30
0.0
 10
38.1709257586
 20
113.8803715848
 30
0.0
 10
38.4757386206
 20
113.799885903
 30
0.0
 10
38.8062816927
 20
113.7684541957
 30
0.0
 10
39.1396224803
 20
113.788170866
 30
0.0
 10
39.4521649955
 20
113.8577361203
 30
0.0
 10
39.6436344728
 20
113.9389649074
 30
0.0
 10
39.7287888585
 20
113.9881285215
 30
0.0
  0
SPLINE
  5
514
100
AcDbEntity
  8
0
100
AcDbSpline
 62
7
  6
CONTINUOUS
 70
0
 71
3
 72
11
 73
7
 74
0
 42
0.0000001
 43
0.0000001
 44
0.0000000001
 40
0.0
 40
0.0
 40
0.0
 40
0.0
 40
0.28944747
 40
0.5489704903
 40
0.7820626889
 40
1.0
 40
1.0
 40
1.0
 40
1.0
 10
39.7287888585
 20
113.9881285215
 30
0.0
 10
39.7835873921
 20
114.0197662808
 30
0.0
 10
39.8830178761
 20
114.0883589934
 30
0.0
 10
40.0020172861
 20
114.2132012165
 30
0.0
 10
40.0773638606
 20
114.3515002103
 30
0.0
 10
40.0948092751
 20
114.4507860951
 30
0.0
 10
40.0948081724
 20
114.4984291376
 30
0.0
  0
SPLINE
  5
515
100
AcDbEntity
  8
0
100
AcDbSpline
 62
7
  6
CONTINUOUS
 70
0
 71
3
 72
10
 73
6
 74
0
 42
0.0000001
 43
0.0000001
 44
0.0000000001
 40
0.0
 40
0.0
 40
0.0
 40
0.0
 40
0.472047813
 40
0.733144649
 40
1.0
 40
1.0
 40
1.0
 40
1.0
 10
37.5908457887
 20
83.5135572575
 30
0.0
 10
37.4951683335
 20
83.8605051495
 30
0.0
 10
37.3503424568
 20
84.400493779
 30
0.0
 10
37.1255392938
 20
85.1290767425
 30
0.0
 10
36.9861670473
 20
85.5073111798
 30
0.0
 10
36.905207933
 20
85.6939656469
 30
0.0
  0
SPLINE
  5
516
100
AcDbEntity
  8
0
100
AcDbSpline
 62
7
  6
CONTINUOUS
 70
0
 71
3
 72
9
 73
5
 74
0
 42
0.0000001
 43
0.0000001
 44
0.0000000001
 40
0.0
 40
0.0
 40
0.0
 40
0.0
 40
0.2401130214
 40
1.0
 40
1.0
 40
1.0
 40
1.0
 10
74.42235647
 20
129.5792756774
 30
0.0
 10
74.4371988063
 20
129.5977227289
 30
0.0
 10
74.5013123067
 20
129.6726924775
 30
0.0
 10
74.5740325121
 20
129.740114982
 30
0.0
 10
74.6323248922
 20
129.7871946574
 30
0.0
  0
SPLINE
  5
517
100
AcDbEntity
  8
0
100
AcDbSpline
 62
7
  6
CONTINUOUS
 70
0
 71
3
 72
9
 73
5
 74
0
 42
0.0000001
 43
0.0000001
 44
0.0000000001
 40
0.0
 40
0.0
 40
0.0
 40
0.0
 40
0.2421061346
 40
1.0
 40
1.0
 40
1.0
 40
1.0
 10
74.6323248922
 20
129.7871946574
 30
0.0
 10
74.6505361817
 20
129.8019029537
 30
0.0
 10
74.7270566498
 20
129.8610369484
 30
0.0
 10
74.8084104657
 20
129.9138302314
 30
0.0
 10
74.8718731198
 20
129.9504701931
 30
0.0
  0
SPLINE
  5
518
100
AcDbEntity
  8
0
100
AcDbSpline
 62
7
  6
CONTINUOUS
 70
0
 71
3
 72
9
 73
5
 74
0
 42
0.0000001
 43
0.0000001
 44
0.0000000001
 40
0.0
 40
0.0
 40
0.0
 40
0.0
 40
0.5040978515
 40
1.0
 40
1.0
 40
1.0
 40
1.0
 10
44.1749012033
 20
83.1648993121
 30
0.0
 10
44.0429147814
 20
83.2411222186
 30
0.0
 10
43.7952140509
 20
83.4173997744
 30
0.0
 10
43.5764427033
 20
83.6274705475
 30
0.0
 10
43.4752691143
 20
83.7381277976
 30
0.0
  0
SPLINE
  5
519
100
AcDbEntity
  8
0
100
AcDbSpline
 62
7
  6
CONTINUOUS
 70
0
 71
3
 72
9
 73
5
 74
0
 42
0.0000001
 43
0.0000001
 44
0.0000000001
 40
0.0
 40
0.0
 40
0.0
 40
0.0
 40
0.24783927
 40
1.0
 40
1.0
 40
1.0
 40
1.0
 10
45.8900863739
 20
73.484886582
 30
0.0
 10
45.8082406542
 20
73.4722249752
 30
0.0
 10
45.4765056848
 20
73.4313023667
 30
0.0
 10
45.1399812087
 20
73.4295498773
 30
0.0
 10
44.8894856206
 20
73.4502094955
 30
0.0
  0
SPLINE
  5
51A
100
AcDbEntity
  8
0
100
AcDbSpline
 62
7
  6
CONTINUOUS
 70
0
 71
3
 72
10
 73
6
 74
0
 42
0.0000001
 43
0.0000001
 44
0.0000000001
 40
0.0
 40
0.0
 40
0.0
 40
0.0
 40
0.5468465168
 40
0.7933730151
 40
1.0
 40
1.0
 40
1.0
 40
1.0
 10
15.8640228711
 20
89.3911971593
 30
0.0
 10
15.6887399666
 20
89.5829104748
 30
0.0
 10
15.4635721502
 20
89.8905856651
 30
0.0
 10
15.2524577234
 20
90.3167181941
 30
0.0
 10
15.1804867361
 20
90.5206523441
 30
0.0
 10
15.156910202
 20
90.6159315766
 30
0.0
  0
SPLINE
  5
51B
100
AcDbEntity
  8
0
100
AcDbSpline
 62
7
  6
CONTINUOUS
 70
0
 71
3
 72
11
 73
7
 74
0
 42
0.0000001
 43
0.0000001
 44
0.0000000001
 40
0.0
 40
0.0
 40
0.0
 40
0.0
 40
0.2891618926
 40
0.5544064667
 40
0.7916747709
 40
1.0
 40
1.0
 40
1.0
 40
1.0
 10
44.8894856206
 20
73.4502094955
 30
0.0
 10
44.7535916431
 20
73.4614173483
 30
0.0
 10
44.4917011471
 20
73.4648689277
 30
0.0
 10
44.118669477
 20
73.4526029403
 30
0.0
 10
43.7836439115
 20
73.4420273192
 30
0.0
 10
43.5733237688
 20
73.4442220983
 30
0.0
 10
43.4752691143
 20
73.4501973418
 30
0.0
  0
SPLINE
  5
51C
100
AcDbEntity
  8
0
100
AcDbSpline
 62
7
  6
CONTINUOUS
 70
0
 71
3
 72
9
 73
5
 74
0
 42
0.0000001
 43
0.0000001
 44
0.0000000001
 40
0.0
 40
0.0
 40
0.0
 40
0.0
 40
0.2401130214
 40
1.0
 40
1.0
 40
1.0
 40
1.0
 10
61.1997119599
 20
94.5928655689
 30
0.0
 10
61.2145542962
 20
94.6113126204
 30
0.0
 10
61.2786677966
 20
94.686282369
 30
0.0
 10
61.3513880019
 20
94.7537048735
 30
0.0
 10
61.409680382
 20
94.8007845489
 30
0.0
  0
SPLINE
  5
51D
100
AcDbEntity
  8
0
100
AcDbSpline
 62
7
  6
CONTINUOUS
 70
0
 71
3
 72
9
 73
5
 74
0
 42
0.0000001
 43
0.0000001
 44
0.0000000001
 40
0.0
 40
0.0
 40
0.0
 40
0.0
 40
0.2421061346
 40
1.0
 40
1.0
 40
1.0
 40
1.0
 10
61.409680382
 20
94.8007845489
 30
0.0
 10
61.4278916715
 20
94.8154928451
 30
0.0
 10
61.5044121397
 20
94.8746268399
 30
0.0
 10
61.5857659556
 20
94.9274201229
 30
0.0
 10
61.6492286096
 20
94.9640600846
 30
0.0
  0
SPLINE
  5
51E
100
AcDbEntity
  8
0
100
AcDbSpline
 62
7
  6
CONTINUOUS
 70
0
 71
3
 72
10
 73
6
 74
0
 42
0.0000001
 43
0.0000001
 44
0.0000000001
 40
0.0
 40
0.0
 40
0.0
 40
0.0
 40
0.471069303
 40
0.7288962823
 40
1.0
 40
1.0
 40
1.0
 40
1.0
 10
68.1685241035
 20
129.868128718
 30
0.0
 10
67.6288313629
 20
130.3737552787
 30
0.0
 10
66.6862025996
 20
131.044808048
 30
0.0
 10
65.2896430619
 20
131.7632101926
 30
0.0
 10
64.5190220655
 20
132.0764526924
 30
0.0
 10
64.1186649745
 20
132.2208855121
 30
0.0
  0
SPLINE
  5
51F
100
AcDbEntity
  8
0
100
AcDbSpline
 62
7
  6
CONTINUOUS
 70
0
 71
3
 72
11
 73
7
 74
0
 42
0.0000001
 43
0.0000001
 44
0.0000000001
 40
0.0
 40
0.0
 40
0.0
 40
0.0
 40
0.249843784
 40
0.5123920834
 40
0.7683581861
 40
1.0
 40
1.0
 40
1.0
 40
1.0
 10
64.1186649745
 20
132.2208855121
 30
0.0
 10
63.9691624741
 20
132.2748200325
 30
0.0
 10
63.6484892943
 20
132.348007655
 30
0.0
 10
63.1571780058
 20
132.3627539724
 30
0.0
 10
62.683239653
 20
132.2868792124
 30
0.0
 10
62.3907400339
 20
132.1725011406
 30
0.0
 10
62.2631267866
 20
132.0988240377
 30
0.0
  0
SPLINE
  5
520
100
AcDbEntity
  8
0
100
AcDbSpline
 62
7
  6
CONTINUOUS
 70
0
 71
3
 72
11
 73
7
 74
0
 42
0.0000001
 43
0.0000001
 44
0.0000000001
 40
0.0
 40
0.0
 40
0.0
 40
0.0
 40
0.2895966946
 40
0.5491168086
 40
0.7822467126
 40
1.0
 40
1.0
 40
1.0
 40
1.0
 10
62.2631267866
 20
132.0988240377
 30
0.0
 10
62.1973340686
 20
132.0608388209
 30
0.0
 10
62.0779472577
 20
131.9785519496
 30
0.0
 10
61.9351921656
 20
131.8286150434
 30
0.0
 10
61.844861439
 20
131.6626720226
 30
0.0
 10
61.8238553119
 20
131.5435866661
 30
0.0
 10
61.8238382523
 20
131.4864627926
 30
0.0
  0
SPLINE
  5
521
100
AcDbEntity
  8
0
100
AcDbSpline
 62
7
  6
CONTINUOUS
 70
0
 71
3
 72
13
 73
9
 74
0
 42
0.0000001
 43
0.0000001
 44
0.0000000001
 40
0.0
 40
0.0
 40
0.0
 40
0.0
 40
0.09356272
 40
0.1924230161
 40
0.300533556
 40
0.420000076
 40
0.6924551257
 40
1.0
 40
1.0
 40
1.0
 40
1.0
 10
32.5037671138
 20
117.4377629191
 30
0.0
 10
32.5037639629
 20
117.3956342942
 30
0.0
 10
32.5172561925
 20
117.3084902303
 30
0.0
 10
32.5761503586
 20
117.1849381924
 30
0.0
 10
32.6703351907
 20
117.070514771
 30
0.0
 10
32.8460866796
 20
116.9279142461
 30
0.0
 10
33.1362520285
 20
116.7942190549
 30
0.0
 10
33.3941506137
 20
116.7418793111
 30
0.0
 10
33.531884893
 20
116.7275400193
 30
0.0
  0
SPLINE
  5
522
100
AcDbEntity
  8
0
100
AcDbSpline
 62
7
  6
CONTINUOUS
 70
0
 71
3
 72
11
 73
7
 74
0
 42
0.0000001
 43
0.0000001
 44
0.0000000001
 40
0.0
 40
0.0
 40
0.0
 40
0.0
 40
0.2179373111
 40
0.4510295097
 40
0.71055253
 40
1.0
 40
1.0
 40
1.0
 40
1.0
 10
40.0948081724
 20
117.5603132018
 30
0.0
 10
40.0948092751
 20
117.5126701593
 30
0.0
 10
40.0773638606
 20
117.4133842745
 30
0.0
 10
40.0020172861
 20
117.2750852808
 30
0.0
 10
39.8830178761
 20
117.1502430577
 30
0.0
 10
39.7835873921
 20
117.081650345
 30
0.0
 10
39.7287888585
 20
117.0500125857
 30
0.0
  0
SPLINE
  5
523
100
AcDbEntity
  8
0
100
AcDbSpline
 62
7
  6
CONTINUOUS
 70
0
 71
3
 72
11
 73
7
 74
0
 42
0.0000001
 43
0.0000001
 44
0.0000000001
 40
0.0
 40
0.0
 40
0.0
 40
0.0
 40
0.2776852806
 40
0.533271077
 40
0.7714033747
 40
1.0
 40
1.0
 40
1.0
 40
1.0
 10
35.497108047
 20
121.0514617056
 30
0.0
 10
35.4150525702
 20
120.9812318414
 30
0.0
 10
35.2672159907
 20
120.8340887659
 30
0.0
 10
35.0963858094
 20
120.5849582776
 30
0.0
 10
34.9910369955
 20
120.3218179345
 30
0.0
 10
34.9670708144
 20
120.1395036795
 30
0.0
 10
34.9670674568
 20
120.050590618
 30
0.0
  0
SPLINE
  5
524
100
AcDbEntity
  8
0
100
AcDbSpline
 62
7
  6
CONTINUOUS
 70
0
 71
3
 72
13
 73
9
 74
0
 42
0.0000001
 43
0.0000001
 44
0.0000000001
 40
0.0
 40
0.0
 40
0.0
 40
0.0
 40
0.3075448743
 40
0.579999924
 40
0.699466444
 40
0.8075769839
 40
0.90643728
 40
1.0
 40
1.0
 40
1.0
 40
1.0
 10
33.531884893
 20
119.7894240836
 30
0.0
 10
33.3941506137
 20
119.8037633753
 30
0.0
 10
33.1362520285
 20
119.8561031192
 30
0.0
 10
32.8460866796
 20
119.9897983103
 30
0.0
 10
32.6703351907
 20
120.1323988352
 30
0.0
 10
32.5761503586
 20
120.2468222567
 30
0.0
 10
32.5172561925
 20
120.3703742945
 30
0.0
 10
32.5037639629
 20
120.4575183584
 30
0.0
 10
32.5037671138
 20
120.4996469833
 30
0.0
  0
SPLINE
  5
525
100
AcDbEntity
  8
0
100
AcDbSpline
 62
7
  6
CONTINUOUS
 70
0
 71
3
 72
15
 73
11
 74
0
 42
0.0000001
 43
0.0000001
 44
0.0000000001
 40
0.0
 40
0.0
 40
0.0
 40
0.0
 40
0.1249850881
 40
0.2621050347
 40
0.405287362
 40
0.5476749979
 40
0.6824401069
 40
0.8040091893
 40
0.90943015
 40
1.0
 40
1.0
 40
1.0
 40
1.0
 10
39.7287888585
 20
117.0500125857
 30
0.0
 10
39.6436344728
 20
117.0008489717
 30
0.0
 10
39.4521649955
 20
116.9196201845
 30
0.0
 10
39.1396224803
 20
116.8500549303
 30
0.0
 10
38.8062816927
 20
116.8303382599
 30
0.0
 10
38.4757386206
 20
116.8617699672
 30
0.0
 10
38.1709257586
 20
116.9422556491
 30
0.0
 10
37.9125481154
 20
117.0666898949
 30
0.0
 10
37.7176314187
 20
117.2277713009
 30
0.0
 10
37.6359873858
 20
117.3642255118
 30
0.0
 10
37.6147438538
 20
117.4322376901
 30
0.0
  0
SPLINE
  5
526
100
AcDbEntity
  8
0
100
AcDbSpline
 62
7
  6
CONTINUOUS
 70
0
 71
3
 72
11
 73
7
 74
0
 42
0.0000001
 43
0.0000001
 44
0.0000000001
 40
0.0
 40
0.0
 40
0.0
 40
0.0
 40
0.2177817009
 40
0.4509079353
 40
0.7102947134
 40
1.0
 40
1.0
 40
1.0
 40
1.0
 10
78.7128587741
 20
130.0933816377
 30
0.0
 10
78.7128587582
 20
130.1790805686
 30
0.0
 10
78.6811887589
 20
130.3577042675
 30
0.0
 10
78.5457734903
 20
130.6065842332
 30
0.0
 10
78.3317012046
 20
130.8315615099
 30
0.0
 10
78.1525823598
 20
130.9549312176
 30
0.0
 10
78.0538536351
 20
131.0119309839
 30
0.0
  0
SPLINE
  5
527
100
AcDbEntity
  8
0
100
AcDbSpline
 62
7
  6
CONTINUOUS
 70
0
 71
3
 72
9
 73
5
 74
0
 42
0.0000001
 43
0.0000001
 44
0.0000000001
 40
0.0
 40
0.0
 40
0.0
 40
0.0
 40
0.2598291805
 40
1.0
 40
1.0
 40
1.0
 40
1.0
 10
104.9946858821
 20
121.0916813432
 30
0.0
 10
105.0207683279
 20
121.0766229768
 30
0.0
 10
105.1198763
 20
121.0165195706
 30
0.0
 10
105.2137860024
 20
120.9475991258
 30
0.0
 10
105.2785249506
 20
120.8913002938
 30
0.0
  0
SPLINE
  5
528
100
AcDbEntity
  8
0
100
AcDbSpline
 62
7
  6
CONTINUOUS
 70
0
 71
3
 72
9
 73
5
 74
0
 42
0.0000001
 43
0.0000001
 44
0.0000000001
 40
0.0
 40
0.0
 40
0.0
 40
0.0
 40
0.2584638852
 40
1.0
 40
1.0
 40
1.0
 40
1.0
 10
105.2785249506
 20
120.8913002938
 30
0.0
 10
105.2940073609
 20
120.8778363491
 30
0.0
 10
105.352859141
 20
120.8245606291
 30
0.0
 10
105.4073156145
 20
120.7663413429
 30
0.0
 10
105.4442170956
 20
120.7204775409
 30
0.0
  0
SPLINE
  5
529
100
AcDbEntity
  8
0
100
AcDbSpline
 62
7
  6
CONTINUOUS
 70
0
 71
3
 72
9
 73
5
 74
0
 42
0.0000001
 43
0.0000001
 44
0.0000000001
 40
0.0
 40
0.0
 40
0.0
 40
0.0
 40
0.257964777
 40
1.0
 40
1.0
 40
1.0
 40
1.0
 10
78.0538536351
 20
129.9504778416
 30
0.0
 10
78.0754546762
 20
129.9380067568
 30
0.0
 10
78.1583153481
 20
129.8881755423
 30
0.0
 10
78.2375931441
 20
129.8322787417
 30
0.0
 10
78.2934097676
 20
129.7871990011
 30
0.0
  0
SPLINE
  5
52A
100
AcDbEntity
  8
0
100
AcDbSpline
 62
7
  6
CONTINUOUS
 70
0
 71
3
 72
9
 73
5
 74
0
 42
0.0000001
 43
0.0000001
 44
0.0000000001
 40
0.0
 40
0.0
 40
0.0
 40
0.0
 40
0.2603757114
 40
1.0
 40
1.0
 40
1.0
 40
1.0
 10
78.2934097676
 20
129.7871990011
 30
0.0
 10
78.3133831656
 20
129.771067685
 30
0.0
 10
78.3886174609
 20
129.7073361565
 30
0.0
 10
78.4576671921
 20
129.6360952152
 30
0.0
 10
78.5033848486
 20
129.5792740393
 30
0.0
  0
SPLINE
  5
52B
100
AcDbEntity
  8
0
100
AcDbSpline
 62
7
  6
CONTINUOUS
 70
0
 71
3
 72
9
 73
5
 74
0
 42
0.0000001
 43
0.0000001
 44
0.0000000001
 40
0.0
 40
0.0
 40
0.0
 40
0.0
 40
0.257964777
 40
1.0
 40
1.0
 40
1.0
 40
1.0
 10
69.9222248632
 20
116.1926875889
 30
0.0
 10
69.9438259043
 20
116.1802165042
 30
0.0
 10
70.0266865762
 20
116.1303852897
 30
0.0
 10
70.1059643722
 20
116.074488489
 30
0.0
 10
70.1617809957
 20
116.0294087484
 30
0.0
  0
SPLINE
  5
52C
100
AcDbEntity
  8
0
100
AcDbSpline
 62
7
  6
CONTINUOUS
 70
0
 71
3
 72
9
 73
5
 74
0
 42
0.0000001
 43
0.0000001
 44
0.0000000001
 40
0.0
 40
0.0
 40
0.0
 40
0.0
 40
0.2603757114
 40
1.0
 40
1.0
 40
1.0
 40
1.0
 10
70.1617809957
 20
116.0294087484
 30
0.0
 10
70.1817543937
 20
116.0132774324
 30
0.0
 10
70.256988689
 20
115.9495459039
 30
0.0
 10
70.3260384202
 20
115.8783049625
 30
0.0
 10
70.3717560767
 20
115.8214837867
 30
0.0
  0
SPLINE
  5
52D
100
AcDbEntity
  8
0
100
AcDbSpline
 62
7
  6
CONTINUOUS
 70
0
 71
3
 72
11
 73
7
 74
0
 42
0.0000001
 43
0.0000001
 44
0.0000000001
 40
0.0
 40
0.0
 40
0.0
 40
0.0
 40
0.2897052857
 40
0.5490919933
 40
0.7822182543
 40
1.0
 40
1.0
 40
1.0
 40
1.0
 10
27.6725845309
 20
118.6624756426
 30
0.0
 10
27.5848256645
 20
118.7131421015
 30
0.0
 10
27.4256089151
 20
118.8228040232
 30
0.0
 10
27.2353224622
 20
119.0227838341
 30
0.0
 10
27.1149533433
 20
119.24401046
 30
0.0
 10
27.0868021638
 20
119.4027871069
 30
0.0
 10
27.0868021851
 20
119.4789639503
 30
0.0
  0
SPLINE
  5
52E
100
AcDbEntity
  8
0
100
AcDbSpline
 62
7
  6
CONTINUOUS
 70
0
 71
3
 72
9
 73
5
 74
0
 42
0.0000001
 43
0.0000001
 44
0.0000000001
 40
0.0
 40
0.0
 40
0.0
 40
0.0
 40
0.257964777
 40
1.0
 40
1.0
 40
1.0
 40
1.0
 10
64.8312091249
 20
94.9640677331
 30
0.0
 10
64.8528101661
 20
94.9515966483
 30
0.0
 10
64.935670838
 20
94.9017654338
 30
0.0
 10
65.014948634
 20
94.8458686332
 30
0.0
 10
65.0707652575
 20
94.8007888926
 30
0.0
  0
SPLINE
  5
52F
100
AcDbEntity
  8
0
100
AcDbSpline
 62
7
  6
CONTINUOUS
 70
0
 71
3
 72
9
 73
5
 74
0
 42
0.0000001
 43
0.0000001
 44
0.0000000001
 40
0.0
 40
0.0
 40
0.0
 40
0.0
 40
0.2603757114
 40
1.0
 40
1.0
 40
1.0
 40
1.0
 10
65.0707652575
 20
94.8007888926
 30
0.0
 10
65.0907386554
 20
94.7846575765
 30
0.0
 10
65.1659729508
 20
94.720926048
 30
0.0
 10
65.2350226819
 20
94.6496851066
 30
0.0
 10
65.2807403385
 20
94.5928639308
 30
0.0
  0
SPLINE
  5
530
100
AcDbEntity
  8
0
100
AcDbSpline
 62
7
  6
CONTINUOUS
 70
0
 71
3
 72
9
 73
5
 74
0
 42
0.0000001
 43
0.0000001
 44
0.0000000001
 40
0.0
 40
0.0
 40
0.0
 40
0.0
 40
0.257964777
 40
1.0
 40
1.0
 40
1.0
 40
1.0
 10
40.577241336
 20
123.4185084917
 30
0.0
 10
40.5988423771
 20
123.4060374069
 30
0.0
 10
40.681703049
 20
123.3562061924
 30
0.0
 10
40.760980845
 20
123.3003093917
 30
0.0
 10
40.8167974685
 20
123.2552296512
 30
0.0
  0
SPLINE
  5
531
100
AcDbEntity
  8
0
100
AcDbSpline
 62
7
  6
CONTINUOUS
 70
0
 71
3
 72
9
 73
5
 74
0
 42
0.0000001
 43
0.0000001
 44
0.0000000001
 40
0.0
 40
0.0
 40
0.0
 40
0.0
 40
0.2603757114
 40
1.0
 40
1.0
 40
1.0
 40
1.0
 10
40.8167974685
 20
123.2552296512
 30
0.0
 10
40.8367708665
 20
123.2390983351
 30
0.0
 10
40.9120051618
 20
123.1753668066
 30
0.0
 10
40.981054893
 20
123.1041258652
 30
0.0
 10
41.0267725495
 20
123.0473046894
 30
0.0
  0
ELLIPSE
  5
532
100
AcDbEntity
  8
0
100
AcDbEllipse
 62
7
  6
CONTINUOUS
 10
27.6784156494
 20
124.3210225547
 30
0.0
 11
0.4990861305
 21
0.0529872295
 31
0.0
 40
0.570259249
 41
1.4855530459
 42
3.0424613767
  0
ELLIPSE
  5
533
100
AcDbEntity
  8
0
100
AcDbEllipse
 62
7
  6
CONTINUOUS
 10
117.1781623992
 20
95.8902240328
 30
0.0
 11
0.0972478766
 21
0.519502998
 31
0.0
 40
0.2183847991
 41
-2.432947662
 42
-0.8621513352
  0
ELLIPSE
  5
534
100
AcDbEntity
  8
0
100
AcDbEllipse
 62
7
  6
CONTINUOUS
 10
51.9129970417
 20
53.5958246647
 30
0.0
 11
1.7426122134
 21
0.5511915256
 31
0.0
 40
0.6979067531
 41
0.6896399587
 42
1.3535315019
  0
ELLIPSE
  5
535
100
AcDbEntity
  8
0
100
AcDbEllipse
 62
7
  6
CONTINUOUS
 10
117.1781623992
 20
85.6022935769
 30
0.0
 11
0.0972478766
 21
0.519502998
 31
0.0
 40
0.2183847991
 41
5.421033972
 42
6.9918302988
  0
ELLIPSE
  5
536
100
AcDbEntity
  8
0
100
AcDbEllipse
 62
7
  6
CONTINUOUS
 10
51.9129970417
 20
46.7372043608
 30
0.0
 11
1.7426122134
 21
0.5511915256
 31
0.0
 40
0.6979067531
 41
-1.7880611517
 42
-1.3927743286
  0
ELLIPSE
  5
537
100
AcDbEntity
  8
0
100
AcDbEllipse
 62
7
  6
CONTINUOUS
 10
117.1781623992
 20
110.3831419368
 30
0.0
 11
0.0972478766
 21
0.519502998
 31
0.0
 40
0.2183847991
 41
-2.432947662
 42
-0.8621513352
  0
ELLIPSE
  5
538
100
AcDbEntity
  8
0
100
AcDbEllipse
 62
7
  6
CONTINUOUS
 10
51.9129970417
 20
68.0887425687
 30
0.0
 11
1.7426122134
 21
0.5511915256
 31
0.0
 40
0.6979067531
 41
0.6896399587
 42
1.3535315019
  0
ELLIPSE
  5
539
100
AcDbEntity
  8
0
100
AcDbEllipse
 62
7
  6
CONTINUOUS
 10
117.1781623992
 20
100.095211481
 30
0.0
 11
0.0972478766
 21
0.519502998
 31
0.0
 40
0.2183847991
 41
5.421033972
 42
6.9918302988
  0
ELLIPSE
  5
53A
100
AcDbEntity
  8
0
100
AcDbEllipse
 62
7
  6
CONTINUOUS
 10
51.9129970417
 20
61.2301222648
 30
0.0
 11
1.7426122134
 21
0.5511915256
 31
0.0
 40
0.6979067531
 41
-1.7880611517
 42
-1.3927743286
  0
ELLIPSE
  5
53B
100
AcDbEntity
  8
0
100
AcDbEllipse
 62
7
  6
CONTINUOUS
 10
115.3402112398
 20
119.2011610751
 30
0.0
 11
0.311193205
 21
1.6624095936
 31
0.0
 40
0.2183847991
 41
0.7086449916
 42
1.3725365348
  0
ELLIPSE
  5
53C
100
AcDbEntity
  8
0
100
AcDbEllipse
 62
7
  6
CONTINUOUS
 10
117.1781623992
 20
124.8760598409
 30
0.0
 11
0.0972478766
 21
0.519502998
 31
0.0
 40
0.2183847991
 41
-2.432947662
 42
-0.8621513352
  0
ELLIPSE
  5
53D
100
AcDbEntity
  8
0
100
AcDbEllipse
 62
7
  6
CONTINUOUS
 10
51.9129970417
 20
82.5816604728
 30
0.0
 11
1.7426122134
 21
0.5511915256
 31
0.0
 40
0.6979067531
 41
0.6896399587
 42
1.3535315019
  0
ELLIPSE
  5
53E
100
AcDbEntity
  8
0
100
AcDbEllipse
 62
7
  6
CONTINUOUS
 10
51.9129970417
 20
75.7230401689
 30
0.0
 11
1.7426122134
 21
0.5511915256
 31
0.0
 40
0.6979067531
 41
-1.7880611517
 42
-1.3925031701
  0
ELLIPSE
  5
53F
100
AcDbEntity
  8
0
100
AcDbEllipse
 62
7
  6
CONTINUOUS
 10
117.1781623992
 20
114.588129385
 30
0.0
 11
0.0972478766
 21
0.519502998
 31
0.0
 40
0.2183847991
 41
5.421033972
 42
6.9918302988
  0
ENDSEC
  0
SECTION
  2
OBJECTS
  0
DICTIONARY
  5
C
100
AcDbDictionary
280
0
281
1
  3
ACAD_GROUP
350
D
  3
ACAD_MLINESTYLE
350
17
  3
ACAD_LAYOUT
350
1A
  3
ACAD_PLOTSETTINGS
350
19
  3
ACAD_PLOTSTYLENAME
350
E
  0
DICTIONARY
  5
D
102
{ACAD_REACTORS
330
C
102
}
100
AcDbDictionary
280
0
281
1
  0
ACDBDICTIONARYWDFLT
  5
E
102
{ACAD_REACTORS
330
C
102
}
100
AcDbDictionary
281
1
  3
Normal
350
F
100
AcDbDictionaryWithDefault
340
F
  0
DICTIONARY
  5
17
102
{ACAD_REACTORS
330
C
102
}
100
AcDbDictionary
280
0
281
1
  3
Standard
350
18
  0
DICTIONARY
  5
19
102
{ACAD_REACTORS
330
C
102
}
100
AcDbDictionary
281
1
  0
DICTIONARY
  5
1A
102
{ACAD_REACTORS
330
C
102
}
100
AcDbDictionary
281
1
  3
Model
350
540
  3
Layout1
350
541
  0
ACDBPLACEHOLDER
  5
F
102
{ACAD_REACTORS
330
E
102
}
  0
MLINESTYLE
  5
18
102
{ACAD_REACTORS
330
17
102
}
100
AcDbMlineStyle
  2
STANDARD
 70
0
  3

 62
256
 51
90.0
 52
90.0
 71
2
 49
0.5
 62
256
  6
BYLAYER
 49
-0.5
 62
256
  6
BYLAYER
  0
LAYOUT
  5
540
102
{ACAD_REACTORS
330
1A
102
}
100
AcDbPlotSettings
  1

  2
none_device
  4

  6

 40
0.0
 41
0.0
 42
0.0
 43
0.0
 44
210.0
 45
297.0
 46
0.0
 47
0.0
 48
0.0
 49
0.0
140
0.0
141
0.0
142
1.0
143
1.0
 70
1024
 72
1
 73
0
 74
0
  7

 75
0
147
1.0
148
0.0
149
0.0
100
AcDbLayout
  1
Model
 70
0
 71
0
 10
0.0
 20
0.0
 11
210.0
 21
297.0
 12
0.0
 22
0.0
 32
0.0
 14
0.0
 24
0.0
 34
0.0
 15
0.0
 25
0.0
 35
0.0
146
0.0
 13
0.0
 23
0.0
 33
0.0
 16
1.0
 26
0.0
 36
0.0
 17
0.0
 27
1.0
 37
0.0
 76
0
330
210
345
0
346
0
  0
LAYOUT
  5
541
102
{ACAD_REACTORS
330
1A
102
}
100
AcDbPlotSettings
  1

  2
none_device
  4

  6

 40
0.0
 41
0.0
 42
0.0
 43
0.0
 44
210.0
 45
297.0
 46
0.0
 47
0.0
 48
0.0
 49
0.0
140
0.0
141
0.0
142
1.0
143
1.0
 70
0
 72
1
 73
0
 74
0
  7

 75
0
147
1.0
148
0.0
149
0.0
100
AcDbLayout
  1
Layout1
 70
0
 71
1
 10
0.0
 20
0.0
 11
210.0
 21
297.0
 12
0.0
 22
0.0
 32
0.0
 14
0.0
 24
0.0
 34
0.0
 15
0.0
 25
0.0
 35
0.0
146
0.0
 13
0.0
 23
0.0
 33
0.0
 16
1.0
 26
0.0
 36
0.0
 17
0.0
 27
1.0
 37
0.0
 76
0
330
211
345
0
346
0
  0
ENDSEC
  0
EOF
