999
DXF file: C:\Users\sesa63760\Dev\_Creo\CAD\MCADID0004131_3D-CAD\drw0001_3.dxf
999
Pro/ENGINEER 2019471 by Parametric Technology Corporation
  0
SECTION
  2
HEADER
  9
$ACADVER
  1
AC1024
  9
$DWGCODEPAGE
  3
ANSI_1252
  9
$EXTMAX
 10
75.3307978018
 20
106.5392711768
 30
0.0
  9
$EXTMIN
 10
0.0
 20
0.0
 30
0.0
  9
$LIMMIN
 10
0.0
 20
0.0
  9
$LIMMAX
 10
75.3307978018
 20
106.5392711768
  9
$VIEWCTR
 10
37.6653989009
 20
53.2696355884
  9
$VIEWSIZE
 40
106.5392711768
  9
$CLAYER
  8
0
  9
$LTSCALE
 40
6.9447821212
  9
$CELTYPE
  6
BYLAYER
  9
$DIMSCALE
 40
1.0
  9
$DIMASZ
 40
0.8967952119
  9
$DIMEXO
 40
1.0
  9
$DIMDLI
 40
4.7982131019
  9
$DIMEXE
 40
1.0
  9
$DIMCEN
 40
1.1364188926
  9
$DIMLFAC
 40
1.0
  9
$DIMBLK
  1
_FILLED
  9
$DIMALT
 70
0
  9
$DIMALTF
 40
0.0393700787
  9
$DIMTXT
 40
1.2555132967
  9
$DIMTOL
 70
1
  9
$DIMLIM
 70
0
  9
$DIMTFAC
 40
1.0
  9
$DIMTP
 40
0.01
  9
$DIMTM
 40
0.01
  9
$DIMGAP
 40
0.625
  9
$DIMDSEP
 70
46
  9
$AUNITS
 70
0
  9
$PDMODE
 70
3
  9
$PDSIZE
 40
0.3125
  9
$HANDSEED
  5
238
  9
$TILEMODE
 70
1
  9
$MEASUREMENT
 70
1
  9
$INSUNITS
 70
4
  0
ENDSEC
  0
SECTION
  2
CLASSES
  0
CLASS
  1
ACDBDICTIONARYWDFLT
  2
AcDbDictionaryWithDefault
  3
AutoCAD 2000
 90
0
 91
1
280
0
281
0
  0
CLASS
  1
ACDBPLACEHOLDER
  2
AcDbPlaceHolder
  3
AutoCAD 2000
 90
0
 91
1
280
0
281
0
  0
CLASS
  1
LAYOUT
  2
AcDbLayout
  3
AutoCAD 2000
 90
0
 91
0
280
0
281
0
  0
ENDSEC
  0
SECTION
  2
TABLES
  0
TABLE
  2
VPORT
  5
8
100
AcDbSymbolTable
 70
2
  0
VPORT
  5
1F4
100
AcDbSymbolTableRecord
100
AcDbViewportTableRecord
  2
*ACTIVE
 70
0
 10
0.0
 20
0.0
 11
1.0
 21
1.0
 12
37.6653989009
 22
53.2696355884
 13
0.0
 23
0.0
 14
1.0
 24
1.0
 15
0.0
 25
0.0
 16
0.0
 26
0.0
 36
1.0
 17
0.0
 27
0.0
 37
0.0
 40
106.5392711768
 41
0.7070707071
 42
50.0
 43
0.0
 44
0.0
 50
0.0
 51
0.0
 71
0
 72
100
 73
1
 74
1
 75
0
 76
0
 77
0
 78
0
  0
ENDTAB
  0
TABLE
  2
LTYPE
  5
5
100
AcDbSymbolTable
 70
6
  0
LTYPE
  5
14
100
AcDbSymbolTableRecord
100
AcDbLinetypeTableRecord
  2
BYBLOCK
 70
0
  3

 72
65
 73
0
 40
0.0
  0
LTYPE
  5
15
100
AcDbSymbolTableRecord
100
AcDbLinetypeTableRecord
  2
BYLAYER
 70
0
  3

 72
65
 73
0
 40
0.0
  0
LTYPE
  5
16
100
AcDbSymbolTableRecord
100
AcDbLinetypeTableRecord
  2
CONTINUOUS
 70
64
  3
Solid line
 72
65
 73
0
 40
0.0
  0
LTYPE
  5
1F5
100
AcDbSymbolTableRecord
100
AcDbLinetypeTableRecord
  2
CENTER
 70
64
  3
____ _ ____ _ ____ _ ____ _ ____ _ ____ _ ____
 72
65
 73
4
 40
0.6
 49
0.375
 74
0
 49
-0.075
 74
0
 49
0.075
 74
0
 49
-0.075
 74
0
  0
LTYPE
  5
1F6
100
AcDbSymbolTableRecord
100
AcDbLinetypeTableRecord
  2
HIDDEN
 70
64
  3
- - - - - - - - - - - - - - - - - - - -
 72
65
 73
2
 40
0.2
 49
0.1
 74
0
 49
-0.1
 74
0
  0
LTYPE
  5
1F7
100
AcDbSymbolTableRecord
100
AcDbLinetypeTableRecord
  2
PHANTOM
 70
64
  3
_____ _ _ _____ _ _ _____ _ _ _____
 72
65
 73
6
 40
0.8
 49
0.45
 74
0
 49
-0.05
 74
0
 49
0.1
 74
0
 49
-0.05
 74
0
 49
0.1
 74
0
 49
-0.05
 74
0
  0
LTYPE
  5
1F8
100
AcDbSymbolTableRecord
100
AcDbLinetypeTableRecord
  2
DOT
 70
64
  3
. . . . . . . . . . . . . . . . . . . .
 72
65
 73
2
 40
0.2
 49
0.1
 74
0
 49
-0.1
 74
0
  0
LTYPE
  5
1F9
100
AcDbSymbolTableRecord
100
AcDbLinetypeTableRecord
  2
DASHED
 70
64
  3
- - - - - - - - - - - - - - - - - - - -
 72
65
 73
2
 40
0.2
 49
0.1
 74
0
 49
-0.1
 74
0
  0
ENDTAB
  0
TABLE
  2
LAYER
  5
2
100
AcDbSymbolTable
 70
36
  0
LAYER
  5
10
100
AcDbSymbolTableRecord
100
AcDbLayerTableRecord
  2
0
 70
0
 62
7
  6
CONTINUOUS
370
-3
390
F
  0
LAYER
  5
1FA
100
AcDbSymbolTableRecord
100
AcDbLayerTableRecord
  2
DEFAULT_1
 70
0
 62
7
  6
CENTER
370
-3
390
F
  0
LAYER
  5
1FB
100
AcDbSymbolTableRecord
100
AcDbLayerTableRecord
  2
DEFAULT_2
 70
0
 62
7
  6
HIDDEN
370
-3
390
F
  0
LAYER
  5
1FC
100
AcDbSymbolTableRecord
100
AcDbLayerTableRecord
  2
DEFAULT_3
 70
0
 62
7
  6
PHANTOM
370
-3
390
F
  0
LAYER
  5
1FD
100
AcDbSymbolTableRecord
100
AcDbLayerTableRecord
  2
00_COMPONENTS
 70
0
 62
7
  6
CONTINUOUS
370
-3
390
F
  0
LAYER
  5
1FE
100
AcDbSymbolTableRecord
100
AcDbLayerTableRecord
  2
01_1_DEFAULT_DATUMS
 70
0
 62
7
  6
CONTINUOUS
370
-3
390
F
  0
LAYER
  5
1FF
100
AcDbSymbolTableRecord
100
AcDbLayerTableRecord
  2
01_PLANES
 70
0
 62
7
  6
CONTINUOUS
370
-3
390
F
  0
LAYER
  5
200
100
AcDbSymbolTableRecord
100
AcDbLayerTableRecord
  2
02_COORD_SYS
 70
0
 62
7
  6
CONTINUOUS
370
-3
390
F
  0
LAYER
  5
201
100
AcDbSymbolTableRecord
100
AcDbLayerTableRecord
  2
03_AXES
 70
0
 62
7
  6
CONTINUOUS
370
-3
390
F
  0
LAYER
  5
202
100
AcDbSymbolTableRecord
100
AcDbLayerTableRecord
  2
04_POINTS
 70
0
 62
7
  6
CONTINUOUS
370
-3
390
F
  0
LAYER
  5
203
100
AcDbSymbolTableRecord
100
AcDbLayerTableRecord
  2
05_CURVES
 70
0
 62
7
  6
CONTINUOUS
370
-3
390
F
  0
LAYER
  5
204
100
AcDbSymbolTableRecord
100
AcDbLayerTableRecord
  2
06_SURFS
 70
0
 62
7
  6
CONTINUOUS
370
-3
390
F
  0
LAYER
  5
205
100
AcDbSymbolTableRecord
100
AcDbLayerTableRecord
  2
07_COSMETICS
 70
0
 62
7
  6
CONTINUOUS
370
-3
390
F
  0
LAYER
  5
206
100
AcDbSymbolTableRecord
100
AcDbLayerTableRecord
  2
10_NOTES
 70
0
 62
7
  6
CONTINUOUS
370
-3
390
F
  0
LAYER
  5
207
100
AcDbSymbolTableRecord
100
AcDbLayerTableRecord
  2
11_NOTES_PUB
 70
0
 62
7
  6
CONTINUOUS
370
-3
390
F
  0
LAYER
  5
208
100
AcDbSymbolTableRecord
100
AcDbLayerTableRecord
  2
13_REF_GTOL
 70
0
 62
7
  6
CONTINUOUS
370
-3
390
F
  0
LAYER
  5
209
100
AcDbSymbolTableRecord
100
AcDbLayerTableRecord
  2
16_MISC
 70
0
 62
7
  6
CONTINUOUS
370
-3
390
F
  0
LAYER
  5
20A
100
AcDbSymbolTableRecord
100
AcDbLayerTableRecord
  2
17_NO_PRINT
 70
0
 62
7
  6
CONTINUOUS
370
-3
390
F
  0
LAYER
  5
20B
100
AcDbSymbolTableRecord
100
AcDbLayerTableRecord
  2
18_DATUM_CAMS_JOINTS
 70
0
 62
7
  6
CONTINUOUS
370
-3
390
F
  0
LAYER
  5
20C
100
AcDbSymbolTableRecord
100
AcDbLayerTableRecord
  2
19_DATUM_FUNCTIONAL
 70
0
 62
7
  6
CONTINUOUS
370
-3
390
F
  0
LAYER
  5
20D
100
AcDbSymbolTableRecord
100
AcDbLayerTableRecord
  2
20_DATUM_KINEMATIC_SCHEME
 70
0
 62
7
  6
CONTINUOUS
370
-3
390
F
  0
ENDTAB
  0
TABLE
  2
STYLE
  5
3
100
AcDbSymbolTable
 70
1
  0
STYLE
  5
11
100
AcDbSymbolTableRecord
100
AcDbTextStyleTableRecord
  2
STANDARD
 70
0
 40
0.0
 41
1.0
 50
0.0
 71
0
 42
0.2
  3
ARIAL.TTF
  4

  0
STYLE
  5
20E
100
AcDbSymbolTableRecord
100
AcDbTextStyleTableRecord
  2
TEXTSTYLE_1
 70
0
 40
0.0
 41
0.8
 50
0.0
 71
0
 42
0.2
  3
gdt
  4

  0
ENDTAB
  0
TABLE
  2
VIEW
  5
6
100
AcDbSymbolTable
 70
0
  0
ENDTAB
  0
TABLE
  2
UCS
  5
7
100
AcDbSymbolTable
 70
0
  0
ENDTAB
  0
TABLE
  2
APPID
  5
9
100
AcDbSymbolTable
 70
1
  0
APPID
  5
20F
100
AcDbSymbolTableRecord
100
AcDbRegAppTableRecord
  2
ACAD
 70
0
  0
ENDTAB
  0
TABLE
  2
BLOCK_RECORD
  5
1
100
AcDbSymbolTable
 70
0
  0
BLOCK_RECORD
  5
210
100
AcDbSymbolTableRecord
100
AcDbBlockTableRecord
  2
*Model_Space
  0
BLOCK_RECORD
  5
211
100
AcDbSymbolTableRecord
100
AcDbBlockTableRecord
  2
*Paper_Space
  0
BLOCK_RECORD
  5
212
100
AcDbSymbolTableRecord
100
AcDbBlockTableRecord
  2
_FILLED
  0
ENDTAB
  0
TABLE
  2
DIMSTYLE
  5
A
100
AcDbSymbolTable
 70
1
100
AcDbDimStyleTable
 71
0
  0
DIMSTYLE
105
213
100
AcDbSymbolTableRecord
100
AcDbDimStyleTableRecord
  2
STANDARD
 70
0
  3

  4

 40
1.0
 41
0.8967952119
 42
1.0
 43
0.38
 44
1.0
 45
0.0
 46
0.0
 47
0.01
 48
0.01
140
1.2555132967
141
0.09
142
0.0
143
25.4
144
1.0
145
0.0
146
1.0
147
0.625
 71
1
 72
0
 73
0
 74
0
 75
0
 76
0
 77
1
 78
8
 79
2
170
0
171
1
172
0
173
0
174
0
175
0
176
0
177
0
178
0
270
2
179
2
271
2
272
2
273
2
274
2
275
0
280
0
281
0
282
0
283
1
284
8
285
0
286
0
287
3
288
0
340
11
278
46
341
212
342
212
343
212
344
212
  0
ENDTAB
  0
ENDSEC
  0
SECTION
  2
BLOCKS
  0
BLOCK
  5
20
100
AcDbEntity
  8
0
100
AcDbBlockBegin
  2
*Model_Space
 70
0
 10
0.0
 20
0.0
 30
0.0
  3
*Model_Space
  1

  0
ENDBLK
  5
21
100
AcDbEntity
  8
0
100
AcDbBlockEnd
  0
BLOCK
  5
1C
100
AcDbEntity
  8
0
100
AcDbBlockBegin
  2
*Paper_Space
 70
0
 10
0.0
 20
0.0
 30
0.0
  3
*Paper_Space
  1

  0
ENDBLK
  5
1D
100
AcDbEntity
  8
0
100
AcDbBlockEnd
  0
BLOCK
  5
214
100
AcDbEntity
  8
0
100
AcDbBlockBegin
  2
_FILLED
 70
64
 10
0.0
 20
0.0
  3
_FILLED
  1

  0
SOLID
  5
215
100
AcDbEntity
  8
0
  6
BYBLOCK
 62
0
100
AcDbTrace
 10
0.0
 20
0.0
 11
-1.0
 21
0.25
 12
-1.0
 22
-0.25
 13
-1.0
 23
-0.25
  0
ENDBLK
  5
216
100
AcDbEntity
  8
0
  6
BYBLOCK
 62
0
100
AcDbBlockEnd
  0
ENDSEC
  0
SECTION
  2
ENTITIES
  0
LINE
  5
217
100
AcDbEntity
  8
0
100
AcDbLine
 62
7
  6
BYLAYER
 10
18.5056316062
 20
62.5304416378
 11
18.5056316062
 21
56.5304416378
  0
LINE
  5
218
100
AcDbEntity
  8
0
100
AcDbLine
 62
7
  6
BYLAYER
 10
18.5056316062
 20
50.5304416378
 11
18.5056316062
 21
44.5304416378
  0
LINE
  5
219
100
AcDbEntity
  8
0
100
AcDbLine
 62
7
  6
BYLAYER
 10
68.5057142415
 20
44.5304416378
 11
18.5056316062
 21
44.5304416378
  0
LINE
  5
21A
100
AcDbEntity
  8
0
100
AcDbLine
 62
7
  6
BYLAYER
 10
23.8173745772
 20
47.2804416378
 11
26.0056316062
 21
47.2804416378
  0
LINE
  5
21B
100
AcDbEntity
  8
0
100
AcDbLine
 62
7
  6
BYLAYER
 10
23.7683280532
 20
47.2808265395
 11
23.8173745772
 21
47.2804416378
  0
LINE
  5
21C
100
AcDbEntity
  8
0
100
AcDbLine
 62
7
  6
BYLAYER
 10
33.5056316062
 20
62.5304416378
 11
33.5056316062
 21
44.5304416378
  0
LINE
  5
21D
100
AcDbEntity
  8
0
100
AcDbLine
 62
7
  6
BYLAYER
 10
11.1666599275
 20
50.5304416378
 11
22.7529404127
 21
50.5304416378
  0
LINE
  5
21E
100
AcDbEntity
  8
0
100
AcDbLine
 62
7
  6
BYLAYER
 10
11.1666599275
 20
56.5304416378
 11
22.7529404127
 21
56.5304416378
  0
LINE
  5
21F
100
AcDbEntity
  8
0
100
AcDbLine
 62
7
  6
BYLAYER
 10
23.8173745772
 20
59.7804416378
 11
23.7683280532
 21
59.7800567361
  0
LINE
  5
220
100
AcDbEntity
  8
0
100
AcDbLine
 62
7
  6
BYLAYER
 10
23.8173745772
 20
59.7804416378
 11
26.0056316062
 21
59.7804416378
  0
LINE
  5
221
100
AcDbEntity
  8
0
100
AcDbLine
 62
7
  6
BYLAYER
 10
18.5056316062
 20
62.5304416378
 11
68.5057142415
 21
62.5304416378
  0
LINE
  5
222
100
AcDbEntity
  8
0
100
AcDbLine
 62
7
  6
BYLAYER
 10
65.5115689082
 20
62.5304416378
 11
65.5115689082
 21
44.5304416378
  0
LINE
  5
223
100
AcDbEntity
  8
0
100
AcDbLine
 62
7
  6
BYLAYER
 10
68.5057142415
 20
62.5304416378
 11
68.5057142415
 21
44.5304416378
  0
SPLINE
  5
224
100
AcDbEntity
  8
0
100
AcDbSpline
 62
7
  6
BYLAYER
 70
0
 71
3
 72
11
 73
7
 74
0
 42
0.0000001
 43
0.0000001
 44
0.0000000001
 40
0.0
 40
0.0
 40
0.0
 40
0.0
 40
0.2539023564
 40
0.5071971264
 40
0.7566906157
 40
1.0
 40
1.0
 40
1.0
 40
1.0
 10
11.1666607059
 20
56.5304324172
 30
0.0
 10
10.9805316894
 20
56.5304237532
 30
0.0
 10
10.607766649
 20
56.4940603892
 30
0.0
 10
10.0731617147
 20
56.332382225
 30
0.0
 10
9.5930171207
 20
56.0595763132
 30
0.0
 10
9.3351034007
 20
55.7973952448
 30
0.0
 10
9.2321251325
 20
55.6517619813
 30
0.0
  0
SPLINE
  5
225
100
AcDbEntity
  8
0
100
AcDbSpline
 62
7
  6
BYLAYER
 70
0
 71
3
 72
14
 73
10
 74
0
 42
0.0000001
 43
0.0000001
 44
0.0000000001
 40
0.0
 40
0.0
 40
0.0
 40
0.0
 40
0.1201220628
 40
0.2406051094
 40
0.3621067523
 40
0.4850396014
 40
0.6099597321
 40
0.7373393177
 40
1.0
 40
1.0
 40
1.0
 40
1.0
 10
23.7683280532
 20
47.2808265395
 30
0.0
 10
23.5450504348
 20
47.2843310724
 30
0.0
 10
23.0974841121
 20
47.3301528131
 30
0.0
 10
22.446363757
 20
47.5124284416
 30
0.0
 10
21.8289801753
 20
47.8006001165
 30
0.0
 10
21.2573171385
 20
48.185546526
 30
0.0
 10
20.7393723865
 20
48.6563224745
 30
0.0
 10
20.1222403452
 20
49.3908966593
 30
0.0
 10
19.7636851523
 20
50.0311210979
 30
0.0
 10
19.5713227739
 20
50.479915376
 30
0.0
  0
SPLINE
  5
226
100
AcDbEntity
  8
0
100
AcDbSpline
 62
7
  6
BYLAYER
 70
0
 71
3
 72
14
 73
10
 74
0
 42
0.0000001
 43
0.0000001
 44
0.0000000001
 40
0.0
 40
0.0
 40
0.0
 40
0.0
 40
0.2626924516
 40
0.3900789389
 40
0.5149968091
 40
0.6379222711
 40
0.7594085321
 40
0.8798907895
 40
1.0
 40
1.0
 40
1.0
 40
1.0
 10
19.5672233087
 20
56.571383468
 30
0.0
 10
19.7592969457
 20
57.0213553532
 30
0.0
 10
20.1176428716
 20
57.6633643912
 30
0.0
 10
20.7350581754
 20
58.4001288753
 30
0.0
 10
21.2534392315
 20
58.8723648424
 30
0.0
 10
21.8257827927
 20
59.2585257334
 30
0.0
 10
22.4440654743
 20
59.5476908555
 30
0.0
 10
23.0962838712
 20
59.7305589907
 30
0.0
 10
23.5446582535
 20
59.7765460475
 30
0.0
 10
23.7683280532
 20
59.7800567361
 30
0.0
  0
SPLINE
  5
227
100
AcDbEntity
  8
0
100
AcDbSpline
 62
7
  6
BYLAYER
 70
0
 71
3
 72
12
 73
8
 74
0
 42
0.0000001
 43
0.0000001
 44
0.0000000001
 40
0.0
 40
0.0
 40
0.0
 40
0.0
 40
0.1201139747
 40
0.240216864
 40
0.4832075773
 40
0.7358471244
 40
1.0
 40
1.0
 40
1.0
 40
1.0
 10
9.2321251325
 20
55.6517619813
 30
0.0
 10
9.1813243213
 20
55.5799187851
 30
0.0
 10
9.0910872584
 20
55.4278318454
 30
0.0
 10
8.9588812778
 20
55.0981644621
 30
0.0
 10
8.8856195841
 20
54.6473979813
 30
0.0
 10
8.9173156416
 20
54.0890544631
 30
0.0
 10
8.9953767056
 20
53.7173856106
 30
0.0
 10
9.0453395839
 20
53.5304416378
 30
0.0
  0
SPLINE
  5
228
100
AcDbEntity
  8
0
100
AcDbSpline
 62
7
  6
BYLAYER
 70
0
 71
3
 72
18
 73
14
 74
0
 42
0.0000001
 43
0.0000001
 44
0.0000000001
 40
0.0
 40
0.0
 40
0.0
 40
0.0
 40
0.1558561186
 40
0.3142412343
 40
0.4697607808
 40
0.6149947143
 40
0.7424063143
 40
0.7979032064
 40
0.8476198767
 40
0.8918644391
 40
0.9312470073
 40
0.9668128084
 40
1.0
 40
1.0
 40
1.0
 40
1.0
 10
9.0453395839
 20
53.5304416378
 30
0.0
 10
9.0966896454
 20
53.3383073009
 30
0.0
 10
9.221838456
 20
52.9565290109
 30
0.0
 10
9.4578934944
 20
52.4048995434
 30
0.0
 10
9.7300349139
 20
51.8853400403
 30
0.0
 10
10.0222160302
 20
51.4229800274
 30
0.0
 10
10.2797956032
 20
51.0914608989
 30
0.0
 10
10.4858885945
 20
50.877451552
 30
0.0
 10
10.6295095618
 20
50.7515453037
 30
0.0
 10
10.7688909206
 20
50.6532731992
 30
0.0
 10
10.9043103861
 20
50.5827591008
 30
0.0
 10
11.0363539943
 20
50.540218982
 30
0.0
 10
11.1243114049
 20
50.5304464914
 30
0.0
 10
11.1666594378
 20
50.5304508584
 30
0.0
  0
SPLINE
  5
229
100
AcDbEntity
  8
0
100
AcDbSpline
 62
7
  6
BYLAYER
 70
0
 71
3
 72
15
 73
11
 74
0
 42
0.0000001
 43
0.0000001
 44
0.0000000001
 40
0.0
 40
0.0
 40
0.0
 40
0.0
 40
0.0515444413
 40
0.1035783109
 40
0.2106647716
 40
0.3243610966
 40
0.4461519009
 40
0.5761483004
 40
0.7132587475
 40
1.0
 40
1.0
 40
1.0
 40
1.0
 10
22.7529404122
 20
56.5304022199
 30
0.0
 10
22.822413181
 20
56.5304028909
 30
0.0
 10
22.9622259125
 20
56.5206748479
 30
0.0
 10
23.2407881218
 20
56.4619659811
 30
0.0
 10
23.5819578496
 20
56.3131555226
 30
0.0
 10
23.9511041878
 20
56.029436325
 30
0.0
 10
24.2721795253
 20
55.6516640666
 30
0.0
 10
24.5341590588
 20
55.1945264541
 30
0.0
 10
24.796511671
 20
54.4932616579
 30
0.0
 10
24.8742607563
 20
53.9169180116
 30
0.0
 10
24.8742607563
 20
53.5304416378
 30
0.0
  0
SPLINE
  5
22A
100
AcDbEntity
  8
0
100
AcDbSpline
 62
7
  6
BYLAYER
 70
0
 71
3
 72
17
 73
13
 74
0
 42
0.0000001
 43
0.0000001
 44
0.0000000001
 40
0.0
 40
0.0
 40
0.0
 40
0.0
 40
0.0514718069
 40
0.1034835826
 40
0.1564230482
 40
0.2106924344
 40
0.3242841919
 40
0.445963709
 40
0.5758309478
 40
0.712828456
 40
0.8550419249
 40
1.0
 40
1.0
 40
1.0
 40
1.0
 10
23.8173745772
 20
47.2804416378
 30
0.0
 10
23.9620424741
 20
47.2804416378
 30
0.0
 10
24.2532839033
 20
47.3008551009
 30
0.0
 10
24.6847650989
 20
47.3916666564
 30
0.0
 10
25.1076186478
 20
47.5422012279
 30
0.0
 10
25.6621791374
 20
47.8239684914
 30
0.0
 10
26.3139154558
 20
48.3242931302
 30
0.0
 10
26.982426662
 20
49.1113036136
 30
0.0
 10
27.5283526048
 20
50.0634139517
 30
0.0
 10
27.932579844
 20
51.1447213577
 30
0.0
 10
28.1810780307
 20
52.3147344702
 30
0.0
 10
28.2367919596
 20
53.1230189901
 30
0.0
 10
28.2367919596
 20
53.5304416378
 30
0.0
  0
SPLINE
  5
22B
100
AcDbEntity
  8
0
100
AcDbSpline
 62
7
  6
BYLAYER
 70
0
 71
3
 72
15
 73
11
 74
0
 42
0.0000001
 43
0.0000001
 44
0.0000000001
 40
0.0
 40
0.0
 40
0.0
 40
0.0
 40
0.0879680972
 40
0.1792973859
 40
0.2786893912
 40
0.3901717278
 40
0.5167535547
 40
0.6604343018
 40
0.8220770291
 40
1.0
 40
1.0
 40
1.0
 40
1.0
 10
11.1666594378
 20
50.5304508584
 30
0.0
 10
11.2085393426
 20
50.5304551771
 30
0.0
 10
11.2941848086
 20
50.5399472459
 30
0.0
 10
11.4206981691
 20
50.5826530989
 30
0.0
 10
11.5468896499
 20
50.6531039025
 30
0.0
 10
11.6747290822
 20
50.7510786364
 30
0.0
 10
11.8064843585
 20
50.8766224022
 30
0.0
 10
11.9438939211
 20
51.0297878406
 30
0.0
 10
12.0876869695
 20
51.2094901066
 30
0.0
 10
12.1832202878
 20
51.3399593995
 30
0.0
 10
12.2321251325
 20
51.4091212942
 30
0.0
  0
SPLINE
  5
22C
100
AcDbEntity
  8
0
100
AcDbSpline
 62
7
  6
BYLAYER
 70
0
 71
3
 72
17
 73
13
 74
0
 42
0.0000001
 43
0.0000001
 44
0.0000000001
 40
0.0
 40
0.0
 40
0.0
 40
0.0
 40
0.0514971687
 40
0.1034827618
 40
0.1564149711
 40
0.2106899313
 40
0.3242806984
 40
0.4459593976
 40
0.5758244548
 40
0.7128232487
 40
0.8550399486
 40
1.0
 40
1.0
 40
1.0
 40
1.0
 10
26.0056316071
 20
59.7804296152
 30
0.0
 10
26.1503706128
 20
59.7804294009
 30
0.0
 10
26.4416145232
 20
59.7600601929
 30
0.0
 10
26.8730606469
 20
59.6691814348
 30
0.0
 10
27.2958274921
 20
59.51865305
 30
0.0
 10
27.8504100005
 20
59.2369461603
 30
0.0
 10
28.5021441665
 20
58.736594544
 30
0.0
 10
29.1706585582
 20
57.94960811
 30
0.0
 10
29.7165866267
 20
56.9975044541
 30
0.0
 10
30.1208269129
 20
55.9161968104
 30
0.0
 10
30.3693319436
 20
54.7461673887
 30
0.0
 10
30.4250489886
 20
53.9378693519
 30
0.0
 10
30.4250489886
 20
53.5304416378
 30
0.0
  0
SPLINE
  5
22D
100
AcDbEntity
  8
0
100
AcDbSpline
 62
7
  6
BYLAYER
 70
0
 71
3
 72
17
 73
13
 74
0
 42
0.0000001
 43
0.0000001
 44
0.0000000001
 40
0.0
 40
0.0
 40
0.0
 40
0.0
 40
0.1449582263
 40
0.2871724533
 40
0.4241702867
 40
0.5540352956
 40
0.6757153768
 40
0.7893080319
 40
0.8435838173
 40
0.8965166597
 40
0.9485026553
 40
1.0
 40
1.0
 40
1.0
 40
1.0
 10
30.4250489886
 20
53.5304416378
 30
0.0
 10
30.4250489886
 20
53.1230190228
 30
0.0
 10
30.3693345356
 20
52.3147329095
 30
0.0
 10
30.1208345905
 20
51.1447176926
 30
0.0
 10
29.7166055855
 20
50.0634163638
 30
0.0
 10
29.1706826662
 20
49.1113084299
 30
0.0
 10
28.5021684907
 20
48.3243098883
 30
0.0
 10
27.8504278845
 20
47.8239468804
 30
0.0
 10
27.2958374212
 20
47.5422347829
 30
0.0
 10
26.8730662068
 20
47.3917027987
 30
0.0
 10
26.4416166428
 20
47.3008236683
 30
0.0
 10
26.1503711167
 20
47.2804534461
 30
0.0
 10
26.0056316052
 20
47.2804536604
 30
0.0
  0
SPLINE
  5
22E
100
AcDbEntity
  8
0
100
AcDbSpline
 62
7
  6
BYLAYER
 70
0
 71
3
 72
17
 73
13
 74
0
 42
0.0000001
 43
0.0000001
 44
0.0000000001
 40
0.0
 40
0.0
 40
0.0
 40
0.0
 40
0.1449580751
 40
0.287171544
 40
0.4241690522
 40
0.554036291
 40
0.6757158081
 40
0.7893075656
 40
0.8435769518
 40
0.8965164174
 40
0.9485281931
 40
1.0
 40
1.0
 40
1.0
 40
1.0
 10
28.2367919596
 20
53.5304416378
 30
0.0
 10
28.2367919596
 20
53.9378642855
 30
0.0
 10
28.1810780307
 20
54.7461488054
 30
0.0
 10
27.932579844
 20
55.9161619178
 30
0.0
 10
27.5283526048
 20
56.9974693238
 30
0.0
 10
26.982426662
 20
57.949579662
 30
0.0
 10
26.3139154558
 20
58.7365901454
 30
0.0
 10
25.6621791374
 20
59.2369147841
 30
0.0
 10
25.1076186478
 20
59.5186820477
 30
0.0
 10
24.6847650989
 20
59.6692166191
 30
0.0
 10
24.2532839033
 20
59.7600281746
 30
0.0
 10
23.9620424741
 20
59.7804416378
 30
0.0
 10
23.8173745772
 20
59.7804416378
 30
0.0
  0
SPLINE
  5
22F
100
AcDbEntity
  8
0
100
AcDbSpline
 62
7
  6
BYLAYER
 70
0
 71
3
 72
16
 73
12
 74
0
 42
0.0000001
 43
0.0000001
 44
0.0000000001
 40
0.0
 40
0.0
 40
0.0
 40
0.0
 40
0.0514871114
 40
0.103500825
 40
0.2105146759
 40
0.3241319881
 40
0.4458385682
 40
0.5757345782
 40
0.7127625773
 40
0.8550083683
 40
1.0
 40
1.0
 40
1.0
 40
1.0
 10
22.7529404127
 20
48.7857788695
 30
0.0
 10
22.8627716536
 20
48.7861175078
 30
0.0
 10
23.0838186797
 20
48.80171533
 30
0.0
 10
23.5245775471
 20
48.8936990521
 30
0.0
 10
24.0640929487
 20
49.1295495923
 30
0.0
 10
24.6479532197
 20
49.5781319466
 30
0.0
 10
25.1557360288
 20
50.1757030739
 30
0.0
 10
25.5701030305
 20
50.8984550897
 30
0.0
 10
25.8769289322
 20
51.7193314215
 30
0.0
 10
26.0658410979
 20
52.6075390094
 30
0.0
 10
26.1074472806
 20
53.2211473851
 30
0.0
 10
26.1079236306
 20
53.5304416378
 30
0.0
  0
SPLINE
  5
230
100
AcDbEntity
  8
0
100
AcDbSpline
 62
7
  6
BYLAYER
 70
0
 71
3
 72
13
 73
9
 74
0
 42
0.0000001
 43
0.0000001
 44
0.0000000001
 40
0.0
 40
0.0
 40
0.0
 40
0.0
 40
0.1138928495
 40
0.2291941143
 40
0.3469953422
 40
0.4683456636
 40
0.7240888784
 40
1.0
 40
1.0
 40
1.0
 40
1.0
 10
22.7529404127
 20
58.2751044061
 30
0.0
 10
22.6314717578
 20
58.274716244
 30
0.0
 10
22.3867015985
 20
58.255648291
 30
0.0
 10
22.0248777401
 20
58.171816247
 30
0.0
 10
21.6721226381
 20
58.032140729
 30
0.0
 10
21.2119112519
 20
57.7706981853
 30
0.0
 10
20.6804439215
 20
57.3091929188
 30
0.0
 10
20.3429984797
 20
56.8479270001
 30
0.0
 10
20.1919181415
 20
56.595406007
 30
0.0
  0
SPLINE
  5
231
100
AcDbEntity
  8
0
100
AcDbSpline
 62
7
  6
BYLAYER
 70
0
 71
3
 72
13
 73
9
 74
0
 42
0.0000001
 43
0.0000001
 44
0.0000000001
 40
0.0
 40
0.0
 40
0.0
 40
0.0
 40
0.2759038441
 40
0.5316462324
 40
0.6529958885
 40
0.7708001689
 40
0.8861067805
 40
1.0
 40
1.0
 40
1.0
 40
1.0
 10
20.1922041914
 20
50.4649986562
 30
0.0
 10
20.3432851723
 20
50.2125463031
 30
0.0
 10
20.6807207686
 20
49.7514088091
 30
0.0
 10
21.2121228215
 20
49.2900284447
 30
0.0
 10
21.6722837821
 20
49.0286770577
 30
0.0
 10
22.0249936441
 20
48.8890499663
 30
0.0
 10
22.3867519274
 20
48.805187547
 30
0.0
 10
22.6314922157
 20
48.7861269043
 30
0.0
 10
22.7529404127
 20
48.7857788695
 30
0.0
  0
SPLINE
  5
232
100
AcDbEntity
  8
0
100
AcDbSpline
 62
7
  6
BYLAYER
 70
0
 71
3
 72
16
 73
12
 74
0
 42
0.0000001
 43
0.0000001
 44
0.0000000001
 40
0.0
 40
0.0
 40
0.0
 40
0.0
 40
0.1449916454
 40
0.287237449
 40
0.4242654518
 40
0.5541614611
 40
0.6758680365
 40
0.78948534
 40
0.89649918
 40
0.9485128954
 40
1.0
 40
1.0
 40
1.0
 40
1.0
 10
26.1079236306
 20
53.5304416378
 30
0.0
 10
26.1074468132
 20
53.8397359211
 30
0.0
 10
26.0658412662
 20
54.4533443546
 30
0.0
 10
25.8769288549
 20
55.3415520201
 30
0.0
 10
25.5701029467
 20
56.1624283678
 30
0.0
 10
25.1557359073
 20
56.8851803792
 30
0.0
 10
24.6479530884
 20
57.4827514415
 30
0.0
 10
24.0640928362
 20
57.9313338187
 30
0.0
 10
23.5245774015
 20
58.1671840342
 30
0.0
 10
23.0838187127
 20
58.2591683928
 30
0.0
 10
22.862771641
 20
58.2747660997
 30
0.0
 10
22.7529404127
 20
58.2751044061
 30
0.0
  0
SPLINE
  5
233
100
AcDbEntity
  8
0
100
AcDbSpline
 62
7
  6
BYLAYER
 70
0
 71
3
 72
15
 73
11
 74
0
 42
0.0000001
 43
0.0000001
 44
0.0000000001
 40
0.0
 40
0.0
 40
0.0
 40
0.0
 40
0.2867387971
 40
0.4238465701
 40
0.5538403097
 40
0.6756307064
 40
0.7893296844
 40
0.8964193037
 40
0.9484543779
 40
1.0
 40
1.0
 40
1.0
 40
1.0
 10
24.8742607563
 20
53.5304416378
 30
0.0
 10
24.8742607563
 20
53.1439684186
 30
0.0
 10
24.7965137501
 20
52.5676316878
 30
0.0
 10
24.5341689277
 20
51.86637492
 30
0.0
 10
24.2721955545
 20
51.4092425313
 30
0.0
 10
23.9511247799
 20
51.0314673824
 30
0.0
 10
23.5819791022
 20
50.7477353039
 30
0.0
 10
23.2408011978
 20
50.5989165459
 30
0.0
 10
22.9622305009
 20
50.5402109787
 30
0.0
 10
22.8224148014
 20
50.5304817267
 30
0.0
 10
22.7529404132
 20
50.5304810557
 30
0.0
  0
SPLINE
  5
234
100
AcDbEntity
  8
0
100
AcDbSpline
 62
7
  6
BYLAYER
 70
0
 71
3
 72
18
 73
14
 74
0
 42
0.0000001
 43
0.0000001
 44
0.0000000001
 40
0.0
 40
0.0
 40
0.0
 40
0.0
 40
0.1326981788
 40
0.2608342039
 40
0.3847583404
 40
0.4456855919
 40
0.5062079785
 40
0.5665931113
 40
0.6271357379
 40
0.6880613328
 40
0.7494827362
 40
0.8737977966
 40
1.0
 40
1.0
 40
1.0
 40
1.0
 10
13.287980271
 20
53.5304416378
 30
0.0
 10
13.3376986265
 20
53.7164706897
 30
0.0
 10
13.4108741285
 20
54.0896428109
 30
0.0
 10
13.4203548511
 20
54.6513399082
 30
0.0
 10
13.325945837
 20
55.1008088067
 30
0.0
 10
13.184841052
 20
55.4288020439
 30
0.0
 10
13.0475480003
 20
55.6551616112
 30
0.0
 10
12.8803331589
 20
55.8596843782
 30
0.0
 10
12.6855918753
 20
56.0389957866
 30
0.0
 10
12.4676066624
 20
56.1917109818
 30
0.0
 10
12.1499832696
 20
56.3585069151
 30
0.0
 10
11.7143795175
 20
56.4956766099
 30
0.0
 10
11.3497927566
 20
56.5304409416
 30
0.0
 10
11.1666607059
 20
56.5304324172
 30
0.0
  0
SPLINE
  5
235
100
AcDbEntity
  8
0
100
AcDbSpline
 62
7
  6
BYLAYER
 70
0
 71
3
 72
11
 73
7
 74
0
 42
0.0000001
 43
0.0000001
 44
0.0000000001
 40
0.0
 40
0.0
 40
0.0
 40
0.0
 40
0.2371840776
 40
0.4910091715
 40
0.7477030303
 40
1.0
 40
1.0
 40
1.0
 40
1.0
 10
12.2321251325
 20
51.4091212942
 30
0.0
 10
12.3407759121
 20
51.5627767002
 30
0.0
 10
12.5543853319
 20
51.8889418089
 30
0.0
 10
12.8479412238
 20
52.4050108259
 30
0.0
 10
13.1044946477
 20
52.954016502
 30
0.0
 10
13.2362941015
 20
53.3370496997
 30
0.0
 10
13.287980271
 20
53.5304416378
 30
0.0
  0
ENDSEC
  0
SECTION
  2
OBJECTS
  0
DICTIONARY
  5
C
100
AcDbDictionary
280
0
281
1
  3
ACAD_GROUP
350
D
  3
ACAD_MLINESTYLE
350
17
  3
ACAD_LAYOUT
350
1A
  3
ACAD_PLOTSETTINGS
350
19
  3
ACAD_PLOTSTYLENAME
350
E
  0
DICTIONARY
  5
D
102
{ACAD_REACTORS
330
C
102
}
100
AcDbDictionary
280
0
281
1
  0
ACDBDICTIONARYWDFLT
  5
E
102
{ACAD_REACTORS
330
C
102
}
100
AcDbDictionary
281
1
  3
Normal
350
F
100
AcDbDictionaryWithDefault
340
F
  0
DICTIONARY
  5
17
102
{ACAD_REACTORS
330
C
102
}
100
AcDbDictionary
280
0
281
1
  3
Standard
350
18
  0
DICTIONARY
  5
19
102
{ACAD_REACTORS
330
C
102
}
100
AcDbDictionary
281
1
  0
DICTIONARY
  5
1A
102
{ACAD_REACTORS
330
C
102
}
100
AcDbDictionary
281
1
  3
Model
350
236
  3
Layout1
350
237
  0
ACDBPLACEHOLDER
  5
F
102
{ACAD_REACTORS
330
E
102
}
  0
MLINESTYLE
  5
18
102
{ACAD_REACTORS
330
17
102
}
100
AcDbMlineStyle
  2
STANDARD
 70
0
  3

 62
256
 51
90.0
 52
90.0
 71
2
 49
0.5
 62
256
  6
BYLAYER
 49
-0.5
 62
256
  6
BYLAYER
  0
LAYOUT
  5
236
102
{ACAD_REACTORS
330
1A
102
}
100
AcDbPlotSettings
  1

  2
none_device
  4

  6

 40
0.0
 41
0.0
 42
0.0
 43
0.0
 44
210.0
 45
297.0
 46
0.0
 47
0.0
 48
0.0
 49
0.0
140
0.0
141
0.0
142
1.0
143
1.0
 70
1024
 72
1
 73
0
 74
0
  7

 75
0
147
1.0
148
0.0
149
0.0
100
AcDbLayout
  1
Model
 70
0
 71
0
 10
0.0
 20
0.0
 11
210.0
 21
297.0
 12
0.0
 22
0.0
 32
0.0
 14
0.0
 24
0.0
 34
0.0
 15
0.0
 25
0.0
 35
0.0
146
0.0
 13
0.0
 23
0.0
 33
0.0
 16
1.0
 26
0.0
 36
0.0
 17
0.0
 27
1.0
 37
0.0
 76
0
330
210
345
0
346
0
  0
LAYOUT
  5
237
102
{ACAD_REACTORS
330
1A
102
}
100
AcDbPlotSettings
  1

  2
none_device
  4

  6

 40
0.0
 41
0.0
 42
0.0
 43
0.0
 44
210.0
 45
297.0
 46
0.0
 47
0.0
 48
0.0
 49
0.0
140
0.0
141
0.0
142
1.0
143
1.0
 70
0
 72
1
 73
0
 74
0
  7

 75
0
147
1.0
148
0.0
149
0.0
100
AcDbLayout
  1
Layout1
 70
0
 71
1
 10
0.0
 20
0.0
 11
210.0
 21
297.0
 12
0.0
 22
0.0
 32
0.0
 14
0.0
 24
0.0
 34
0.0
 15
0.0
 25
0.0
 35
0.0
146
0.0
 13
0.0
 23
0.0
 33
0.0
 16
1.0
 26
0.0
 36
0.0
 17
0.0
 27
1.0
 37
0.0
 76
0
330
211
345
0
346
0
  0
ENDSEC
  0
EOF
