  0
SECTION
  2
HEADER
  9
$ACADVER
  1
AC1012
  9
$DWGCODEPAGE
  3
ANSI_1252
  9
$INSBASE
 10
0.0
 20
0.0
 30
0.0
  9
$EXTMIN
 10
-2.994598537185055
 20
-0.4595005569389557
 30
-0.0000000000112498
  9
$EXTMAX
 10
16.00712572020284
 20
10.13574480164674
 30
0.0000000000002956
  9
$LIMMIN
 10
0.0
 20
0.0
  9
$LIMMAX
 10
12.0
 20
9.0
  9
$ORTHOMODE
 70
     0
  9
$REGENMODE
 70
     1
  9
$FILLMODE
 70
     1
  9
$QTEXTMODE
 70
     0
  9
$MIRRTEXT
 70
     1
  9
$DRAGMODE
 70
     2
  9
$LTSCALE
 40
1.0
  9
$OSMODE
 70
   547
  9
$ATTMODE
 70
     1
  9
$TEXTSIZE
 40
0.2
  9
$TRACEWID
 40
0.05
  9
$TEXTSTYLE
  7
STANDARD
  9
$CLAYER
  8
0
  9
$CELTYPE
  6
BYLAYER
  9
$CECOLOR
 62
   256
  9
$CELTSCALE
 40
1.0
  9
$DELOBJ
 70
     1
  9
$DISPSILH
 70
     0
  9
$DIMSCALE
 40
1.0
  9
$DIMASZ
 40
0.18
  9
$DIMEXO
 40
0.0625
  9
$DIMDLI
 40
0.38
  9
$DIMRND
 40
0.0
  9
$DIMDLE
 40
0.0
  9
$DIMEXE
 40
0.18
  9
$DIMTP
 40
0.0
  9
$DIMTM
 40
0.0
  9
$DIMTXT
 40
0.18
  9
$DIMCEN
 40
0.09
  9
$DIMTSZ
 40
0.0
  9
$DIMTOL
 70
     0
  9
$DIMLIM
 70
     0
  9
$DIMTIH
 70
     1
  9
$DIMTOH
 70
     1
  9
$DIMSE1
 70
     0
  9
$DIMSE2
 70
     0
  9
$DIMTAD
 70
     0
  9
$DIMZIN
 70
     0
  9
$DIMBLK
  1

  9
$DIMASO
 70
     1
  9
$DIMSHO
 70
     1
  9
$DIMPOST
  1

  9
$DIMAPOST
  1

  9
$DIMALT
 70
     0
  9
$DIMALTD
 70
     2
  9
$DIMALTF
 40
25.4
  9
$DIMLFAC
 40
1.0
  9
$DIMTOFL
 70
     0
  9
$DIMTVP
 40
0.0
  9
$DIMTIX
 70
     0
  9
$DIMSOXD
 70
     0
  9
$DIMSAH
 70
     0
  9
$DIMBLK1
  1

  9
$DIMBLK2
  1

  9
$DIMSTYLE
  2
STANDARD
  9
$DIMCLRD
 70
     0
  9
$DIMCLRE
 70
     0
  9
$DIMCLRT
 70
     0
  9
$DIMTFAC
 40
1.0
  9
$DIMGAP
 40
0.09
  9
$DIMJUST
 70
     0
  9
$DIMSD1
 70
     0
  9
$DIMSD2
 70
     0
  9
$DIMTOLJ
 70
     1
  9
$DIMTZIN
 70
     0
  9
$DIMALTZ
 70
     0
  9
$DIMALTTZ
 70
     0
  9
$DIMFIT
 70
     5
  9
$DIMUPT
 70
     0
  9
$DIMUNIT
 70
     2
  9
$DIMDEC
 70
     4
  9
$DIMTDEC
 70
     4
  9
$DIMALTU
 70
     2
  9
$DIMALTTD
 70
     2
  9
$DIMTXSTY
  7
STANDARD
  9
$DIMAUNIT
 70
     0
  9
$LUNITS
 70
     2
  9
$LUPREC
 70
     4
  9
$SKETCHINC
 40
0.1
  9
$FILLETRAD
 40
0.0
  9
$AUNITS
 70
     0
  9
$AUPREC
 70
     0
  9
$MENU
  1
acad
  9
$ELEVATION
 40
0.0
  9
$PELEVATION
 40
0.0
  9
$THICKNESS
 40
0.0
  9
$LIMCHECK
 70
     0
  9
$BLIPMODE
 70
     0
  9
$CHAMFERA
 40
0.0
  9
$CHAMFERB
 40
0.0
  9
$CHAMFERC
 40
0.0
  9
$CHAMFERD
 40
0.0
  9
$SKPOLY
 70
     0
  9
$TDCREATE
 40
2452863.433449074
  9
$TDUPDATE
 40
2453946.342793345
  9
$TDINDWG
 40
0.0012744213
  9
$TDUSRTIMER
 40
0.0012744213
  9
$USRTIMER
 70
     1
  9
$ANGBASE
 50
0.0
  9
$ANGDIR
 70
     0
  9
$PDMODE
 70
     0
  9
$PDSIZE
 40
0.0
  9
$PLINEWID
 40
0.0
  9
$COORDS
 70
     1
  9
$SPLFRAME
 70
     0
  9
$SPLINETYPE
 70
     6
  9
$SPLINESEGS
 70
     8
  9
$ATTDIA
 70
     0
  9
$ATTREQ
 70
     1
  9
$HANDLING
 70
  4097
  9
$HANDSEED
  5
5295
  9
$SURFTAB1
 70
     6
  9
$SURFTAB2
 70
     6
  9
$SURFTYPE
 70
     6
  9
$SURFU
 70
     6
  9
$SURFV
 70
     6
  9
$UCSNAME
  2

  9
$UCSORG
 10
0.0
 20
0.0
 30
0.0
  9
$UCSXDIR
 10
1.0
 20
0.0
 30
0.0
  9
$UCSYDIR
 10
0.0
 20
1.0
 30
0.0
  9
$PUCSNAME
  2

  9
$PUCSORG
 10
0.0
 20
0.0
 30
0.0
  9
$PUCSXDIR
 10
1.0
 20
0.0
 30
0.0
  9
$PUCSYDIR
 10
0.0
 20
1.0
 30
0.0
  9
$USERI1
 70
     0
  9
$USERI2
 70
     0
  9
$USERI3
 70
     0
  9
$USERI4
 70
     0
  9
$USERI5
 70
     0
  9
$USERR1
 40
0.0
  9
$USERR2
 40
0.0
  9
$USERR3
 40
0.0
  9
$USERR4
 40
0.0
  9
$USERR5
 40
0.0
  9
$WORLDVIEW
 70
     1
  9
$SHADEDGE
 70
     3
  9
$SHADEDIF
 70
    70
  9
$TILEMODE
 70
     1
  9
$MAXACTVP
 70
    16
  9
$PINSBASE
 10
0.0
 20
0.0
 30
0.0
  9
$PLIMCHECK
 70
     0
  9
$PEXTMIN
 10
1.000000000000000E+20
 20
1.000000000000000E+20
 30
1.000000000000000E+20
  9
$PEXTMAX
 10
-1.000000000000000E+20
 20
-1.000000000000000E+20
 30
-1.000000000000000E+20
  9
$PLIMMIN
 10
0.0
 20
0.0
  9
$PLIMMAX
 10
12.0
 20
9.0
  9
$UNITMODE
 70
     0
  9
$VISRETAIN
 70
     0
  9
$PLINEGEN
 70
     0
  9
$PSLTSCALE
 70
     1
  9
$TREEDEPTH
 70
  3020
  9
$PICKSTYLE
 70
     1
  9
$CMLSTYLE
  2
STANDARD
  9
$CMLJUST
 70
     0
  9
$CMLSCALE
 40
1.0
  9
$SAVEIMAGES
 70
     1
  0
ENDSEC
  0
SECTION
  2
CLASSES
  0
CLASS
  1
ACDBDICTIONARYWDFLT
  2
AcDbDictionaryWithDefault
  3
AutoCAD 2000
 90
    32768
280
     0
281
     0
  0
CLASS
  1
ACDBPLACEHOLDER
  2
AcDbPlaceHolder
  3
AutoCAD 2000
 90
    32768
280
     0
281
     0
  0
CLASS
  1
LAYOUT
  2
AcDbLayout
  3
AutoCAD 2000
 90
    32768
280
     0
281
     0
  0
CLASS
  1
LONG_TRANSACTION
  2
AcDbLongTransaction
  3
AutoCAD 2000
 90
    32768
280
     0
281
     0
  0
CLASS
  1
LWPOLYLINE
  2
AcDbPolyline
  3
AutoCAD 2000
 90
    32768
280
     0
281
     1
  0
CLASS
  1
HATCH
  2
AcDbHatch
  3
AutoCAD 2000
 90
    32768
280
     0
281
     1
  0
CLASS
  1
XRECORD
  2
AcDbXrecord
  3
AutoCAD 2000
 90
    32768
280
     0
281
     0
  0
CLASS
  1
LONG_TRANSACTION
  2
AcDbLongTransaction
  3
AutoCAD 2000
 90
    32768
280
     0
281
     0
  0
CLASS
  1
LWPOLYLINE
  2
AcDbPolyline
  3
AutoCAD 2000
 90
    32768
280
     0
281
     1
  0
CLASS
  1
HATCH
  2
AcDbHatch
  3
AutoCAD 2000
 90
    32768
280
     0
281
     1
  0
CLASS
  1
XRECORD
  2
AcDbXrecord
  3
AutoCAD 2000
 90
    32768
280
     0
281
     0
  0
ENDSEC
  0
SECTION
  2
TABLES
  0
TABLE
  2
VPORT
  5
8
330
0
100
AcDbSymbolTable
 70
     3
  0
VPORT
  5
5292
330
8
100
AcDbSymbolTableRecord
100
AcDbViewportTableRecord
  2
*ACTIVE
 70
     0
 10
0.0
 20
0.0
 11
1.0
 21
1.0
 12
6.506263591508893
 22
4.838122122353894
 13
0.0
 23
0.0
 14
1.0
 24
1.0
 15
0.0
 25
0.0
 16
0.0
 26
0.0
 36
1.0
 17
0.0
 27
0.0
 37
0.0
 40
11.60597719384053
 41
1.647569444444444
 42
50.0
 43
0.0
 44
0.0
 50
0.0
 51
0.0
 71
     0
 72
   100
 73
     1
 74
     1
 75
     0
 76
     0
 77
     0
 78
     0
  0
ENDTAB
  0
TABLE
  2
LTYPE
  5
5
330
0
100
AcDbSymbolTable
 70
    25
  0
LTYPE
  5
13
330
5
100
AcDbSymbolTableRecord
100
AcDbLinetypeTableRecord
  2
BYBLOCK
 70
     0
  3

 72
    65
 73
     0
 40
0.0
  0
LTYPE
  5
14
330
5
100
AcDbSymbolTableRecord
100
AcDbLinetypeTableRecord
  2
BYLAYER
 70
     0
  3

 72
    65
 73
     0
 40
0.0
  0
LTYPE
  5
15
330
5
100
AcDbSymbolTableRecord
100
AcDbLinetypeTableRecord
  2
CONTINUOUS
 70
     0
  3
Solid line
 72
    65
 73
     0
 40
0.0
  0
LTYPE
  5
22
330
5
100
AcDbSymbolTableRecord
100
AcDbLinetypeTableRecord
  2
BORDER
 70
     0
  3
__ __ . __ __ . __ __ . __ __ . __ __ . __ __ .
 72
    65
 73
     6
 40
1.75
 49
0.5
 74
     0
 49
-0.25
 74
     0
 49
0.5
 74
     0
 49
-0.25
 74
     0
 49
0.5
 74
     0
 49
-0.25
 74
     0
  0
LTYPE
  5
23
330
5
100
AcDbSymbolTableRecord
100
AcDbLinetypeTableRecord
  2
BORDER2
 70
     0
  3
__.__.__.__.__.__.__.__.__.__.__.__.__.__.__.__
 72
    65
 73
     6
 40
0.875
 49
0.25
 74
     0
 49
-0.125
 74
     0
 49
0.25
 74
     0
 49
-0.125
 74
     0
 49
0.25
 74
     0
 49
-0.125
 74
     0
  0
LTYPE
  5
24
330
5
100
AcDbSymbolTableRecord
100
AcDbLinetypeTableRecord
  2
BORDERX2
 70
     0
  3
____  ____  .  ____  ____  .  
 72
    65
 73
     6
 40
3.5
 49
1.0
 74
     0
 49
-0.5
 74
     0
 49
1.0
 74
     0
 49
-0.5
 74
     0
 49
1.0
 74
     0
 49
-0.5
 74
     0
  0
LTYPE
  5
25
330
5
100
AcDbSymbolTableRecord
100
AcDbLinetypeTableRecord
  2
CENTER
 70
     0
  3
____ _ ____ _ ____ _ ____ _ ____ _ ____ _ ____
 72
    65
 73
     4
 40
2.0
 49
1.25
 74
     0
 49
-0.25
 74
     0
 49
0.25
 74
     0
 49
-0.25
 74
     0
  0
LTYPE
  5
26
330
5
100
AcDbSymbolTableRecord
100
AcDbLinetypeTableRecord
  2
CENTER2
 70
     0
  3
____ _ ____ _ ____ _ ____ _ ____ _ ____ _ ____
 72
    65
 73
     4
 40
1.125
 49
0.75
 74
     0
 49
-0.125
 74
     0
 49
0.125
 74
     0
 49
-0.125
 74
     0
  0
LTYPE
  5
27
330
5
100
AcDbSymbolTableRecord
100
AcDbLinetypeTableRecord
  2
CENTERX2
 70
     0
  3
________  __  ________  __  ________  __  
 72
    65
 73
     4
 40
4.0
 49
2.5
 74
     0
 49
-0.5
 74
     0
 49
0.5
 74
     0
 49
-0.5
 74
     0
  0
LTYPE
  5
28
330
5
100
AcDbSymbolTableRecord
100
AcDbLinetypeTableRecord
  2
DASHDOT
 70
     0
  3
__ . __ . __ . __ . __ . __ . __ . 
 72
    65
 73
     4
 40
1.0
 49
0.5
 74
     0
 49
-0.25
 74
     0
 49
0.0
 74
     0
 49
-0.25
 74
     0
  0
LTYPE
  5
29
330
5
100
AcDbSymbolTableRecord
100
AcDbLinetypeTableRecord
  2
DASHDOT2
 70
     0
  3
_._._._._._._._._._._._._._._._.
 72
    65
 73
     4
 40
0.5
 49
0.25
 74
     0
 49
-0.125
 74
     0
 49
0.0
 74
     0
 49
-0.125
 74
     0
  0
LTYPE
  5
2A
330
5
100
AcDbSymbolTableRecord
100
AcDbLinetypeTableRecord
  2
DASHDOTX2
 70
     0
  3
____  .  ____  .  ____  .  ____  .  
 72
    65
 73
     4
 40
2.0
 49
1.0
 74
     0
 49
-0.5
 74
     0
 49
0.0
 74
     0
 49
-0.5
 74
     0
  0
LTYPE
  5
2B
330
5
100
AcDbSymbolTableRecord
100
AcDbLinetypeTableRecord
  2
DASHED
 70
     0
  3
__ __ __ __ __ __ __ __ __ __ __ __ 
 72
    65
 73
     2
 40
0.75
 49
0.5
 74
     0
 49
-0.25
 74
     0
  0
LTYPE
  5
2C
330
5
100
AcDbSymbolTableRecord
100
AcDbLinetypeTableRecord
  2
DASHED2
 70
     0
  3
_ _ _ _ _ _ _ _ _ _ _ _ _ _ _ _ _ _ 
 72
    65
 73
     2
 40
0.375
 49
0.25
 74
     0
 49
-0.125
 74
     0
  0
LTYPE
  5
2D
330
5
100
AcDbSymbolTableRecord
100
AcDbLinetypeTableRecord
  2
DASHEDX2
 70
     0
  3
____  ____  ____  ____  ____  ____  
 72
    65
 73
     2
 40
1.5
 49
1.0
 74
     0
 49
-0.5
 74
     0
  0
LTYPE
  5
2E
330
5
100
AcDbSymbolTableRecord
100
AcDbLinetypeTableRecord
  2
DIVIDE
 70
     0
  3
____ . . ____ . . ____ . . ____ . . 
 72
    65
 73
     6
 40
1.25
 49
0.5
 74
     0
 49
-0.25
 74
     0
 49
0.0
 74
     0
 49
-0.25
 74
     0
 49
0.0
 74
     0
 49
-0.25
 74
     0
  0
LTYPE
  5
2F
330
5
100
AcDbSymbolTableRecord
100
AcDbLinetypeTableRecord
  2
DIVIDE2
 70
     0
  3
__..__..__..__..__..__..__..__..__..
 72
    65
 73
     6
 40
0.625
 49
0.25
 74
     0
 49
-0.125
 74
     0
 49
0.0
 74
     0
 49
-0.125
 74
     0
 49
0.0
 74
     0
 49
-0.125
 74
     0
  0
LTYPE
  5
30
330
5
100
AcDbSymbolTableRecord
100
AcDbLinetypeTableRecord
  2
DIVIDEX2
 70
     0
  3
________  .  .  ________  .  .  ________  .  . 
 72
    65
 73
     6
 40
2.5
 49
1.0
 74
     0
 49
-0.5
 74
     0
 49
0.0
 74
     0
 49
-0.5
 74
     0
 49
0.0
 74
     0
 49
-0.5
 74
     0
  0
LTYPE
  5
31
330
5
100
AcDbSymbolTableRecord
100
AcDbLinetypeTableRecord
  2
DOT
 70
     0
  3
. . . . . . . . . . . . . . . . . . 
 72
    65
 73
     2
 40
0.25
 49
0.0
 74
     0
 49
-0.25
 74
     0
  0
LTYPE
  5
32
330
5
100
AcDbSymbolTableRecord
100
AcDbLinetypeTableRecord
  2
DOT2
 70
     0
  3
....................................
 72
    65
 73
     2
 40
0.125
 49
0.0
 74
     0
 49
-0.125
 74
     0
  0
LTYPE
  5
33
330
5
100
AcDbSymbolTableRecord
100
AcDbLinetypeTableRecord
  2
DOTX2
 70
     0
  3
.  .  .  .  .  .  .  .  .  .  .  .  .  
 72
    65
 73
     2
 40
0.5
 49
0.0
 74
     0
 49
-0.5
 74
     0
  0
LTYPE
  5
34
330
5
100
AcDbSymbolTableRecord
100
AcDbLinetypeTableRecord
  2
HIDDEN
 70
     0
  3
__ __ __ __ __ __ __ __ __ __ __ __ 
 72
    65
 73
     2
 40
0.375
 49
0.25
 74
     0
 49
-0.125
 74
     0
  0
LTYPE
  5
35
330
5
100
AcDbSymbolTableRecord
100
AcDbLinetypeTableRecord
  2
HIDDEN2
 70
     0
  3
_ _ _ _ _ _ _ _ _ _ _ _ _ _ _ _ _ _ 
 72
    65
 73
     2
 40
0.1875
 49
0.125
 74
     0
 49
-0.0625
 74
     0
  0
LTYPE
  5
36
330
5
100
AcDbSymbolTableRecord
100
AcDbLinetypeTableRecord
  2
HIDDENX2
 70
     0
  3
____ ____ ____ ____ ____ ____ ____ 
 72
    65
 73
     2
 40
0.75
 49
0.5
 74
     0
 49
-0.25
 74
     0
  0
LTYPE
  5
37
330
5
100
AcDbSymbolTableRecord
100
AcDbLinetypeTableRecord
  2
PHANTOM
 70
     0
  3
______  __  __  ______  __  __  
 72
    65
 73
     6
 40
2.5
 49
1.25
 74
     0
 49
-0.25
 74
     0
 49
0.25
 74
     0
 49
-0.25
 74
     0
 49
0.25
 74
     0
 49
-0.25
 74
     0
  0
LTYPE
  5
38
330
5
100
AcDbSymbolTableRecord
100
AcDbLinetypeTableRecord
  2
PHANTOM2
 70
     0
  3
___ _ _ ___ _ _ ___ _ _ ___ _ _ 
 72
    65
 73
     6
 40
1.25
 49
0.625
 74
     0
 49
-0.125
 74
     0
 49
0.125
 74
     0
 49
-0.125
 74
     0
 49
0.125
 74
     0
 49
-0.125
 74
     0
  0
LTYPE
  5
39
330
5
100
AcDbSymbolTableRecord
100
AcDbLinetypeTableRecord
  2
PHANTOMX2
 70
     0
  3
___ _ _ ___ _ _ ___ _ _ ___ _ _ 
 72
    65
 73
     6
 40
5.0
 49
2.5
 74
     0
 49
-0.5
 74
     0
 49
0.5
 74
     0
 49
-0.5
 74
     0
 49
0.5
 74
     0
 49
-0.5
 74
     0
  0
ENDTAB
  0
TABLE
  2
LAYER
  5
2
330
0
100
AcDbSymbolTable
 70
   256
  0
LAYER
  5
10
330
2
100
AcDbSymbolTableRecord
100
AcDbLayerTableRecord
  2
0
 70
     0
 62
     7
  6
CONTINUOUS
  0
LAYER
  5
3A
330
2
100
AcDbSymbolTableRecord
100
AcDbLayerTableRecord
  2
1
 70
     0
 62
     1
  6
CONTINUOUS
  0
LAYER
  5
3B
330
2
100
AcDbSymbolTableRecord
100
AcDbLayerTableRecord
  2
2
 70
     0
 62
     2
  6
CONTINUOUS
  0
LAYER
  5
3C
330
2
100
AcDbSymbolTableRecord
100
AcDbLayerTableRecord
  2
3
 70
     0
 62
     3
  6
CONTINUOUS
  0
LAYER
  5
3D
330
2
100
AcDbSymbolTableRecord
100
AcDbLayerTableRecord
  2
4
 70
     0
 62
     4
  6
CONTINUOUS
  0
LAYER
  5
3E
330
2
100
AcDbSymbolTableRecord
100
AcDbLayerTableRecord
  2
5
 70
     0
 62
     5
  6
CONTINUOUS
  0
LAYER
  5
3F
330
2
100
AcDbSymbolTableRecord
100
AcDbLayerTableRecord
  2
6
 70
     0
 62
     6
  6
CONTINUOUS
  0
LAYER
  5
40
330
2
100
AcDbSymbolTableRecord
100
AcDbLayerTableRecord
  2
7
 70
     0
 62
     7
  6
CONTINUOUS
  0
LAYER
  5
41
330
2
100
AcDbSymbolTableRecord
100
AcDbLayerTableRecord
  2
8
 70
     0
 62
     8
  6
CONTINUOUS
  0
LAYER
  5
42
330
2
100
AcDbSymbolTableRecord
100
AcDbLayerTableRecord
  2
9
 70
     0
 62
     9
  6
CONTINUOUS
  0
LAYER
  5
43
330
2
100
AcDbSymbolTableRecord
100
AcDbLayerTableRecord
  2
10
 70
     0
 62
    10
  6
CONTINUOUS
  0
LAYER
  5
44
330
2
100
AcDbSymbolTableRecord
100
AcDbLayerTableRecord
  2
11
 70
     0
 62
    11
  6
CONTINUOUS
  0
LAYER
  5
45
330
2
100
AcDbSymbolTableRecord
100
AcDbLayerTableRecord
  2
12
 70
     0
 62
    12
  6
CONTINUOUS
  0
LAYER
  5
46
330
2
100
AcDbSymbolTableRecord
100
AcDbLayerTableRecord
  2
13
 70
     0
 62
    13
  6
CONTINUOUS
  0
LAYER
  5
47
330
2
100
AcDbSymbolTableRecord
100
AcDbLayerTableRecord
  2
14
 70
     0
 62
    14
  6
CONTINUOUS
  0
LAYER
  5
48
330
2
100
AcDbSymbolTableRecord
100
AcDbLayerTableRecord
  2
15
 70
     0
 62
    15
  6
CONTINUOUS
  0
LAYER
  5
49
330
2
100
AcDbSymbolTableRecord
100
AcDbLayerTableRecord
  2
16
 70
     0
 62
    16
  6
CONTINUOUS
  0
LAYER
  5
4A
330
2
100
AcDbSymbolTableRecord
100
AcDbLayerTableRecord
  2
17
 70
     0
 62
    17
  6
CONTINUOUS
  0
LAYER
  5
4B
330
2
100
AcDbSymbolTableRecord
100
AcDbLayerTableRecord
  2
18
 70
     0
 62
    18
  6
CONTINUOUS
  0
LAYER
  5
4C
330
2
100
AcDbSymbolTableRecord
100
AcDbLayerTableRecord
  2
19
 70
     0
 62
    19
  6
CONTINUOUS
  0
LAYER
  5
4D
330
2
100
AcDbSymbolTableRecord
100
AcDbLayerTableRecord
  2
20
 70
     0
 62
    20
  6
CONTINUOUS
  0
LAYER
  5
4E
330
2
100
AcDbSymbolTableRecord
100
AcDbLayerTableRecord
  2
21
 70
     0
 62
    21
  6
CONTINUOUS
  0
LAYER
  5
4F
330
2
100
AcDbSymbolTableRecord
100
AcDbLayerTableRecord
  2
22
 70
     0
 62
    22
  6
CONTINUOUS
  0
LAYER
  5
50
330
2
100
AcDbSymbolTableRecord
100
AcDbLayerTableRecord
  2
23
 70
     0
 62
    23
  6
CONTINUOUS
  0
LAYER
  5
51
330
2
100
AcDbSymbolTableRecord
100
AcDbLayerTableRecord
  2
24
 70
     0
 62
    24
  6
CONTINUOUS
  0
LAYER
  5
52
330
2
100
AcDbSymbolTableRecord
100
AcDbLayerTableRecord
  2
25
 70
     0
 62
    25
  6
CONTINUOUS
  0
LAYER
  5
53
330
2
100
AcDbSymbolTableRecord
100
AcDbLayerTableRecord
  2
26
 70
     0
 62
    26
  6
CONTINUOUS
  0
LAYER
  5
54
330
2
100
AcDbSymbolTableRecord
100
AcDbLayerTableRecord
  2
27
 70
     0
 62
    27
  6
CONTINUOUS
  0
LAYER
  5
55
330
2
100
AcDbSymbolTableRecord
100
AcDbLayerTableRecord
  2
28
 70
     0
 62
    28
  6
CONTINUOUS
  0
LAYER
  5
56
330
2
100
AcDbSymbolTableRecord
100
AcDbLayerTableRecord
  2
29
 70
     0
 62
    29
  6
CONTINUOUS
  0
LAYER
  5
57
330
2
100
AcDbSymbolTableRecord
100
AcDbLayerTableRecord
  2
30
 70
     0
 62
    30
  6
CONTINUOUS
  0
LAYER
  5
58
330
2
100
AcDbSymbolTableRecord
100
AcDbLayerTableRecord
  2
31
 70
     0
 62
    31
  6
CONTINUOUS
  0
LAYER
  5
59
330
2
100
AcDbSymbolTableRecord
100
AcDbLayerTableRecord
  2
32
 70
     0
 62
    32
  6
CONTINUOUS
  0
LAYER
  5
5A
330
2
100
AcDbSymbolTableRecord
100
AcDbLayerTableRecord
  2
33
 70
     0
 62
    33
  6
CONTINUOUS
  0
LAYER
  5
5B
330
2
100
AcDbSymbolTableRecord
100
AcDbLayerTableRecord
  2
34
 70
     0
 62
    34
  6
CONTINUOUS
  0
LAYER
  5
5C
330
2
100
AcDbSymbolTableRecord
100
AcDbLayerTableRecord
  2
35
 70
     0
 62
    35
  6
CONTINUOUS
  0
LAYER
  5
5D
330
2
100
AcDbSymbolTableRecord
100
AcDbLayerTableRecord
  2
36
 70
     0
 62
    36
  6
CONTINUOUS
  0
LAYER
  5
5E
330
2
100
AcDbSymbolTableRecord
100
AcDbLayerTableRecord
  2
37
 70
     0
 62
    37
  6
CONTINUOUS
  0
LAYER
  5
5F
330
2
100
AcDbSymbolTableRecord
100
AcDbLayerTableRecord
  2
38
 70
     0
 62
    38
  6
CONTINUOUS
  0
LAYER
  5
60
330
2
100
AcDbSymbolTableRecord
100
AcDbLayerTableRecord
  2
39
 70
     0
 62
    39
  6
CONTINUOUS
  0
LAYER
  5
61
330
2
100
AcDbSymbolTableRecord
100
AcDbLayerTableRecord
  2
40
 70
     0
 62
    40
  6
CONTINUOUS
  0
LAYER
  5
62
330
2
100
AcDbSymbolTableRecord
100
AcDbLayerTableRecord
  2
41
 70
     0
 62
    41
  6
CONTINUOUS
  0
LAYER
  5
63
330
2
100
AcDbSymbolTableRecord
100
AcDbLayerTableRecord
  2
42
 70
     0
 62
    42
  6
CONTINUOUS
  0
LAYER
  5
64
330
2
100
AcDbSymbolTableRecord
100
AcDbLayerTableRecord
  2
43
 70
     0
 62
    43
  6
CONTINUOUS
  0
LAYER
  5
65
330
2
100
AcDbSymbolTableRecord
100
AcDbLayerTableRecord
  2
44
 70
     0
 62
    44
  6
CONTINUOUS
  0
LAYER
  5
66
330
2
100
AcDbSymbolTableRecord
100
AcDbLayerTableRecord
  2
45
 70
     0
 62
    45
  6
CONTINUOUS
  0
LAYER
  5
67
330
2
100
AcDbSymbolTableRecord
100
AcDbLayerTableRecord
  2
46
 70
     0
 62
    46
  6
CONTINUOUS
  0
LAYER
  5
68
330
2
100
AcDbSymbolTableRecord
100
AcDbLayerTableRecord
  2
47
 70
     0
 62
    47
  6
CONTINUOUS
  0
LAYER
  5
69
330
2
100
AcDbSymbolTableRecord
100
AcDbLayerTableRecord
  2
48
 70
     0
 62
    48
  6
CONTINUOUS
  0
LAYER
  5
6A
330
2
100
AcDbSymbolTableRecord
100
AcDbLayerTableRecord
  2
49
 70
     0
 62
    49
  6
CONTINUOUS
  0
LAYER
  5
6B
330
2
100
AcDbSymbolTableRecord
100
AcDbLayerTableRecord
  2
50
 70
     0
 62
    50
  6
CONTINUOUS
  0
LAYER
  5
6C
330
2
100
AcDbSymbolTableRecord
100
AcDbLayerTableRecord
  2
51
 70
     0
 62
    51
  6
CONTINUOUS
  0
LAYER
  5
6D
330
2
100
AcDbSymbolTableRecord
100
AcDbLayerTableRecord
  2
52
 70
     0
 62
    52
  6
CONTINUOUS
  0
LAYER
  5
6E
330
2
100
AcDbSymbolTableRecord
100
AcDbLayerTableRecord
  2
53
 70
     0
 62
    53
  6
CONTINUOUS
  0
LAYER
  5
6F
330
2
100
AcDbSymbolTableRecord
100
AcDbLayerTableRecord
  2
54
 70
     0
 62
    54
  6
CONTINUOUS
  0
LAYER
  5
70
330
2
100
AcDbSymbolTableRecord
100
AcDbLayerTableRecord
  2
55
 70
     0
 62
    55
  6
CONTINUOUS
  0
LAYER
  5
71
330
2
100
AcDbSymbolTableRecord
100
AcDbLayerTableRecord
  2
56
 70
     0
 62
    56
  6
CONTINUOUS
  0
LAYER
  5
72
330
2
100
AcDbSymbolTableRecord
100
AcDbLayerTableRecord
  2
57
 70
     0
 62
    57
  6
CONTINUOUS
  0
LAYER
  5
73
330
2
100
AcDbSymbolTableRecord
100
AcDbLayerTableRecord
  2
58
 70
     0
 62
    58
  6
CONTINUOUS
  0
LAYER
  5
74
330
2
100
AcDbSymbolTableRecord
100
AcDbLayerTableRecord
  2
59
 70
     0
 62
    59
  6
CONTINUOUS
  0
LAYER
  5
75
330
2
100
AcDbSymbolTableRecord
100
AcDbLayerTableRecord
  2
60
 70
     0
 62
    60
  6
CONTINUOUS
  0
LAYER
  5
76
330
2
100
AcDbSymbolTableRecord
100
AcDbLayerTableRecord
  2
61
 70
     0
 62
    61
  6
CONTINUOUS
  0
LAYER
  5
77
330
2
100
AcDbSymbolTableRecord
100
AcDbLayerTableRecord
  2
62
 70
     0
 62
    62
  6
CONTINUOUS
  0
LAYER
  5
78
330
2
100
AcDbSymbolTableRecord
100
AcDbLayerTableRecord
  2
63
 70
     0
 62
    63
  6
CONTINUOUS
  0
LAYER
  5
79
330
2
100
AcDbSymbolTableRecord
100
AcDbLayerTableRecord
  2
64
 70
     0
 62
    64
  6
CONTINUOUS
  0
LAYER
  5
7A
330
2
100
AcDbSymbolTableRecord
100
AcDbLayerTableRecord
  2
65
 70
     0
 62
    65
  6
CONTINUOUS
  0
LAYER
  5
7B
330
2
100
AcDbSymbolTableRecord
100
AcDbLayerTableRecord
  2
66
 70
     0
 62
    66
  6
CONTINUOUS
  0
LAYER
  5
7C
330
2
100
AcDbSymbolTableRecord
100
AcDbLayerTableRecord
  2
67
 70
     0
 62
    67
  6
CONTINUOUS
  0
LAYER
  5
7D
330
2
100
AcDbSymbolTableRecord
100
AcDbLayerTableRecord
  2
68
 70
     0
 62
    68
  6
CONTINUOUS
  0
LAYER
  5
7E
330
2
100
AcDbSymbolTableRecord
100
AcDbLayerTableRecord
  2
69
 70
     0
 62
    69
  6
CONTINUOUS
  0
LAYER
  5
7F
330
2
100
AcDbSymbolTableRecord
100
AcDbLayerTableRecord
  2
70
 70
     0
 62
    70
  6
CONTINUOUS
  0
LAYER
  5
80
330
2
100
AcDbSymbolTableRecord
100
AcDbLayerTableRecord
  2
71
 70
     0
 62
    71
  6
CONTINUOUS
  0
LAYER
  5
81
330
2
100
AcDbSymbolTableRecord
100
AcDbLayerTableRecord
  2
72
 70
     0
 62
    72
  6
CONTINUOUS
  0
LAYER
  5
82
330
2
100
AcDbSymbolTableRecord
100
AcDbLayerTableRecord
  2
73
 70
     0
 62
    73
  6
CONTINUOUS
  0
LAYER
  5
83
330
2
100
AcDbSymbolTableRecord
100
AcDbLayerTableRecord
  2
74
 70
     0
 62
    74
  6
CONTINUOUS
  0
LAYER
  5
84
330
2
100
AcDbSymbolTableRecord
100
AcDbLayerTableRecord
  2
75
 70
     0
 62
    75
  6
CONTINUOUS
  0
LAYER
  5
85
330
2
100
AcDbSymbolTableRecord
100
AcDbLayerTableRecord
  2
76
 70
     0
 62
    76
  6
CONTINUOUS
  0
LAYER
  5
86
330
2
100
AcDbSymbolTableRecord
100
AcDbLayerTableRecord
  2
77
 70
     0
 62
    77
  6
CONTINUOUS
  0
LAYER
  5
87
330
2
100
AcDbSymbolTableRecord
100
AcDbLayerTableRecord
  2
78
 70
     0
 62
    78
  6
CONTINUOUS
  0
LAYER
  5
88
330
2
100
AcDbSymbolTableRecord
100
AcDbLayerTableRecord
  2
79
 70
     0
 62
    79
  6
CONTINUOUS
  0
LAYER
  5
89
330
2
100
AcDbSymbolTableRecord
100
AcDbLayerTableRecord
  2
80
 70
     0
 62
    80
  6
CONTINUOUS
  0
LAYER
  5
8A
330
2
100
AcDbSymbolTableRecord
100
AcDbLayerTableRecord
  2
81
 70
     0
 62
    81
  6
CONTINUOUS
  0
LAYER
  5
8B
330
2
100
AcDbSymbolTableRecord
100
AcDbLayerTableRecord
  2
82
 70
     0
 62
    82
  6
CONTINUOUS
  0
LAYER
  5
8C
330
2
100
AcDbSymbolTableRecord
100
AcDbLayerTableRecord
  2
83
 70
     0
 62
    83
  6
CONTINUOUS
  0
LAYER
  5
8D
330
2
100
AcDbSymbolTableRecord
100
AcDbLayerTableRecord
  2
84
 70
     0
 62
    84
  6
CONTINUOUS
  0
LAYER
  5
8E
330
2
100
AcDbSymbolTableRecord
100
AcDbLayerTableRecord
  2
85
 70
     0
 62
    85
  6
CONTINUOUS
  0
LAYER
  5
8F
330
2
100
AcDbSymbolTableRecord
100
AcDbLayerTableRecord
  2
86
 70
     0
 62
    86
  6
CONTINUOUS
  0
LAYER
  5
90
330
2
100
AcDbSymbolTableRecord
100
AcDbLayerTableRecord
  2
87
 70
     0
 62
    87
  6
CONTINUOUS
  0
LAYER
  5
91
330
2
100
AcDbSymbolTableRecord
100
AcDbLayerTableRecord
  2
88
 70
     0
 62
    88
  6
CONTINUOUS
  0
LAYER
  5
92
330
2
100
AcDbSymbolTableRecord
100
AcDbLayerTableRecord
  2
89
 70
     0
 62
    89
  6
CONTINUOUS
  0
LAYER
  5
93
330
2
100
AcDbSymbolTableRecord
100
AcDbLayerTableRecord
  2
90
 70
     0
 62
    90
  6
CONTINUOUS
  0
LAYER
  5
94
330
2
100
AcDbSymbolTableRecord
100
AcDbLayerTableRecord
  2
91
 70
     0
 62
    91
  6
CONTINUOUS
  0
LAYER
  5
95
330
2
100
AcDbSymbolTableRecord
100
AcDbLayerTableRecord
  2
92
 70
     0
 62
    92
  6
CONTINUOUS
  0
LAYER
  5
96
330
2
100
AcDbSymbolTableRecord
100
AcDbLayerTableRecord
  2
93
 70
     0
 62
    93
  6
CONTINUOUS
  0
LAYER
  5
97
330
2
100
AcDbSymbolTableRecord
100
AcDbLayerTableRecord
  2
94
 70
     0
 62
    94
  6
CONTINUOUS
  0
LAYER
  5
98
330
2
100
AcDbSymbolTableRecord
100
AcDbLayerTableRecord
  2
95
 70
     0
 62
    95
  6
CONTINUOUS
  0
LAYER
  5
99
330
2
100
AcDbSymbolTableRecord
100
AcDbLayerTableRecord
  2
96
 70
     0
 62
    96
  6
CONTINUOUS
  0
LAYER
  5
9A
330
2
100
AcDbSymbolTableRecord
100
AcDbLayerTableRecord
  2
97
 70
     0
 62
    97
  6
CONTINUOUS
  0
LAYER
  5
9B
330
2
100
AcDbSymbolTableRecord
100
AcDbLayerTableRecord
  2
98
 70
     0
 62
    98
  6
CONTINUOUS
  0
LAYER
  5
9C
330
2
100
AcDbSymbolTableRecord
100
AcDbLayerTableRecord
  2
99
 70
     0
 62
    99
  6
CONTINUOUS
  0
LAYER
  5
9D
330
2
100
AcDbSymbolTableRecord
100
AcDbLayerTableRecord
  2
100
 70
     0
 62
   100
  6
CONTINUOUS
  0
LAYER
  5
9E
330
2
100
AcDbSymbolTableRecord
100
AcDbLayerTableRecord
  2
101
 70
     0
 62
   101
  6
CONTINUOUS
  0
LAYER
  5
9F
330
2
100
AcDbSymbolTableRecord
100
AcDbLayerTableRecord
  2
102
 70
     0
 62
   102
  6
CONTINUOUS
  0
LAYER
  5
A0
330
2
100
AcDbSymbolTableRecord
100
AcDbLayerTableRecord
  2
103
 70
     0
 62
   103
  6
CONTINUOUS
  0
LAYER
  5
A1
330
2
100
AcDbSymbolTableRecord
100
AcDbLayerTableRecord
  2
104
 70
     0
 62
   104
  6
CONTINUOUS
  0
LAYER
  5
A2
330
2
100
AcDbSymbolTableRecord
100
AcDbLayerTableRecord
  2
105
 70
     0
 62
   105
  6
CONTINUOUS
  0
LAYER
  5
A3
330
2
100
AcDbSymbolTableRecord
100
AcDbLayerTableRecord
  2
106
 70
     0
 62
   106
  6
CONTINUOUS
  0
LAYER
  5
A4
330
2
100
AcDbSymbolTableRecord
100
AcDbLayerTableRecord
  2
107
 70
     0
 62
   107
  6
CONTINUOUS
  0
LAYER
  5
A5
330
2
100
AcDbSymbolTableRecord
100
AcDbLayerTableRecord
  2
108
 70
     0
 62
   108
  6
CONTINUOUS
  0
LAYER
  5
A6
330
2
100
AcDbSymbolTableRecord
100
AcDbLayerTableRecord
  2
109
 70
     0
 62
   109
  6
CONTINUOUS
  0
LAYER
  5
A7
330
2
100
AcDbSymbolTableRecord
100
AcDbLayerTableRecord
  2
110
 70
     0
 62
   110
  6
CONTINUOUS
  0
LAYER
  5
A8
330
2
100
AcDbSymbolTableRecord
100
AcDbLayerTableRecord
  2
111
 70
     0
 62
   111
  6
CONTINUOUS
  0
LAYER
  5
A9
330
2
100
AcDbSymbolTableRecord
100
AcDbLayerTableRecord
  2
112
 70
     0
 62
   112
  6
CONTINUOUS
  0
LAYER
  5
AA
330
2
100
AcDbSymbolTableRecord
100
AcDbLayerTableRecord
  2
113
 70
     0
 62
   113
  6
CONTINUOUS
  0
LAYER
  5
AB
330
2
100
AcDbSymbolTableRecord
100
AcDbLayerTableRecord
  2
114
 70
     0
 62
   114
  6
CONTINUOUS
  0
LAYER
  5
AC
330
2
100
AcDbSymbolTableRecord
100
AcDbLayerTableRecord
  2
115
 70
     0
 62
   115
  6
CONTINUOUS
  0
LAYER
  5
AD
330
2
100
AcDbSymbolTableRecord
100
AcDbLayerTableRecord
  2
116
 70
     0
 62
   116
  6
CONTINUOUS
  0
LAYER
  5
AE
330
2
100
AcDbSymbolTableRecord
100
AcDbLayerTableRecord
  2
117
 70
     0
 62
   117
  6
CONTINUOUS
  0
LAYER
  5
AF
330
2
100
AcDbSymbolTableRecord
100
AcDbLayerTableRecord
  2
118
 70
     0
 62
   118
  6
CONTINUOUS
  0
LAYER
  5
B0
330
2
100
AcDbSymbolTableRecord
100
AcDbLayerTableRecord
  2
119
 70
     0
 62
   119
  6
CONTINUOUS
  0
LAYER
  5
B1
330
2
100
AcDbSymbolTableRecord
100
AcDbLayerTableRecord
  2
120
 70
     0
 62
   120
  6
CONTINUOUS
  0
LAYER
  5
B2
330
2
100
AcDbSymbolTableRecord
100
AcDbLayerTableRecord
  2
121
 70
     0
 62
   121
  6
CONTINUOUS
  0
LAYER
  5
B3
330
2
100
AcDbSymbolTableRecord
100
AcDbLayerTableRecord
  2
122
 70
     0
 62
   122
  6
CONTINUOUS
  0
LAYER
  5
B4
330
2
100
AcDbSymbolTableRecord
100
AcDbLayerTableRecord
  2
123
 70
     0
 62
   123
  6
CONTINUOUS
  0
LAYER
  5
B5
330
2
100
AcDbSymbolTableRecord
100
AcDbLayerTableRecord
  2
124
 70
     0
 62
   124
  6
CONTINUOUS
  0
LAYER
  5
B6
330
2
100
AcDbSymbolTableRecord
100
AcDbLayerTableRecord
  2
125
 70
     0
 62
   125
  6
CONTINUOUS
  0
LAYER
  5
B7
330
2
100
AcDbSymbolTableRecord
100
AcDbLayerTableRecord
  2
126
 70
     0
 62
   126
  6
CONTINUOUS
  0
LAYER
  5
B8
330
2
100
AcDbSymbolTableRecord
100
AcDbLayerTableRecord
  2
127
 70
     0
 62
   127
  6
CONTINUOUS
  0
LAYER
  5
B9
330
2
100
AcDbSymbolTableRecord
100
AcDbLayerTableRecord
  2
128
 70
     0
 62
   128
  6
CONTINUOUS
  0
LAYER
  5
BA
330
2
100
AcDbSymbolTableRecord
100
AcDbLayerTableRecord
  2
129
 70
     0
 62
   129
  6
CONTINUOUS
  0
LAYER
  5
BB
330
2
100
AcDbSymbolTableRecord
100
AcDbLayerTableRecord
  2
130
 70
     0
 62
   130
  6
CONTINUOUS
  0
LAYER
  5
BC
330
2
100
AcDbSymbolTableRecord
100
AcDbLayerTableRecord
  2
131
 70
     0
 62
   131
  6
CONTINUOUS
  0
LAYER
  5
BD
330
2
100
AcDbSymbolTableRecord
100
AcDbLayerTableRecord
  2
132
 70
     0
 62
   132
  6
CONTINUOUS
  0
LAYER
  5
BE
330
2
100
AcDbSymbolTableRecord
100
AcDbLayerTableRecord
  2
133
 70
     0
 62
   133
  6
CONTINUOUS
  0
LAYER
  5
BF
330
2
100
AcDbSymbolTableRecord
100
AcDbLayerTableRecord
  2
134
 70
     0
 62
   134
  6
CONTINUOUS
  0
LAYER
  5
C0
330
2
100
AcDbSymbolTableRecord
100
AcDbLayerTableRecord
  2
135
 70
     0
 62
   135
  6
CONTINUOUS
  0
LAYER
  5
C1
330
2
100
AcDbSymbolTableRecord
100
AcDbLayerTableRecord
  2
136
 70
     0
 62
   136
  6
CONTINUOUS
  0
LAYER
  5
C2
330
2
100
AcDbSymbolTableRecord
100
AcDbLayerTableRecord
  2
137
 70
     0
 62
   137
  6
CONTINUOUS
  0
LAYER
  5
C3
330
2
100
AcDbSymbolTableRecord
100
AcDbLayerTableRecord
  2
138
 70
     0
 62
   138
  6
CONTINUOUS
  0
LAYER
  5
C4
330
2
100
AcDbSymbolTableRecord
100
AcDbLayerTableRecord
  2
139
 70
     0
 62
   139
  6
CONTINUOUS
  0
LAYER
  5
C5
330
2
100
AcDbSymbolTableRecord
100
AcDbLayerTableRecord
  2
140
 70
     0
 62
   140
  6
CONTINUOUS
  0
LAYER
  5
C6
330
2
100
AcDbSymbolTableRecord
100
AcDbLayerTableRecord
  2
141
 70
     0
 62
   141
  6
CONTINUOUS
  0
LAYER
  5
C7
330
2
100
AcDbSymbolTableRecord
100
AcDbLayerTableRecord
  2
142
 70
     0
 62
   142
  6
CONTINUOUS
  0
LAYER
  5
C8
330
2
100
AcDbSymbolTableRecord
100
AcDbLayerTableRecord
  2
143
 70
     0
 62
   143
  6
CONTINUOUS
  0
LAYER
  5
C9
330
2
100
AcDbSymbolTableRecord
100
AcDbLayerTableRecord
  2
144
 70
     0
 62
   144
  6
CONTINUOUS
  0
LAYER
  5
CA
330
2
100
AcDbSymbolTableRecord
100
AcDbLayerTableRecord
  2
145
 70
     0
 62
   145
  6
CONTINUOUS
  0
LAYER
  5
CB
330
2
100
AcDbSymbolTableRecord
100
AcDbLayerTableRecord
  2
146
 70
     0
 62
   146
  6
CONTINUOUS
  0
LAYER
  5
CC
330
2
100
AcDbSymbolTableRecord
100
AcDbLayerTableRecord
  2
147
 70
     0
 62
   147
  6
CONTINUOUS
  0
LAYER
  5
CD
330
2
100
AcDbSymbolTableRecord
100
AcDbLayerTableRecord
  2
148
 70
     0
 62
   148
  6
CONTINUOUS
  0
LAYER
  5
CE
330
2
100
AcDbSymbolTableRecord
100
AcDbLayerTableRecord
  2
149
 70
     0
 62
   149
  6
CONTINUOUS
  0
LAYER
  5
CF
330
2
100
AcDbSymbolTableRecord
100
AcDbLayerTableRecord
  2
150
 70
     0
 62
   150
  6
CONTINUOUS
  0
LAYER
  5
D0
330
2
100
AcDbSymbolTableRecord
100
AcDbLayerTableRecord
  2
151
 70
     0
 62
   151
  6
CONTINUOUS
  0
LAYER
  5
D1
330
2
100
AcDbSymbolTableRecord
100
AcDbLayerTableRecord
  2
152
 70
     0
 62
   152
  6
CONTINUOUS
  0
LAYER
  5
D2
330
2
100
AcDbSymbolTableRecord
100
AcDbLayerTableRecord
  2
153
 70
     0
 62
   153
  6
CONTINUOUS
  0
LAYER
  5
D3
330
2
100
AcDbSymbolTableRecord
100
AcDbLayerTableRecord
  2
154
 70
     0
 62
   154
  6
CONTINUOUS
  0
LAYER
  5
D4
330
2
100
AcDbSymbolTableRecord
100
AcDbLayerTableRecord
  2
155
 70
     0
 62
   155
  6
CONTINUOUS
  0
LAYER
  5
D5
330
2
100
AcDbSymbolTableRecord
100
AcDbLayerTableRecord
  2
156
 70
     0
 62
   156
  6
CONTINUOUS
  0
LAYER
  5
D6
330
2
100
AcDbSymbolTableRecord
100
AcDbLayerTableRecord
  2
157
 70
     0
 62
   157
  6
CONTINUOUS
  0
LAYER
  5
D7
330
2
100
AcDbSymbolTableRecord
100
AcDbLayerTableRecord
  2
158
 70
     0
 62
   158
  6
CONTINUOUS
  0
LAYER
  5
D8
330
2
100
AcDbSymbolTableRecord
100
AcDbLayerTableRecord
  2
159
 70
     0
 62
   159
  6
CONTINUOUS
  0
LAYER
  5
D9
330
2
100
AcDbSymbolTableRecord
100
AcDbLayerTableRecord
  2
160
 70
     0
 62
   160
  6
CONTINUOUS
  0
LAYER
  5
DA
330
2
100
AcDbSymbolTableRecord
100
AcDbLayerTableRecord
  2
161
 70
     0
 62
   161
  6
CONTINUOUS
  0
LAYER
  5
DB
330
2
100
AcDbSymbolTableRecord
100
AcDbLayerTableRecord
  2
162
 70
     0
 62
   162
  6
CONTINUOUS
  0
LAYER
  5
DC
330
2
100
AcDbSymbolTableRecord
100
AcDbLayerTableRecord
  2
163
 70
     0
 62
   163
  6
CONTINUOUS
  0
LAYER
  5
DD
330
2
100
AcDbSymbolTableRecord
100
AcDbLayerTableRecord
  2
164
 70
     0
 62
   164
  6
CONTINUOUS
  0
LAYER
  5
DE
330
2
100
AcDbSymbolTableRecord
100
AcDbLayerTableRecord
  2
165
 70
     0
 62
   165
  6
CONTINUOUS
  0
LAYER
  5
DF
330
2
100
AcDbSymbolTableRecord
100
AcDbLayerTableRecord
  2
166
 70
     0
 62
   166
  6
CONTINUOUS
  0
LAYER
  5
E0
330
2
100
AcDbSymbolTableRecord
100
AcDbLayerTableRecord
  2
167
 70
     0
 62
   167
  6
CONTINUOUS
  0
LAYER
  5
E1
330
2
100
AcDbSymbolTableRecord
100
AcDbLayerTableRecord
  2
168
 70
     0
 62
   168
  6
CONTINUOUS
  0
LAYER
  5
E2
330
2
100
AcDbSymbolTableRecord
100
AcDbLayerTableRecord
  2
169
 70
     0
 62
   169
  6
CONTINUOUS
  0
LAYER
  5
E3
330
2
100
AcDbSymbolTableRecord
100
AcDbLayerTableRecord
  2
170
 70
     0
 62
   170
  6
CONTINUOUS
  0
LAYER
  5
E4
330
2
100
AcDbSymbolTableRecord
100
AcDbLayerTableRecord
  2
171
 70
     0
 62
   171
  6
CONTINUOUS
  0
LAYER
  5
E5
330
2
100
AcDbSymbolTableRecord
100
AcDbLayerTableRecord
  2
172
 70
     0
 62
   172
  6
CONTINUOUS
  0
LAYER
  5
E6
330
2
100
AcDbSymbolTableRecord
100
AcDbLayerTableRecord
  2
173
 70
     0
 62
   173
  6
CONTINUOUS
  0
LAYER
  5
E7
330
2
100
AcDbSymbolTableRecord
100
AcDbLayerTableRecord
  2
174
 70
     0
 62
   174
  6
CONTINUOUS
  0
LAYER
  5
E8
330
2
100
AcDbSymbolTableRecord
100
AcDbLayerTableRecord
  2
175
 70
     0
 62
   175
  6
CONTINUOUS
  0
LAYER
  5
E9
330
2
100
AcDbSymbolTableRecord
100
AcDbLayerTableRecord
  2
176
 70
     0
 62
   176
  6
CONTINUOUS
  0
LAYER
  5
EA
330
2
100
AcDbSymbolTableRecord
100
AcDbLayerTableRecord
  2
177
 70
     0
 62
   177
  6
CONTINUOUS
  0
LAYER
  5
EB
330
2
100
AcDbSymbolTableRecord
100
AcDbLayerTableRecord
  2
178
 70
     0
 62
   178
  6
CONTINUOUS
  0
LAYER
  5
EC
330
2
100
AcDbSymbolTableRecord
100
AcDbLayerTableRecord
  2
179
 70
     0
 62
   179
  6
CONTINUOUS
  0
LAYER
  5
ED
330
2
100
AcDbSymbolTableRecord
100
AcDbLayerTableRecord
  2
180
 70
     0
 62
   180
  6
CONTINUOUS
  0
LAYER
  5
EE
330
2
100
AcDbSymbolTableRecord
100
AcDbLayerTableRecord
  2
181
 70
     0
 62
   181
  6
CONTINUOUS
  0
LAYER
  5
EF
330
2
100
AcDbSymbolTableRecord
100
AcDbLayerTableRecord
  2
182
 70
     0
 62
   182
  6
CONTINUOUS
  0
LAYER
  5
F0
330
2
100
AcDbSymbolTableRecord
100
AcDbLayerTableRecord
  2
183
 70
     0
 62
   183
  6
CONTINUOUS
  0
LAYER
  5
F1
330
2
100
AcDbSymbolTableRecord
100
AcDbLayerTableRecord
  2
184
 70
     0
 62
   184
  6
CONTINUOUS
  0
LAYER
  5
F2
330
2
100
AcDbSymbolTableRecord
100
AcDbLayerTableRecord
  2
185
 70
     0
 62
   185
  6
CONTINUOUS
  0
LAYER
  5
F3
330
2
100
AcDbSymbolTableRecord
100
AcDbLayerTableRecord
  2
186
 70
     0
 62
   186
  6
CONTINUOUS
  0
LAYER
  5
F4
330
2
100
AcDbSymbolTableRecord
100
AcDbLayerTableRecord
  2
187
 70
     0
 62
   187
  6
CONTINUOUS
  0
LAYER
  5
F5
330
2
100
AcDbSymbolTableRecord
100
AcDbLayerTableRecord
  2
188
 70
     0
 62
   188
  6
CONTINUOUS
  0
LAYER
  5
F6
330
2
100
AcDbSymbolTableRecord
100
AcDbLayerTableRecord
  2
189
 70
     0
 62
   189
  6
CONTINUOUS
  0
LAYER
  5
F7
330
2
100
AcDbSymbolTableRecord
100
AcDbLayerTableRecord
  2
190
 70
     0
 62
   190
  6
CONTINUOUS
  0
LAYER
  5
F8
330
2
100
AcDbSymbolTableRecord
100
AcDbLayerTableRecord
  2
191
 70
     0
 62
   191
  6
CONTINUOUS
  0
LAYER
  5
F9
330
2
100
AcDbSymbolTableRecord
100
AcDbLayerTableRecord
  2
192
 70
     0
 62
   192
  6
CONTINUOUS
  0
LAYER
  5
FA
330
2
100
AcDbSymbolTableRecord
100
AcDbLayerTableRecord
  2
193
 70
     0
 62
   193
  6
CONTINUOUS
  0
LAYER
  5
FB
330
2
100
AcDbSymbolTableRecord
100
AcDbLayerTableRecord
  2
194
 70
     0
 62
   194
  6
CONTINUOUS
  0
LAYER
  5
FC
330
2
100
AcDbSymbolTableRecord
100
AcDbLayerTableRecord
  2
195
 70
     0
 62
   195
  6
CONTINUOUS
  0
LAYER
  5
FD
330
2
100
AcDbSymbolTableRecord
100
AcDbLayerTableRecord
  2
196
 70
     0
 62
   196
  6
CONTINUOUS
  0
LAYER
  5
FE
330
2
100
AcDbSymbolTableRecord
100
AcDbLayerTableRecord
  2
197
 70
     0
 62
   197
  6
CONTINUOUS
  0
LAYER
  5
FF
330
2
100
AcDbSymbolTableRecord
100
AcDbLayerTableRecord
  2
198
 70
     0
 62
   198
  6
CONTINUOUS
  0
LAYER
  5
100
330
2
100
AcDbSymbolTableRecord
100
AcDbLayerTableRecord
  2
199
 70
     0
 62
   199
  6
CONTINUOUS
  0
LAYER
  5
101
330
2
100
AcDbSymbolTableRecord
100
AcDbLayerTableRecord
  2
200
 70
     0
 62
   200
  6
CONTINUOUS
  0
LAYER
  5
102
330
2
100
AcDbSymbolTableRecord
100
AcDbLayerTableRecord
  2
201
 70
     0
 62
   201
  6
CONTINUOUS
  0
LAYER
  5
103
330
2
100
AcDbSymbolTableRecord
100
AcDbLayerTableRecord
  2
202
 70
     0
 62
   202
  6
CONTINUOUS
  0
LAYER
  5
104
330
2
100
AcDbSymbolTableRecord
100
AcDbLayerTableRecord
  2
203
 70
     0
 62
   203
  6
CONTINUOUS
  0
LAYER
  5
105
330
2
100
AcDbSymbolTableRecord
100
AcDbLayerTableRecord
  2
204
 70
     0
 62
   204
  6
CONTINUOUS
  0
LAYER
  5
106
330
2
100
AcDbSymbolTableRecord
100
AcDbLayerTableRecord
  2
205
 70
     0
 62
   205
  6
CONTINUOUS
  0
LAYER
  5
107
330
2
100
AcDbSymbolTableRecord
100
AcDbLayerTableRecord
  2
206
 70
     0
 62
   206
  6
CONTINUOUS
  0
LAYER
  5
108
330
2
100
AcDbSymbolTableRecord
100
AcDbLayerTableRecord
  2
207
 70
     0
 62
   207
  6
CONTINUOUS
  0
LAYER
  5
109
330
2
100
AcDbSymbolTableRecord
100
AcDbLayerTableRecord
  2
208
 70
     0
 62
   208
  6
CONTINUOUS
  0
LAYER
  5
10A
330
2
100
AcDbSymbolTableRecord
100
AcDbLayerTableRecord
  2
209
 70
     0
 62
   209
  6
CONTINUOUS
  0
LAYER
  5
10B
330
2
100
AcDbSymbolTableRecord
100
AcDbLayerTableRecord
  2
210
 70
     0
 62
   210
  6
CONTINUOUS
  0
LAYER
  5
10C
330
2
100
AcDbSymbolTableRecord
100
AcDbLayerTableRecord
  2
211
 70
     0
 62
   211
  6
CONTINUOUS
  0
LAYER
  5
10D
330
2
100
AcDbSymbolTableRecord
100
AcDbLayerTableRecord
  2
212
 70
     0
 62
   212
  6
CONTINUOUS
  0
LAYER
  5
10E
330
2
100
AcDbSymbolTableRecord
100
AcDbLayerTableRecord
  2
213
 70
     0
 62
   213
  6
CONTINUOUS
  0
LAYER
  5
10F
330
2
100
AcDbSymbolTableRecord
100
AcDbLayerTableRecord
  2
214
 70
     0
 62
   214
  6
CONTINUOUS
  0
LAYER
  5
110
330
2
100
AcDbSymbolTableRecord
100
AcDbLayerTableRecord
  2
215
 70
     0
 62
   215
  6
CONTINUOUS
  0
LAYER
  5
111
330
2
100
AcDbSymbolTableRecord
100
AcDbLayerTableRecord
  2
216
 70
     0
 62
   216
  6
CONTINUOUS
  0
LAYER
  5
112
330
2
100
AcDbSymbolTableRecord
100
AcDbLayerTableRecord
  2
217
 70
     0
 62
   217
  6
CONTINUOUS
  0
LAYER
  5
113
330
2
100
AcDbSymbolTableRecord
100
AcDbLayerTableRecord
  2
218
 70
     0
 62
   218
  6
CONTINUOUS
  0
LAYER
  5
114
330
2
100
AcDbSymbolTableRecord
100
AcDbLayerTableRecord
  2
219
 70
     0
 62
   219
  6
CONTINUOUS
  0
LAYER
  5
115
330
2
100
AcDbSymbolTableRecord
100
AcDbLayerTableRecord
  2
220
 70
     0
 62
   220
  6
CONTINUOUS
  0
LAYER
  5
116
330
2
100
AcDbSymbolTableRecord
100
AcDbLayerTableRecord
  2
221
 70
     0
 62
   221
  6
CONTINUOUS
  0
LAYER
  5
117
330
2
100
AcDbSymbolTableRecord
100
AcDbLayerTableRecord
  2
222
 70
     0
 62
   222
  6
CONTINUOUS
  0
LAYER
  5
118
330
2
100
AcDbSymbolTableRecord
100
AcDbLayerTableRecord
  2
223
 70
     0
 62
   223
  6
CONTINUOUS
  0
LAYER
  5
119
330
2
100
AcDbSymbolTableRecord
100
AcDbLayerTableRecord
  2
224
 70
     0
 62
   224
  6
CONTINUOUS
  0
LAYER
  5
11A
330
2
100
AcDbSymbolTableRecord
100
AcDbLayerTableRecord
  2
225
 70
     0
 62
   225
  6
CONTINUOUS
  0
LAYER
  5
11B
330
2
100
AcDbSymbolTableRecord
100
AcDbLayerTableRecord
  2
226
 70
     0
 62
   226
  6
CONTINUOUS
  0
LAYER
  5
11C
330
2
100
AcDbSymbolTableRecord
100
AcDbLayerTableRecord
  2
227
 70
     0
 62
   227
  6
CONTINUOUS
  0
LAYER
  5
11D
330
2
100
AcDbSymbolTableRecord
100
AcDbLayerTableRecord
  2
228
 70
     0
 62
   228
  6
CONTINUOUS
  0
LAYER
  5
11E
330
2
100
AcDbSymbolTableRecord
100
AcDbLayerTableRecord
  2
229
 70
     0
 62
   229
  6
CONTINUOUS
  0
LAYER
  5
11F
330
2
100
AcDbSymbolTableRecord
100
AcDbLayerTableRecord
  2
230
 70
     0
 62
   230
  6
CONTINUOUS
  0
LAYER
  5
120
330
2
100
AcDbSymbolTableRecord
100
AcDbLayerTableRecord
  2
231
 70
     0
 62
   231
  6
CONTINUOUS
  0
LAYER
  5
121
330
2
100
AcDbSymbolTableRecord
100
AcDbLayerTableRecord
  2
232
 70
     0
 62
   232
  6
CONTINUOUS
  0
LAYER
  5
122
330
2
100
AcDbSymbolTableRecord
100
AcDbLayerTableRecord
  2
233
 70
     0
 62
   233
  6
CONTINUOUS
  0
LAYER
  5
123
330
2
100
AcDbSymbolTableRecord
100
AcDbLayerTableRecord
  2
234
 70
     0
 62
   234
  6
CONTINUOUS
  0
LAYER
  5
124
330
2
100
AcDbSymbolTableRecord
100
AcDbLayerTableRecord
  2
235
 70
     0
 62
   235
  6
CONTINUOUS
  0
LAYER
  5
125
330
2
100
AcDbSymbolTableRecord
100
AcDbLayerTableRecord
  2
236
 70
     0
 62
   236
  6
CONTINUOUS
  0
LAYER
  5
126
330
2
100
AcDbSymbolTableRecord
100
AcDbLayerTableRecord
  2
237
 70
     0
 62
   237
  6
CONTINUOUS
  0
LAYER
  5
127
330
2
100
AcDbSymbolTableRecord
100
AcDbLayerTableRecord
  2
238
 70
     0
 62
   238
  6
CONTINUOUS
  0
LAYER
  5
128
330
2
100
AcDbSymbolTableRecord
100
AcDbLayerTableRecord
  2
239
 70
     0
 62
   239
  6
CONTINUOUS
  0
LAYER
  5
129
330
2
100
AcDbSymbolTableRecord
100
AcDbLayerTableRecord
  2
240
 70
     0
 62
   240
  6
CONTINUOUS
  0
LAYER
  5
12A
330
2
100
AcDbSymbolTableRecord
100
AcDbLayerTableRecord
  2
241
 70
     0
 62
   241
  6
CONTINUOUS
  0
LAYER
  5
12B
330
2
100
AcDbSymbolTableRecord
100
AcDbLayerTableRecord
  2
242
 70
     0
 62
   242
  6
CONTINUOUS
  0
LAYER
  5
12C
330
2
100
AcDbSymbolTableRecord
100
AcDbLayerTableRecord
  2
243
 70
     0
 62
   243
  6
CONTINUOUS
  0
LAYER
  5
12D
330
2
100
AcDbSymbolTableRecord
100
AcDbLayerTableRecord
  2
244
 70
     0
 62
   244
  6
CONTINUOUS
  0
LAYER
  5
12E
330
2
100
AcDbSymbolTableRecord
100
AcDbLayerTableRecord
  2
245
 70
     0
 62
   245
  6
CONTINUOUS
  0
LAYER
  5
12F
330
2
100
AcDbSymbolTableRecord
100
AcDbLayerTableRecord
  2
246
 70
     0
 62
   246
  6
CONTINUOUS
  0
LAYER
  5
130
330
2
100
AcDbSymbolTableRecord
100
AcDbLayerTableRecord
  2
247
 70
     0
 62
   247
  6
CONTINUOUS
  0
LAYER
  5
131
330
2
100
AcDbSymbolTableRecord
100
AcDbLayerTableRecord
  2
248
 70
     0
 62
   248
  6
CONTINUOUS
  0
LAYER
  5
132
330
2
100
AcDbSymbolTableRecord
100
AcDbLayerTableRecord
  2
249
 70
     0
 62
   249
  6
CONTINUOUS
  0
LAYER
  5
133
330
2
100
AcDbSymbolTableRecord
100
AcDbLayerTableRecord
  2
250
 70
     0
 62
   250
  6
CONTINUOUS
  0
LAYER
  5
134
330
2
100
AcDbSymbolTableRecord
100
AcDbLayerTableRecord
  2
251
 70
     0
 62
   251
  6
CONTINUOUS
  0
LAYER
  5
135
330
2
100
AcDbSymbolTableRecord
100
AcDbLayerTableRecord
  2
252
 70
     0
 62
   252
  6
CONTINUOUS
  0
LAYER
  5
136
330
2
100
AcDbSymbolTableRecord
100
AcDbLayerTableRecord
  2
253
 70
     0
 62
   253
  6
CONTINUOUS
  0
LAYER
  5
137
330
2
100
AcDbSymbolTableRecord
100
AcDbLayerTableRecord
  2
254
 70
     0
 62
   254
  6
CONTINUOUS
  0
LAYER
  5
138
330
2
100
AcDbSymbolTableRecord
100
AcDbLayerTableRecord
  2
255
 70
     0
 62
   255
  6
CONTINUOUS
  0
ENDTAB
  0
TABLE
  2
STYLE
  5
3
330
0
100
AcDbSymbolTable
 70
     1
  0
STYLE
  5
11
330
3
100
AcDbSymbolTableRecord
100
AcDbTextStyleTableRecord
  2
STANDARD
 70
     0
 40
0.0
 41
1.0
 50
0.0
 71
     0
 42
0.2
  3
monotxt
  4

  0
ENDTAB
  0
TABLE
  2
VIEW
  5
6
330
0
100
AcDbSymbolTable
 70
     0
  0
ENDTAB
  0
TABLE
  2
UCS
  5
7
330
0
100
AcDbSymbolTable
 70
     0
  0
ENDTAB
  0
TABLE
  2
APPID
  5
9
330
0
100
AcDbSymbolTable
 70
     1
  0
APPID
  5
12
330
9
100
AcDbSymbolTableRecord
100
AcDbRegAppTableRecord
  2
ACAD
 70
     0
  0
ENDTAB
  0
TABLE
  2
DIMSTYLE
  5
A
330
0
100
AcDbSymbolTable
 70
     1
  0
DIMSTYLE
105
3BBB
330
A
100
AcDbSymbolTableRecord
100
AcDbDimStyleTableRecord
  2
STANDARD
 70
     0
  3

  4

  5

  6

  7

 40
1.0
 41
0.18
 42
0.0625
 43
0.38
 44
0.18
 45
0.0
 46
0.0
 47
0.0
 48
0.0
140
0.18
141
0.09
142
0.0
143
25.4
144
1.0
145
0.0
146
1.0
147
0.09
 71
     0
 72
     0
 73
     1
 74
     1
 75
     0
 76
     0
 77
     0
 78
     0
170
     0
171
     2
172
     0
173
     0
174
     0
175
     0
176
     0
177
     0
178
     0
270
     2
271
     4
272
     4
273
     2
274
     2
340
11
275
     0
280
     0
281
     0
282
     0
283
     1
284
     0
285
     0
286
     0
287
     3
288
     0
  0
ENDTAB
  0
TABLE
  2
BLOCK_RECORD
  5
1
330
0
100
AcDbSymbolTable
 70
     0
  0
BLOCK_RECORD
  5
1E
102
{ACAD_XDICTIONARY
360
525B
102
}
330
1
100
AcDbSymbolTableRecord
100
AcDbBlockTableRecord
  2
*MODEL_SPACE
  0
BLOCK_RECORD
  5
1A
102
{ACAD_XDICTIONARY
360
525D
102
}
330
1
100
AcDbSymbolTableRecord
100
AcDbBlockTableRecord
  2
*PAPER_SPACE
  0
ENDTAB
  0
ENDSEC
  0
SECTION
  2
BLOCKS
  0
BLOCK
  5
13B
330
1E
100
AcDbEntity
  8
0
100
AcDbBlockBegin
  2
*MODEL_SPACE
 70
     0
 10
0.0
 20
0.0
 30
0.0
  3
*MODEL_SPACE
  1

  0
ENDBLK
  5
13C
330
1E
100
AcDbEntity
  8
0
100
AcDbBlockEnd
  0
BLOCK
  5
139
330
1A
100
AcDbEntity
 67
     1
  8
0
100
AcDbBlockBegin
  2
*PAPER_SPACE
 70
     0
 10
0.0
 20
0.0
 30
0.0
  3
*PAPER_SPACE
  1

  0
ENDBLK
  5
13A
330
1A
100
AcDbEntity
 67
     1
  8
0
100
AcDbBlockEnd
  0
ENDSEC
  0
SECTION
  2
ENTITIES
  0
LINE
  5
2CDD
330
1E
100
AcDbEntity
  8
7
100
AcDbLine
 10
7.707004813867756
 20
5.784962086908532
 30
0.0
 11
7.671571743001612
 21
5.769214055412469
 31
0.0
  0
LINE
  5
2CDE
330
1E
100
AcDbEntity
  8
7
100
AcDbLine
 10
0.9629103256787789
 20
7.808584134152624
 30
0.0
 11
0.9865323729228734
 21
7.800710118404595
 31
0.0
  0
LINE
  5
2CDF
330
1E
100
AcDbEntity
  8
7
100
AcDbLine
 10
3.667634735127597
 20
6.548741614467587
 30
0.0
 11
3.691256782371691
 21
6.536930590845539
 31
0.0
  0
LINE
  5
2CE0
330
1E
100
AcDbEntity
  8
7
100
AcDbLine
 10
1.561335522529173
 20
7.529056575097506
 30
0.0
 11
1.604642609143345
 21
7.509371535727428
 31
0.0
  0
LINE
  5
2CE1
330
1E
100
AcDbEntity
  8
7
100
AcDbLine
 10
-1.261499123140118
 20
8.847954212892783
 30
0.0
 11
-0.8481132963684645
 21
8.655040827066013
 31
0.0
  0
LINE
  5
2CE2
330
1E
100
AcDbEntity
  8
7
100
AcDbLine
 10
2.75818591622996
 20
6.973938464861287
 30
0.0
 11
2.777870955600038
 21
6.962127441239239
 31
0.0
  0
LINE
  5
2CE3
330
1E
100
AcDbEntity
  8
7
100
AcDbLine
 10
1.053461506781141
 20
7.769214055412469
 30
0.0
 11
1.029839459537047
 21
7.777088071160498
 31
0.0
  0
LINE
  5
2CE4
330
1E
100
AcDbEntity
  8
7
100
AcDbLine
 10
5.443225286308699
 20
5.72196996092428
 30
0.0
 11
5.462910325678778
 21
5.710158937302232
 31
0.0
  0
LINE
  5
2CE5
330
1E
100
AcDbEntity
  8
7
100
AcDbLine
 10
3.60070560126933
 20
6.580237677459713
 30
0.0
 11
3.624327648513425
 21
6.568426653837665
 31
0.0
  0
LINE
  5
2CE6
330
1E
100
AcDbEntity
  8
7
100
AcDbLine
 10
5.281807963474054
 20
5.79677311053058
 30
0.0
 11
5.309367018592164
 21
5.781025079034517
 31
0.0
  0
LINE
  5
2CE7
330
1E
100
AcDbEntity
  8
7
100
AcDbLine
 10
4.31330402646618
 20
6.245592008168372
 30
0.0
 11
4.301493002844132
 21
6.253466023916406
 31
0.0
  0
LINE
  5
2CE8
330
1E
100
AcDbEntity
  8
7
100
AcDbLine
 10
-0.5252786506991738
 20
8.501497519979398
 30
0.0
 11
-0.5016566034550776
 21
8.493623504231365
 31
0.0
  0
LINE
  5
2CE9
330
1E
100
AcDbEntity
  8
7
100
AcDbLine
 10
2.75818591622996
 20
6.973938464861287
 30
0.0
 11
2.777870955600038
 21
6.962127441239239
 31
0.0
  0
LINE
  5
2CEA
330
1E
100
AcDbEntity
  8
7
100
AcDbLine
 10
5.372359144576416
 20
5.753466023916406
 30
0.0
 11
5.39598119182051
 21
5.741655000294358
 31
0.0
  0
LINE
  5
2CEB
330
1E
100
AcDbEntity
  8
7
100
AcDbLine
 10
3.624327648513425
 20
6.568426653837665
 30
0.0
 11
3.667634735127597
 21
6.548741614467587
 31
0.0
  0
LINE
  5
2CEC
330
1E
100
AcDbEntity
  8
7
100
AcDbLine
 10
-0.5016566034550776
 20
8.493623504231365
 30
0.0
 11
-0.4583495168409053
 21
8.470001456987272
 31
0.0
  0
LINE
  5
2CED
330
1E
100
AcDbEntity
  8
7
100
AcDbLine
 10
3.624327648513425
 20
6.568426653837665
 30
0.0
 11
3.60070560126933
 21
6.580237677459713
 31
0.0
  0
LINE
  5
2CEE
330
1E
100
AcDbEntity
  8
7
100
AcDbLine
 10
6.140075680009488
 20
5.462127441239239
 30
0.0
 11
6.872359144576416
 21
5.462127441239239
 31
0.0
  0
LINE
  5
2CEF
330
1E
100
AcDbEntity
  8
7
100
AcDbLine
 10
2.943225286308699
 20
6.887324291632939
 30
0.0
 11
2.52590245166303
 21
7.080237677459713
 31
0.0
  0
LINE
  5
2CF0
330
1E
100
AcDbEntity
  8
7
100
AcDbLine
 10
13.52590245166303
 20
8.501497519979398
 30
0.0
 11
13.57314654615122
 21
8.521182559349476
 31
0.0
  0
LINE
  5
2CF1
330
1E
100
AcDbEntity
  8
7
100
AcDbLine
 10
12.05346150678114
 20
7.812521142026643
 30
0.0
 11
12.02983945953704
 21
7.800710118404595
 31
0.0
  0
LINE
  5
2CF2
330
1E
100
AcDbEntity
  8
7
100
AcDbLine
 10
12.21094182174177
 20
7.887324291632939
 30
0.0
 11
11.7936189870961
 21
7.690473897932154
 31
0.0
  0
LINE
  5
2CF3
330
1E
100
AcDbEntity
  8
7
100
AcDbLine
 10
13.95503630993074
 20
8.698347913680184
 30
0.0
 11
13.95897331780476
 21
8.702284921554202
 31
0.0
  0
LINE
  5
2CF4
330
1E
100
AcDbEntity
  8
7
100
AcDbLine
 10
10.9196032390646
 20
7.284962086908532
 30
0.0
 11
10.9432252863087
 21
7.292836102656561
 31
0.0
  0
LINE
  5
2CF5
330
1E
100
AcDbEntity
  8
7
100
AcDbLine
 10
14.17157174300161
 20
8.800710118404595
 30
0.0
 11
14.14794969575752
 21
8.788899094782546
 31
0.0
  0
LINE
  5
2CF6
330
1E
100
AcDbEntity
  8
7
100
AcDbLine
 10
11.33298906583626
 20
7.477875472735302
 30
0.0
 11
11.36448512882838
 21
7.48968649635735
 31
0.0
  0
LINE
  5
2CF7
330
1E
100
AcDbEntity
  8
7
100
AcDbLine
 10
10.87235914457641
 20
7.261340039664435
 30
0.0
 11
10.9196032390646
 21
7.284962086908532
 31
0.0
  0
LINE
  5
2CF8
330
1E
100
AcDbEntity
  8
7
100
AcDbLine
 10
11.91566623119059
 20
7.749529016042391
 30
0.0
 11
11.96291032567878
 21
7.769214055412469
 31
0.0
  0
LINE
  5
2CF9
330
1E
100
AcDbEntity
  8
7
100
AcDbLine
 10
10.9196032390646
 20
7.284962086908532
 30
0.0
 11
10.9432252863087
 21
7.292836102656561
 31
0.0
  0
LINE
  5
2CFA
330
1E
100
AcDbEntity
  8
7
100
AcDbLine
 10
11.44716229418271
 20
7.529056575097506
 30
0.0
 11
11.42747725481264
 21
7.521182559349476
 31
0.0
  0
LINE
  5
2CFB
330
1E
100
AcDbEntity
  8
7
100
AcDbLine
 10
14.62432764851342
 20
9.009371535727428
 30
0.0
 11
14.53377646741106
 21
8.970001456987272
 31
0.0
  0
LINE
  5
2CFC
330
1E
100
AcDbEntity
  8
7
100
AcDbLine
 10
12.8448000894583
 20
8.182599882184121
 30
0.0
 11
12.88810717607248
 21
8.202284921554202
 31
0.0
  0
LINE
  5
2CFD
330
1E
100
AcDbEntity
  8
7
100
AcDbLine
 10
6.52590245166303
 20
5.462127441239239
 30
0.0
 11
6.549524498907125
 21
5.462127441239239
 31
0.0
  0
LINE
  5
2CFE
330
1E
100
AcDbEntity
  8
7
100
AcDbLine
 10
7.427477254812636
 20
5.655040827066013
 30
0.0
 11
7.844800089458304
 21
5.851891220766798
 31
0.0
  0
LINE
  5
2CFF
330
1E
100
AcDbEntity
  8
7
100
AcDbLine
 10
9.273933947726025
 20
6.517245551475461
 30
0.0
 11
9.301493002844136
 21
6.529056575097506
 31
0.0
  0
LINE
  5
2D00
330
1E
100
AcDbEntity
  8
7
100
AcDbLine
 10
9.455036309930747
 20
6.599922716829791
 30
0.0
 11
9.431414262686654
 21
6.592048701081758
 31
0.0
  0
LINE
  5
2D01
330
1E
100
AcDbEntity
  8
7
100
AcDbLine
 10
6.919603239064604
 20
5.462127441239239
 30
0.0
 11
6.832989065836258
 21
5.462127441239239
 31
0.0
  0
LINE
  5
2D02
330
1E
100
AcDbEntity
  8
7
100
AcDbLine
 10
9.364485128828388
 20
6.560552638089632
 30
0.0
 11
9.384170168198465
 21
6.568426653837665
 31
0.0
  0
LINE
  5
2D03
330
1E
100
AcDbEntity
  8
7
100
AcDbLine
 10
8.581020561899254
 20
6.194410905806169
 30
0.0
 11
8.994406388670906
 21
6.387324291632939
 31
0.0
  0
LINE
  5
2D04
330
1E
100
AcDbEntity
  8
7
100
AcDbLine
 10
7.659760719379567
 20
5.765277047538454
 30
0.0
 11
7.707004813867756
 21
5.784962086908532
 31
0.0
  0
LINE
  5
2D05
330
1E
100
AcDbEntity
  8
7
100
AcDbLine
 10
5.163697727253582
 20
5.851891220766798
 30
0.0
 11
5.581020561899251
 21
5.655040827066013
 31
0.0
  0
LINE
  5
2D06
330
1E
100
AcDbEntity
  8
7
100
AcDbLine
 10
9.431414262686654
 20
6.592048701081758
 30
0.0
 11
9.384170168198465
 21
6.568426653837665
 31
0.0
  0
LINE
  5
2D07
330
1E
100
AcDbEntity
  8
7
100
AcDbLine
 10
-1.639451879045629
 20
9.025119567223491
 30
0.0
 11
-1.631577863297597
 21
9.017245551475461
 31
0.0
  0
LINE
  5
2D08
330
1E
100
AcDbEntity
  8
7
100
AcDbLine
 10
-1.100081800305471
 20
8.769214055412469
 30
0.0
 11
-1.009530619203109
 21
8.729843976672309
 31
0.0
  0
LINE
  5
2D09
330
1E
100
AcDbEntity
  8
7
100
AcDbLine
 10
-0.8481132963684645
 20
8.655040827066013
 30
0.0
 11
-1.261499123140118
 21
8.847954212892783
 31
0.0
  0
LINE
  5
2D0A
330
1E
100
AcDbEntity
  8
7
100
AcDbLine
 10
4.132201664261456
 20
6.33220618139672
 30
0.0
 11
4.159760719379566
 21
6.320395157774672
 31
0.0
  0
LINE
  5
2D0B
330
1E
100
AcDbEntity
  8
7
100
AcDbLine
 10
-1.009530619203109
 20
8.729843976672309
 30
0.0
 11
-1.100081800305471
 21
8.773151063286483
 31
0.0
  0
LINE
  5
2D0C
330
1E
100
AcDbEntity
  8
7
100
AcDbLine
 10
-0.5016566034550776
 20
8.493623504231365
 30
0.0
 11
-0.5252786506991738
 21
8.501497519979398
 31
0.0
  0
LINE
  5
2D0D
330
1E
100
AcDbEntity
  8
7
100
AcDbLine
 10
-1.076459753061377
 20
8.761340039664435
 30
0.0
 11
-1.033152666447204
 21
8.737717992420343
 31
0.0
  0
LINE
  5
2D0E
330
1E
100
AcDbEntity
  8
7
100
AcDbLine
 10
2.710941821741771
 20
6.993623504231365
 30
0.0
 11
2.75818591622996
 21
6.973938464861287
 31
0.0
  0
LINE
  5
2D0F
330
1E
100
AcDbEntity
  8
7
100
AcDbLine
 10
-1.422916445974763
 20
8.922757362499083
 30
0.0
 11
-1.840239280620433
 21
9.115670748325854
 31
0.0
  0
LINE
  5
2D10
330
1E
100
AcDbEntity
  8
7
100
AcDbLine
 10
4.254248908355943
 20
6.273151063286483
 30
0.0
 11
4.277870955600038
 21
6.265277047538454
 31
0.0
  0
LINE
  5
2D11
330
1E
100
AcDbEntity
  8
7
100
AcDbLine
 10
0.9865323729228734
 20
7.800710118404595
 30
0.0
 11
0.9629103256787789
 21
7.808584134152624
 31
0.0
  0
LINE
  5
2D12
330
1E
100
AcDbEntity
  8
7
100
AcDbLine
 10
2.710941821741771
 20
6.993623504231365
 30
0.0
 11
2.75818591622996
 21
6.973938464861287
 31
0.0
  0
LINE
  5
2D13
330
1E
100
AcDbEntity
  8
7
100
AcDbLine
 10
13.85661111308035
 20
8.655040827066013
 30
0.0
 11
14.27393394772602
 21
8.847954212892783
 31
0.0
  0
LINE
  5
2D14
330
1E
100
AcDbEntity
  8
7
100
AcDbLine
 10
11.96291032567878
 20
7.769214055412469
 30
0.0
 11
11.98653237292287
 21
7.781025079034517
 31
0.0
  0
LINE
  5
2D15
330
1E
100
AcDbEntity
  8
7
100
AcDbLine
 10
11.63613867213547
 20
7.615670748325854
 30
0.0
 11
11.2188158374898
 21
7.422757362499083
 31
0.0
  0
LINE
  5
2D16
330
1E
100
AcDbEntity
  8
7
100
AcDbLine
 10
11.51802843591499
 20
7.56448964596365
 30
0.0
 11
11.4944063886709
 21
7.552678622341602
 31
0.0
  0
LINE
  5
2D17
330
1E
100
AcDbEntity
  8
7
100
AcDbLine
 10
13.69913079811972
 20
8.580237677459713
 30
0.0
 11
13.28180796347405
 21
8.383387283758924
 31
0.0
  0
LINE
  5
2D18
330
1E
100
AcDbEntity
  8
7
100
AcDbLine
 10
12.10857961701736
 20
7.84008019714475
 30
0.0
 11
12.09676859339531
 21
7.83220618139672
 31
0.0
  0
LINE
  5
2D19
330
1E
100
AcDbEntity
  8
7
100
AcDbLine
 10
10.18731977449767
 20
6.942442401869161
 30
0.0
 11
10.19913079811972
 21
6.946379409743176
 31
0.0
  0
LINE
  5
2D1A
330
1E
100
AcDbEntity
  8
7
100
AcDbLine
 10
14.53377646741106
 20
8.970001456987272
 30
0.0
 11
14.62432764851342
 21
9.009371535727428
 31
0.0
  0
LINE
  5
2D1B
330
1E
100
AcDbEntity
  8
7
100
AcDbLine
 10
14.02590245166303
 20
8.733780984546328
 30
0.0
 11
14.04558749103311
 21
8.741655000294358
 31
0.0
  0
LINE
  5
2D1C
330
1E
100
AcDbEntity
  8
7
100
AcDbLine
 10
12.82117804221421
 20
8.170788858562076
 30
0.0
 11
12.91172922331657
 21
8.214095945176246
 31
0.0
  0
LINE
  5
2D1D
330
1E
100
AcDbEntity
  8
7
100
AcDbLine
 10
11.2188158374898
 20
7.422757362499083
 30
0.0
 11
11.63613867213547
 21
7.615670748325854
 31
0.0
  0
LINE
  5
2D1E
330
1E
100
AcDbEntity
  8
7
100
AcDbLine
 10
10.30936701859216
 20
7.001497519979398
 30
0.0
 11
10.36448512882838
 21
7.025119567223491
 31
0.0
  0
LINE
  5
2D1F
330
1E
100
AcDbEntity
  8
7
100
AcDbLine
 10
10.85267410520634
 20
7.253466023916406
 30
0.0
 11
10.87235914457641
 21
7.261340039664435
 31
0.0
  0
LINE
  5
2D20
330
1E
100
AcDbEntity
  8
7
100
AcDbLine
 10
12.82117804221421
 20
8.170788858562076
 30
0.0
 11
12.8448000894583
 21
8.182599882184121
 31
0.0
  0
LINE
  5
2D21
330
1E
100
AcDbEntity
  8
7
100
AcDbLine
 10
6.234563868985866
 20
5.462127441239239
 30
0.0
 11
6.277870955600038
 21
5.462127441239239
 31
0.0
  0
LINE
  5
2D22
330
1E
100
AcDbEntity
  8
7
100
AcDbLine
 10
9.155823711505551
 20
6.462127441239239
 30
0.0
 11
9.573146546151221
 21
6.655040827066013
 31
0.0
  0
LINE
  5
2D23
330
1E
100
AcDbEntity
  8
7
100
AcDbLine
 10
6.52590245166303
 20
5.462127441239239
 30
0.0
 11
6.458973317804762
 21
5.462127441239239
 31
0.0
  0
LINE
  5
2D24
330
1E
100
AcDbEntity
  8
7
100
AcDbLine
 10
6.647949695757519
 20
5.462127441239239
 30
0.0
 11
6.671571743001614
 21
5.462127441239239
 31
0.0
  0
LINE
  5
2D25
330
1E
100
AcDbEntity
  8
7
100
AcDbLine
 10
6.549524498907125
 20
5.462127441239239
 30
0.0
 11
6.52590245166303
 21
5.462127441239239
 31
0.0
  0
LINE
  5
2D26
330
1E
100
AcDbEntity
  8
7
100
AcDbLine
 10
8.214878829615788
 20
6.021182559349476
 30
0.0
 11
8.281807963474054
 21
6.052678622341602
 31
0.0
  0
LINE
  5
2D27
330
1E
100
AcDbEntity
  8
7
100
AcDbLine
 10
9.384170168198465
 20
6.568426653837665
 30
0.0
 11
9.431414262686654
 21
6.592048701081758
 31
0.0
  0
LINE
  5
2D28
330
1E
100
AcDbEntity
  8
7
100
AcDbLine
 10
8.305430010718151
 20
6.06448964596365
 30
0.0
 11
8.214878829615788
 21
6.021182559349476
 31
0.0
  0
LINE
  5
2D29
330
1E
100
AcDbEntity
  8
7
100
AcDbLine
 10
-0.1118928239275201
 20
8.312521142026643
 30
0.0
 11
0.3054300107181493
 21
8.115670748325854
 31
0.0
  0
LINE
  5
2D2A
330
1E
100
AcDbEntity
  8
7
100
AcDbLine
 10
4.277870955600038
 20
6.265277047538454
 30
0.0
 11
4.301493002844132
 21
6.253466023916406
 31
0.0
  0
LINE
  5
2D2B
330
1E
100
AcDbEntity
  8
7
100
AcDbLine
 10
1.537713475285078
 20
7.540867598719554
 30
0.0
 11
1.561335522529173
 21
7.529056575097506
 31
0.0
  0
LINE
  5
2D2C
330
1E
100
AcDbEntity
  8
7
100
AcDbLine
 10
1.029839459537047
 20
7.777088071160498
 30
0.0
 11
0.9865323729228734
 21
7.800710118404595
 31
0.0
  0
LINE
  5
2D2D
330
1E
100
AcDbEntity
  8
7
100
AcDbLine
 10
2.147949695757519
 20
7.257403031790421
 30
0.0
 11
2.20306780599374
 21
7.229843976672309
 31
0.0
  0
LINE
  5
2D2E
330
1E
100
AcDbEntity
  8
7
100
AcDbLine
 10
3.624327648513425
 20
6.568426653837665
 30
0.0
 11
3.667634735127597
 21
6.548741614467587
 31
0.0
  0
LINE
  5
2D2F
330
1E
100
AcDbEntity
  8
7
100
AcDbLine
 10
1.604642609143345
 20
7.509371535727428
 30
0.0
 11
1.62826465638744
 21
7.49756051210538
 31
0.0
  0
LINE
  5
2D30
330
1E
100
AcDbEntity
  8
7
100
AcDbLine
 10
1.214878829615786
 20
7.690473897932154
 30
0.0
 11
0.7975559949701179
 21
7.887324291632939
 31
0.0
  0
LINE
  5
2D31
330
1E
100
AcDbEntity
  8
7
100
AcDbLine
 10
3.691256782371691
 20
6.536930590845539
 30
0.0
 11
3.667634735127597
 21
6.548741614467587
 31
0.0
  0
LINE
  5
2D32
330
1E
100
AcDbEntity
  8
7
100
AcDbLine
 10
-0.4583495168409053
 20
8.470001456987272
 30
0.0
 11
-0.4347274695968109
 21
8.462127441239239
 31
0.0
  0
LINE
  5
2D33
330
1E
100
AcDbEntity
  8
7
100
AcDbLine
 10
5.39598119182051
 20
5.741655000294358
 30
0.0
 11
5.443225286308699
 21
5.72196996092428
 31
0.0
  0
LINE
  5
2D34
330
1E
100
AcDbEntity
  8
7
100
AcDbLine
 10
4.254248908355943
 20
6.273151063286483
 30
0.0
 11
4.234563868985866
 21
6.284962086908532
 31
0.0
  0
LINE
  5
2D35
330
1E
100
AcDbEntity
  8
7
100
AcDbLine
 10
12.70306780599374
 20
8.115670748325854
 30
0.0
 11
13.12039064063941
 21
8.312521142026643
 31
0.0
  0
LINE
  5
2D36
330
1E
100
AcDbEntity
  8
7
100
AcDbLine
 10
11.34086308158429
 20
7.477875472735302
 30
0.0
 11
11.34873709733232
 21
7.485749488483335
 31
0.0
  0
LINE
  5
2D37
330
1E
100
AcDbEntity
  8
7
100
AcDbLine
 10
14.04558749103311
 20
8.741655000294358
 30
0.0
 11
13.95503630993074
 21
8.698347913680184
 31
0.0
  0
LINE
  5
2D38
330
1E
100
AcDbEntity
  8
7
100
AcDbLine
 10
11.98653237292287
 20
7.781025079034517
 30
0.0
 11
11.89204418394649
 21
7.737717992420343
 31
0.0
  0
LINE
  5
2D39
330
1E
100
AcDbEntity
  8
7
100
AcDbLine
 10
12.88810717607248
 20
8.202284921554202
 30
0.0
 11
12.91172922331657
 21
8.214095945176246
 31
0.0
  0
LINE
  5
2D3A
330
1E
100
AcDbEntity
  8
7
100
AcDbLine
 10
11.7936189870961
 20
7.690473897932154
 30
0.0
 11
12.21094182174177
 21
7.887324291632939
 31
0.0
  0
LINE
  5
2D3B
330
1E
100
AcDbEntity
  8
7
100
AcDbLine
 10
13.57314654615122
 20
8.521182559349476
 30
0.0
 11
13.59676859339531
 21
8.532993582971524
 31
0.0
  0
LINE
  5
2D3C
330
1E
100
AcDbEntity
  8
7
100
AcDbLine
 10
10.48259536504885
 20
7.080237677459713
 30
0.0
 11
10.06527253040318
 21
6.887324291632939
 31
0.0
  0
LINE
  5
2D3D
330
1E
100
AcDbEntity
  8
7
100
AcDbLine
 10
10.6440126878835
 20
7.155040827066013
 30
0.0
 11
11.05739851465515
 21
7.347954212892783
 31
0.0
  0
LINE
  5
2D3E
330
1E
100
AcDbEntity
  8
7
100
AcDbLine
 10
13.45109930205673
 20
8.462127441239239
 30
0.0
 11
13.47078434142681
 21
8.473938464861287
 31
0.0
  0
LINE
  5
2D3F
330
1E
100
AcDbEntity
  8
7
100
AcDbLine
 10
13.38023316032445
 20
8.430631378247113
 30
0.0
 11
13.38417016819846
 21
8.430631378247113
 31
0.0
  0
LINE
  5
2D40
330
1E
100
AcDbEntity
  8
7
100
AcDbLine
 10
12.98259536504885
 20
8.245592008168372
 30
0.0
 11
12.99046938079689
 21
8.249529016042391
 31
0.0
  0
LINE
  5
2D41
330
1E
100
AcDbEntity
  8
7
100
AcDbLine
 10
12.05346150678114
 20
7.812521142026643
 30
0.0
 11
12.07314654615122
 21
7.820395157774672
 31
0.0
  0
LINE
  5
2D42
330
1E
100
AcDbEntity
  8
7
100
AcDbLine
 10
8.789681979222088
 20
6.288899094782546
 30
0.0
 11
8.809367018592165
 21
6.300710118404595
 31
0.0
  0
LINE
  5
2D43
330
1E
100
AcDbEntity
  8
7
100
AcDbLine
 10
4.588894577647282
 20
6.119607756199869
 30
0.0
 11
5.006217412292951
 21
5.922757362499083
 31
0.0
  0
LINE
  5
2D44
330
1E
100
AcDbEntity
  8
7
100
AcDbLine
 10
9.27787095560004
 20
6.517245551475461
 30
0.0
 11
9.285744971348073
 21
6.521182559349476
 31
0.0
  0
LINE
  5
2D45
330
1E
100
AcDbEntity
  8
7
100
AcDbLine
 10
7.726689853237834
 20
5.79677311053058
 30
0.0
 11
7.707004813867756
 21
5.784962086908532
 31
0.0
  0
LINE
  5
2D46
330
1E
100
AcDbEntity
  8
7
100
AcDbLine
 10
8.002280404418934
 20
5.922757362499083
 30
0.0
 11
8.419603239064606
 21
6.119607756199869
 31
0.0
  0
LINE
  5
2D47
330
1E
100
AcDbEntity
  8
7
100
AcDbLine
 10
6.742437884733897
 20
5.462127441239239
 30
0.0
 11
6.762122924103975
 21
5.462127441239239
 31
0.0
  0
LINE
  5
2D48
330
1E
100
AcDbEntity
  8
7
100
AcDbLine
 10
7.707004813867756
 20
5.784962086908532
 30
0.0
 11
7.659760719379567
 21
5.765277047538454
 31
0.0
  0
LINE
  5
2D49
330
1E
100
AcDbEntity
  8
7
100
AcDbLine
 10
6.25818591622996
 20
5.462127441239239
 30
0.0
 11
6.301493002844132
 21
5.462127441239239
 31
0.0
  0
LINE
  5
2D4A
330
1E
100
AcDbEntity
  8
7
100
AcDbLine
 10
3.852674105206338
 20
6.462127441239239
 30
0.0
 11
3.439288278434684
 21
6.655040827066013
 31
0.0
  0
LINE
  5
2D4B
330
1E
100
AcDbEntity
  8
7
100
AcDbLine
 10
9.431414262686654
 20
6.592048701081758
 30
0.0
 11
9.455036309930747
 21
6.599922716829791
 31
0.0
  0
LINE
  5
2D4C
330
1E
100
AcDbEntity
  8
7
100
AcDbLine
 10
7.707004813867756
 20
5.784962086908532
 30
0.0
 11
7.726689853237834
 21
5.79677311053058
 31
0.0
  0
LINE
  5
2D4D
330
1E
100
AcDbEntity
  8
7
100
AcDbLine
 10
-1.840239280620433
 20
9.115670748325854
 30
0.0
 11
-1.422916445974763
 21
8.922757362499083
 31
0.0
  0
LINE
  5
2D4E
330
1E
100
AcDbEntity
  8
7
100
AcDbLine
 10
2.777870955600038
 20
6.962127441239239
 30
0.0
 11
2.75818591622996
 21
6.973938464861287
 31
0.0
  0
LINE
  5
2D4F
330
1E
100
AcDbEntity
  8
7
100
AcDbLine
 10
4.234563868985866
 20
6.284962086908532
 30
0.0
 11
4.222752845363817
 21
6.288899094782546
 31
0.0
  0
LINE
  5
2D50
330
1E
100
AcDbEntity
  8
7
100
AcDbLine
 10
2.710941821741771
 20
6.993623504231365
 30
0.0
 11
2.691256782371691
 21
7.005434527853413
 31
0.0
  0
LINE
  5
2D51
330
1E
100
AcDbEntity
  8
7
100
AcDbLine
 10
0.1400756800094882
 20
8.194410905806169
 30
0.0
 11
0.0495244989071253
 21
8.233780984546328
 31
0.0
  0
LINE
  5
2D52
330
1E
100
AcDbEntity
  8
7
100
AcDbLine
 10
2.687319774497677
 20
7.005434527853413
 30
0.0
 11
2.710941821741771
 21
6.993623504231365
 31
0.0
  0
LINE
  5
2D53
330
1E
100
AcDbEntity
  8
7
100
AcDbLine
 10
1.376296152450432
 20
7.615670748325854
 30
0.0
 11
1.793618987096101
 21
7.422757362499083
 31
0.0
  0
LINE
  5
2D54
330
1E
100
AcDbEntity
  8
7
100
AcDbLine
 10
3.60070560126933
 20
6.580237677459713
 30
0.0
 11
3.624327648513425
 21
6.568426653837665
 31
0.0
  0
LINE
  5
2D55
330
1E
100
AcDbEntity
  8
7
100
AcDbLine
 10
-0.4583495168409053
 20
8.470001456987272
 30
0.0
 11
-0.4347274695968109
 21
8.462127441239239
 31
0.0
  0
LINE
  5
2D56
330
1E
100
AcDbEntity
  8
7
100
AcDbLine
 10
-0.2693731388881497
 20
8.383387283758924
 30
0.0
 11
-0.6866959735338183
 21
8.580237677459713
 31
0.0
  0
LINE
  5
2D57
330
1E
100
AcDbEntity
  8
7
100
AcDbLine
 10
1.604642609143345
 20
7.509371535727428
 30
0.0
 11
1.62826465638744
 21
7.49756051210538
 31
0.0
  0
LINE
  5
2D58
330
1E
100
AcDbEntity
  8
7
100
AcDbLine
 10
2.710941821741771
 20
6.993623504231365
 30
0.0
 11
2.687319774497677
 21
7.005434527853413
 31
0.0
  0
LINE
  5
2D59
330
1E
100
AcDbEntity
  8
7
100
AcDbLine
 10
1.793618987096101
 20
7.422757362499083
 30
0.0
 11
1.376296152450432
 21
7.615670748325854
 31
0.0
  0
LINE
  5
2D5A
330
1E
100
AcDbEntity
  8
7
100
AcDbLine
 10
1.561335522529173
 20
7.529056575097506
 30
0.0
 11
1.537713475285078
 21
7.540867598719554
 31
0.0
  0
LINE
  5
2D5B
330
1E
100
AcDbEntity
  8
7
100
AcDbLine
 10
11.4944063886709
 20
7.552678622341602
 30
0.0
 11
11.51802843591499
 21
7.56448964596365
 31
0.0
  0
LINE
  5
2D5C
330
1E
100
AcDbEntity
  8
7
100
AcDbLine
 10
12.97472134930083
 20
8.241655000294358
 30
0.0
 11
13.00621741229295
 21
8.257403031790421
 31
0.0
  0
LINE
  5
2D5D
330
1E
100
AcDbEntity
  8
7
100
AcDbLine
 10
14.43141426268665
 20
8.922757362499083
 30
0.0
 11
14.84873709733232
 21
9.115670748325854
 31
0.0
  0
LINE
  5
2D5E
330
1E
100
AcDbEntity
  8
7
100
AcDbLine
 10
14.14794969575752
 20
8.788899094782546
 30
0.0
 11
14.17157174300161
 21
8.800710118404595
 31
0.0
  0
LINE
  5
2D5F
330
1E
100
AcDbEntity
  8
7
100
AcDbLine
 10
10.75818591622996
 20
7.210158937302232
 30
0.0
 11
10.78574497134807
 21
7.22196996092428
 31
0.0
  0
LINE
  5
2D60
330
1E
100
AcDbEntity
  8
7
100
AcDbLine
 10
10.18338276662366
 20
6.942442401869161
 30
0.0
 11
10.21094182174177
 21
6.954253425491209
 31
0.0
  0
LINE
  5
2D61
330
1E
100
AcDbEntity
  8
7
100
AcDbLine
 10
11.05739851465515
 20
7.347954212892783
 30
0.0
 11
10.6440126878835
 21
7.155040827066013
 31
0.0
  0
LINE
  5
2D62
330
1E
100
AcDbEntity
  8
7
100
AcDbLine
 10
11.42747725481264
 20
7.521182559349476
 30
0.0
 11
11.44716229418271
 21
7.529056575097506
 31
0.0
  0
LINE
  5
2D63
330
1E
100
AcDbEntity
  8
7
100
AcDbLine
 10
14.55346150678114
 20
8.977875472735302
 30
0.0
 11
14.60070560126933
 21
9.001497519979398
 31
0.0
  0
LINE
  5
2D69
330
1E
100
AcDbEntity
  8
7
100
AcDbLine
 10
10.76605993197799
 20
7.210158937302232
 30
0.0
 11
10.77393394772602
 21
7.214095945176246
 31
0.0
  0
LINE
  5
2D6A
330
1E
100
AcDbEntity
  8
7
100
AcDbLine
 10
14.60070560126933
 20
9.001497519979398
 30
0.0
 11
14.62432764851342
 21
9.009371535727428
 31
0.0
  0
LINE
  5
2D6B
330
1E
100
AcDbEntity
  8
7
100
AcDbLine
 10
11.44716229418271
 20
7.529056575097506
 30
0.0
 11
11.4944063886709
 21
7.552678622341602
 31
0.0
  0
LINE
  5
2D6C
330
1E
100
AcDbEntity
  8
7
100
AcDbLine
 10
5.372359144576416
 20
5.753466023916406
 30
0.0
 11
5.462910325678778
 21
5.710158937302232
 31
0.0
  0
LINE
  5
2D6D
330
1E
100
AcDbEntity
  8
7
100
AcDbLine
 10
8.12039064063941
 20
5.977875472735302
 30
0.0
 11
8.147949695757521
 21
5.993623504231365
 31
0.0
  0
LINE
  5
2D6E
330
1E
100
AcDbEntity
  8
7
100
AcDbLine
 10
9.431414262686654
 20
6.592048701081758
 30
0.0
 11
9.455036309930747
 21
6.599922716829791
 31
0.0
  0
LINE
  5
2D6F
330
1E
100
AcDbEntity
  8
7
100
AcDbLine
 10
6.336926073710275
 20
5.462127441239239
 30
0.0
 11
6.423540246938621
 21
5.462127441239239
 31
0.0
  0
LINE
  5
2D70
330
1E
100
AcDbEntity
  8
7
100
AcDbLine
 10
7.726689853237834
 20
5.79677311053058
 30
0.0
 11
7.707004813867756
 21
5.784962086908532
 31
0.0
  0
LINE
  5
2D71
330
1E
100
AcDbEntity
  8
7
100
AcDbLine
 10
8.809367018592165
 20
6.300710118404595
 30
0.0
 11
8.856611113080354
 21
6.320395157774672
 31
0.0
  0
LINE
  5
2D72
330
1E
100
AcDbEntity
  8
7
100
AcDbLine
 10
7.640075680009486
 20
5.753466023916406
 30
0.0
 11
7.659760719379567
 21
5.765277047538454
 31
0.0
  0
LINE
  5
2D73
330
1E
100
AcDbEntity
  8
7
100
AcDbLine
 10
6.604642609143345
 20
5.462127441239239
 30
0.0
 11
6.647949695757519
 21
5.462127441239239
 31
0.0
  0
LINE
  5
2D74
330
1E
100
AcDbEntity
  8
7
100
AcDbLine
 10
6.155823711505551
 20
5.462127441239239
 30
0.0
 11
6.088894577647282
 21
5.462127441239239
 31
0.0
  0
LINE
  5
2D75
330
1E
100
AcDbEntity
  8
7
100
AcDbLine
 10
6.210941821741771
 20
5.462127441239239
 30
0.0
 11
6.25818591622996
 21
5.462127441239239
 31
0.0
  0
LINE
  5
2D76
330
1E
100
AcDbEntity
  8
7
100
AcDbLine
 10
8.419603239064606
 20
6.119607756199869
 30
0.0
 11
8.002280404418934
 21
5.922757362499083
 31
0.0
  0
LINE
  5
2D77
330
1E
100
AcDbEntity
  8
7
100
AcDbLine
 10
-0.4347274695968109
 20
8.462127441239239
 30
0.0
 11
-0.4583495168409053
 21
8.470001456987272
 31
0.0
  0
LINE
  5
2D78
330
1E
100
AcDbEntity
  8
7
100
AcDbLine
 10
4.301493002844132
 20
6.253466023916406
 30
0.0
 11
4.277870955600038
 21
6.265277047538454
 31
0.0
  0
LINE
  5
2D79
330
1E
100
AcDbEntity
  8
7
100
AcDbLine
 10
0.9865323729228734
 20
7.800710118404595
 30
0.0
 11
1.029839459537047
 21
7.777088071160498
 31
0.0
  0
LINE
  5
2D7A
330
1E
100
AcDbEntity
  8
7
100
AcDbLine
 10
4.844800089458306
 20
5.99756051210538
 30
0.0
 11
4.872359144576416
 21
5.985749488483335
 31
0.0
  0
LINE
  5
2D7B
330
1E
100
AcDbEntity
  8
7
100
AcDbLine
 10
4.301493002844132
 20
6.253466023916406
 30
0.0
 11
4.31330402646618
 21
6.245592008168372
 31
0.0
  0
LINE
  5
2D7C
330
1E
100
AcDbEntity
  8
7
100
AcDbLine
 10
-0.4347274695968109
 20
8.462127441239239
 30
0.0
 11
-0.4583495168409053
 21
8.470001456987272
 31
0.0
  0
LINE
  5
2D7D
330
1E
100
AcDbEntity
  8
7
100
AcDbLine
 10
-1.033152666447204
 20
8.737717992420343
 30
0.0
 11
-1.009530619203109
 21
8.729843976672309
 31
0.0
  0
LINE
  5
2D7E
330
1E
100
AcDbEntity
  8
7
100
AcDbLine
 10
1.95109930205673
 20
7.347954212892783
 30
0.0
 11
2.368422136702401
 21
7.155040827066013
 31
0.0
  0
LINE
  5
2D7F
330
1E
100
AcDbEntity
  8
7
100
AcDbLine
 10
1.62826465638744
 20
7.49756051210538
 30
0.0
 11
1.604642609143345
 21
7.509371535727428
 31
0.0
  0
LINE
  5
2D80
330
1E
100
AcDbEntity
  8
7
100
AcDbLine
 10
3.667634735127597
 20
6.548741614467587
 30
0.0
 11
3.691256782371691
 21
6.536930590845539
 31
0.0
  0
LINE
  5
2D81
330
1E
100
AcDbEntity
  8
7
100
AcDbLine
 10
1.537713475285078
 20
7.540867598719554
 30
0.0
 11
1.561335522529173
 21
7.529056575097506
 31
0.0
  0
LINE
  5
2D82
330
1E
100
AcDbEntity
  8
7
100
AcDbLine
 10
5.285744971348069
 20
5.792836102656561
 30
0.0
 11
5.293618987096101
 21
5.788899094782546
 31
0.0
  0
LINE
  5
2D83
330
1E
100
AcDbEntity
  8
7
100
AcDbLine
 10
-0.6866959735338183
 20
8.580237677459713
 30
0.0
 11
-0.2693731388881497
 21
8.383387283758924
 31
0.0
  0
LINE
  5
2D84
330
1E
100
AcDbEntity
  8
7
100
AcDbLine
 10
0.9629103256787789
 20
7.808584134152624
 30
0.0
 11
1.053461506781141
 21
7.769214055412469
 31
0.0
  0
LINE
  5
2D85
330
1E
100
AcDbEntity
  8
7
100
AcDbLine
 10
-1.100081800305471
 20
8.773151063286483
 30
0.0
 11
-1.100081800305471
 21
8.769214055412469
 31
0.0
  0
LINE
  5
2D86
330
1E
100
AcDbEntity
  8
7
100
AcDbLine
 10
14.53377646741106
 20
8.970001456987272
 30
0.0
 11
14.55346150678114
 21
8.977875472735302
 31
0.0
  0
LINE
  5
2D87
330
1E
100
AcDbEntity
  8
7
100
AcDbLine
 10
11.42747725481264
 20
7.521182559349476
 30
0.0
 11
11.44716229418271
 21
7.529056575097506
 31
0.0
  0
LINE
  5
2D88
330
1E
100
AcDbEntity
  8
7
100
AcDbLine
 10
12.018028435915
 20
7.79677311053058
 30
0.0
 11
12.02983945953704
 21
7.800710118404595
 31
0.0
  0
LINE
  5
2D89
330
1E
100
AcDbEntity
  8
7
100
AcDbLine
 10
14.84873709733232
 20
9.115670748325854
 30
0.0
 11
14.43141426268665
 21
8.922757362499083
 31
0.0
  0
LINE
  5
2D8A
330
1E
100
AcDbEntity
  8
7
100
AcDbLine
 10
11.44716229418271
 20
7.529056575097506
 30
0.0
 11
11.4944063886709
 21
7.552678622341602
 31
0.0
  0
LINE
  5
2D8B
330
1E
100
AcDbEntity
  8
7
100
AcDbLine
 10
12.07314654615122
 20
7.820395157774672
 30
0.0
 11
12.09676859339531
 21
7.83220618139672
 31
0.0
  0
LINE
  5
2D8C
330
1E
100
AcDbEntity
  8
7
100
AcDbLine
 10
12.02983945953704
 20
7.800710118404595
 30
0.0
 11
12.05346150678114
 21
7.812521142026643
 31
0.0
  0
LINE
  5
2D8D
330
1E
100
AcDbEntity
  8
7
100
AcDbLine
 10
12.09676859339531
 20
7.83220618139672
 30
0.0
 11
12.10857961701736
 21
7.84008019714475
 31
0.0
  0
LINE
  5
2D8E
330
1E
100
AcDbEntity
  8
7
100
AcDbLine
 10
11.4944063886709
 20
7.552678622341602
 30
0.0
 11
11.44716229418271
 21
7.529056575097506
 31
0.0
  0
LINE
  5
2D8F
330
1E
100
AcDbEntity
  8
7
100
AcDbLine
 10
13.47078434142681
 20
8.473938464861287
 30
0.0
 11
13.38023316032445
 21
8.430631378247113
 31
0.0
  0
LINE
  5
2D90
330
1E
100
AcDbEntity
  8
7
100
AcDbLine
 10
12.02983945953704
 20
7.800710118404595
 30
0.0
 11
12.018028435915
 21
7.79677311053058
 31
0.0
  0
LINE
  5
2D91
330
1E
100
AcDbEntity
  8
7
100
AcDbLine
 10
12.91172922331657
 20
8.214095945176246
 30
0.0
 11
12.82117804221421
 21
8.170788858562076
 31
0.0
  0
LINE
  5
2D92
330
1E
100
AcDbEntity
  8
7
100
AcDbLine
 10
13.38417016819846
 20
8.430631378247113
 30
0.0
 11
13.47078434142681
 21
8.473938464861287
 31
0.0
  0
LINE
  5
2D93
330
1E
100
AcDbEntity
  8
7
100
AcDbLine
 10
13.12039064063941
 20
8.312521142026643
 30
0.0
 11
12.70306780599374
 21
8.115670748325854
 31
0.0
  0
LINE
  5
2D94
330
1E
100
AcDbEntity
  8
7
100
AcDbLine
 10
10.87235914457641
 20
7.261340039664435
 30
0.0
 11
10.85267410520634
 21
7.253466023916406
 31
0.0
  0
LINE
  5
2D95
330
1E
100
AcDbEntity
  8
7
100
AcDbLine
 10
6.872359144576416
 20
5.462127441239239
 30
0.0
 11
6.140075680009488
 21
5.462127441239239
 31
0.0
  0
LINE
  5
2D96
330
1E
100
AcDbEntity
  8
7
100
AcDbLine
 10
5.006217412292951
 20
5.922757362499083
 30
0.0
 11
4.588894577647282
 21
6.119607756199869
 31
0.0
  0
LINE
  5
2D97
330
1E
100
AcDbEntity
  8
7
100
AcDbLine
 10
9.573146546151221
 20
6.655040827066013
 30
0.0
 11
9.155823711505551
 21
6.462127441239239
 31
0.0
  0
LINE
  5
2D98
330
1E
100
AcDbEntity
  8
7
100
AcDbLine
 10
6.088894577647282
 20
5.462127441239239
 30
0.0
 11
6.155823711505551
 21
5.462127441239239
 31
0.0
  0
LINE
  5
2D99
330
1E
100
AcDbEntity
  8
7
100
AcDbLine
 10
7.549524498907123
 20
5.714095945176246
 30
0.0
 11
7.561335522529171
 21
5.718032953050265
 31
0.0
  0
LINE
  5
2D9A
330
1E
100
AcDbEntity
  8
7
100
AcDbLine
 10
6.584957569773267
 20
5.462127441239239
 30
0.0
 11
6.604642609143345
 21
5.462127441239239
 31
0.0
  0
LINE
  5
2D9B
330
1E
100
AcDbEntity
  8
7
100
AcDbLine
 10
7.707004813867756
 20
5.784962086908532
 30
0.0
 11
7.726689853237834
 21
5.79677311053058
 31
0.0
  0
LINE
  5
2D9C
330
1E
100
AcDbEntity
  8
7
100
AcDbLine
 10
3.439288278434684
 20
6.655040827066013
 30
0.0
 11
3.852674105206338
 21
6.462127441239239
 31
0.0
  0
LINE
  5
2D9D
330
1E
100
AcDbEntity
  8
7
100
AcDbLine
 10
9.364485128828388
 20
6.560552638089632
 30
0.0
 11
9.384170168198465
 21
6.568426653837665
 31
0.0
  0
LINE
  5
2D9E
330
1E
100
AcDbEntity
  8
7
100
AcDbLine
 10
8.856611113080354
 20
6.320395157774672
 30
0.0
 11
8.880233160324451
 21
6.33220618139672
 31
0.0
  0
LINE
  5
2D9F
330
1E
100
AcDbEntity
  8
7
100
AcDbLine
 10
6.179445758749645
 20
5.462127441239239
 30
0.0
 11
6.155823711505551
 21
5.462127441239239
 31
0.0
  0
LINE
  5
2DA0
330
1E
100
AcDbEntity
  8
7
100
AcDbLine
 10
8.69519379024571
 20
6.245592008168372
 30
0.0
 11
8.726689853237836
 21
6.261340039664435
 31
0.0
  0
LINE
  5
2DA1
330
1E
100
AcDbEntity
  8
7
100
AcDbLine
 10
-0.4583495168409053
 20
8.470001456987272
 30
0.0
 11
-0.5016566034550776
 21
8.493623504231365
 31
0.0
  0
LINE
  5
2DA2
330
1E
100
AcDbEntity
  8
7
100
AcDbLine
 10
4.848737097332321
 20
5.99756051210538
 30
0.0
 11
4.860548120954369
 21
5.993623504231365
 31
0.0
  0
LINE
  5
2DA3
330
1E
100
AcDbEntity
  8
7
100
AcDbLine
 10
5.462910325678778
 20
5.710158937302232
 30
0.0
 11
5.372359144576416
 21
5.753466023916406
 31
0.0
  0
LINE
  5
2DA4
330
1E
100
AcDbEntity
  8
7
100
AcDbLine
 10
-0.4583495168409053
 20
8.470001456987272
 30
0.0
 11
-0.4898455798330313
 21
8.485749488483335
 31
0.0
  0
LINE
  5
2DA5
330
1E
100
AcDbEntity
  8
7
100
AcDbLine
 10
4.726689853237834
 20
6.056615630215617
 30
0.0
 11
4.734563868985866
 21
6.048741614467587
 31
0.0
  0
LINE
  5
2DA6
330
1E
100
AcDbEntity
  8
7
100
AcDbLine
 10
-1.643388886919645
 20
9.025119567223491
 30
0.0
 11
-1.615829831801534
 21
9.013308543601443
 31
0.0
  0
LINE
  5
2DA7
330
1E
100
AcDbEntity
  8
7
100
AcDbLine
 10
0.0495244989071253
 20
8.233780984546328
 30
0.0
 11
0.1203906406394086
 21
8.202284921554202
 31
0.0
  0
LINE
  5
2DA8
330
1E
100
AcDbEntity
  8
7
100
AcDbLine
 10
2.777870955600038
 20
6.962127441239239
 30
0.0
 11
2.75818591622996
 21
6.973938464861287
 31
0.0
  0
LINE
  5
2DA9
330
1E
100
AcDbEntity
  8
7
100
AcDbLine
 10
2.691256782371691
 20
7.005434527853413
 30
0.0
 11
2.710941821741771
 21
6.993623504231365
 31
0.0
  0
LINE
  5
2DAA
330
1E
100
AcDbEntity
  8
7
100
AcDbLine
 10
4.277870955600038
 20
6.265277047538454
 30
0.0
 11
4.254248908355943
 21
6.273151063286483
 31
0.0
  0
LINE
  5
2DAB
330
1E
100
AcDbEntity
  8
7
100
AcDbLine
 10
-1.100081800305471
 20
8.769214055412469
 30
0.0
 11
-1.076459753061377
 21
8.761340039664435
 31
0.0
  0
LINE
  5
2DAC
330
1E
100
AcDbEntity
  8
7
100
AcDbLine
 10
13.38417016819846
 20
8.430631378247113
 30
0.0
 11
13.40385520756854
 21
8.442442401869161
 31
0.0
  0
LINE
  5
2DAD
330
1E
100
AcDbEntity
  8
7
100
AcDbLine
 10
13.50621741229295
 20
8.48968649635735
 30
0.0
 11
13.59676859339531
 21
8.532993582971524
 31
0.0
  0
LINE
  5
2DAE
330
1E
100
AcDbEntity
  8
7
100
AcDbLine
 10
14.65582371150555
 20
9.025119567223491
 30
0.0
 11
14.72275284536382
 21
9.056615630215617
 31
0.0
  0
LINE
  5
2DAF
330
1E
100
AcDbEntity
  8
7
100
AcDbLine
 10
10.06527253040318
 20
6.887324291632939
 30
0.0
 11
10.48259536504885
 21
7.080237677459713
 31
0.0
  0
LINE
  5
2DB0
330
1E
100
AcDbEntity
  8
7
100
AcDbLine
 10
14.08102056189925
 20
8.757403031790421
 30
0.0
 11
14.10070560126933
 21
8.769214055412469
 31
0.0
  0
LINE
  5
2DB1
330
1E
100
AcDbEntity
  8
7
100
AcDbLine
 10
11.89204418394649
 20
7.737717992420343
 30
0.0
 11
11.89598119182051
 21
7.737717992420343
 31
0.0
  0
LINE
  5
2DB2
330
1E
100
AcDbEntity
  8
7
100
AcDbLine
 10
14.17157174300161
 20
8.800710118404595
 30
0.0
 11
14.14794969575752
 21
8.788899094782546
 31
0.0
  0
LINE
  5
2DB3
330
1E
100
AcDbEntity
  8
7
100
AcDbLine
 10
13.95897331780476
 20
8.702284921554202
 30
0.0
 11
14.04558749103311
 21
8.741655000294358
 31
0.0
  0
LINE
  5
2DB4
330
1E
100
AcDbEntity
  8
7
100
AcDbLine
 10
13.50621741229295
 20
8.48968649635735
 30
0.0
 11
13.52590245166303
 21
8.501497519979398
 31
0.0
  0
LINE
  5
2DB5
330
1E
100
AcDbEntity
  8
7
100
AcDbLine
 10
11.89598119182051
 20
7.737717992420343
 30
0.0
 11
11.98653237292287
 21
7.781025079034517
 31
0.0
  0
LINE
  5
2DB6
330
1E
100
AcDbEntity
  8
7
100
AcDbLine
 10
14.14794969575752
 20
8.788899094782546
 30
0.0
 11
14.11251662489138
 21
8.773151063286483
 31
0.0
  0
LINE
  5
2DB7
330
1E
100
AcDbEntity
  8
7
100
AcDbLine
 10
14.27393394772602
 20
8.847954212892783
 30
0.0
 11
13.85661111308035
 21
8.655040827066013
 31
0.0
  0
LINE
  5
2DB8
330
1E
100
AcDbEntity
  8
7
100
AcDbLine
 10
10.9196032390646
 20
7.284962086908532
 30
0.0
 11
10.87235914457641
 21
7.261340039664435
 31
0.0
  0
LINE
  5
2DB9
330
1E
100
AcDbEntity
  8
7
100
AcDbLine
 10
6.458973317804762
 20
5.462127441239239
 30
0.0
 11
6.52590245166303
 21
5.462127441239239
 31
0.0
  0
LINE
  5
2DBA
330
1E
100
AcDbEntity
  8
7
100
AcDbLine
 10
7.844800089458304
 20
5.851891220766798
 30
0.0
 11
7.427477254812636
 21
5.655040827066013
 31
0.0
  0
LINE
  5
2DBB
330
1E
100
AcDbEntity
  8
7
100
AcDbLine
 10
8.124327648513425
 20
5.981812480609317
 30
0.0
 11
8.136138672135473
 21
5.985749488483335
 31
0.0
  0
LINE
  5
2DBC
330
1E
100
AcDbEntity
  8
7
100
AcDbLine
 10
7.659760719379567
 20
5.765277047538454
 30
0.0
 11
7.636138672135471
 21
5.753466023916406
 31
0.0
  0
LINE
  5
2DBD
330
1E
100
AcDbEntity
  8
7
100
AcDbLine
 10
6.742437884733897
 20
5.462127441239239
 30
0.0
 11
6.762122924103975
 21
5.462127441239239
 31
0.0
  0
LINE
  5
2DBE
330
1E
100
AcDbEntity
  8
7
100
AcDbLine
 10
8.994406388670906
 20
6.387324291632939
 30
0.0
 11
8.581020561899254
 21
6.194410905806169
 31
0.0
  0
LINE
  5
2DBF
330
1E
100
AcDbEntity
  8
7
100
AcDbLine
 10
8.809367018592165
 20
6.300710118404595
 30
0.0
 11
8.789681979222088
 21
6.288899094782546
 31
0.0
  0
LINE
  5
2DC0
330
1E
100
AcDbEntity
  8
7
100
AcDbLine
 10
8.70306780599374
 20
6.249529016042391
 30
0.0
 11
8.710941821741773
 21
6.253466023916406
 31
0.0
  0
LINE
  5
2DC1
330
1E
100
AcDbEntity
  8
7
100
AcDbLine
 10
6.155823711505551
 20
5.462127441239239
 30
0.0
 11
6.179445758749645
 21
5.462127441239239
 31
0.0
  0
LINE
  5
2DC2
330
1E
100
AcDbEntity
  8
7
100
AcDbLine
 10
7.545587491033108
 20
5.710158937302232
 30
0.0
 11
7.573146546151219
 21
5.72196996092428
 31
0.0
  0
LINE
  5
2DC3
330
1E
100
AcDbEntity
  8
7
100
AcDbLine
 10
1.604642609143345
 20
7.509371535727428
 30
0.0
 11
1.561335522529173
 21
7.529056575097506
 31
0.0
  0
LINE
  5
2DC4
330
1E
100
AcDbEntity
  8
7
100
AcDbLine
 10
0.3054300107181493
 20
8.115670748325854
 30
0.0
 11
-0.1118928239275201
 21
8.312521142026643
 31
0.0
  0
LINE
  5
2DC5
330
1E
100
AcDbEntity
  8
7
100
AcDbLine
 10
0.7975559949701179
 20
7.887324291632939
 30
0.0
 11
1.214878829615786
 21
7.690473897932154
 31
0.0
  0
LINE
  5
2DC6
330
1E
100
AcDbEntity
  8
7
100
AcDbLine
 10
3.667634735127597
 20
6.548741614467587
 30
0.0
 11
3.624327648513425
 21
6.568426653837665
 31
0.0
  0
LINE
  5
2DC7
330
1E
100
AcDbEntity
  8
7
100
AcDbLine
 10
2.20306780599374
 20
7.229843976672309
 30
0.0
 11
2.112516624891377
 21
7.273151063286483
 31
0.0
  0
LINE
  5
2DC8
330
1E
100
AcDbEntity
  8
7
100
AcDbLine
 10
2.368422136702401
 20
7.155040827066013
 30
0.0
 11
1.95109930205673
 21
7.347954212892783
 31
0.0
  0
LINE
  5
2DC9
330
1E
100
AcDbEntity
  8
7
100
AcDbLine
 10
4.222752845363817
 20
6.288899094782546
 30
0.0
 11
4.234563868985866
 21
6.284962086908532
 31
0.0
  0
LINE
  5
2DCA
330
1E
100
AcDbEntity
  8
7
100
AcDbLine
 10
4.136138672135471
 20
6.33220618139672
 30
0.0
 11
4.144012687883503
 21
6.324332165648687
 31
0.0
  0
LINE
  5
2DCB
330
1E
100
AcDbEntity
  8
7
100
AcDbLine
 10
2.75818591622996
 20
6.973938464861287
 30
0.0
 11
2.710941821741771
 21
6.993623504231365
 31
0.0
  0
LINE
  5
2DCC
330
1E
100
AcDbEntity
  8
7
100
AcDbLine
 10
4.722752845363817
 20
6.056615630215617
 30
0.0
 11
4.750311900481928
 21
6.044804606593569
 31
0.0
  0
LINE
  5
2DCD
330
1E
100
AcDbEntity
  8
7
100
AcDbLine
 10
1.561335522529173
 20
7.529056575097506
 30
0.0
 11
1.604642609143345
 21
7.509371535727428
 31
0.0
  0
LINE
  5
2DCE
330
1E
100
AcDbEntity
  8
7
100
AcDbLine
 10
4.234563868985866
 20
6.284962086908532
 30
0.0
 11
4.254248908355943
 21
6.273151063286483
 31
0.0
  0
LINE
  5
2DCF
330
1E
100
AcDbEntity
  8
7
100
AcDbLine
 10
-2.918979438100747
 20
9.320395157774672
 30
0.0
 11
-2.430790461722795
 21
9.320395157774672
 31
0.0
  0
LINE
  5
2DD0
330
1E
100
AcDbEntity
  8
7
100
AcDbLine
 10
1.029839459537047
 20
7.777088071160498
 30
0.0
 11
1.053461506781141
 21
7.769214055412469
 31
0.0
  0
LINE
  5
2DD1
330
1E
100
AcDbEntity
  8
7
100
AcDbLine
 10
-2.430790461722795
 20
9.320395157774672
 30
0.0
 11
-2.918979438100747
 21
9.320395157774672
 31
0.0
  0
LINE
  5
2DD2
330
1E
100
AcDbEntity
  8
7
100
AcDbLine
 10
14.10070560126933
 20
8.769214055412469
 30
0.0
 11
14.14794969575752
 21
8.788899094782546
 31
0.0
  0
LINE
  5
2DD3
330
1E
100
AcDbEntity
  8
7
100
AcDbLine
 10
10.87235914457641
 20
7.261340039664435
 30
0.0
 11
10.9196032390646
 21
7.284962086908532
 31
0.0
  0
LINE
  5
2DD4
330
1E
100
AcDbEntity
  8
7
100
AcDbLine
 10
14.14794969575752
 20
8.788899094782546
 30
0.0
 11
14.10070560126933
 21
8.769214055412469
 31
0.0
  0
LINE
  5
2DD5
330
1E
100
AcDbEntity
  8
7
100
AcDbLine
 10
13.95897331780476
 20
8.702284921554202
 30
0.0
 11
13.97865835717484
 21
8.710158937302232
 31
0.0
  0
LINE
  5
2DD6
330
1E
100
AcDbEntity
  8
7
100
AcDbLine
 10
10.87235914457641
 20
7.261340039664435
 30
0.0
 11
10.85267410520634
 21
7.253466023916406
 31
0.0
  0
LINE
  5
2DD7
330
1E
100
AcDbEntity
  8
7
100
AcDbLine
 10
14.74637489260791
 20
9.068426653837665
 30
0.0
 11
14.65582371150555
 21
9.025119567223491
 31
0.0
  0
LINE
  5
2DD8
330
1E
100
AcDbEntity
  8
7
100
AcDbLine
 10
13.97865835717484
 20
8.710158937302232
 30
0.0
 11
14.02590245166303
 21
8.733780984546328
 31
0.0
  0
LINE
  5
2DD9
330
1E
100
AcDbEntity
  8
7
100
AcDbLine
 10
13.59676859339531
 20
8.532993582971524
 30
0.0
 11
13.50621741229295
 21
8.48968649635735
 31
0.0
  0
LINE
  5
2DDA
330
1E
100
AcDbEntity
  8
7
100
AcDbLine
 10
14.10070560126933
 20
8.769214055412469
 30
0.0
 11
14.08102056189925
 21
8.757403031790421
 31
0.0
  0
LINE
  5
2DDB
330
1E
100
AcDbEntity
  8
7
100
AcDbLine
 10
10.36448512882838
 20
7.025119567223491
 30
0.0
 11
10.27787095560004
 21
6.985749488483335
 31
0.0
  0
LINE
  5
2DDC
330
1E
100
AcDbEntity
  8
7
100
AcDbLine
 10
10.85267410520634
 20
7.253466023916406
 30
0.0
 11
10.87235914457641
 21
7.261340039664435
 31
0.0
  0
LINE
  5
2DDD
330
1E
100
AcDbEntity
  8
7
100
AcDbLine
 10
11.4944063886709
 20
7.552678622341602
 30
0.0
 11
11.51802843591499
 21
7.56448964596365
 31
0.0
  0
LINE
  5
2DDE
330
1E
100
AcDbEntity
  8
7
100
AcDbLine
 10
14.14794969575752
 20
8.788899094782546
 30
0.0
 11
14.17157174300161
 21
8.800710118404595
 31
0.0
  0
LINE
  5
2DDF
330
1E
100
AcDbEntity
  8
7
100
AcDbLine
 10
11.89598119182051
 20
7.737717992420343
 30
0.0
 11
11.91566623119059
 21
7.749529016042391
 31
0.0
  0
LINE
  5
2DE0
330
1E
100
AcDbEntity
  8
7
100
AcDbLine
 10
10.9432252863087
 20
7.292836102656561
 30
0.0
 11
10.9196032390646
 21
7.284962086908532
 31
0.0
  0
LINE
  5
2DE1
330
1E
100
AcDbEntity
  8
7
100
AcDbLine
 10
13.28180796347405
 20
8.383387283758924
 30
0.0
 11
13.69913079811972
 21
8.580237677459713
 31
0.0
  0
LINE
  5
2DE2
330
1E
100
AcDbEntity
  8
7
100
AcDbLine
 10
13.40385520756854
 20
8.442442401869161
 30
0.0
 11
13.45109930205673
 21
8.462127441239239
 31
0.0
  0
LINE
  5
2DE3
330
1E
100
AcDbEntity
  8
7
100
AcDbLine
 10
10.9432252863087
 20
7.292836102656561
 30
0.0
 11
10.9196032390646
 21
7.284962086908532
 31
0.0
  0
LINE
  5
2DE4
330
1E
100
AcDbEntity
  8
7
100
AcDbLine
 10
4.014091428040982
 20
6.387324291632939
 30
0.0
 11
4.431414262686653
 21
6.194410905806169
 31
0.0
  0
LINE
  5
2DE5
330
1E
100
AcDbEntity
  8
7
100
AcDbLine
 10
8.880233160324451
 20
6.33220618139672
 30
0.0
 11
8.856611113080354
 21
6.320395157774672
 31
0.0
  0
LINE
  5
2DE6
330
1E
100
AcDbEntity
  8
7
100
AcDbLine
 10
5.581020561899251
 20
5.655040827066013
 30
0.0
 11
5.163697727253582
 21
5.851891220766798
 31
0.0
  0
LINE
  5
2DE7
330
1E
100
AcDbEntity
  8
7
100
AcDbLine
 10
9.384170168198465
 20
6.568426653837665
 30
0.0
 11
9.364485128828388
 21
6.560552638089632
 31
0.0
  0
LINE
  5
2DE8
330
1E
100
AcDbEntity
  8
7
100
AcDbLine
 10
9.384170168198465
 20
6.568426653837665
 30
0.0
 11
9.431414262686654
 21
6.592048701081758
 31
0.0
  0
LINE
  5
2DE9
330
1E
100
AcDbEntity
  8
7
100
AcDbLine
 10
8.856611113080354
 20
6.320395157774672
 30
0.0
 11
8.809367018592165
 21
6.300710118404595
 31
0.0
  0
LINE
  5
2DEA
330
1E
100
AcDbEntity
  8
7
100
AcDbLine
 10
8.789681979222088
 20
6.288899094782546
 30
0.0
 11
8.880233160324451
 21
6.33220618139672
 31
0.0
  0
LINE
  5
2DEB
330
1E
100
AcDbEntity
  8
7
100
AcDbLine
 10
2.52590245166303
 20
7.080237677459713
 30
0.0
 11
2.943225286308699
 21
6.887324291632939
 31
0.0
  0
LINE
  5
2DEC
330
1E
100
AcDbEntity
  8
7
100
AcDbLine
 10
4.431414262686653
 20
6.194410905806169
 30
0.0
 11
4.014091428040982
 21
6.387324291632939
 31
0.0
  0
LINE
  5
2DF2
330
1E
100
AcDbEntity
  8
7
100
AcDbLine
 10
6.195193790245708
 20
6.344017205018769
 30
0.0
 11
6.014091428040982
 21
5.536930590845539
 31
0.0
  0
LINE
  5
2DF8
330
1E
100
AcDbEntity
  8
7
100
AcDbLine
 10
-1.730003060147991
 20
10.01724555147546
 30
0.0
 11
-1.765436131014133
 21
9.985749488483335
 31
0.0
  0
LINE
  5
2DF9
330
1E
100
AcDbEntity
  8
7
100
AcDbLine
 10
-2.080396760935393
 20
9.308584134152624
 30
0.0
 11
-1.765436131014133
 21
9.985749488483335
 31
0.0
  0
LINE
  5
2E27
330
1E
100
AcDbEntity
  8
7
100
AcDbLine
 10
5.962910325678778
 20
5.477875472735302
 30
0.0
 11
-2.111892823927519
 21
9.245592008168372
 31
0.0
  0
LINE
  5
2E39
330
1E
100
AcDbEntity
  8
7
100
AcDbLine
 10
-2.096144792431456
 20
9.281025079034517
 30
0.0
 11
-2.115829831801534
 21
9.288899094782546
 31
0.0
  0
LINE
  5
2E40
330
1E
100
AcDbEntity
  8
7
100
AcDbLine
 10
6.332989065836258
 20
6.277088071160498
 30
0.0
 11
6.195193790245708
 21
6.344017205018769
 31
0.0
  0
LINE
  5
2E41
330
1E
100
AcDbEntity
  8
7
100
AcDbLine
 10
-2.222129044399959
 20
9.292836102656561
 30
0.0
 11
-2.202444005029881
 21
9.33220618139672
 31
0.0
  0
LINE
  5
2E52
330
1E
100
AcDbEntity
  8
7
100
AcDbLine
 10
-2.93472746959681
 20
9.359765236514832
 30
0.0
 11
-2.93472746959681
 21
9.320395157774672
 31
0.0
  0
LINE
  5
2E53
330
1E
100
AcDbEntity
  8
7
100
AcDbLine
 10
-2.300869201880275
 20
9.359765236514832
 30
0.0
 11
-2.93472746959681
 21
9.359765236514832
 31
0.0
  0
LINE
  5
2E54
330
1E
100
AcDbEntity
  8
7
100
AcDbLine
 10
-2.93472746959681
 20
9.320395157774672
 30
0.0
 11
-2.300869201880275
 21
9.320395157774672
 31
0.0
  0
LINE
  5
2E5A
330
1E
100
AcDbEntity
  8
7
100
AcDbLine
 10
-2.277247154636181
 20
9.316458149900658
 30
0.0
 11
-2.257562115266101
 21
9.351891220766798
 31
0.0
  0
LINE
  5
2E6F
330
1E
100
AcDbEntity
  8
7
100
AcDbLine
 10
6.675508750875629
 20
6.277088071160498
 30
0.0
 11
6.332989065836258
 21
6.277088071160498
 31
0.0
  0
LINE
  5
2E70
330
1E
100
AcDbEntity
  8
7
100
AcDbLine
 10
6.97078434142681
 20
5.462127441239239
 30
0.0
 11
6.037713475285077
 21
5.462127441239239
 31
0.0
  0
LINE
  5
2E71
330
1E
100
AcDbEntity
  8
7
100
AcDbLine
 10
6.037713475285077
 20
5.532993582971524
 30
0.0
 11
6.97078434142681
 21
5.532993582971524
 31
0.0
  0
LINE
  5
2E77
330
1E
100
AcDbEntity
  8
7
100
AcDbLine
 10
6.014091428040982
 20
5.536930590845539
 30
0.0
 11
6.037713475285077
 21
5.532993582971524
 31
0.0
  0
LINE
  5
2E7D
330
1E
100
AcDbEntity
  8
7
100
AcDbLine
 10
15.9432252863087
 20
9.320395157774672
 30
0.0
 11
15.9432252863087
 21
9.359765236514832
 31
0.0
  0
LINE
  5
2E83
330
1E
100
AcDbEntity
  8
7
100
AcDbLine
 10
16.00621741229295
 20
9.359765236514832
 30
0.0
 11
16.00621741229295
 21
9.320395157774672
 31
0.0
  0
LINE
  5
2E84
330
1E
100
AcDbEntity
  8
7
100
AcDbLine
 10
15.9432252863087
 20
9.359765236514832
 30
0.0
 11
15.30936701859216
 21
9.359765236514832
 31
0.0
  0
LINE
  5
2E8A
330
1E
100
AcDbEntity
  8
7
100
AcDbLine
 10
15.26999693985201
 20
9.351891220766798
 30
0.0
 11
15.28574497134807
 21
9.316458149900658
 31
0.0
  0
LINE
  5
2E90
330
1E
100
AcDbEntity
  8
7
100
AcDbLine
 10
15.30936701859216
 20
9.320395157774672
 30
0.0
 11
15.9432252863087
 21
9.320395157774672
 31
0.0
  0
LINE
  5
2E96
330
1E
100
AcDbEntity
  8
7
100
AcDbLine
 10
14.17550875087563
 20
9.655040827066013
 30
0.0
 11
14.26605993197799
 21
9.458190433365224
 31
0.0
  0
LINE
  5
2E97
330
1E
100
AcDbEntity
  8
7
100
AcDbLine
 10
14.02196544378901
 20
9.584174685333728
 30
0.0
 11
14.17550875087563
 21
9.655040827066013
 31
0.0
  0
LINE
  5
2E98
330
1E
100
AcDbEntity
  8
7
100
AcDbLine
 10
14.11251662489138
 20
9.387324291632939
 30
0.0
 11
14.02196544378901
 21
9.584174685333728
 31
0.0
  0
LINE
  5
2E99
330
1E
100
AcDbEntity
  8
7
100
AcDbLine
 10
14.26605993197799
 20
9.458190433365224
 30
0.0
 11
14.11251662489138
 21
9.387324291632939
 31
0.0
  0
LINE
  5
2E9A
330
1E
100
AcDbEntity
  8
7
100
AcDbLine
 10
12.87629615245043
 20
9.052678622341602
 30
0.0
 11
12.97078434142681
 21
8.851891220766798
 31
0.0
  0
LINE
  5
2E9B
330
1E
100
AcDbEntity
  8
7
100
AcDbLine
 10
12.72275284536382
 20
8.981812480609317
 30
0.0
 11
12.87629615245043
 21
9.052678622341602
 31
0.0
  0
LINE
  5
2E9C
330
1E
100
AcDbEntity
  8
7
100
AcDbLine
 10
12.8172410343402
 20
8.781025079034517
 30
0.0
 11
12.72275284536382
 21
8.981812480609317
 31
0.0
  0
LINE
  5
2E9D
330
1E
100
AcDbEntity
  8
7
100
AcDbLine
 10
12.97078434142681
 20
8.851891220766798
 30
0.0
 11
12.8172410343402
 21
8.781025079034517
 31
0.0
  0
LINE
  5
2E9E
330
1E
100
AcDbEntity
  8
7
100
AcDbLine
 10
8.895981191820514
 20
7.194410905806169
 30
0.0
 11
8.990469380796891
 21
6.99756051210538
 31
0.0
  0
LINE
  5
2E9F
330
1E
100
AcDbEntity
  8
7
100
AcDbLine
 10
8.742437884733899
 20
7.123544764073884
 30
0.0
 11
8.895981191820514
 21
7.194410905806169
 31
0.0
  0
LINE
  5
2EA0
330
1E
100
AcDbEntity
  8
7
100
AcDbLine
 10
8.836926073710277
 20
6.926694370373098
 30
0.0
 11
8.742437884733899
 21
7.123544764073884
 31
0.0
  0
LINE
  5
2EA1
330
1E
100
AcDbEntity
  8
7
100
AcDbLine
 10
8.990469380796891
 20
6.99756051210538
 30
0.0
 11
8.836926073710277
 21
6.926694370373098
 31
0.0
  0
LINE
  5
2EA2
330
1E
100
AcDbEntity
  8
7
100
AcDbLine
 10
10.23850087685988
 20
7.820395157774672
 30
0.0
 11
10.33298906583626
 21
7.623544764073884
 31
0.0
  0
LINE
  5
2EA3
330
1E
100
AcDbEntity
  8
7
100
AcDbLine
 10
10.08495756977326
 20
7.749529016042391
 30
0.0
 11
10.23850087685988
 21
7.820395157774672
 31
0.0
  0
LINE
  5
2EA4
330
1E
100
AcDbEntity
  8
7
100
AcDbLine
 10
10.17944575874964
 20
7.552678622341602
 30
0.0
 11
10.08495756977326
 21
7.749529016042391
 31
0.0
  0
LINE
  5
2EA5
330
1E
100
AcDbEntity
  8
7
100
AcDbLine
 10
10.33298906583626
 20
7.623544764073884
 30
0.0
 11
10.17944575874964
 21
7.552678622341602
 31
0.0
  0
LINE
  5
2EA6
330
1E
100
AcDbEntity
  8
7
100
AcDbLine
 10
7.60070560126933
 20
6.592048701081758
 30
0.0
 11
7.695193790245708
 21
6.391261299506957
 31
0.0
  0
LINE
  5
2EA7
330
1E
100
AcDbEntity
  8
7
100
AcDbLine
 10
7.447162294182716
 20
6.521182559349476
 30
0.0
 11
7.60070560126933
 21
6.592048701081758
 31
0.0
  0
LINE
  5
2EA8
330
1E
100
AcDbEntity
  8
7
100
AcDbLine
 10
7.541650483159093
 20
6.320395157774672
 30
0.0
 11
7.447162294182716
 21
6.521182559349476
 31
0.0
  0
LINE
  5
2EA9
330
1E
100
AcDbEntity
  8
7
100
AcDbLine
 10
7.695193790245708
 20
6.391261299506957
 30
0.0
 11
7.541650483159093
 21
6.320395157774672
 31
0.0
  0
LINE
  5
2EAA
330
1E
100
AcDbEntity
  8
7
100
AcDbLine
 10
11.53771347528508
 20
8.426694370373098
 30
0.0
 11
11.62826465638744
 21
8.225906968798295
 31
0.0
  0
LINE
  5
2EAB
330
1E
100
AcDbEntity
  8
7
100
AcDbLine
 10
11.38023316032445
 20
8.355828228640813
 30
0.0
 11
11.53771347528508
 21
8.426694370373098
 31
0.0
  0
LINE
  5
2EAC
330
1E
100
AcDbEntity
  8
7
100
AcDbLine
 10
11.47472134930082
 20
8.155040827066013
 30
0.0
 11
11.38023316032445
 21
8.355828228640813
 31
0.0
  0
LINE
  5
2EAD
330
1E
100
AcDbEntity
  8
7
100
AcDbLine
 10
11.62826465638744
 20
8.225906968798295
 30
0.0
 11
11.47472134930082
 21
8.155040827066013
 31
0.0
  0
LINE
  5
2EAE
330
1E
100
AcDbEntity
  8
7
100
AcDbLine
 10
15.12039064063941
 20
9.245592008168372
 30
0.0
 11
15.12432764851342
 21
9.245592008168372
 31
0.0
  0
LINE
  5
2EB6
330
1E
100
AcDbEntity
  8
7
100
AcDbLine
 10
15.23062686111185
 20
9.292836102656561
 30
0.0
 11
15.21487882961578
 21
9.33220618139672
 31
0.0
  0
LINE
  5
2ECD
330
1E
100
AcDbEntity
  8
7
100
AcDbLine
 10
15.0928315855213
 20
9.308584134152624
 30
0.0
 11
14.77393394772602
 21
9.985749488483335
 31
0.0
  0
LINE
  5
2ED8
330
1E
100
AcDbEntity
  8
7
100
AcDbLine
 10
15.12432764851342
 20
9.245592008168372
 30
0.0
 11
7.045587491033108
 21
5.477875472735302
 31
0.0
  0
LINE
  5
2F04
330
1E
100
AcDbEntity
  8
7
100
AcDbLine
 10
7.006217412292951
 20
5.477875472735302
 30
0.0
 11
7.010154420166967
 21
5.466064449113254
 31
0.0
  0
LINE
  5
2F0F
330
1E
100
AcDbEntity
  8
7
100
AcDbLine
 10
-0.8638613278645275
 20
9.765277047538454
 30
0.0
 11
0.175508750875629
 21
9.281025079034517
 31
0.0
  0
LINE
  5
2F10
330
1E
100
AcDbEntity
  8
7
100
AcDbLine
 10
0.4314142626866531
 20
9.162914842814043
 30
0.0
 11
0.9077922154425586
 21
8.938505393995146
 31
0.0
  0
LINE
  5
2F11
330
1E
100
AcDbEntity
  8
7
100
AcDbLine
 10
0.9707843414268104
 20
8.910946338877035
 30
0.0
 11
0.9077922154425586
 21
8.938505393995146
 31
0.0
  0
LINE
  5
2F12
330
1E
100
AcDbEntity
  8
7
100
AcDbLine
 10
-1.659136918415708
 20
10.13535578769593
 30
0.0
 11
-1.596144792431456
 21
10.1038597247038
 31
0.0
  0
LINE
  5
2F13
330
1E
100
AcDbEntity
  8
7
100
AcDbLine
 10
-1.706381012903896
 20
10.02118255934947
 30
0.0
 11
-1.659136918415708
 21
10.13535578769593
 31
0.0
  0
LINE
  5
2F14
330
1E
100
AcDbEntity
  8
7
100
AcDbLine
 10
-1.174884949911771
 20
9.615670748325854
 30
0.0
 11
-1.159136918415708
 21
9.643229803443965
 31
0.0
  0
LINE
  5
2F15
330
1E
100
AcDbEntity
  8
7
100
AcDbLine
 10
-1.174884949911771
 20
9.615670748325854
 30
0.0
 11
-1.03708967432122
 21
9.552678622341602
 31
0.0
  0
LINE
  5
2F16
330
1E
100
AcDbEntity
  8
7
100
AcDbLine
 10
-1.025278650699172
 20
9.580237677459713
 30
0.0
 11
-1.03708967432122
 21
9.552678622341602
 31
0.0
  0
LINE
  5
2F17
330
1E
100
AcDbEntity
  8
7
100
AcDbLine
 10
-1.159136918415708
 20
9.643229803443965
 30
0.0
 11
-1.025278650699172
 21
9.580237677459713
 31
0.0
  0
LINE
  5
2F18
330
1E
100
AcDbEntity
  8
7
100
AcDbLine
 10
-1.159136918415708
 20
9.643229803443965
 30
0.0
 11
-1.025278650699172
 21
9.580237677459713
 31
0.0
  0
LINE
  5
2F19
330
1E
100
AcDbEntity
  8
7
100
AcDbLine
 10
-1.03708967432122
 20
9.552678622341602
 30
0.0
 11
-1.115829831801534
 21
9.391261299506957
 31
0.0
  0
LINE
  5
2F1A
330
1E
100
AcDbEntity
  8
7
100
AcDbLine
 10
-1.245751091644054
 20
9.450316417617191
 30
0.0
 11
-1.174884949911771
 21
9.615670748325854
 31
0.0
  0
LINE
  5
2F1B
330
1E
100
AcDbEntity
  8
7
100
AcDbLine
 10
-1.167010934163739
 20
9.64716681131798
 30
0.0
 11
-1.159136918415708
 21
9.643229803443965
 31
0.0
  0
LINE
  5
2F1C
330
1E
100
AcDbEntity
  8
7
100
AcDbLine
 10
-1.025278650699172
 20
9.580237677459713
 30
0.0
 11
-1.013467627077125
 21
9.576300669585695
 31
0.0
  0
LINE
  5
2F1D
330
1E
100
AcDbEntity
  8
7
100
AcDbLine
 10
-0.8677983357385432
 20
9.749529016042391
 30
0.0
 11
-0.9071684144787006
 21
9.655040827066013
 31
0.0
  0
LINE
  5
2F23
330
1E
100
AcDbEntity
  8
7
100
AcDbLine
 10
-1.052837705817283
 20
9.895198307380972
 30
0.0
 11
-0.8992943987306691
 21
9.824332165648687
 31
0.0
  0
LINE
  5
2F29
330
1E
100
AcDbEntity
  8
7
100
AcDbLine
 10
-1.178821957785786
 20
9.781025079034517
 30
0.0
 11
-1.131577863297597
 21
9.871576260136876
 31
0.0
  0
LINE
  5
2F2A
330
1E
100
AcDbEntity
  8
7
100
AcDbLine
 10
0.2818079634740549
 20
8.970001456987272
 30
0.0
 11
0.2739339477260234
 21
8.973938464861287
 31
0.0
  0
LINE
  5
2F2B
330
1E
100
AcDbEntity
  8
7
100
AcDbLine
 10
0.1361386721354716
 20
9.040867598719554
 30
0.0
 11
0.1282646563874401
 21
9.044804606593569
 31
0.0
  0
LINE
  5
2F2C
330
1E
100
AcDbEntity
  8
7
100
AcDbLine
 10
0.8526741052063382
 20
8.83220618139672
 30
0.0
 11
0.9077922154425586
 21
8.938505393995146
 31
0.0
  0
LINE
  5
2F2D
330
1E
100
AcDbEntity
  8
7
100
AcDbLine
 10
0.91566623119059
 20
8.804647126278609
 30
0.0
 11
0.9707843414268104
 21
8.910946338877035
 31
0.0
  0
LINE
  5
2F34
330
1E
100
AcDbEntity
  8
7
100
AcDbLine
 10
0.2581859162299604
 20
8.946379409743176
 30
0.0
 11
0.1243276485134253
 21
9.009371535727428
 31
0.0
  0
LINE
  5
2F3A
330
1E
100
AcDbEntity
  8
7
100
AcDbLine
 10
0.2739339477260234
 20
8.973938464861287
 30
0.0
 11
0.2699969398520068
 21
8.973938464861287
 31
0.0
  0
LINE
  5
2F3B
330
1E
100
AcDbEntity
  8
7
100
AcDbLine
 10
0.1243276485134253
 20
9.009371535727428
 30
0.0
 11
0.0495244989071253
 21
8.847954212892783
 31
0.0
  0
LINE
  5
2F3C
330
1E
100
AcDbEntity
  8
7
100
AcDbLine
 10
0.1794457587496456
 20
8.784962086908532
 30
0.0
 11
0.2581859162299604
 21
8.946379409743176
 31
0.0
  0
LINE
  5
2F3D
330
1E
100
AcDbEntity
  8
7
100
AcDbLine
 10
0.388107176072479
 20
9.048741614467587
 30
0.0
 11
0.4274772548126365
 21
9.143229803443965
 31
0.0
  0
LINE
  5
2F43
330
1E
100
AcDbEntity
  8
7
100
AcDbLine
 10
0.3959811918205105
 20
9.22196996092428
 30
0.0
 11
0.2424378847338975
 21
9.292836102656561
 31
0.0
  0
LINE
  5
2F49
330
1E
100
AcDbEntity
  8
7
100
AcDbLine
 10
0.1676347351275975
 20
9.265277047538454
 30
0.0
 11
0.1164536327653938
 21
9.174725866436091
 31
0.0
  0
LINE
  5
2F4F
330
1E
100
AcDbEntity
  8
7
100
AcDbLine
 10
1.773933947726023
 20
8.536930590845539
 30
0.0
 11
2.81330402646618
 21
8.048741614467587
 31
0.0
  0
LINE
  5
2F50
330
1E
100
AcDbEntity
  8
7
100
AcDbLine
 10
3.069209538277204
 20
7.930631378247113
 30
0.0
 11
3.54558749103311
 21
7.710158937302232
 31
0.0
  0
LINE
  5
2F51
330
1E
100
AcDbEntity
  8
7
100
AcDbLine
 10
3.608579617017362
 20
7.678662874310106
 30
0.0
 11
3.54558749103311
 21
7.710158937302232
 31
0.0
  0
LINE
  5
2F52
330
1E
100
AcDbEntity
  8
7
100
AcDbLine
 10
0.9786583571748419
 20
8.90700933100302
 30
0.0
 11
1.041650483159093
 21
8.875513268010895
 31
0.0
  0
LINE
  5
2F53
330
1E
100
AcDbEntity
  8
7
100
AcDbLine
 10
0.931414262686653
 20
8.79677311053058
 30
0.0
 11
0.9786583571748419
 21
8.90700933100302
 31
0.0
  0
LINE
  5
2F54
330
1E
100
AcDbEntity
  8
7
100
AcDbLine
 10
1.466847333552793
 20
8.383387283758924
 30
0.0
 11
1.478658357174841
 21
8.410946338877035
 31
0.0
  0
LINE
  5
2F55
330
1E
100
AcDbEntity
  8
7
100
AcDbLine
 10
1.466847333552793
 20
8.383387283758924
 30
0.0
 11
1.60070560126933
 21
8.320395157774672
 31
0.0
  0
LINE
  5
2F56
330
1E
100
AcDbEntity
  8
7
100
AcDbLine
 10
1.612516624891377
 20
8.347954212892783
 30
0.0
 11
1.60070560126933
 21
8.320395157774672
 31
0.0
  0
LINE
  5
2F57
330
1E
100
AcDbEntity
  8
7
100
AcDbLine
 10
1.478658357174841
 20
8.410946338877035
 30
0.0
 11
1.612516624891377
 21
8.347954212892783
 31
0.0
  0
LINE
  5
2F58
330
1E
100
AcDbEntity
  8
7
100
AcDbLine
 10
1.478658357174841
 20
8.41488334675105
 30
0.0
 11
1.612516624891377
 21
8.347954212892783
 31
0.0
  0
LINE
  5
2F59
330
1E
100
AcDbEntity
  8
7
100
AcDbLine
 10
1.478658357174841
 20
8.41488334675105
 30
0.0
 11
1.478658357174841
 21
8.410946338877035
 31
0.0
  0
LINE
  5
2F5A
330
1E
100
AcDbEntity
  8
7
100
AcDbLine
 10
1.60070560126933
 20
8.320395157774672
 30
0.0
 11
1.521965443789015
 21
8.162914842814043
 31
0.0
  0
LINE
  5
2F5B
330
1E
100
AcDbEntity
  8
7
100
AcDbLine
 10
1.392044183946495
 20
8.22196996092428
 30
0.0
 11
1.466847333552793
 21
8.383387283758924
 31
0.0
  0
LINE
  5
2F5C
330
1E
100
AcDbEntity
  8
7
100
AcDbLine
 10
1.47078434142681
 20
8.418820354625065
 30
0.0
 11
1.478658357174841
 21
8.41488334675105
 31
0.0
  0
LINE
  5
2F5D
330
1E
100
AcDbEntity
  8
7
100
AcDbLine
 10
1.612516624891377
 20
8.347954212892783
 30
0.0
 11
1.624327648513425
 21
8.344017205018769
 31
0.0
  0
LINE
  5
2F5E
330
1E
100
AcDbEntity
  8
7
100
AcDbLine
 10
1.769996939852006
 20
8.517245551475461
 30
0.0
 11
1.730626861111849
 21
8.422757362499083
 31
0.0
  0
LINE
  5
2F64
330
1E
100
AcDbEntity
  8
7
100
AcDbLine
 10
1.584957569773267
 20
8.666851850688058
 30
0.0
 11
1.73850087685988
 21
8.595985708955776
 31
0.0
  0
LINE
  5
2F6A
330
1E
100
AcDbEntity
  8
7
100
AcDbLine
 10
1.458973317804762
 20
8.548741614467587
 30
0.0
 11
1.506217412292951
 21
8.63929279556995
 31
0.0
  0
LINE
  5
2F6B
330
1E
100
AcDbEntity
  8
7
100
AcDbLine
 10
2.919603239064604
 20
7.741655000294358
 30
0.0
 11
2.911729223316573
 21
7.745592008168372
 31
0.0
  0
LINE
  5
2F6C
330
1E
100
AcDbEntity
  8
7
100
AcDbLine
 10
2.773933947726023
 20
7.808584134152624
 30
0.0
 11
2.766059931977991
 21
7.812521142026643
 31
0.0
  0
LINE
  5
2F6D
330
1E
100
AcDbEntity
  8
7
100
AcDbLine
 10
3.490469380796888
 20
7.603859724703806
 30
0.0
 11
3.54558749103311
 21
7.710158937302232
 31
0.0
  0
LINE
  5
2F6E
330
1E
100
AcDbEntity
  8
7
100
AcDbLine
 10
3.553461506781141
 20
7.57236366171168
 30
0.0
 11
3.608579617017362
 21
7.678662874310106
 31
0.0
  0
LINE
  5
2F75
330
1E
100
AcDbEntity
  8
7
100
AcDbLine
 10
2.89598119182051
 20
7.718032953050265
 30
0.0
 11
2.762122924103975
 21
7.781025079034517
 31
0.0
  0
LINE
  5
2F76
330
1E
100
AcDbEntity
  8
7
100
AcDbLine
 10
2.911729223316573
 20
7.745592008168372
 30
0.0
 11
2.773933947726023
 21
7.808584134152624
 31
0.0
  0
LINE
  5
2F77
330
1E
100
AcDbEntity
  8
7
100
AcDbLine
 10
2.762122924103975
 20
7.781025079034517
 30
0.0
 11
2.687319774497677
 21
7.615670748325854
 31
0.0
  0
LINE
  5
2F78
330
1E
100
AcDbEntity
  8
7
100
AcDbLine
 10
2.817241034340195
 20
7.556615630215617
 30
0.0
 11
2.89598119182051
 21
7.718032953050265
 31
0.0
  0
LINE
  5
2F79
330
1E
100
AcDbEntity
  8
7
100
AcDbLine
 10
3.02590245166303
 20
7.820395157774672
 30
0.0
 11
3.065272530403188
 21
7.91488334675105
 31
0.0
  0
LINE
  5
2F7F
330
1E
100
AcDbEntity
  8
7
100
AcDbLine
 10
3.033776467411062
 20
7.98968649635735
 30
0.0
 11
2.884170168198464
 21
8.060552638089632
 31
0.0
  0
LINE
  5
2F80
330
1E
100
AcDbEntity
  8
7
100
AcDbLine
 10
2.805430010718149
 20
8.036930590845539
 30
0.0
 11
2.836926073710275
 21
8.06448964596365
 31
0.0
  0
LINE
  5
2F81
330
1E
100
AcDbEntity
  8
7
100
AcDbLine
 10
2.836926073710275
 20
8.06448964596365
 30
0.0
 11
2.884170168198464
 21
8.060552638089632
 31
0.0
  0
LINE
  5
2F82
330
1E
100
AcDbEntity
  8
7
100
AcDbLine
 10
2.805430010718149
 20
8.036930590845539
 30
0.0
 11
2.754248908355943
 21
7.946379409743176
 31
0.0
  0
LINE
  5
2F88
330
1E
100
AcDbEntity
  8
7
100
AcDbLine
 10
4.411729223316573
 20
7.304647126278609
 30
0.0
 11
5.45109930205673
 21
6.820395157774672
 31
0.0
  0
LINE
  5
2F89
330
1E
100
AcDbEntity
  8
7
100
AcDbLine
 10
5.707004813867754
 20
6.702284921554202
 30
0.0
 11
6.18338276662366
 21
6.477875472735302
 31
0.0
  0
LINE
  5
2F8A
330
1E
100
AcDbEntity
  8
7
100
AcDbLine
 10
6.246374892607912
 20
6.450316417617191
 30
0.0
 11
6.18338276662366
 21
6.477875472735302
 31
0.0
  0
LINE
  5
2F8B
330
1E
100
AcDbEntity
  8
7
100
AcDbLine
 10
3.616453632765393
 20
7.674725866436091
 30
0.0
 11
3.679445758749645
 21
7.64716681131798
 31
0.0
  0
LINE
  5
2F8C
330
1E
100
AcDbEntity
  8
7
100
AcDbLine
 10
3.573146546151219
 20
7.56448964596365
 30
0.0
 11
3.616453632765393
 21
7.674725866436091
 31
0.0
  0
LINE
  5
2F8D
330
1E
100
AcDbEntity
  8
7
100
AcDbLine
 10
4.104642609143345
 20
7.155040827066013
 30
0.0
 11
4.116453632765393
 21
7.182599882184121
 31
0.0
  0
LINE
  5
2F8E
330
1E
100
AcDbEntity
  8
7
100
AcDbLine
 10
4.104642609143345
 20
7.155040827066013
 30
0.0
 11
4.23850087685988
 21
7.092048701081758
 31
0.0
  0
LINE
  5
2F8F
330
1E
100
AcDbEntity
  8
7
100
AcDbLine
 10
4.250311900481928
 20
7.119607756199869
 30
0.0
 11
4.23850087685988
 21
7.092048701081758
 31
0.0
  0
LINE
  5
2F90
330
1E
100
AcDbEntity
  8
7
100
AcDbLine
 10
4.116453632765393
 20
7.182599882184121
 30
0.0
 11
4.250311900481928
 21
7.119607756199869
 31
0.0
  0
LINE
  5
2F91
330
1E
100
AcDbEntity
  8
7
100
AcDbLine
 10
4.116453632765393
 20
7.182599882184121
 30
0.0
 11
4.254248908355943
 21
7.119607756199869
 31
0.0
  0
LINE
  5
2F92
330
1E
100
AcDbEntity
  8
7
100
AcDbLine
 10
4.254248908355943
 20
7.119607756199869
 30
0.0
 11
4.250311900481928
 21
7.119607756199869
 31
0.0
  0
LINE
  5
2F93
330
1E
100
AcDbEntity
  8
7
100
AcDbLine
 10
4.23850087685988
 20
7.092048701081758
 30
0.0
 11
4.159760719379566
 21
6.930631378247113
 31
0.0
  0
LINE
  5
2F94
330
1E
100
AcDbEntity
  8
7
100
AcDbLine
 10
4.029839459537045
 20
6.98968649635735
 30
0.0
 11
4.104642609143345
 21
7.155040827066013
 31
0.0
  0
LINE
  5
2F95
330
1E
100
AcDbEntity
  8
7
100
AcDbLine
 10
4.108579617017362
 20
7.186536890058139
 30
0.0
 11
4.116453632765393
 21
7.182599882184121
 31
0.0
  0
LINE
  5
2F96
330
1E
100
AcDbEntity
  8
7
100
AcDbLine
 10
4.254248908355943
 20
7.119607756199869
 30
0.0
 11
4.262122924103975
 21
7.115670748325854
 31
0.0
  0
LINE
  5
2F97
330
1E
100
AcDbEntity
  8
7
100
AcDbLine
 10
4.407792215442558
 20
7.288899094782546
 30
0.0
 11
4.368422136702401
 21
7.194410905806169
 31
0.0
  0
LINE
  5
2F9D
330
1E
100
AcDbEntity
  8
7
100
AcDbLine
 10
4.222752845363817
 20
7.434568386121128
 30
0.0
 11
4.376296152450432
 21
7.363702244388846
 31
0.0
  0
LINE
  5
2FA3
330
1E
100
AcDbEntity
  8
7
100
AcDbLine
 10
4.096768593395314
 20
7.320395157774672
 30
0.0
 11
4.147949695757519
 21
7.410946338877035
 31
0.0
  0
LINE
  5
2FA4
330
1E
100
AcDbEntity
  8
7
100
AcDbLine
 10
5.557398514655156
 20
6.509371535727428
 30
0.0
 11
5.549524498907125
 21
6.513308543601443
 31
0.0
  0
LINE
  5
2FA5
330
1E
100
AcDbEntity
  8
7
100
AcDbLine
 10
5.411729223316573
 20
6.580237677459713
 30
0.0
 11
5.403855207568541
 21
6.584174685333728
 31
0.0
  0
LINE
  5
2FA6
330
1E
100
AcDbEntity
  8
7
100
AcDbLine
 10
6.12826465638744
 20
6.371576260136876
 30
0.0
 11
6.18338276662366
 21
6.477875472735302
 31
0.0
  0
LINE
  5
2FA7
330
1E
100
AcDbEntity
  8
7
100
AcDbLine
 10
6.191256782371691
 20
6.344017205018769
 30
0.0
 11
6.246374892607912
 21
6.450316417617191
 31
0.0
  0
LINE
  5
2FAE
330
1E
100
AcDbEntity
  8
7
100
AcDbLine
 10
5.533776467411062
 20
6.485749488483335
 30
0.0
 11
5.399918199694527
 21
6.548741614467587
 31
0.0
  0
LINE
  5
2FB4
330
1E
100
AcDbEntity
  8
7
100
AcDbLine
 10
5.399918199694527
 20
6.548741614467587
 30
0.0
 11
5.329052057962243
 21
6.387324291632939
 31
0.0
  0
LINE
  5
2FB5
330
1E
100
AcDbEntity
  8
7
100
AcDbLine
 10
5.455036309930747
 20
6.328269173522706
 30
0.0
 11
5.533776467411062
 21
6.485749488483335
 31
0.0
  0
LINE
  5
2FB6
330
1E
100
AcDbEntity
  8
7
100
AcDbLine
 10
5.663697727253582
 20
6.588111693207743
 30
0.0
 11
5.70306780599374
 21
6.682599882184121
 31
0.0
  0
LINE
  5
2FBC
330
1E
100
AcDbEntity
  8
7
100
AcDbLine
 10
5.671571743001614
 20
6.761340039664435
 30
0.0
 11
5.521965443789014
 21
6.83220618139672
 31
0.0
  0
LINE
  5
2FBD
330
1E
100
AcDbEntity
  8
7
100
AcDbLine
 10
5.443225286308699
 20
6.804647126278609
 30
0.0
 11
5.474721349300825
 21
6.83220618139672
 31
0.0
  0
LINE
  5
2FBE
330
1E
100
AcDbEntity
  8
7
100
AcDbLine
 10
5.474721349300825
 20
6.83220618139672
 30
0.0
 11
5.521965443789014
 21
6.83220618139672
 31
0.0
  0
LINE
  5
2FBF
330
1E
100
AcDbEntity
  8
7
100
AcDbLine
 10
5.443225286308699
 20
6.804647126278609
 30
0.0
 11
5.39598119182051
 21
6.714095945176246
 31
0.0
  0
LINE
  5
2FC5
330
1E
100
AcDbEntity
  8
7
100
AcDbLine
 10
7.557398514655156
 20
6.820395157774672
 30
0.0
 11
8.596768593395317
 21
7.304647126278609
 31
0.0
  0
LINE
  5
2FC6
330
1E
100
AcDbEntity
  8
7
100
AcDbLine
 10
8.85267410520634
 20
7.422757362499083
 30
0.0
 11
9.329052057962243
 21
7.64716681131798
 31
0.0
  0
LINE
  5
2FC7
330
1E
100
AcDbEntity
  8
7
100
AcDbLine
 10
9.392044183946495
 20
7.674725866436091
 30
0.0
 11
9.329052057962243
 21
7.64716681131798
 31
0.0
  0
LINE
  5
2FC8
330
1E
100
AcDbEntity
  8
7
100
AcDbLine
 10
6.762122924103975
 20
6.450316417617191
 30
0.0
 11
6.825115050088227
 21
6.477875472735302
 31
0.0
  0
LINE
  5
2FC9
330
1E
100
AcDbEntity
  8
7
100
AcDbLine
 10
6.817241034340195
 20
6.344017205018769
 30
0.0
 11
6.762122924103975
 21
6.450316417617191
 31
0.0
  0
LINE
  5
2FCA
330
1E
100
AcDbEntity
  8
7
100
AcDbLine
 10
7.474721349300827
 20
6.485749488483335
 30
0.0
 11
7.462910325678778
 21
6.513308543601443
 31
0.0
  0
LINE
  5
2FCB
330
1E
100
AcDbEntity
  8
7
100
AcDbLine
 10
7.474721349300827
 20
6.485749488483335
 30
0.0
 11
7.60857961701736
 21
6.548741614467587
 31
0.0
  0
LINE
  5
2FCC
330
1E
100
AcDbEntity
  8
7
100
AcDbLine
 10
7.596768593395315
 20
6.576300669585695
 30
0.0
 11
7.60857961701736
 21
6.548741614467587
 31
0.0
  0
LINE
  5
2FCD
330
1E
100
AcDbEntity
  8
7
100
AcDbLine
 10
7.462910325678778
 20
6.513308543601443
 30
0.0
 11
7.596768593395315
 21
6.576300669585695
 31
0.0
  0
LINE
  5
2FCE
330
1E
100
AcDbEntity
  8
7
100
AcDbLine
 10
7.458973317804764
 20
6.513308543601443
 30
0.0
 11
7.596768593395315
 21
6.580237677459713
 31
0.0
  0
LINE
  5
2FCF
330
1E
100
AcDbEntity
  8
7
100
AcDbLine
 10
7.458973317804764
 20
6.513308543601443
 30
0.0
 11
7.462910325678778
 21
6.513308543601443
 31
0.0
  0
LINE
  5
2FD0
330
1E
100
AcDbEntity
  8
7
100
AcDbLine
 10
7.596768593395315
 20
6.580237677459713
 30
0.0
 11
7.596768593395315
 21
6.576300669585695
 31
0.0
  0
LINE
  5
2FD1
330
1E
100
AcDbEntity
  8
7
100
AcDbLine
 10
7.60857961701736
 20
6.548741614467587
 30
0.0
 11
7.68338276662366
 21
6.387324291632939
 31
0.0
  0
LINE
  5
2FD2
330
1E
100
AcDbEntity
  8
7
100
AcDbLine
 10
7.553461506781141
 20
6.328269173522706
 30
0.0
 11
7.474721349300827
 21
6.485749488483335
 31
0.0
  0
LINE
  5
2FD3
330
1E
100
AcDbEntity
  8
7
100
AcDbLine
 10
7.45109930205673
 20
6.509371535727428
 30
0.0
 11
7.458973317804764
 21
6.513308543601443
 31
0.0
  0
LINE
  5
2FD4
330
1E
100
AcDbEntity
  8
7
100
AcDbLine
 10
7.596768593395315
 20
6.580237677459713
 30
0.0
 11
7.604642609143345
 21
6.584174685333728
 31
0.0
  0
LINE
  5
2FD5
330
1E
100
AcDbEntity
  8
7
100
AcDbLine
 10
7.56527253040319
 20
6.804647126278609
 30
0.0
 11
7.616453632765393
 21
6.714095945176246
 31
0.0
  0
LINE
  5
2FDB
330
1E
100
AcDbEntity
  8
7
100
AcDbLine
 10
7.336926073710275
 20
6.761340039664435
 30
0.0
 11
7.49046938079689
 21
6.83220618139672
 31
0.0
  0
LINE
  5
2FE1
330
1E
100
AcDbEntity
  8
7
100
AcDbLine
 10
7.344800089458306
 20
6.588111693207743
 30
0.0
 11
7.305430010718149
 21
6.682599882184121
 31
0.0
  0
LINE
  5
2FE2
330
1E
100
AcDbEntity
  8
7
100
AcDbLine
 10
8.899918199694528
 20
7.186536890058139
 30
0.0
 11
8.892044183946495
 21
7.182599882184121
 31
0.0
  0
LINE
  5
2FE3
330
1E
100
AcDbEntity
  8
7
100
AcDbLine
 10
8.758185916229962
 20
7.119607756199869
 30
0.0
 11
8.746374892607914
 21
7.115670748325854
 31
0.0
  0
LINE
  5
2FE4
330
1E
100
AcDbEntity
  8
7
100
AcDbLine
 10
9.376296152450432
 20
7.536930590845539
 30
0.0
 11
9.329052057962243
 21
7.64716681131798
 31
0.0
  0
LINE
  5
2FE5
330
1E
100
AcDbEntity
  8
7
100
AcDbLine
 10
9.439288278434684
 20
7.56448964596365
 30
0.0
 11
9.392044183946495
 21
7.674725866436091
 31
0.0
  0
LINE
  5
2FEC
330
1E
100
AcDbEntity
  8
7
100
AcDbLine
 10
8.903855207568543
 20
7.155040827066013
 30
0.0
 11
8.76999693985201
 21
7.092048701081758
 31
0.0
  0
LINE
  5
2FED
330
1E
100
AcDbEntity
  8
7
100
AcDbLine
 10
8.892044183946495
 20
7.182599882184121
 30
0.0
 11
8.758185916229962
 21
7.119607756199869
 31
0.0
  0
LINE
  5
2FEE
330
1E
100
AcDbEntity
  8
7
100
AcDbLine
 10
8.76999693985201
 20
7.092048701081758
 30
0.0
 11
8.848737097332325
 21
6.930631378247113
 31
0.0
  0
LINE
  5
2FEF
330
1E
100
AcDbEntity
  8
7
100
AcDbLine
 10
8.978658357174843
 20
6.98968649635735
 30
0.0
 11
8.903855207568543
 21
7.155040827066013
 31
0.0
  0
LINE
  5
2FF0
330
1E
100
AcDbEntity
  8
7
100
AcDbLine
 10
8.911729223316577
 20
7.320395157774672
 30
0.0
 11
8.864485128828388
 21
7.410946338877035
 31
0.0
  0
LINE
  5
2FF6
330
1E
100
AcDbEntity
  8
7
100
AcDbLine
 10
8.785744971348073
 20
7.434568386121128
 30
0.0
 11
8.632201664261458
 21
7.363702244388846
 31
0.0
  0
LINE
  5
2FFC
330
1E
100
AcDbEntity
  8
7
100
AcDbLine
 10
8.600705601269332
 20
7.288899094782546
 30
0.0
 11
8.640075680009488
 21
7.194410905806169
 31
0.0
  0
LINE
  5
3002
330
1E
100
AcDbEntity
  8
7
100
AcDbLine
 10
10.19519379024571
 20
8.048741614467587
 30
0.0
 11
11.23456386898586
 21
8.536930590845539
 31
0.0
  0
LINE
  5
3003
330
1E
100
AcDbEntity
  8
7
100
AcDbLine
 10
11.49046938079689
 20
8.655040827066013
 30
0.0
 11
11.96684733355279
 21
8.875513268010895
 31
0.0
  0
LINE
  5
3004
330
1E
100
AcDbEntity
  8
7
100
AcDbLine
 10
12.02983945953704
 20
8.90700933100302
 30
0.0
 11
11.96684733355279
 21
8.875513268010895
 31
0.0
  0
LINE
  5
3005
330
1E
100
AcDbEntity
  8
7
100
AcDbLine
 10
9.399918199694528
 20
7.678662874310106
 30
0.0
 11
9.466847333552795
 21
7.710158937302232
 31
0.0
  0
LINE
  5
3006
330
1E
100
AcDbEntity
  8
7
100
AcDbLine
 10
9.455036309930747
 20
7.57236366171168
 30
0.0
 11
9.399918199694528
 21
7.678662874310106
 31
0.0
  0
LINE
  5
3007
330
1E
100
AcDbEntity
  8
7
100
AcDbLine
 10
10.11251662489138
 20
7.718032953050265
 30
0.0
 11
10.10070560126933
 21
7.745592008168372
 31
0.0
  0
LINE
  5
3008
330
1E
100
AcDbEntity
  8
7
100
AcDbLine
 10
10.11251662489138
 20
7.718032953050265
 30
0.0
 11
10.24637489260791
 21
7.781025079034517
 31
0.0
  0
LINE
  5
3009
330
1E
100
AcDbEntity
  8
7
100
AcDbLine
 10
10.23456386898586
 20
7.808584134152624
 30
0.0
 11
10.24637489260791
 21
7.781025079034517
 31
0.0
  0
LINE
  5
300A
330
1E
100
AcDbEntity
  8
7
100
AcDbLine
 10
10.10070560126933
 20
7.745592008168372
 30
0.0
 11
10.23456386898586
 21
7.808584134152624
 31
0.0
  0
LINE
  5
300B
330
1E
100
AcDbEntity
  8
7
100
AcDbLine
 10
10.10070560126933
 20
7.745592008168372
 30
0.0
 11
10.23456386898586
 21
7.808584134152624
 31
0.0
  0
LINE
  5
300C
330
1E
100
AcDbEntity
  8
7
100
AcDbLine
 10
10.24637489260791
 20
7.781025079034517
 30
0.0
 11
10.32117804221421
 21
7.615670748325854
 31
0.0
  0
LINE
  5
300D
330
1E
100
AcDbEntity
  8
7
100
AcDbLine
 10
10.19125678237169
 20
7.556615630215617
 30
0.0
 11
10.11251662489138
 21
7.718032953050265
 31
0.0
  0
LINE
  5
300E
330
1E
100
AcDbEntity
  8
7
100
AcDbLine
 10
10.08889457764728
 20
7.741655000294358
 30
0.0
 11
10.10070560126933
 21
7.745592008168372
 31
0.0
  0
LINE
  5
300F
330
1E
100
AcDbEntity
  8
7
100
AcDbLine
 10
10.23456386898586
 20
7.808584134152624
 30
0.0
 11
10.24243788473389
 21
7.812521142026643
 31
0.0
  0
LINE
  5
3010
330
1E
100
AcDbEntity
  8
7
100
AcDbLine
 10
10.20700481386775
 20
8.036930590845539
 30
0.0
 11
10.25424890835594
 21
7.946379409743176
 31
0.0
  0
LINE
  5
3016
330
1E
100
AcDbEntity
  8
7
100
AcDbLine
 10
9.974721349300828
 20
7.98968649635735
 30
0.0
 11
10.12826465638744
 21
8.060552638089632
 31
0.0
  0
LINE
  5
301C
330
1E
100
AcDbEntity
  8
7
100
AcDbLine
 10
9.982595365048858
 20
7.820395157774672
 30
0.0
 11
9.943225286308702
 21
7.91488334675105
 31
0.0
  0
LINE
  5
301D
330
1E
100
AcDbEntity
  8
7
100
AcDbLine
 10
11.54165048315909
 20
8.418820354625065
 30
0.0
 11
11.52983945953704
 21
8.41488334675105
 31
0.0
  0
LINE
  5
301E
330
1E
100
AcDbEntity
  8
7
100
AcDbLine
 10
11.39598119182051
 20
8.347954212892783
 30
0.0
 11
11.38417016819846
 21
8.344017205018769
 31
0.0
  0
LINE
  5
301F
330
1E
100
AcDbEntity
  8
7
100
AcDbLine
 10
12.01409142804098
 20
8.765277047538454
 30
0.0
 11
11.96684733355279
 21
8.875513268010895
 31
0.0
  0
LINE
  5
3020
330
1E
100
AcDbEntity
  8
7
100
AcDbLine
 10
12.07708355402523
 20
8.79677311053058
 30
0.0
 11
12.02983945953704
 21
8.90700933100302
 31
0.0
  0
LINE
  5
3027
330
1E
100
AcDbEntity
  8
7
100
AcDbLine
 10
11.54558749103311
 20
8.383387283758924
 30
0.0
 11
11.40779221544255
 21
8.320395157774672
 31
0.0
  0
LINE
  5
3028
330
1E
100
AcDbEntity
  8
7
100
AcDbLine
 10
11.52983945953704
 20
8.41488334675105
 30
0.0
 11
11.39598119182051
 21
8.347954212892783
 31
0.0
  0
LINE
  5
3029
330
1E
100
AcDbEntity
  8
7
100
AcDbLine
 10
11.52983945953704
 20
8.41488334675105
 30
0.0
 11
11.52983945953704
 21
8.410946338877035
 31
0.0
  0
LINE
  5
302A
330
1E
100
AcDbEntity
  8
7
100
AcDbLine
 10
11.40779221544255
 20
8.320395157774672
 30
0.0
 11
11.48653237292287
 21
8.162914842814043
 31
0.0
  0
LINE
  5
302B
330
1E
100
AcDbEntity
  8
7
100
AcDbLine
 10
11.61645363276539
 20
8.22196996092428
 30
0.0
 11
11.54558749103311
 21
8.383387283758924
 31
0.0
  0
LINE
  5
302C
330
1E
100
AcDbEntity
  8
7
100
AcDbLine
 10
11.54952449890712
 20
8.548741614467587
 30
0.0
 11
11.50228040441893
 21
8.63929279556995
 31
0.0
  0
LINE
  5
3032
330
1E
100
AcDbEntity
  8
7
100
AcDbLine
 10
11.42354024693862
 20
8.666851850688058
 30
0.0
 11
11.26999693985201
 21
8.595985708955776
 31
0.0
  0
LINE
  5
3033
330
1E
100
AcDbEntity
  8
7
100
AcDbLine
 10
11.23850087685988
 20
8.517245551475461
 30
0.0
 11
11.23850087685988
 21
8.56448964596365
 31
0.0
  0
LINE
  5
3034
330
1E
100
AcDbEntity
  8
7
100
AcDbLine
 10
11.23850087685988
 20
8.56448964596365
 30
0.0
 11
11.26999693985201
 21
8.595985708955776
 31
0.0
  0
LINE
  5
3035
330
1E
100
AcDbEntity
  8
7
100
AcDbLine
 10
11.23850087685988
 20
8.517245551475461
 30
0.0
 11
11.27787095560004
 21
8.422757362499083
 31
0.0
  0
LINE
  5
303B
330
1E
100
AcDbEntity
  8
7
100
AcDbLine
 10
12.83298906583626
 20
9.281025079034517
 30
0.0
 11
13.87629615245043
 21
9.765277047538454
 31
0.0
  0
LINE
  5
303C
330
1E
100
AcDbEntity
  8
7
100
AcDbLine
 10
14.12826465638744
 20
9.883387283758924
 30
0.0
 11
14.60464260914334
 21
10.1038597247038
 31
0.0
  0
LINE
  5
303D
330
1E
100
AcDbEntity
  8
7
100
AcDbLine
 10
14.66763473512759
 20
10.13535578769593
 30
0.0
 11
14.60464260914334
 21
10.1038597247038
 31
0.0
  0
LINE
  5
303E
330
1E
100
AcDbEntity
  8
7
100
AcDbLine
 10
12.04165048315909
 20
8.910946338877035
 30
0.0
 11
12.10464260914334
 21
8.938505393995146
 31
0.0
  0
LINE
  5
303F
330
1E
100
AcDbEntity
  8
7
100
AcDbLine
 10
12.09283158552129
 20
8.804647126278609
 30
0.0
 11
12.04165048315909
 21
8.910946338877035
 31
0.0
  0
LINE
  5
3040
330
1E
100
AcDbEntity
  8
7
100
AcDbLine
 10
12.75031190048192
 20
8.946379409743176
 30
0.0
 11
12.73850087685988
 21
8.973938464861287
 31
0.0
  0
LINE
  5
3041
330
1E
100
AcDbEntity
  8
7
100
AcDbLine
 10
12.75031190048192
 20
8.946379409743176
 30
0.0
 11
12.88810717607248
 21
9.009371535727428
 31
0.0
  0
LINE
  5
3042
330
1E
100
AcDbEntity
  8
7
100
AcDbLine
 10
12.87235914457641
 20
9.036930590845539
 30
0.0
 11
12.88810717607248
 21
9.009371535727428
 31
0.0
  0
LINE
  5
3043
330
1E
100
AcDbEntity
  8
7
100
AcDbLine
 10
12.73850087685988
 20
8.973938464861287
 30
0.0
 11
12.87235914457641
 21
9.036930590845539
 31
0.0
  0
LINE
  5
3044
330
1E
100
AcDbEntity
  8
7
100
AcDbLine
 10
12.73850087685988
 20
8.973938464861287
 30
0.0
 11
12.87235914457641
 21
9.040867598719554
 31
0.0
  0
LINE
  5
3045
330
1E
100
AcDbEntity
  8
7
100
AcDbLine
 10
12.87235914457641
 20
9.040867598719554
 30
0.0
 11
12.87235914457641
 21
9.036930590845539
 31
0.0
  0
LINE
  5
3046
330
1E
100
AcDbEntity
  8
7
100
AcDbLine
 10
12.88810717607248
 20
9.009371535727428
 30
0.0
 11
12.95897331780476
 21
8.847954212892783
 31
0.0
  0
LINE
  5
3047
330
1E
100
AcDbEntity
  8
7
100
AcDbLine
 10
12.82905205796224
 20
8.784962086908532
 30
0.0
 11
12.75031190048192
 21
8.946379409743176
 31
0.0
  0
LINE
  5
3048
330
1E
100
AcDbEntity
  8
7
100
AcDbLine
 10
12.72668985323783
 20
8.970001456987272
 30
0.0
 11
12.73850087685988
 21
8.973938464861287
 31
0.0
  0
LINE
  5
3049
330
1E
100
AcDbEntity
  8
7
100
AcDbLine
 10
12.87235914457641
 20
9.040867598719554
 30
0.0
 11
12.88417016819846
 21
9.044804606593569
 31
0.0
  0
LINE
  5
304A
330
1E
100
AcDbEntity
  8
7
100
AcDbLine
 10
12.8448000894583
 20
9.265277047538454
 30
0.0
 11
12.89204418394649
 21
9.174725866436091
 31
0.0
  0
LINE
  5
3050
330
1E
100
AcDbEntity
  8
7
100
AcDbLine
 10
12.61251662489138
 20
9.22196996092428
 30
0.0
 11
12.76605993197799
 21
9.292836102656561
 31
0.0
  0
LINE
  5
3051
330
1E
100
AcDbEntity
  8
7
100
AcDbLine
 10
12.61251662489138
 20
9.22196996092428
 30
0.0
 11
12.58102056189925
 21
9.190473897932154
 31
0.0
  0
LINE
  5
3052
330
1E
100
AcDbEntity
  8
7
100
AcDbLine
 10
12.58102056189925
 20
9.190473897932154
 30
0.0
 11
12.58102056189925
 21
9.143229803443965
 31
0.0
  0
LINE
  5
3053
330
1E
100
AcDbEntity
  8
7
100
AcDbLine
 10
12.62039064063941
 20
9.048741614467587
 30
0.0
 11
12.58102056189925
 21
9.143229803443965
 31
0.0
  0
LINE
  5
3054
330
1E
100
AcDbEntity
  8
7
100
AcDbLine
 10
14.17944575874964
 20
9.64716681131798
 30
0.0
 11
14.1676347351276
 21
9.643229803443965
 31
0.0
  0
LINE
  5
3055
330
1E
100
AcDbEntity
  8
7
100
AcDbLine
 10
14.03377646741106
 20
9.580237677459713
 30
0.0
 11
14.02590245166303
 21
9.576300669585695
 31
0.0
  0
LINE
  5
3056
330
1E
100
AcDbEntity
  8
7
100
AcDbLine
 10
14.65188670363153
 20
9.99756051210538
 30
0.0
 11
14.60464260914334
 21
10.1038597247038
 31
0.0
  0
LINE
  5
3057
330
1E
100
AcDbEntity
  8
7
100
AcDbLine
 10
14.71487882961578
 20
10.02118255934947
 30
0.0
 11
14.66763473512759
 21
10.13535578769593
 31
0.0
  0
LINE
  5
305E
330
1E
100
AcDbEntity
  8
7
100
AcDbLine
 10
14.18338276662366
 20
9.615670748325854
 30
0.0
 11
14.04558749103311
 21
9.552678622341602
 31
0.0
  0
LINE
  5
305F
330
1E
100
AcDbEntity
  8
7
100
AcDbLine
 10
14.1676347351276
 20
9.643229803443965
 30
0.0
 11
14.03377646741106
 21
9.580237677459713
 31
0.0
  0
LINE
  5
3060
330
1E
100
AcDbEntity
  8
7
100
AcDbLine
 10
14.1676347351276
 20
9.643229803443965
 30
0.0
 11
14.17157174300161
 21
9.643229803443965
 31
0.0
  0
LINE
  5
3061
330
1E
100
AcDbEntity
  8
7
100
AcDbLine
 10
14.04558749103311
 20
9.552678622341602
 30
0.0
 11
14.12432764851342
 21
9.391261299506957
 31
0.0
  0
LINE
  5
3062
330
1E
100
AcDbEntity
  8
7
100
AcDbLine
 10
14.25424890835594
 20
9.450316417617191
 30
0.0
 11
14.18338276662366
 21
9.615670748325854
 31
0.0
  0
LINE
  5
3063
330
1E
100
AcDbEntity
  8
7
100
AcDbLine
 10
14.18731977449767
 20
9.781025079034517
 30
0.0
 11
14.14007568000949
 21
9.871576260136876
 31
0.0
  0
LINE
  5
3069
330
1E
100
AcDbEntity
  8
7
100
AcDbLine
 10
14.06133552252917
 20
9.895198307380972
 30
0.0
 11
13.90779221544256
 21
9.824332165648687
 31
0.0
  0
LINE
  5
306F
330
1E
100
AcDbEntity
  8
7
100
AcDbLine
 10
13.88023316032445
 20
9.749529016042391
 30
0.0
 11
13.91566623119059
 21
9.655040827066013
 31
0.0
  0
LINE
  5
3070
330
1E
100
AcDbEntity
  8
7
100
AcDbLine
 10
6.97078434142681
 20
1.261340039664435
 30
0.0
 11
6.037713475285077
 21
1.261340039664435
 31
0.0
  0
LINE
  5
3071
330
1E
100
AcDbEntity
  8
7
100
AcDbLine
 10
6.037713475285077
 20
-0.4591324012804457
 30
0.0
 11
6.97078434142681
 21
-0.4591324012804457
 31
0.0
  0
LINE
  5
3072
330
1E
100
AcDbEntity
  8
7
100
AcDbLine
 10
15.0928315855213
 20
1.261340039664435
 30
0.0
 11
7.018028435914999
 21
1.261340039664435
 31
0.0
  0
LINE
  5
3073
330
1E
100
AcDbEntity
  8
7
100
AcDbLine
 10
7.018028435914999
 20
-0.4591324012804457
 30
0.0
 11
15.0928315855213
 21
-0.4591324012804457
 31
0.0
  0
LINE
  5
3074
330
1E
100
AcDbEntity
  8
7
100
AcDbLine
 10
-2.084333768809409
 20
-0.4591324012804457
 30
0.0
 11
5.990469380796888
 21
-0.4591324012804457
 31
0.0
  0
LINE
  5
3075
330
1E
100
AcDbEntity
  8
7
100
AcDbLine
 10
5.990469380796888
 20
1.261340039664435
 30
0.0
 11
-2.084333768809409
 21
1.261340039664435
 31
0.0
  0
LINE
  5
3076
330
1E
100
AcDbEntity
  8
7
100
AcDbLine
 10
6.872359144576416
 20
0.2770880711604988
 30
0.0
 11
6.872359144576416
 21
0.1353557876959321
 31
0.0
  0
LINE
  5
3077
330
1E
100
AcDbEntity
  8
7
100
AcDbLine
 10
7.707004813867756
 20
1.001497519979398
 30
0.0
 11
7.671571743001612
 21
1.001497519979398
 31
0.0
  0
LINE
  5
3078
330
1E
100
AcDbEntity
  8
7
100
AcDbLine
 10
0.9629103256787789
 20
0.9503164176171914
 30
0.0
 11
0.9865323729228734
 21
0.9385053939951468
 31
0.0
  0
LINE
  5
3079
330
1E
100
AcDbEntity
  8
7
100
AcDbLine
 10
2.368422136702401
 20
-0.3213371256898938
 30
0.0
 11
2.368422136702401
 21
-0.1008646847450123
 31
0.0
  0
LINE
  5
307A
330
1E
100
AcDbEntity
  8
7
100
AcDbLine
 10
3.667634735127597
 20
0.9896864963573506
 30
0.0
 11
3.691256782371691
 21
1.013308543601443
 31
0.0
  0
LINE
  5
307B
330
1E
100
AcDbEntity
  8
7
100
AcDbLine
 10
1.561335522529173
 20
1.013308543601443
 30
0.0
 11
1.604642609143345
 21
1.013308543601443
 31
0.0
  0
LINE
  5
307C
330
1E
100
AcDbEntity
  8
7
100
AcDbLine
 10
-1.261499123140118
 20
-0.3213371256898938
 30
0.0
 11
-0.8481132963684645
 21
-0.3213371256898938
 31
0.0
  0
LINE
  5
307D
330
1E
100
AcDbEntity
  8
7
100
AcDbLine
 10
2.75818591622996
 20
0.9385053939951468
 30
0.0
 11
2.777870955600038
 21
0.9503164176171914
 31
0.0
  0
LINE
  5
307E
330
1E
100
AcDbEntity
  8
7
100
AcDbLine
 10
1.053461506781141
 20
1.001497519979398
 30
0.0
 11
1.029839459537047
 21
1.013308543601443
 31
0.0
  0
LINE
  5
307F
330
1E
100
AcDbEntity
  8
7
100
AcDbLine
 10
5.443225286308699
 20
1.06448964596365
 30
0.0
 11
5.462910325678778
 21
1.052678622341602
 31
0.0
  0
LINE
  5
3080
330
1E
100
AcDbEntity
  8
7
100
AcDbLine
 10
3.60070560126933
 20
1.013308543601443
 30
0.0
 11
3.624327648513425
 21
0.9896864963573506
 31
0.0
  0
LINE
  5
3081
330
1E
100
AcDbEntity
  8
7
100
AcDbLine
 10
-0.4347274695968109
 20
0.9503164176171914
 30
0.0
 11
-0.4347274695968109
 21
0.9896864963573506
 31
0.0
  0
LINE
  5
3082
330
1E
100
AcDbEntity
  8
7
100
AcDbLine
 10
5.281807963474054
 20
0.9385053939951468
 30
0.0
 11
5.309367018592164
 21
0.9385053939951468
 31
0.0
  0
LINE
  5
3083
330
1E
100
AcDbEntity
  8
7
100
AcDbLine
 10
4.31330402646618
 20
1.013308543601443
 30
0.0
 11
4.301493002844132
 21
1.052678622341602
 31
0.0
  0
LINE
  5
3084
330
1E
100
AcDbEntity
  8
7
100
AcDbLine
 10
-0.5252786506991738
 20
0.9503164176171914
 30
0.0
 11
-0.5016566034550776
 21
0.9385053939951468
 31
0.0
  0
LINE
  5
3085
330
1E
100
AcDbEntity
  8
7
100
AcDbLine
 10
2.75818591622996
 20
1.06448964596365
 30
0.0
 11
2.777870955600038
 21
1.052678622341602
 31
0.0
  0
LINE
  5
3086
330
1E
100
AcDbEntity
  8
7
100
AcDbLine
 10
1.95109930205673
 20
-0.1008646847450123
 30
0.0
 11
1.95109930205673
 21
-0.3213371256898938
 31
0.0
  0
LINE
  5
3087
330
1E
100
AcDbEntity
  8
7
100
AcDbLine
 10
5.372359144576416
 20
1.052678622341602
 30
0.0
 11
5.39598119182051
 21
1.06448964596365
 31
0.0
  0
LINE
  5
3088
330
1E
100
AcDbEntity
  8
7
100
AcDbLine
 10
3.624327648513425
 20
0.9385053939951468
 30
0.0
 11
3.667634735127597
 21
0.9385053939951468
 31
0.0
  0
LINE
  5
3089
330
1E
100
AcDbEntity
  8
7
100
AcDbLine
 10
-0.5016566034550776
 20
0.9385053939951468
 30
0.0
 11
-0.4583495168409053
 21
0.9385053939951468
 31
0.0
  0
LINE
  5
308A
330
1E
100
AcDbEntity
  8
7
100
AcDbLine
 10
3.624327648513425
 20
1.06448964596365
 30
0.0
 11
3.60070560126933
 21
1.036930590845539
 31
0.0
  0
LINE
  5
308B
330
1E
100
AcDbEntity
  8
7
100
AcDbLine
 10
6.140075680009488
 20
0.1353557876959321
 30
0.0
 11
6.872359144576416
 21
0.1353557876959321
 31
0.0
  0
LINE
  5
308C
330
1E
100
AcDbEntity
  8
7
100
AcDbLine
 10
2.943225286308699
 20
-0.1008646847450123
 30
0.0
 11
2.52590245166303
 21
-0.1008646847450123
 31
0.0
  0
LINE
  5
308D
330
1E
100
AcDbEntity
  8
7
100
AcDbLine
 10
13.52590245166303
 20
1.06448964596365
 30
0.0
 11
13.57314654615122
 21
1.06448964596365
 31
0.0
  0
LINE
  5
308E
330
1E
100
AcDbEntity
  8
7
100
AcDbLine
 10
12.05346150678114
 20
1.06448964596365
 30
0.0
 11
12.02983945953704
 21
1.052678622341602
 31
0.0
  0
LINE
  5
308F
330
1E
100
AcDbEntity
  8
7
100
AcDbLine
 10
14.84873709733232
 20
-0.3213371256898938
 30
0.0
 11
14.84873709733232
 21
-0.1008646847450123
 31
0.0
  0
LINE
  5
3090
330
1E
100
AcDbEntity
  8
7
100
AcDbLine
 10
12.21094182174177
 20
-0.1008646847450123
 30
0.0
 11
11.7936189870961
 21
-0.1008646847450123
 31
0.0
  0
LINE
  5
3091
330
1E
100
AcDbEntity
  8
7
100
AcDbLine
 10
10.19913079811972
 20
1.06448964596365
 30
0.0
 11
10.19913079811972
 21
0.9385053939951468
 31
0.0
  0
LINE
  5
3092
330
1E
100
AcDbEntity
  8
7
100
AcDbLine
 10
13.95503630993074
 20
0.9621274412392395
 30
0.0
 11
13.95897331780476
 21
0.9385053939951468
 31
0.0
  0
LINE
  5
3093
330
1E
100
AcDbEntity
  8
7
100
AcDbLine
 10
10.9196032390646
 20
1.06448964596365
 30
0.0
 11
10.9432252863087
 21
1.052678622341602
 31
0.0
  0
LINE
  5
3094
330
1E
100
AcDbEntity
  8
7
100
AcDbLine
 10
14.17157174300161
 20
1.052678622341602
 30
0.0
 11
14.14794969575752
 21
1.06448964596365
 31
0.0
  0
LINE
  5
3095
330
1E
100
AcDbEntity
  8
7
100
AcDbLine
 10
14.53377646741106
 20
0.9621274412392395
 30
0.0
 11
14.53377646741106
 21
0.9385053939951468
 31
0.0
  0
LINE
  5
3096
330
1E
100
AcDbEntity
  8
7
100
AcDbLine
 10
12.018028435915
 20
1.013308543601443
 30
0.0
 11
12.018028435915
 21
0.9896864963573506
 31
0.0
  0
LINE
  5
3097
330
1E
100
AcDbEntity
  8
7
100
AcDbLine
 10
11.33298906583626
 20
0.9385053939951468
 30
0.0
 11
11.36448512882838
 21
0.9385053939951468
 31
0.0
  0
LINE
  5
3098
330
1E
100
AcDbEntity
  8
7
100
AcDbLine
 10
13.85661111308035
 20
-0.1008646847450123
 30
0.0
 11
13.85661111308035
 21
-0.3213371256898938
 31
0.0
  0
LINE
  5
3099
330
1E
100
AcDbEntity
  8
7
100
AcDbLine
 10
10.87235914457641
 20
1.06448964596365
 30
0.0
 11
10.9196032390646
 21
1.06448964596365
 31
0.0
  0
LINE
  5
309A
330
1E
100
AcDbEntity
  8
7
100
AcDbLine
 10
11.42747725481264
 20
1.036930590845539
 30
0.0
 11
11.42747725481264
 21
1.013308543601443
 31
0.0
  0
LINE
  5
309B
330
1E
100
AcDbEntity
  8
7
100
AcDbLine
 10
11.91566623119059
 20
1.06448964596365
 30
0.0
 11
11.96291032567878
 21
1.06448964596365
 31
0.0
  0
LINE
  5
309C
330
1E
100
AcDbEntity
  8
7
100
AcDbLine
 10
10.9196032390646
 20
0.9385053939951468
 30
0.0
 11
10.9432252863087
 21
0.9503164176171914
 31
0.0
  0
LINE
  5
309D
330
1E
100
AcDbEntity
  8
7
100
AcDbLine
 10
11.44716229418271
 20
1.06448964596365
 30
0.0
 11
11.42747725481264
 21
1.036930590845539
 31
0.0
  0
LINE
  5
309E
330
1E
100
AcDbEntity
  8
7
100
AcDbLine
 10
14.62432764851342
 20
1.025119567223491
 30
0.0
 11
14.53377646741106
 21
0.9621274412392395
 31
0.0
  0
LINE
  5
309F
330
1E
100
AcDbEntity
  8
7
100
AcDbLine
 10
10.9432252863087
 20
1.052678622341602
 30
0.0
 11
10.9432252863087
 21
1.013308543601443
 31
0.0
  0
LINE
  5
30A0
330
1E
100
AcDbEntity
  8
7
100
AcDbLine
 10
12.8448000894583
 20
1.06448964596365
 30
0.0
 11
12.88810717607248
 21
1.06448964596365
 31
0.0
  0
LINE
  5
30A1
330
1E
100
AcDbEntity
  8
7
100
AcDbLine
 10
6.52590245166303
 20
0.5251195672234914
 30
0.0
 11
6.549524498907125
 21
0.5487416144675877
 31
0.0
  0
LINE
  5
30A2
330
1E
100
AcDbEntity
  8
7
100
AcDbLine
 10
8.710941821741773
 20
1.06448964596365
 30
0.0
 11
8.710941821741773
 21
0.9385053939951468
 31
0.0
  0
LINE
  5
30A3
330
1E
100
AcDbEntity
  8
7
100
AcDbLine
 10
9.364485128828388
 20
0.9621274412392395
 30
0.0
 11
9.364485128828388
 21
1.036930590845539
 31
0.0
  0
LINE
  5
30A4
330
1E
100
AcDbEntity
  8
7
100
AcDbLine
 10
7.427477254812636
 20
-0.3213371256898938
 30
0.0
 11
7.844800089458304
 21
-0.3213371256898938
 31
0.0
  0
LINE
  5
30A5
330
1E
100
AcDbEntity
  8
7
100
AcDbLine
 10
9.273933947726025
 20
0.9385053939951468
 30
0.0
 11
9.301493002844136
 21
0.9385053939951468
 31
0.0
  0
LINE
  5
30A6
330
1E
100
AcDbEntity
  8
7
100
AcDbLine
 10
6.336926073710275
 20
0.5251195672234914
 30
0.0
 11
6.336926073710275
 21
0.6353557876959322
 31
0.0
  0
LINE
  5
30A7
330
1E
100
AcDbEntity
  8
7
100
AcDbLine
 10
9.455036309930747
 20
0.9621274412392395
 30
0.0
 11
9.431414262686654
 21
0.9385053939951468
 31
0.0
  0
LINE
  5
30A8
330
1E
100
AcDbEntity
  8
7
100
AcDbLine
 10
6.919603239064604
 20
0.6353557876959322
 30
0.0
 11
6.832989065836258
 21
0.6353557876959322
 31
0.0
  0
LINE
  5
30A9
330
1E
100
AcDbEntity
  8
7
100
AcDbLine
 10
9.364485128828388
 20
1.036930590845539
 30
0.0
 11
9.384170168198465
 21
1.06448964596365
 31
0.0
  0
LINE
  5
30AA
330
1E
100
AcDbEntity
  8
7
100
AcDbLine
 10
6.179445758749645
 20
0.6274817719479025
 30
0.0
 11
6.179445758749645
 21
0.5920487010817617
 31
0.0
  0
LINE
  5
30AB
330
1E
100
AcDbEntity
  8
7
100
AcDbLine
 10
8.581020561899254
 20
-0.3213371256898938
 30
0.0
 11
8.994406388670906
 21
-0.3213371256898938
 31
0.0
  0
LINE
  5
30AC
330
1E
100
AcDbEntity
  8
7
100
AcDbLine
 10
6.876296152450432
 20
0.6353557876959322
 30
0.0
 11
6.876296152450432
 21
0.5251195672234914
 31
0.0
  0
LINE
  5
30AD
330
1E
100
AcDbEntity
  8
7
100
AcDbLine
 10
7.659760719379567
 20
0.9385053939951468
 30
0.0
 11
7.707004813867756
 21
0.9385053939951468
 31
0.0
  0
LINE
  5
30AE
330
1E
100
AcDbEntity
  8
7
100
AcDbLine
 10
5.163697727253582
 20
-0.3213371256898938
 30
0.0
 11
5.581020561899251
 21
-0.3213371256898938
 31
0.0
  0
LINE
  5
30AF
330
1E
100
AcDbEntity
  8
7
100
AcDbLine
 10
8.419603239064606
 20
-0.3213371256898938
 30
0.0
 11
8.419603239064606
 21
-0.1008646847450123
 31
0.0
  0
LINE
  5
30B0
330
1E
100
AcDbEntity
  8
7
100
AcDbLine
 10
9.431414262686654
 20
0.9385053939951468
 30
0.0
 11
9.384170168198465
 21
0.9385053939951468
 31
0.0
  0
LINE
  5
30B1
330
1E
100
AcDbEntity
  8
7
100
AcDbLine
 10
-1.639451879045629
 20
1.052678622341602
 30
0.0
 11
-1.631577863297597
 21
1.06448964596365
 31
0.0
  0
LINE
  5
30B2
330
1E
100
AcDbEntity
  8
7
100
AcDbLine
 10
-1.100081800305471
 20
0.9385053939951468
 30
0.0
 11
-1.009530619203109
 21
0.9385053939951468
 31
0.0
  0
LINE
  5
30B3
330
1E
100
AcDbEntity
  8
7
100
AcDbLine
 10
-0.8481132963684645
 20
-0.1008646847450123
 30
0.0
 11
-1.261499123140118
 21
-0.1008646847450123
 31
0.0
  0
LINE
  5
30B4
330
1E
100
AcDbEntity
  8
7
100
AcDbLine
 10
4.132201664261456
 20
0.9385053939951468
 30
0.0
 11
4.159760719379566
 21
0.9385053939951468
 31
0.0
  0
LINE
  5
30B5
330
1E
100
AcDbEntity
  8
7
100
AcDbLine
 10
-1.009530619203109
 20
1.025119567223491
 30
0.0
 11
-1.100081800305471
 21
0.9621274412392395
 31
0.0
  0
LINE
  5
30B6
330
1E
100
AcDbEntity
  8
7
100
AcDbLine
 10
-0.5016566034550776
 20
1.06448964596365
 30
0.0
 11
-0.5252786506991738
 21
1.052678622341602
 31
0.0
  0
LINE
  5
30B7
330
1E
100
AcDbEntity
  8
7
100
AcDbLine
 10
-1.631577863297597
 20
1.06448964596365
 30
0.0
 11
-1.631577863297597
 21
0.9385053939951468
 31
0.0
  0
LINE
  5
30B8
330
1E
100
AcDbEntity
  8
7
100
AcDbLine
 10
-1.076459753061377
 20
1.06448964596365
 30
0.0
 11
-1.033152666447204
 21
1.06448964596365
 31
0.0
  0
LINE
  5
30B9
330
1E
100
AcDbEntity
  8
7
100
AcDbLine
 10
0.3054300107181493
 20
-0.3213371256898938
 30
0.0
 11
0.3054300107181493
 21
-0.1008646847450123
 31
0.0
  0
LINE
  5
30BA
330
1E
100
AcDbEntity
  8
7
100
AcDbLine
 10
1.376296152450432
 20
-0.1008646847450123
 30
0.0
 11
1.376296152450432
 21
-0.3213371256898938
 31
0.0
  0
LINE
  5
30BB
330
1E
100
AcDbEntity
  8
7
100
AcDbLine
 10
2.710941821741771
 20
0.9385053939951468
 30
0.0
 11
2.75818591622996
 21
0.9385053939951468
 31
0.0
  0
LINE
  5
30BC
330
1E
100
AcDbEntity
  8
7
100
AcDbLine
 10
-1.840239280620433
 20
-0.1008646847450123
 30
0.0
 11
-1.840239280620433
 21
-0.3213371256898938
 31
0.0
  0
LINE
  5
30BD
330
1E
100
AcDbEntity
  8
7
100
AcDbLine
 10
2.691256782371691
 20
1.013308543601443
 30
0.0
 11
2.691256782371691
 21
1.052678622341602
 31
0.0
  0
LINE
  5
30BE
330
1E
100
AcDbEntity
  8
7
100
AcDbLine
 10
-1.422916445974763
 20
-0.1008646847450123
 30
0.0
 11
-1.840239280620433
 21
-0.1008646847450123
 31
0.0
  0
LINE
  5
30BF
330
1E
100
AcDbEntity
  8
7
100
AcDbLine
 10
1.793618987096101
 20
-0.3213371256898938
 30
0.0
 11
1.793618987096101
 21
-0.1008646847450123
 31
0.0
  0
LINE
  5
30C0
330
1E
100
AcDbEntity
  8
7
100
AcDbLine
 10
4.254248908355943
 20
0.9385053939951468
 30
0.0
 11
4.277870955600038
 21
0.9385053939951468
 31
0.0
  0
LINE
  5
30C1
330
1E
100
AcDbEntity
  8
7
100
AcDbLine
 10
0.9865323729228734
 20
1.013308543601443
 30
0.0
 11
0.9629103256787789
 21
1.001497519979398
 31
0.0
  0
LINE
  5
30C2
330
1E
100
AcDbEntity
  8
7
100
AcDbLine
 10
2.710941821741771
 20
1.06448964596365
 30
0.0
 11
2.75818591622996
 21
1.06448964596365
 31
0.0
  0
LINE
  5
30C3
330
1E
100
AcDbEntity
  8
7
100
AcDbLine
 10
4.31330402646618
 20
0.9896864963573506
 30
0.0
 11
4.31330402646618
 21
1.013308543601443
 31
0.0
  0
LINE
  5
30C4
330
1E
100
AcDbEntity
  8
7
100
AcDbLine
 10
5.372359144576416
 20
0.9621274412392395
 30
0.0
 11
5.372359144576416
 21
0.9385053939951468
 31
0.0
  0
LINE
  5
30C5
330
1E
100
AcDbEntity
  8
7
100
AcDbLine
 10
13.85661111308035
 20
-0.3213371256898938
 30
0.0
 11
14.27393394772602
 21
-0.3213371256898938
 31
0.0
  0
LINE
  5
30C6
330
1E
100
AcDbEntity
  8
7
100
AcDbLine
 10
12.91172922331657
 20
1.052678622341602
 30
0.0
 11
12.91172922331657
 21
1.025119567223491
 31
0.0
  0
LINE
  5
30C7
330
1E
100
AcDbEntity
  8
7
100
AcDbLine
 10
11.96291032567878
 20
1.06448964596365
 30
0.0
 11
11.98653237292287
 21
1.052678622341602
 31
0.0
  0
LINE
  5
30C8
330
1E
100
AcDbEntity
  8
7
100
AcDbLine
 10
11.63613867213547
 20
-0.1008646847450123
 30
0.0
 11
11.2188158374898
 21
-0.1008646847450123
 31
0.0
  0
LINE
  5
30C9
330
1E
100
AcDbEntity
  8
7
100
AcDbLine
 10
11.51802843591499
 20
1.036930590845539
 30
0.0
 11
11.4944063886709
 21
1.06448964596365
 31
0.0
  0
LINE
  5
30CA
330
1E
100
AcDbEntity
  8
7
100
AcDbLine
 10
13.69913079811972
 20
-0.1008646847450123
 30
0.0
 11
13.28180796347405
 21
-0.1008646847450123
 31
0.0
  0
LINE
  5
30CB
330
1E
100
AcDbEntity
  8
7
100
AcDbLine
 10
12.10857961701736
 20
1.013308543601443
 30
0.0
 11
12.09676859339531
 21
1.052678622341602
 31
0.0
  0
LINE
  5
30CC
330
1E
100
AcDbEntity
  8
7
100
AcDbLine
 10
10.18731977449767
 20
1.052678622341602
 30
0.0
 11
10.19913079811972
 21
1.06448964596365
 31
0.0
  0
LINE
  5
30CD
330
1E
100
AcDbEntity
  8
7
100
AcDbLine
 10
14.53377646741106
 20
0.9385053939951468
 30
0.0
 11
14.62432764851342
 21
0.9385053939951468
 31
0.0
  0
LINE
  5
30CE
330
1E
100
AcDbEntity
  8
7
100
AcDbLine
 10
14.02590245166303
 20
1.06448964596365
 30
0.0
 11
14.04558749103311
 21
1.052678622341602
 31
0.0
  0
LINE
  5
30CF
330
1E
100
AcDbEntity
  8
7
100
AcDbLine
 10
12.82117804221421
 20
0.9385053939951468
 30
0.0
 11
12.91172922331657
 21
0.9385053939951468
 31
0.0
  0
LINE
  5
30D0
330
1E
100
AcDbEntity
  8
7
100
AcDbLine
 10
10.6440126878835
 20
-0.1008646847450123
 30
0.0
 11
10.6440126878835
 21
-0.3213371256898938
 31
0.0
  0
LINE
  5
30D1
330
1E
100
AcDbEntity
  8
7
100
AcDbLine
 10
14.04558749103311
 20
1.052678622341602
 30
0.0
 11
14.04558749103311
 21
1.025119567223491
 31
0.0
  0
LINE
  5
30D2
330
1E
100
AcDbEntity
  8
7
100
AcDbLine
 10
11.05739851465515
 20
-0.3213371256898938
 30
0.0
 11
11.05739851465515
 21
-0.1008646847450123
 31
0.0
  0
LINE
  5
30D3
330
1E
100
AcDbEntity
  8
7
100
AcDbLine
 10
10.77393394772602
 20
1.06448964596365
 30
0.0
 11
10.77393394772602
 21
0.9385053939951468
 31
0.0
  0
LINE
  5
30D4
330
1E
100
AcDbEntity
  8
7
100
AcDbLine
 10
14.27393394772602
 20
-0.3213371256898938
 30
0.0
 11
14.27393394772602
 21
-0.1008646847450123
 31
0.0
  0
LINE
  5
30D5
330
1E
100
AcDbEntity
  8
7
100
AcDbLine
 10
11.2188158374898
 20
-0.3213371256898938
 30
0.0
 11
11.63613867213547
 21
-0.3213371256898938
 31
0.0
  0
LINE
  5
30D6
330
1E
100
AcDbEntity
  8
7
100
AcDbLine
 10
10.30936701859216
 20
0.9385053939951468
 30
0.0
 11
10.36448512882838
 21
1.06448964596365
 31
0.0
  0
LINE
  5
30D7
330
1E
100
AcDbEntity
  8
7
100
AcDbLine
 10
10.85267410520634
 20
0.9503164176171914
 30
0.0
 11
10.87235914457641
 21
0.9385053939951468
 31
0.0
  0
LINE
  5
30D8
330
1E
100
AcDbEntity
  8
7
100
AcDbLine
 10
12.82117804221421
 20
1.052678622341602
 30
0.0
 11
12.8448000894583
 21
1.06448964596365
 31
0.0
  0
LINE
  5
30D9
330
1E
100
AcDbEntity
  8
7
100
AcDbLine
 10
6.234563868985866
 20
0.5802376774597136
 30
0.0
 11
6.277870955600038
 21
0.5802376774597136
 31
0.0
  0
LINE
  5
30DA
330
1E
100
AcDbEntity
  8
7
100
AcDbLine
 10
5.006217412292951
 20
-0.3213371256898938
 30
0.0
 11
5.006217412292951
 21
-0.1008646847450123
 31
0.0
  0
LINE
  5
30DB
330
1E
100
AcDbEntity
  8
7
100
AcDbLine
 10
9.155823711505551
 20
-0.3213371256898938
 30
0.0
 11
9.573146546151221
 21
-0.3213371256898938
 31
0.0
  0
LINE
  5
30DC
330
1E
100
AcDbEntity
  8
7
100
AcDbLine
 10
6.52590245166303
 20
0.6353557876959322
 30
0.0
 11
6.458973317804762
 21
0.6353557876959322
 31
0.0
  0
LINE
  5
30DD
330
1E
100
AcDbEntity
  8
7
100
AcDbLine
 10
6.754248908355943
 20
0.6353557876959322
 30
0.0
 11
6.754248908355943
 21
0.5251195672234914
 31
0.0
  0
LINE
  5
30DE
330
1E
100
AcDbEntity
  8
7
100
AcDbLine
 10
6.647949695757519
 20
0.5251195672234914
 30
0.0
 11
6.671571743001614
 21
0.5487416144675877
 31
0.0
  0
LINE
  5
30DF
330
1E
100
AcDbEntity
  8
7
100
AcDbLine
 10
9.155823711505551
 20
-0.1008646847450123
 30
0.0
 11
9.155823711505551
 21
-0.3213371256898938
 31
0.0
  0
LINE
  5
30E0
330
1E
100
AcDbEntity
  8
7
100
AcDbLine
 10
7.427477254812636
 20
-0.1008646847450123
 30
0.0
 11
7.427477254812636
 21
-0.3213371256898938
 31
0.0
  0
LINE
  5
30E1
330
1E
100
AcDbEntity
  8
7
100
AcDbLine
 10
9.455036309930747
 20
0.9896864963573506
 30
0.0
 11
9.455036309930747
 21
0.9621274412392395
 31
0.0
  0
LINE
  5
30E2
330
1E
100
AcDbEntity
  8
7
100
AcDbLine
 10
6.549524498907125
 20
0.6156707483258544
 30
0.0
 11
6.52590245166303
 21
0.6353557876959322
 31
0.0
  0
LINE
  5
30E3
330
1E
100
AcDbEntity
  8
7
100
AcDbLine
 10
7.561335522529171
 20
1.06448964596365
 30
0.0
 11
7.561335522529171
 21
0.9385053939951468
 31
0.0
  0
LINE
  5
30E4
330
1E
100
AcDbEntity
  8
7
100
AcDbLine
 10
8.214878829615788
 20
0.9896864963573506
 30
0.0
 11
8.281807963474054
 21
1.06448964596365
 31
0.0
  0
LINE
  5
30E5
330
1E
100
AcDbEntity
  8
7
100
AcDbLine
 10
9.384170168198465
 20
1.013308543601443
 30
0.0
 11
9.431414262686654
 21
1.013308543601443
 31
0.0
  0
LINE
  5
30E6
330
1E
100
AcDbEntity
  8
7
100
AcDbLine
 10
8.305430010718151
 20
0.9896864963573506
 30
0.0
 11
8.214878829615788
 21
0.9896864963573506
 31
0.0
  0
LINE
  5
30E7
330
1E
100
AcDbEntity
  8
7
100
AcDbLine
 10
4.588894577647282
 20
-0.1008646847450123
 30
0.0
 11
4.588894577647282
 21
-0.3213371256898938
 31
0.0
  0
LINE
  5
30E8
330
1E
100
AcDbEntity
  8
7
100
AcDbLine
 10
5.163697727253582
 20
-0.1008646847450123
 30
0.0
 11
5.163697727253582
 21
-0.3213371256898938
 31
0.0
  0
LINE
  5
30E9
330
1E
100
AcDbEntity
  8
7
100
AcDbLine
 10
-0.1118928239275201
 20
-0.3213371256898938
 30
0.0
 11
0.3054300107181493
 21
-0.3213371256898938
 31
0.0
  0
LINE
  5
30EA
330
1E
100
AcDbEntity
  8
7
100
AcDbLine
 10
2.777870955600038
 20
1.052678622341602
 30
0.0
 11
2.777870955600038
 21
1.013308543601443
 31
0.0
  0
LINE
  5
30EB
330
1E
100
AcDbEntity
  8
7
100
AcDbLine
 10
4.277870955600038
 20
0.9385053939951468
 30
0.0
 11
4.301493002844132
 21
0.9503164176171914
 31
0.0
  0
LINE
  5
30EC
330
1E
100
AcDbEntity
  8
7
100
AcDbLine
 10
1.537713475285078
 20
1.036930590845539
 30
0.0
 11
1.561335522529173
 21
1.06448964596365
 31
0.0
  0
LINE
  5
30ED
330
1E
100
AcDbEntity
  8
7
100
AcDbLine
 10
2.687319774497677
 20
0.9896864963573506
 30
0.0
 11
2.687319774497677
 21
0.9503164176171914
 31
0.0
  0
LINE
  5
30EE
330
1E
100
AcDbEntity
  8
7
100
AcDbLine
 10
1.029839459537047
 20
1.013308543601443
 30
0.0
 11
0.9865323729228734
 21
1.013308543601443
 31
0.0
  0
LINE
  5
30EF
330
1E
100
AcDbEntity
  8
7
100
AcDbLine
 10
2.147949695757519
 20
0.9385053939951468
 30
0.0
 11
2.20306780599374
 21
1.06448964596365
 31
0.0
  0
LINE
  5
30F0
330
1E
100
AcDbEntity
  8
7
100
AcDbLine
 10
3.624327648513425
 20
0.9896864963573506
 30
0.0
 11
3.667634735127597
 21
0.9896864963573506
 31
0.0
  0
LINE
  5
30F1
330
1E
100
AcDbEntity
  8
7
100
AcDbLine
 10
1.604642609143345
 20
1.013308543601443
 30
0.0
 11
1.62826465638744
 21
0.9896864963573506
 31
0.0
  0
LINE
  5
30F2
330
1E
100
AcDbEntity
  8
7
100
AcDbLine
 10
1.214878829615786
 20
-0.1008646847450123
 30
0.0
 11
0.7975559949701179
 21
-0.1008646847450123
 31
0.0
  0
LINE
  5
30F3
330
1E
100
AcDbEntity
  8
7
100
AcDbLine
 10
3.691256782371691
 20
1.036930590845539
 30
0.0
 11
3.667634735127597
 21
1.06448964596365
 31
0.0
  0
LINE
  5
30F4
330
1E
100
AcDbEntity
  8
7
100
AcDbLine
 10
0.9629103256787789
 20
1.001497519979398
 30
0.0
 11
0.9629103256787789
 21
1.06448964596365
 31
0.0
  0
LINE
  5
30F5
330
1E
100
AcDbEntity
  8
7
100
AcDbLine
 10
-0.6866959735338183
 20
-0.1008646847450123
 30
0.0
 11
-0.6866959735338183
 21
-0.3213371256898938
 31
0.0
  0
LINE
  5
30F6
330
1E
100
AcDbEntity
  8
7
100
AcDbLine
 10
4.734563868985866
 20
1.06448964596365
 30
0.0
 11
4.734563868985866
 21
0.9385053939951468
 31
0.0
  0
LINE
  5
30F7
330
1E
100
AcDbEntity
  8
7
100
AcDbLine
 10
4.144012687883503
 20
1.06448964596365
 30
0.0
 11
4.144012687883503
 21
0.9385053939951468
 31
0.0
  0
LINE
  5
30F8
330
1E
100
AcDbEntity
  8
7
100
AcDbLine
 10
-1.422916445974763
 20
-0.3213371256898938
 30
0.0
 11
-1.422916445974763
 21
-0.1008646847450123
 31
0.0
  0
LINE
  5
30F9
330
1E
100
AcDbEntity
  8
7
100
AcDbLine
 10
-0.4583495168409053
 20
0.9385053939951468
 30
0.0
 11
-0.4347274695968109
 21
0.9503164176171914
 31
0.0
  0
LINE
  5
30FA
330
1E
100
AcDbEntity
  8
7
100
AcDbLine
 10
5.39598119182051
 20
1.06448964596365
 30
0.0
 11
5.443225286308699
 21
1.06448964596365
 31
0.0
  0
LINE
  5
30FB
330
1E
100
AcDbEntity
  8
7
100
AcDbLine
 10
4.254248908355943
 20
1.06448964596365
 30
0.0
 11
4.234563868985866
 21
1.052678622341602
 31
0.0
  0
LINE
  5
30FC
330
1E
100
AcDbEntity
  8
7
100
AcDbLine
 10
2.52590245166303
 20
-0.1008646847450123
 30
0.0
 11
2.52590245166303
 21
-0.3213371256898938
 31
0.0
  0
LINE
  5
30FD
330
1E
100
AcDbEntity
  8
7
100
AcDbLine
 10
12.70306780599374
 20
-0.3213371256898938
 30
0.0
 11
13.12039064063941
 21
-0.3213371256898938
 31
0.0
  0
LINE
  5
30FE
330
1E
100
AcDbEntity
  8
7
100
AcDbLine
 10
11.34086308158429
 20
1.052678622341602
 30
0.0
 11
11.34873709733232
 21
1.06448964596365
 31
0.0
  0
LINE
  5
30FF
330
1E
100
AcDbEntity
  8
7
100
AcDbLine
 10
12.21094182174177
 20
-0.3213371256898938
 30
0.0
 11
12.21094182174177
 21
-0.1008646847450123
 31
0.0
  0
LINE
  5
3100
330
1E
100
AcDbEntity
  8
7
100
AcDbLine
 10
13.69913079811972
 20
-0.3213371256898938
 30
0.0
 11
13.69913079811972
 21
-0.1008646847450123
 31
0.0
  0
LINE
  5
3101
330
1E
100
AcDbEntity
  8
7
100
AcDbLine
 10
11.34873709733232
 20
1.06448964596365
 30
0.0
 11
11.34873709733232
 21
0.9385053939951468
 31
0.0
  0
LINE
  5
3102
330
1E
100
AcDbEntity
  8
7
100
AcDbLine
 10
14.04558749103311
 20
1.025119567223491
 30
0.0
 11
13.95503630993074
 21
0.9621274412392395
 31
0.0
  0
LINE
  5
3103
330
1E
100
AcDbEntity
  8
7
100
AcDbLine
 10
11.98653237292287
 20
1.025119567223491
 30
0.0
 11
11.89204418394649
 21
0.9621274412392395
 31
0.0
  0
LINE
  5
3104
330
1E
100
AcDbEntity
  8
7
100
AcDbLine
 10
12.88810717607248
 20
1.06448964596365
 30
0.0
 11
12.91172922331657
 21
1.052678622341602
 31
0.0
  0
LINE
  5
3105
330
1E
100
AcDbEntity
  8
7
100
AcDbLine
 10
11.7936189870961
 20
-0.3213371256898938
 30
0.0
 11
12.21094182174177
 21
-0.3213371256898938
 31
0.0
  0
LINE
  5
3106
330
1E
100
AcDbEntity
  8
7
100
AcDbLine
 10
14.43141426268665
 20
-0.1008646847450123
 30
0.0
 11
14.43141426268665
 21
-0.3213371256898938
 31
0.0
  0
LINE
  5
3107
330
1E
100
AcDbEntity
  8
7
100
AcDbLine
 10
13.57314654615122
 20
1.06448964596365
 30
0.0
 11
13.59676859339531
 21
1.052678622341602
 31
0.0
  0
LINE
  5
3108
330
1E
100
AcDbEntity
  8
7
100
AcDbLine
 10
10.48259536504885
 20
-0.1008646847450123
 30
0.0
 11
10.06527253040318
 21
-0.1008646847450123
 31
0.0
  0
LINE
  5
3109
330
1E
100
AcDbEntity
  8
7
100
AcDbLine
 10
10.6440126878835
 20
-0.3213371256898938
 30
0.0
 11
11.05739851465515
 21
-0.3213371256898938
 31
0.0
  0
LINE
  5
310A
330
1E
100
AcDbEntity
  8
7
100
AcDbLine
 10
13.50621741229295
 20
0.9621274412392395
 30
0.0
 11
13.50621741229295
 21
0.9385053939951468
 31
0.0
  0
LINE
  5
310B
330
1E
100
AcDbEntity
  8
7
100
AcDbLine
 10
13.45109930205673
 20
1.06448964596365
 30
0.0
 11
13.47078434142681
 21
1.052678622341602
 31
0.0
  0
LINE
  5
310C
330
1E
100
AcDbEntity
  8
7
100
AcDbLine
 10
14.62432764851342
 20
1.052678622341602
 30
0.0
 11
14.62432764851342
 21
1.025119567223491
 31
0.0
  0
LINE
  5
310D
330
1E
100
AcDbEntity
  8
7
100
AcDbLine
 10
13.59676859339531
 20
1.052678622341602
 30
0.0
 11
13.59676859339531
 21
1.025119567223491
 31
0.0
  0
LINE
  5
310E
330
1E
100
AcDbEntity
  8
7
100
AcDbLine
 10
13.38023316032445
 20
0.9621274412392395
 30
0.0
 11
13.38417016819846
 21
0.9385053939951468
 31
0.0
  0
LINE
  5
310F
330
1E
100
AcDbEntity
  8
7
100
AcDbLine
 10
12.98259536504885
 20
1.052678622341602
 30
0.0
 11
12.99046938079689
 21
1.06448964596365
 31
0.0
  0
LINE
  5
3110
330
1E
100
AcDbEntity
  8
7
100
AcDbLine
 10
12.05346150678114
 20
0.9385053939951468
 30
0.0
 11
12.07314654615122
 21
0.9385053939951468
 31
0.0
  0
LINE
  5
3111
330
1E
100
AcDbEntity
  8
7
100
AcDbLine
 10
8.789681979222088
 20
0.9503164176171914
 30
0.0
 11
8.809367018592165
 21
0.9385053939951468
 31
0.0
  0
LINE
  5
3112
330
1E
100
AcDbEntity
  8
7
100
AcDbLine
 10
4.588894577647282
 20
-0.3213371256898938
 30
0.0
 11
5.006217412292951
 21
-0.3213371256898938
 31
0.0
  0
LINE
  5
3113
330
1E
100
AcDbEntity
  8
7
100
AcDbLine
 10
9.27787095560004
 20
1.052678622341602
 30
0.0
 11
9.285744971348073
 21
1.06448964596365
 31
0.0
  0
LINE
  5
3114
330
1E
100
AcDbEntity
  8
7
100
AcDbLine
 10
6.549524498907125
 20
0.5487416144675877
 30
0.0
 11
6.549524498907125
 21
0.6156707483258544
 31
0.0
  0
LINE
  5
3115
330
1E
100
AcDbEntity
  8
7
100
AcDbLine
 10
7.726689853237834
 20
0.9896864963573506
 30
0.0
 11
7.707004813867756
 21
1.001497519979398
 31
0.0
  0
LINE
  5
3116
330
1E
100
AcDbEntity
  8
7
100
AcDbLine
 10
8.789681979222088
 20
1.001497519979398
 30
0.0
 11
8.789681979222088
 21
1.06448964596365
 31
0.0
  0
LINE
  5
3117
330
1E
100
AcDbEntity
  8
7
100
AcDbLine
 10
8.002280404418934
 20
-0.3213371256898938
 30
0.0
 11
8.419603239064606
 21
-0.3213371256898938
 31
0.0
  0
LINE
  5
3118
330
1E
100
AcDbEntity
  8
7
100
AcDbLine
 10
6.742437884733897
 20
0.5251195672234914
 30
0.0
 11
6.762122924103975
 21
0.5251195672234914
 31
0.0
  0
LINE
  5
3119
330
1E
100
AcDbEntity
  8
7
100
AcDbLine
 10
7.844800089458304
 20
-0.3213371256898938
 30
0.0
 11
7.844800089458304
 21
-0.1008646847450123
 31
0.0
  0
LINE
  5
311A
330
1E
100
AcDbEntity
  8
7
100
AcDbLine
 10
6.140075680009488
 20
0.2770880711604988
 30
0.0
 11
6.140075680009488
 21
0.1353557876959321
 31
0.0
  0
LINE
  5
311B
330
1E
100
AcDbEntity
  8
7
100
AcDbLine
 10
7.707004813867756
 20
1.06448964596365
 30
0.0
 11
7.659760719379567
 21
1.06448964596365
 31
0.0
  0
LINE
  5
311C
330
1E
100
AcDbEntity
  8
7
100
AcDbLine
 10
6.25818591622996
 20
0.6353557876959322
 30
0.0
 11
6.301493002844132
 21
0.5251195672234914
 31
0.0
  0
LINE
  5
311D
330
1E
100
AcDbEntity
  8
7
100
AcDbLine
 10
3.852674105206338
 20
-0.1008646847450123
 30
0.0
 11
3.439288278434684
 21
-0.1008646847450123
 31
0.0
  0
LINE
  5
311E
330
1E
100
AcDbEntity
  8
7
100
AcDbLine
 10
9.431414262686654
 20
1.013308543601443
 30
0.0
 11
9.455036309930747
 21
0.9896864963573506
 31
0.0
  0
LINE
  5
311F
330
1E
100
AcDbEntity
  8
7
100
AcDbLine
 10
6.584957569773267
 20
0.6353557876959322
 30
0.0
 11
6.584957569773267
 21
0.5487416144675877
 31
0.0
  0
LINE
  5
3120
330
1E
100
AcDbEntity
  8
7
100
AcDbLine
 10
7.707004813867756
 20
1.001497519979398
 30
0.0
 11
7.726689853237834
 21
1.013308543601443
 31
0.0
  0
LINE
  5
3121
330
1E
100
AcDbEntity
  8
7
100
AcDbLine
 10
-1.840239280620433
 20
-0.3213371256898938
 30
0.0
 11
-1.422916445974763
 21
-0.3213371256898938
 31
0.0
  0
LINE
  5
3122
330
1E
100
AcDbEntity
  8
7
100
AcDbLine
 10
2.777870955600038
 20
0.9896864963573506
 30
0.0
 11
2.75818591622996
 21
1.001497519979398
 31
0.0
  0
LINE
  5
3123
330
1E
100
AcDbEntity
  8
7
100
AcDbLine
 10
4.234563868985866
 20
1.052678622341602
 30
0.0
 11
4.222752845363817
 21
1.013308543601443
 31
0.0
  0
LINE
  5
3124
330
1E
100
AcDbEntity
  8
7
100
AcDbLine
 10
-0.1118928239275201
 20
-0.1008646847450123
 30
0.0
 11
-0.1118928239275201
 21
-0.3213371256898938
 31
0.0
  0
LINE
  5
3125
330
1E
100
AcDbEntity
  8
7
100
AcDbLine
 10
2.710941821741771
 20
1.001497519979398
 30
0.0
 11
2.691256782371691
 21
1.013308543601443
 31
0.0
  0
LINE
  5
3126
330
1E
100
AcDbEntity
  8
7
100
AcDbLine
 10
4.222752845363817
 20
1.013308543601443
 30
0.0
 11
4.222752845363817
 21
0.9896864963573506
 31
0.0
  0
LINE
  5
3127
330
1E
100
AcDbEntity
  8
7
100
AcDbLine
 10
0.1400756800094882
 20
0.9896864963573506
 30
0.0
 11
0.0495244989071253
 21
0.9896864963573506
 31
0.0
  0
LINE
  5
3128
330
1E
100
AcDbEntity
  8
7
100
AcDbLine
 10
2.687319774497677
 20
0.9503164176171914
 30
0.0
 11
2.710941821741771
 21
0.9385053939951468
 31
0.0
  0
LINE
  5
3129
330
1E
100
AcDbEntity
  8
7
100
AcDbLine
 10
1.376296152450432
 20
-0.3213371256898938
 30
0.0
 11
1.793618987096101
 21
-0.3213371256898938
 31
0.0
  0
LINE
  5
312A
330
1E
100
AcDbEntity
  8
7
100
AcDbLine
 10
5.462910325678778
 20
1.052678622341602
 30
0.0
 11
5.462910325678778
 21
1.025119567223491
 31
0.0
  0
LINE
  5
312B
330
1E
100
AcDbEntity
  8
7
100
AcDbLine
 10
3.60070560126933
 20
0.9621274412392395
 30
0.0
 11
3.624327648513425
 21
0.9385053939951468
 31
0.0
  0
LINE
  5
312C
330
1E
100
AcDbEntity
  8
7
100
AcDbLine
 10
-0.4583495168409053
 20
1.001497519979398
 30
0.0
 11
-0.4347274695968109
 21
1.013308543601443
 31
0.0
  0
LINE
  5
312D
330
1E
100
AcDbEntity
  8
7
100
AcDbLine
 10
4.860548120954369
 20
1.06448964596365
 30
0.0
 11
4.860548120954369
 21
0.9385053939951468
 31
0.0
  0
LINE
  5
312E
330
1E
100
AcDbEntity
  8
7
100
AcDbLine
 10
-0.2693731388881497
 20
-0.1008646847450123
 30
0.0
 11
-0.6866959735338183
 21
-0.1008646847450123
 31
0.0
  0
LINE
  5
312F
330
1E
100
AcDbEntity
  8
7
100
AcDbLine
 10
1.604642609143345
 20
1.06448964596365
 30
0.0
 11
1.62826465638744
 21
1.036930590845539
 31
0.0
  0
LINE
  5
3130
330
1E
100
AcDbEntity
  8
7
100
AcDbLine
 10
2.710941821741771
 20
1.001497519979398
 30
0.0
 11
2.687319774497677
 21
0.9896864963573506
 31
0.0
  0
LINE
  5
3131
330
1E
100
AcDbEntity
  8
7
100
AcDbLine
 10
1.793618987096101
 20
-0.1008646847450123
 30
0.0
 11
1.376296152450432
 21
-0.1008646847450123
 31
0.0
  0
LINE
  5
3132
330
1E
100
AcDbEntity
  8
7
100
AcDbLine
 10
1.561335522529173
 20
0.9385053939951468
 30
0.0
 11
1.537713475285078
 21
0.9621274412392395
 31
0.0
  0
LINE
  5
3133
330
1E
100
AcDbEntity
  8
7
100
AcDbLine
 10
-1.009530619203109
 20
1.052678622341602
 30
0.0
 11
-1.009530619203109
 21
1.025119567223491
 31
0.0
  0
LINE
  5
3134
330
1E
100
AcDbEntity
  8
7
100
AcDbLine
 10
13.47078434142681
 20
1.052678622341602
 30
0.0
 11
13.47078434142681
 21
1.025119567223491
 31
0.0
  0
LINE
  5
3135
330
1E
100
AcDbEntity
  8
7
100
AcDbLine
 10
11.4944063886709
 20
0.9385053939951468
 30
0.0
 11
11.51802843591499
 21
0.9621274412392395
 31
0.0
  0
LINE
  5
3136
330
1E
100
AcDbEntity
  8
7
100
AcDbLine
 10
12.97472134930083
 20
0.9385053939951468
 30
0.0
 11
13.00621741229295
 21
0.9385053939951468
 31
0.0
  0
LINE
  5
3137
330
1E
100
AcDbEntity
  8
7
100
AcDbLine
 10
14.43141426268665
 20
-0.3213371256898938
 30
0.0
 11
14.84873709733232
 21
-0.3213371256898938
 31
0.0
  0
LINE
  5
3138
330
1E
100
AcDbEntity
  8
7
100
AcDbLine
 10
11.51802843591499
 20
0.9621274412392395
 30
0.0
 11
11.51802843591499
 21
1.036930590845539
 31
0.0
  0
LINE
  5
3139
330
1E
100
AcDbEntity
  8
7
100
AcDbLine
 10
14.14794969575752
 20
0.9385053939951468
 30
0.0
 11
14.17157174300161
 21
0.9503164176171914
 31
0.0
  0
LINE
  5
313A
330
1E
100
AcDbEntity
  8
7
100
AcDbLine
 10
10.75818591622996
 20
0.9385053939951468
 30
0.0
 11
10.78574497134807
 21
0.9385053939951468
 31
0.0
  0
LINE
  5
313B
330
1E
100
AcDbEntity
  8
7
100
AcDbLine
 10
10.18338276662366
 20
0.9385053939951468
 30
0.0
 11
10.21094182174177
 21
0.9385053939951468
 31
0.0
  0
LINE
  5
313C
330
1E
100
AcDbEntity
  8
7
100
AcDbLine
 10
11.05739851465515
 20
-0.1008646847450123
 30
0.0
 11
10.6440126878835
 21
-0.1008646847450123
 31
0.0
  0
LINE
  5
313D
330
1E
100
AcDbEntity
  8
7
100
AcDbLine
 10
10.48259536504885
 20
-0.3213371256898938
 30
0.0
 11
10.48259536504885
 21
-0.1008646847450123
 31
0.0
  0
LINE
  5
313E
330
1E
100
AcDbEntity
  8
7
100
AcDbLine
 10
11.42747725481264
 20
1.013308543601443
 30
0.0
 11
11.44716229418271
 21
0.9896864963573506
 31
0.0
  0
LINE
  5
313F
330
1E
100
AcDbEntity
  8
7
100
AcDbLine
 10
11.7936189870961
 20
-0.1008646847450123
 30
0.0
 11
11.7936189870961
 21
-0.3213371256898938
 31
0.0
  0
LINE
  5
3140
330
1E
100
AcDbEntity
  8
7
100
AcDbLine
 10
14.55346150678114
 20
1.06448964596365
 30
0.0
 11
14.60070560126933
 21
1.06448964596365
 31
0.0
  0
LINE
  5
3141
330
1E
100
AcDbEntity
  8
7
100
AcDbLine
 10
11.2188158374898
 20
-0.1008646847450123
 30
0.0
 11
11.2188158374898
 21
-0.3213371256898938
 31
0.0
  0
LINE
  5
3142
330
1E
100
AcDbEntity
  8
7
100
AcDbLine
 10
12.09676859339531
 20
1.052678622341602
 30
0.0
 11
12.07314654615122
 21
1.06448964596365
 31
0.0
  0
LINE
  5
3143
330
1E
100
AcDbEntity
  8
7
100
AcDbLine
 10
12.07314654615122
 20
1.06448964596365
 30
0.0
 11
12.05346150678114
 21
1.06448964596365
 31
0.0
  0
LINE
  5
3144
330
1E
100
AcDbEntity
  8
7
100
AcDbLine
 10
10.85267410520634
 20
1.013308543601443
 30
0.0
 11
10.85267410520634
 21
1.052678622341602
 31
0.0
  0
LINE
  5
3145
330
1E
100
AcDbEntity
  8
7
100
AcDbLine
 10
10.76605993197799
 20
1.052678622341602
 30
0.0
 11
10.77393394772602
 21
1.06448964596365
 31
0.0
  0
LINE
  5
3146
330
1E
100
AcDbEntity
  8
7
100
AcDbLine
 10
14.60070560126933
 20
1.06448964596365
 30
0.0
 11
14.62432764851342
 21
1.052678622341602
 31
0.0
  0
LINE
  5
3147
330
1E
100
AcDbEntity
  8
7
100
AcDbLine
 10
11.44716229418271
 20
0.9385053939951468
 30
0.0
 11
11.4944063886709
 21
0.9385053939951468
 31
0.0
  0
LINE
  5
3148
330
1E
100
AcDbEntity
  8
7
100
AcDbLine
 10
5.372359144576416
 20
0.9385053939951468
 30
0.0
 11
5.462910325678778
 21
0.9385053939951468
 31
0.0
  0
LINE
  5
3149
330
1E
100
AcDbEntity
  8
7
100
AcDbLine
 10
3.439288278434684
 20
-0.1008646847450123
 30
0.0
 11
3.439288278434684
 21
-0.3213371256898938
 31
0.0
  0
LINE
  5
314A
330
1E
100
AcDbEntity
  8
7
100
AcDbLine
 10
9.285744971348073
 20
1.06448964596365
 30
0.0
 11
9.285744971348073
 21
0.9385053939951468
 31
0.0
  0
LINE
  5
314B
330
1E
100
AcDbEntity
  8
7
100
AcDbLine
 10
8.12039064063941
 20
0.9385053939951468
 30
0.0
 11
8.147949695757521
 21
0.9385053939951468
 31
0.0
  0
LINE
  5
314C
330
1E
100
AcDbEntity
  8
7
100
AcDbLine
 10
9.431414262686654
 20
1.06448964596365
 30
0.0
 11
9.455036309930747
 21
1.036930590845539
 31
0.0
  0
LINE
  5
314D
330
1E
100
AcDbEntity
  8
7
100
AcDbLine
 10
6.336926073710275
 20
0.6353557876959322
 30
0.0
 11
6.423540246938621
 21
0.5251195672234914
 31
0.0
  0
LINE
  5
314E
330
1E
100
AcDbEntity
  8
7
100
AcDbLine
 10
7.726689853237834
 20
1.052678622341602
 30
0.0
 11
7.707004813867756
 21
1.06448964596365
 31
0.0
  0
LINE
  5
314F
330
1E
100
AcDbEntity
  8
7
100
AcDbLine
 10
8.809367018592165
 20
0.9385053939951468
 30
0.0
 11
8.856611113080354
 21
0.9385053939951468
 31
0.0
  0
LINE
  5
3150
330
1E
100
AcDbEntity
  8
7
100
AcDbLine
 10
7.640075680009486
 20
0.9503164176171914
 30
0.0
 11
7.659760719379567
 21
0.9385053939951468
 31
0.0
  0
LINE
  5
3151
330
1E
100
AcDbEntity
  8
7
100
AcDbLine
 10
6.604642609143345
 20
0.5251195672234914
 30
0.0
 11
6.647949695757519
 21
0.5251195672234914
 31
0.0
  0
LINE
  5
3152
330
1E
100
AcDbEntity
  8
7
100
AcDbLine
 10
7.726689853237834
 20
0.9503164176171914
 30
0.0
 11
7.726689853237834
 21
0.9896864963573506
 31
0.0
  0
LINE
  5
3153
330
1E
100
AcDbEntity
  8
7
100
AcDbLine
 10
6.155823711505551
 20
0.5802376774597136
 30
0.0
 11
6.088894577647282
 21
0.5802376774597136
 31
0.0
  0
LINE
  5
3154
330
1E
100
AcDbEntity
  8
7
100
AcDbLine
 10
6.210941821741771
 20
0.5251195672234914
 30
0.0
 11
6.25818591622996
 21
0.6353557876959322
 31
0.0
  0
LINE
  5
3155
330
1E
100
AcDbEntity
  8
7
100
AcDbLine
 10
8.419603239064606
 20
-0.1008646847450123
 30
0.0
 11
8.002280404418934
 21
-0.1008646847450123
 31
0.0
  0
LINE
  5
3156
330
1E
100
AcDbEntity
  8
7
100
AcDbLine
 10
6.458973317804762
 20
0.6353557876959322
 30
0.0
 11
6.458973317804762
 21
0.5251195672234914
 31
0.0
  0
LINE
  5
3157
330
1E
100
AcDbEntity
  8
7
100
AcDbLine
 10
5.581020561899251
 20
-0.3213371256898938
 30
0.0
 11
5.581020561899251
 21
-0.1008646847450123
 31
0.0
  0
LINE
  5
3158
330
1E
100
AcDbEntity
  8
7
100
AcDbLine
 10
-0.4347274695968109
 20
1.052678622341602
 30
0.0
 11
-0.4583495168409053
 21
1.06448964596365
 31
0.0
  0
LINE
  5
3159
330
1E
100
AcDbEntity
  8
7
100
AcDbLine
 10
3.60070560126933
 20
1.036930590845539
 30
0.0
 11
3.60070560126933
 21
1.013308543601443
 31
0.0
  0
LINE
  5
315A
330
1E
100
AcDbEntity
  8
7
100
AcDbLine
 10
4.301493002844132
 20
1.052678622341602
 30
0.0
 11
4.277870955600038
 21
1.06448964596365
 31
0.0
  0
LINE
  5
315B
330
1E
100
AcDbEntity
  8
7
100
AcDbLine
 10
0.9865323729228734
 20
0.9385053939951468
 30
0.0
 11
1.029839459537047
 21
0.9385053939951468
 31
0.0
  0
LINE
  5
315C
330
1E
100
AcDbEntity
  8
7
100
AcDbLine
 10
4.844800089458306
 20
0.9385053939951468
 30
0.0
 11
4.872359144576416
 21
0.9385053939951468
 31
0.0
  0
LINE
  5
315D
330
1E
100
AcDbEntity
  8
7
100
AcDbLine
 10
4.301493002844132
 20
0.9503164176171914
 30
0.0
 11
4.31330402646618
 21
0.9896864963573506
 31
0.0
  0
LINE
  5
315E
330
1E
100
AcDbEntity
  8
7
100
AcDbLine
 10
-0.4347274695968109
 20
0.9896864963573506
 30
0.0
 11
-0.4583495168409053
 21
1.001497519979398
 31
0.0
  0
LINE
  5
315F
330
1E
100
AcDbEntity
  8
7
100
AcDbLine
 10
-1.033152666447204
 20
1.06448964596365
 30
0.0
 11
-1.009530619203109
 21
1.052678622341602
 31
0.0
  0
LINE
  5
3160
330
1E
100
AcDbEntity
  8
7
100
AcDbLine
 10
1.95109930205673
 20
-0.3213371256898938
 30
0.0
 11
2.368422136702401
 21
-0.3213371256898938
 31
0.0
  0
LINE
  5
3161
330
1E
100
AcDbEntity
  8
7
100
AcDbLine
 10
1.62826465638744
 20
0.9621274412392395
 30
0.0
 11
1.604642609143345
 21
0.9385053939951468
 31
0.0
  0
LINE
  5
3162
330
1E
100
AcDbEntity
  8
7
100
AcDbLine
 10
3.667634735127597
 20
0.9385053939951468
 30
0.0
 11
3.691256782371691
 21
0.9621274412392395
 31
0.0
  0
LINE
  5
3163
330
1E
100
AcDbEntity
  8
7
100
AcDbLine
 10
1.537713475285078
 20
0.9896864963573506
 30
0.0
 11
1.561335522529173
 21
1.013308543601443
 31
0.0
  0
LINE
  5
3164
330
1E
100
AcDbEntity
  8
7
100
AcDbLine
 10
5.285744971348069
 20
1.052678622341602
 30
0.0
 11
5.293618987096101
 21
1.06448964596365
 31
0.0
  0
LINE
  5
3165
330
1E
100
AcDbEntity
  8
7
100
AcDbLine
 10
3.691256782371691
 20
0.9621274412392395
 30
0.0
 11
3.691256782371691
 21
1.036930590845539
 31
0.0
  0
LINE
  5
3166
330
1E
100
AcDbEntity
  8
7
100
AcDbLine
 10
0.7975559949701179
 20
-0.1008646847450123
 30
0.0
 11
0.7975559949701179
 21
-0.3213371256898938
 31
0.0
  0
LINE
  5
3167
330
1E
100
AcDbEntity
  8
7
100
AcDbLine
 10
-0.6866959735338183
 20
-0.3213371256898938
 30
0.0
 11
-0.2693731388881497
 21
-0.3213371256898938
 31
0.0
  0
LINE
  5
3168
330
1E
100
AcDbEntity
  8
7
100
AcDbLine
 10
0.9629103256787789
 20
1.06448964596365
 30
0.0
 11
1.053461506781141
 21
1.06448964596365
 31
0.0
  0
LINE
  5
3169
330
1E
100
AcDbEntity
  8
7
100
AcDbLine
 10
1.537713475285078
 20
0.9621274412392395
 30
0.0
 11
1.537713475285078
 21
1.036930590845539
 31
0.0
  0
LINE
  5
316A
330
1E
100
AcDbEntity
  8
7
100
AcDbLine
 10
-1.100081800305471
 20
0.9621274412392395
 30
0.0
 11
-1.100081800305471
 21
0.9385053939951468
 31
0.0
  0
LINE
  5
316B
330
1E
100
AcDbEntity
  8
7
100
AcDbLine
 10
14.53377646741106
 20
1.052678622341602
 30
0.0
 11
14.55346150678114
 21
1.06448964596365
 31
0.0
  0
LINE
  5
316C
330
1E
100
AcDbEntity
  8
7
100
AcDbLine
 10
11.42747725481264
 20
0.9621274412392395
 30
0.0
 11
11.44716229418271
 21
0.9385053939951468
 31
0.0
  0
LINE
  5
316D
330
1E
100
AcDbEntity
  8
7
100
AcDbLine
 10
10.06527253040318
 20
-0.1008646847450123
 30
0.0
 11
10.06527253040318
 21
-0.3213371256898938
 31
0.0
  0
LINE
  5
316E
330
1E
100
AcDbEntity
  8
7
100
AcDbLine
 10
12.70306780599374
 20
-0.1008646847450123
 30
0.0
 11
12.70306780599374
 21
-0.3213371256898938
 31
0.0
  0
LINE
  5
316F
330
1E
100
AcDbEntity
  8
7
100
AcDbLine
 10
12.018028435915
 20
0.9896864963573506
 30
0.0
 11
12.02983945953704
 21
0.9503164176171914
 31
0.0
  0
LINE
  5
3170
330
1E
100
AcDbEntity
  8
7
100
AcDbLine
 10
14.72275284536382
 20
1.06448964596365
 30
0.0
 11
14.72275284536382
 21
0.9385053939951468
 31
0.0
  0
LINE
  5
3171
330
1E
100
AcDbEntity
  8
7
100
AcDbLine
 10
14.84873709733232
 20
-0.1008646847450123
 30
0.0
 11
14.43141426268665
 21
-0.1008646847450123
 31
0.0
  0
LINE
  5
3172
330
1E
100
AcDbEntity
  8
7
100
AcDbLine
 10
11.44716229418271
 20
0.9896864963573506
 30
0.0
 11
11.4944063886709
 21
0.9896864963573506
 31
0.0
  0
LINE
  5
3173
330
1E
100
AcDbEntity
  8
7
100
AcDbLine
 10
12.07314654615122
 20
0.9385053939951468
 30
0.0
 11
12.09676859339531
 21
0.9503164176171914
 31
0.0
  0
LINE
  5
3174
330
1E
100
AcDbEntity
  8
7
100
AcDbLine
 10
13.28180796347405
 20
-0.1008646847450123
 30
0.0
 11
13.28180796347405
 21
-0.3213371256898938
 31
0.0
  0
LINE
  5
3175
330
1E
100
AcDbEntity
  8
7
100
AcDbLine
 10
12.02983945953704
 20
0.9503164176171914
 30
0.0
 11
12.05346150678114
 21
0.9385053939951468
 31
0.0
  0
LINE
  5
3176
330
1E
100
AcDbEntity
  8
7
100
AcDbLine
 10
11.98653237292287
 20
1.052678622341602
 30
0.0
 11
11.98653237292287
 21
1.025119567223491
 31
0.0
  0
LINE
  5
3177
330
1E
100
AcDbEntity
  8
7
100
AcDbLine
 10
12.09676859339531
 20
0.9503164176171914
 30
0.0
 11
12.10857961701736
 21
0.9896864963573506
 31
0.0
  0
LINE
  5
3178
330
1E
100
AcDbEntity
  8
7
100
AcDbLine
 10
11.4944063886709
 20
1.06448964596365
 30
0.0
 11
11.44716229418271
 21
1.06448964596365
 31
0.0
  0
LINE
  5
3179
330
1E
100
AcDbEntity
  8
7
100
AcDbLine
 10
13.47078434142681
 20
1.025119567223491
 30
0.0
 11
13.38023316032445
 21
0.9621274412392395
 31
0.0
  0
LINE
  5
317A
330
1E
100
AcDbEntity
  8
7
100
AcDbLine
 10
12.02983945953704
 20
1.052678622341602
 30
0.0
 11
12.018028435915
 21
1.013308543601443
 31
0.0
  0
LINE
  5
317B
330
1E
100
AcDbEntity
  8
7
100
AcDbLine
 10
12.91172922331657
 20
1.025119567223491
 30
0.0
 11
12.82117804221421
 21
0.9621274412392395
 31
0.0
  0
LINE
  5
317C
330
1E
100
AcDbEntity
  8
7
100
AcDbLine
 10
13.38417016819846
 20
0.9385053939951468
 30
0.0
 11
13.47078434142681
 21
0.9385053939951468
 31
0.0
  0
LINE
  5
317D
330
1E
100
AcDbEntity
  8
7
100
AcDbLine
 10
13.12039064063941
 20
-0.1008646847450123
 30
0.0
 11
12.70306780599374
 21
-0.1008646847450123
 31
0.0
  0
LINE
  5
317E
330
1E
100
AcDbEntity
  8
7
100
AcDbLine
 10
10.87235914457641
 20
1.001497519979398
 30
0.0
 11
10.85267410520634
 21
1.013308543601443
 31
0.0
  0
LINE
  5
317F
330
1E
100
AcDbEntity
  8
7
100
AcDbLine
 10
6.872359144576416
 20
0.2770880711604988
 30
0.0
 11
6.140075680009488
 21
0.2770880711604988
 31
0.0
  0
LINE
  5
3180
330
1E
100
AcDbEntity
  8
7
100
AcDbLine
 10
5.006217412292951
 20
-0.1008646847450123
 30
0.0
 11
4.588894577647282
 21
-0.1008646847450123
 31
0.0
  0
LINE
  5
3181
330
1E
100
AcDbEntity
  8
7
100
AcDbLine
 10
9.573146546151221
 20
-0.1008646847450123
 30
0.0
 11
9.155823711505551
 21
-0.1008646847450123
 31
0.0
  0
LINE
  5
3182
330
1E
100
AcDbEntity
  8
7
100
AcDbLine
 10
6.088894577647282
 20
0.6353557876959322
 30
0.0
 11
6.155823711505551
 21
0.6353557876959322
 31
0.0
  0
LINE
  5
3183
330
1E
100
AcDbEntity
  8
7
100
AcDbLine
 10
7.549524498907123
 20
1.052678622341602
 30
0.0
 11
7.561335522529171
 21
1.06448964596365
 31
0.0
  0
LINE
  5
3184
330
1E
100
AcDbEntity
  8
7
100
AcDbLine
 10
6.584957569773267
 20
0.5487416144675877
 30
0.0
 11
6.604642609143345
 21
0.5251195672234914
 31
0.0
  0
LINE
  5
3185
330
1E
100
AcDbEntity
  8
7
100
AcDbLine
 10
7.707004813867756
 20
0.9385053939951468
 30
0.0
 11
7.726689853237834
 21
0.9503164176171914
 31
0.0
  0
LINE
  5
3186
330
1E
100
AcDbEntity
  8
7
100
AcDbLine
 10
8.281807963474054
 20
1.06448964596365
 30
0.0
 11
8.281807963474054
 21
0.9385053939951468
 31
0.0
  0
LINE
  5
3187
330
1E
100
AcDbEntity
  8
7
100
AcDbLine
 10
9.573146546151221
 20
-0.3213371256898938
 30
0.0
 11
9.573146546151221
 21
-0.1008646847450123
 31
0.0
  0
LINE
  5
3188
330
1E
100
AcDbEntity
  8
7
100
AcDbLine
 10
8.136138672135473
 20
1.06448964596365
 30
0.0
 11
8.136138672135473
 21
0.9385053939951468
 31
0.0
  0
LINE
  5
3189
330
1E
100
AcDbEntity
  8
7
100
AcDbLine
 10
3.439288278434684
 20
-0.3213371256898938
 30
0.0
 11
3.852674105206338
 21
-0.3213371256898938
 31
0.0
  0
LINE
  5
318A
330
1E
100
AcDbEntity
  8
7
100
AcDbLine
 10
9.364485128828388
 20
0.9896864963573506
 30
0.0
 11
9.384170168198465
 21
1.013308543601443
 31
0.0
  0
LINE
  5
318B
330
1E
100
AcDbEntity
  8
7
100
AcDbLine
 10
8.856611113080354
 20
0.9385053939951468
 30
0.0
 11
8.880233160324451
 21
0.9503164176171914
 31
0.0
  0
LINE
  5
318C
330
1E
100
AcDbEntity
  8
7
100
AcDbLine
 10
4.014091428040982
 20
-0.1008646847450123
 30
0.0
 11
4.014091428040982
 21
-0.3213371256898938
 31
0.0
  0
LINE
  5
318D
330
1E
100
AcDbEntity
  8
7
100
AcDbLine
 10
6.179445758749645
 20
0.5920487010817617
 30
0.0
 11
6.155823711505551
 21
0.5802376774597136
 31
0.0
  0
LINE
  5
318E
330
1E
100
AcDbEntity
  8
7
100
AcDbLine
 10
8.69519379024571
 20
0.9385053939951468
 30
0.0
 11
8.726689853237836
 21
0.9385053939951468
 31
0.0
  0
LINE
  5
318F
330
1E
100
AcDbEntity
  8
7
100
AcDbLine
 10
-0.4583495168409053
 20
1.06448964596365
 30
0.0
 11
-0.5016566034550776
 21
1.06448964596365
 31
0.0
  0
LINE
  5
3190
330
1E
100
AcDbEntity
  8
7
100
AcDbLine
 10
4.848737097332321
 20
1.052678622341602
 30
0.0
 11
4.860548120954369
 21
1.06448964596365
 31
0.0
  0
LINE
  5
3191
330
1E
100
AcDbEntity
  8
7
100
AcDbLine
 10
-2.430790461722795
 20
0.6432298034439654
 30
0.0
 11
-2.430790461722795
 21
0.7849620869085321
 31
0.0
  0
LINE
  5
3192
330
1E
100
AcDbEntity
  8
7
100
AcDbLine
 10
-0.4347274695968109
 20
1.013308543601443
 30
0.0
 11
-0.4347274695968109
 21
1.052678622341602
 31
0.0
  0
LINE
  5
3193
330
1E
100
AcDbEntity
  8
7
100
AcDbLine
 10
5.462910325678778
 20
1.025119567223491
 30
0.0
 11
5.372359144576416
 21
0.9621274412392395
 31
0.0
  0
LINE
  5
3194
330
1E
100
AcDbEntity
  8
7
100
AcDbLine
 10
-2.918979438100747
 20
0.6432298034439654
 30
0.0
 11
-2.918979438100747
 21
0.7849620869085321
 31
0.0
  0
LINE
  5
3195
330
1E
100
AcDbEntity
  8
7
100
AcDbLine
 10
-0.4583495168409053
 20
1.001497519979398
 30
0.0
 11
-0.4898455798330313
 21
1.001497519979398
 31
0.0
  0
LINE
  5
3196
330
1E
100
AcDbEntity
  8
7
100
AcDbLine
 10
-0.8481132963684645
 20
-0.3213371256898938
 30
0.0
 11
-0.8481132963684645
 21
-0.1008646847450123
 31
0.0
  0
LINE
  5
3197
330
1E
100
AcDbEntity
  8
7
100
AcDbLine
 10
4.726689853237834
 20
1.052678622341602
 30
0.0
 11
4.734563868985866
 21
1.06448964596365
 31
0.0
  0
LINE
  5
3198
330
1E
100
AcDbEntity
  8
7
100
AcDbLine
 10
-1.643388886919645
 20
0.9385053939951468
 30
0.0
 11
-1.615829831801534
 21
0.9385053939951468
 31
0.0
  0
LINE
  5
3199
330
1E
100
AcDbEntity
  8
7
100
AcDbLine
 10
2.777870955600038
 20
0.9503164176171914
 30
0.0
 11
2.777870955600038
 21
0.9896864963573506
 31
0.0
  0
LINE
  5
319A
330
1E
100
AcDbEntity
  8
7
100
AcDbLine
 10
1.053461506781141
 20
0.9503164176171914
 30
0.0
 11
1.053461506781141
 21
1.001497519979398
 31
0.0
  0
LINE
  5
319B
330
1E
100
AcDbEntity
  8
7
100
AcDbLine
 10
0.0495244989071253
 20
0.9896864963573506
 30
0.0
 11
0.1203906406394086
 21
1.06448964596365
 31
0.0
  0
LINE
  5
319C
330
1E
100
AcDbEntity
  8
7
100
AcDbLine
 10
2.777870955600038
 20
1.013308543601443
 30
0.0
 11
2.75818591622996
 21
1.001497519979398
 31
0.0
  0
LINE
  5
319D
330
1E
100
AcDbEntity
  8
7
100
AcDbLine
 10
1.62826465638744
 20
0.9896864963573506
 30
0.0
 11
1.62826465638744
 21
0.9621274412392395
 31
0.0
  0
LINE
  5
319E
330
1E
100
AcDbEntity
  8
7
100
AcDbLine
 10
2.691256782371691
 20
1.052678622341602
 30
0.0
 11
2.710941821741771
 21
1.06448964596365
 31
0.0
  0
LINE
  5
319F
330
1E
100
AcDbEntity
  8
7
100
AcDbLine
 10
4.277870955600038
 20
1.06448964596365
 30
0.0
 11
4.254248908355943
 21
1.06448964596365
 31
0.0
  0
LINE
  5
31A0
330
1E
100
AcDbEntity
  8
7
100
AcDbLine
 10
0.1203906406394086
 20
1.06448964596365
 30
0.0
 11
0.1203906406394086
 21
0.9385053939951468
 31
0.0
  0
LINE
  5
31A1
330
1E
100
AcDbEntity
  8
7
100
AcDbLine
 10
-1.100081800305471
 20
1.052678622341602
 30
0.0
 11
-1.076459753061377
 21
1.06448964596365
 31
0.0
  0
LINE
  5
31A2
330
1E
100
AcDbEntity
  8
7
100
AcDbLine
 10
13.38417016819846
 20
1.052678622341602
 30
0.0
 11
13.40385520756854
 21
1.06448964596365
 31
0.0
  0
LINE
  5
31A3
330
1E
100
AcDbEntity
  8
7
100
AcDbLine
 10
13.50621741229295
 20
0.9385053939951468
 30
0.0
 11
13.59676859339531
 21
0.9385053939951468
 31
0.0
  0
LINE
  5
31A4
330
1E
100
AcDbEntity
  8
7
100
AcDbLine
 10
14.65582371150555
 20
0.9896864963573506
 30
0.0
 11
14.72275284536382
 21
1.06448964596365
 31
0.0
  0
LINE
  5
31A5
330
1E
100
AcDbEntity
  8
7
100
AcDbLine
 10
10.06527253040318
 20
-0.3213371256898938
 30
0.0
 11
10.48259536504885
 21
-0.3213371256898938
 31
0.0
  0
LINE
  5
31A6
330
1E
100
AcDbEntity
  8
7
100
AcDbLine
 10
10.85267410520634
 20
0.9896864963573506
 30
0.0
 11
10.85267410520634
 21
0.9503164176171914
 31
0.0
  0
LINE
  5
31A7
330
1E
100
AcDbEntity
  8
7
100
AcDbLine
 10
14.08102056189925
 20
0.9503164176171914
 30
0.0
 11
14.10070560126933
 21
0.9385053939951468
 31
0.0
  0
LINE
  5
31A8
330
1E
100
AcDbEntity
  8
7
100
AcDbLine
 10
11.89204418394649
 20
0.9621274412392395
 30
0.0
 11
11.89598119182051
 21
0.9385053939951468
 31
0.0
  0
LINE
  5
31A9
330
1E
100
AcDbEntity
  8
7
100
AcDbLine
 10
12.82117804221421
 20
0.9621274412392395
 30
0.0
 11
12.82117804221421
 21
0.9385053939951468
 31
0.0
  0
LINE
  5
31AA
330
1E
100
AcDbEntity
  8
7
100
AcDbLine
 10
14.17157174300161
 20
0.9896864963573506
 30
0.0
 11
14.14794969575752
 21
1.001497519979398
 31
0.0
  0
LINE
  5
31AB
330
1E
100
AcDbEntity
  8
7
100
AcDbLine
 10
13.95897331780476
 20
0.9385053939951468
 30
0.0
 11
14.04558749103311
 21
0.9385053939951468
 31
0.0
  0
LINE
  5
31AC
330
1E
100
AcDbEntity
  8
7
100
AcDbLine
 10
13.50621741229295
 20
1.052678622341602
 30
0.0
 11
13.52590245166303
 21
1.06448964596365
 31
0.0
  0
LINE
  5
31AD
330
1E
100
AcDbEntity
  8
7
100
AcDbLine
 10
14.17157174300161
 20
1.013308543601443
 30
0.0
 11
14.17157174300161
 21
1.052678622341602
 31
0.0
  0
LINE
  5
31AE
330
1E
100
AcDbEntity
  8
7
100
AcDbLine
 10
12.99046938079689
 20
1.06448964596365
 30
0.0
 11
12.99046938079689
 21
0.9385053939951468
 31
0.0
  0
LINE
  5
31AF
330
1E
100
AcDbEntity
  8
7
100
AcDbLine
 10
10.9432252863087
 20
0.9503164176171914
 30
0.0
 11
10.9432252863087
 21
0.9896864963573506
 31
0.0
  0
LINE
  5
31B0
330
1E
100
AcDbEntity
  8
7
100
AcDbLine
 10
11.89598119182051
 20
0.9385053939951468
 30
0.0
 11
11.98653237292287
 21
0.9385053939951468
 31
0.0
  0
LINE
  5
31B1
330
1E
100
AcDbEntity
  8
7
100
AcDbLine
 10
11.63613867213547
 20
-0.3213371256898938
 30
0.0
 11
11.63613867213547
 21
-0.1008646847450123
 31
0.0
  0
LINE
  5
31B2
330
1E
100
AcDbEntity
  8
7
100
AcDbLine
 10
13.12039064063941
 20
-0.3213371256898938
 30
0.0
 11
13.12039064063941
 21
-0.1008646847450123
 31
0.0
  0
LINE
  5
31B3
330
1E
100
AcDbEntity
  8
7
100
AcDbLine
 10
14.14794969575752
 20
1.001497519979398
 30
0.0
 11
14.11251662489138
 21
1.001497519979398
 31
0.0
  0
LINE
  5
31B4
330
1E
100
AcDbEntity
  8
7
100
AcDbLine
 10
14.27393394772602
 20
-0.1008646847450123
 30
0.0
 11
13.85661111308035
 21
-0.1008646847450123
 31
0.0
  0
LINE
  5
31B5
330
1E
100
AcDbEntity
  8
7
100
AcDbLine
 10
10.9196032390646
 20
1.001497519979398
 30
0.0
 11
10.87235914457641
 21
1.001497519979398
 31
0.0
  0
LINE
  5
31B6
330
1E
100
AcDbEntity
  8
7
100
AcDbLine
 10
6.458973317804762
 20
0.5251195672234914
 30
0.0
 11
6.52590245166303
 21
0.5251195672234914
 31
0.0
  0
LINE
  5
31B7
330
1E
100
AcDbEntity
  8
7
100
AcDbLine
 10
7.844800089458304
 20
-0.1008646847450123
 30
0.0
 11
7.427477254812636
 21
-0.1008646847450123
 31
0.0
  0
LINE
  5
31B8
330
1E
100
AcDbEntity
  8
7
100
AcDbLine
 10
7.726689853237834
 20
1.013308543601443
 30
0.0
 11
7.726689853237834
 21
1.052678622341602
 31
0.0
  0
LINE
  5
31B9
330
1E
100
AcDbEntity
  8
7
100
AcDbLine
 10
8.124327648513425
 20
1.052678622341602
 30
0.0
 11
8.136138672135473
 21
1.06448964596365
 31
0.0
  0
LINE
  5
31BA
330
1E
100
AcDbEntity
  8
7
100
AcDbLine
 10
8.581020561899254
 20
-0.1008646847450123
 30
0.0
 11
8.581020561899254
 21
-0.3213371256898938
 31
0.0
  0
LINE
  5
31BB
330
1E
100
AcDbEntity
  8
7
100
AcDbLine
 10
6.671571743001614
 20
0.5487416144675877
 30
0.0
 11
6.671571743001614
 21
0.6353557876959322
 31
0.0
  0
LINE
  5
31BC
330
1E
100
AcDbEntity
  8
7
100
AcDbLine
 10
4.431414262686653
 20
-0.3213371256898938
 30
0.0
 11
4.431414262686653
 21
-0.1008646847450123
 31
0.0
  0
LINE
  5
31BD
330
1E
100
AcDbEntity
  8
7
100
AcDbLine
 10
8.994406388670906
 20
-0.3213371256898938
 30
0.0
 11
8.994406388670906
 21
-0.1008646847450123
 31
0.0
  0
LINE
  5
31BE
330
1E
100
AcDbEntity
  8
7
100
AcDbLine
 10
7.659760719379567
 20
1.06448964596365
 30
0.0
 11
7.636138672135471
 21
1.052678622341602
 31
0.0
  0
LINE
  5
31BF
330
1E
100
AcDbEntity
  8
7
100
AcDbLine
 10
6.742437884733897
 20
0.6353557876959322
 30
0.0
 11
6.762122924103975
 21
0.6353557876959322
 31
0.0
  0
LINE
  5
31C0
330
1E
100
AcDbEntity
  8
7
100
AcDbLine
 10
8.994406388670906
 20
-0.1008646847450123
 30
0.0
 11
8.581020561899254
 21
-0.1008646847450123
 31
0.0
  0
LINE
  5
31C1
330
1E
100
AcDbEntity
  8
7
100
AcDbLine
 10
2.943225286308699
 20
-0.3213371256898938
 30
0.0
 11
2.943225286308699
 21
-0.1008646847450123
 31
0.0
  0
LINE
  5
31C2
330
1E
100
AcDbEntity
  8
7
100
AcDbLine
 10
8.809367018592165
 20
1.013308543601443
 30
0.0
 11
8.789681979222088
 21
1.001497519979398
 31
0.0
  0
LINE
  5
31C3
330
1E
100
AcDbEntity
  8
7
100
AcDbLine
 10
8.70306780599374
 20
1.052678622341602
 30
0.0
 11
8.710941821741773
 21
1.06448964596365
 31
0.0
  0
LINE
  5
31C4
330
1E
100
AcDbEntity
  8
7
100
AcDbLine
 10
6.155823711505551
 20
0.6353557876959322
 30
0.0
 11
6.179445758749645
 21
0.6274817719479025
 31
0.0
  0
LINE
  5
31C5
330
1E
100
AcDbEntity
  8
7
100
AcDbLine
 10
7.545587491033108
 20
0.9385053939951468
 30
0.0
 11
7.573146546151219
 21
0.9385053939951468
 31
0.0
  0
LINE
  5
31C6
330
1E
100
AcDbEntity
  8
7
100
AcDbLine
 10
-0.2693731388881497
 20
-0.3213371256898938
 30
0.0
 11
-0.2693731388881497
 21
-0.1008646847450123
 31
0.0
  0
LINE
  5
31C7
330
1E
100
AcDbEntity
  8
7
100
AcDbLine
 10
1.604642609143345
 20
0.9385053939951468
 30
0.0
 11
1.561335522529173
 21
0.9385053939951468
 31
0.0
  0
LINE
  5
31C8
330
1E
100
AcDbEntity
  8
7
100
AcDbLine
 10
0.3054300107181493
 20
-0.1008646847450123
 30
0.0
 11
-0.1118928239275201
 21
-0.1008646847450123
 31
0.0
  0
LINE
  5
31CE
330
1E
100
AcDbEntity
  8
7
100
AcDbLine
 10
3.667634735127597
 20
1.06448964596365
 30
0.0
 11
3.624327648513425
 21
1.06448964596365
 31
0.0
  0
LINE
  5
31CF
330
1E
100
AcDbEntity
  8
7
100
AcDbLine
 10
2.20306780599374
 20
1.06448964596365
 30
0.0
 11
2.112516624891377
 21
1.06448964596365
 31
0.0
  0
LINE
  5
31D0
330
1E
100
AcDbEntity
  8
7
100
AcDbLine
 10
2.368422136702401
 20
-0.1008646847450123
 30
0.0
 11
1.95109930205673
 21
-0.1008646847450123
 31
0.0
  0
LINE
  5
31D1
330
1E
100
AcDbEntity
  8
7
100
AcDbLine
 10
4.222752845363817
 20
0.9896864963573506
 30
0.0
 11
4.234563868985866
 21
0.9503164176171914
 31
0.0
  0
LINE
  5
31D2
330
1E
100
AcDbEntity
  8
7
100
AcDbLine
 10
4.136138672135471
 20
1.052678622341602
 30
0.0
 11
4.144012687883503
 21
1.06448964596365
 31
0.0
  0
LINE
  5
31D3
330
1E
100
AcDbEntity
  8
7
100
AcDbLine
 10
2.75818591622996
 20
1.001497519979398
 30
0.0
 11
2.710941821741771
 21
1.001497519979398
 31
0.0
  0
LINE
  5
31D4
330
1E
100
AcDbEntity
  8
7
100
AcDbLine
 10
4.722752845363817
 20
0.9385053939951468
 30
0.0
 11
4.750311900481928
 21
0.9385053939951468
 31
0.0
  0
LINE
  5
31D5
330
1E
100
AcDbEntity
  8
7
100
AcDbLine
 10
1.561335522529173
 20
1.06448964596365
 30
0.0
 11
1.604642609143345
 21
1.06448964596365
 31
0.0
  0
LINE
  5
31D6
330
1E
100
AcDbEntity
  8
7
100
AcDbLine
 10
4.234563868985866
 20
0.9503164176171914
 30
0.0
 11
4.254248908355943
 21
0.9385053939951468
 31
0.0
  0
LINE
  5
31D7
330
1E
100
AcDbEntity
  8
7
100
AcDbLine
 10
-1.261499123140118
 20
-0.1008646847450123
 30
0.0
 11
-1.261499123140118
 21
-0.3213371256898938
 31
0.0
  0
LINE
  5
31D8
330
1E
100
AcDbEntity
  8
7
100
AcDbLine
 10
5.293618987096101
 20
1.06448964596365
 30
0.0
 11
5.293618987096101
 21
0.9385053939951468
 31
0.0
  0
LINE
  5
31D9
330
1E
100
AcDbEntity
  8
7
100
AcDbLine
 10
-2.918979438100747
 20
0.7849620869085321
 30
0.0
 11
-2.430790461722795
 21
0.7849620869085321
 31
0.0
  0
LINE
  5
31DA
330
1E
100
AcDbEntity
  8
7
100
AcDbLine
 10
1.029839459537047
 20
0.9385053939951468
 30
0.0
 11
1.053461506781141
 21
0.9503164176171914
 31
0.0
  0
LINE
  5
31DB
330
1E
100
AcDbEntity
  8
7
100
AcDbLine
 10
-2.430790461722795
 20
0.6432298034439654
 30
0.0
 11
-2.918979438100747
 21
0.6432298034439654
 31
0.0
  0
LINE
  5
31DC
330
1E
100
AcDbEntity
  8
7
100
AcDbLine
 10
14.10070560126933
 20
0.9385053939951468
 30
0.0
 11
14.14794969575752
 21
0.9385053939951468
 31
0.0
  0
LINE
  5
31DD
330
1E
100
AcDbEntity
  8
7
100
AcDbLine
 10
10.87235914457641
 20
0.9385053939951468
 30
0.0
 11
10.9196032390646
 21
0.9385053939951468
 31
0.0
  0
LINE
  5
31DE
330
1E
100
AcDbEntity
  8
7
100
AcDbLine
 10
14.14794969575752
 20
1.06448964596365
 30
0.0
 11
14.10070560126933
 21
1.06448964596365
 31
0.0
  0
LINE
  5
31DF
330
1E
100
AcDbEntity
  8
7
100
AcDbLine
 10
13.95897331780476
 20
1.052678622341602
 30
0.0
 11
13.97865835717484
 21
1.06448964596365
 31
0.0
  0
LINE
  5
31E0
330
1E
100
AcDbEntity
  8
7
100
AcDbLine
 10
10.87235914457641
 20
1.001497519979398
 30
0.0
 11
10.85267410520634
 21
0.9896864963573506
 31
0.0
  0
LINE
  5
31E1
330
1E
100
AcDbEntity
  8
7
100
AcDbLine
 10
14.74637489260791
 20
0.9896864963573506
 30
0.0
 11
14.65582371150555
 21
0.9896864963573506
 31
0.0
  0
LINE
  5
31E2
330
1E
100
AcDbEntity
  8
7
100
AcDbLine
 10
13.97865835717484
 20
1.06448964596365
 30
0.0
 11
14.02590245166303
 21
1.06448964596365
 31
0.0
  0
LINE
  5
31E3
330
1E
100
AcDbEntity
  8
7
100
AcDbLine
 10
13.59676859339531
 20
1.025119567223491
 30
0.0
 11
13.50621741229295
 21
0.9621274412392395
 31
0.0
  0
LINE
  5
31E4
330
1E
100
AcDbEntity
  8
7
100
AcDbLine
 10
14.10070560126933
 20
1.06448964596365
 30
0.0
 11
14.08102056189925
 21
1.052678622341602
 31
0.0
  0
LINE
  5
31E5
330
1E
100
AcDbEntity
  8
7
100
AcDbLine
 10
10.36448512882838
 20
1.06448964596365
 30
0.0
 11
10.27787095560004
 21
1.06448964596365
 31
0.0
  0
LINE
  5
31E6
330
1E
100
AcDbEntity
  8
7
100
AcDbLine
 10
10.85267410520634
 20
1.052678622341602
 30
0.0
 11
10.87235914457641
 21
1.06448964596365
 31
0.0
  0
LINE
  5
31E7
330
1E
100
AcDbEntity
  8
7
100
AcDbLine
 10
14.17157174300161
 20
0.9503164176171914
 30
0.0
 11
14.17157174300161
 21
0.9896864963573506
 31
0.0
  0
LINE
  5
31E8
330
1E
100
AcDbEntity
  8
7
100
AcDbLine
 10
12.10857961701736
 20
0.9896864963573506
 30
0.0
 11
12.10857961701736
 21
1.013308543601443
 31
0.0
  0
LINE
  5
31E9
330
1E
100
AcDbEntity
  8
7
100
AcDbLine
 10
11.4944063886709
 20
0.9896864963573506
 30
0.0
 11
11.51802843591499
 21
1.013308543601443
 31
0.0
  0
LINE
  5
31EA
330
1E
100
AcDbEntity
  8
7
100
AcDbLine
 10
14.14794969575752
 20
1.001497519979398
 30
0.0
 11
14.17157174300161
 21
1.013308543601443
 31
0.0
  0
LINE
  5
31EB
330
1E
100
AcDbEntity
  8
7
100
AcDbLine
 10
11.89598119182051
 20
1.052678622341602
 30
0.0
 11
11.91566623119059
 21
1.06448964596365
 31
0.0
  0
LINE
  5
31EC
330
1E
100
AcDbEntity
  8
7
100
AcDbLine
 10
10.9432252863087
 20
1.013308543601443
 30
0.0
 11
10.9196032390646
 21
1.001497519979398
 31
0.0
  0
LINE
  5
31ED
330
1E
100
AcDbEntity
  8
7
100
AcDbLine
 10
13.28180796347405
 20
-0.3213371256898938
 30
0.0
 11
13.69913079811972
 21
-0.3213371256898938
 31
0.0
  0
LINE
  5
31EE
330
1E
100
AcDbEntity
  8
7
100
AcDbLine
 10
13.40385520756854
 20
1.06448964596365
 30
0.0
 11
13.45109930205673
 21
1.06448964596365
 31
0.0
  0
LINE
  5
31EF
330
1E
100
AcDbEntity
  8
7
100
AcDbLine
 10
10.9432252863087
 20
0.9896864963573506
 30
0.0
 11
10.9196032390646
 21
1.001497519979398
 31
0.0
  0
LINE
  5
31F0
330
1E
100
AcDbEntity
  8
7
100
AcDbLine
 10
6.088894577647282
 20
0.5251195672234914
 30
0.0
 11
6.088894577647282
 21
0.6353557876959322
 31
0.0
  0
LINE
  5
31F1
330
1E
100
AcDbEntity
  8
7
100
AcDbLine
 10
8.880233160324451
 20
0.9503164176171914
 30
0.0
 11
8.880233160324451
 21
1.001497519979398
 31
0.0
  0
LINE
  5
31F2
330
1E
100
AcDbEntity
  8
7
100
AcDbLine
 10
4.014091428040982
 20
-0.3213371256898938
 30
0.0
 11
4.431414262686653
 21
-0.3213371256898938
 31
0.0
  0
LINE
  5
31F3
330
1E
100
AcDbEntity
  8
7
100
AcDbLine
 10
8.880233160324451
 20
1.001497519979398
 30
0.0
 11
8.856611113080354
 21
1.013308543601443
 31
0.0
  0
LINE
  5
31F4
330
1E
100
AcDbEntity
  8
7
100
AcDbLine
 10
5.581020561899251
 20
-0.1008646847450123
 30
0.0
 11
5.163697727253582
 21
-0.1008646847450123
 31
0.0
  0
LINE
  5
31F5
330
1E
100
AcDbEntity
  8
7
100
AcDbLine
 10
9.384170168198465
 20
0.9385053939951468
 30
0.0
 11
9.364485128828388
 21
0.9621274412392395
 31
0.0
  0
LINE
  5
31F6
330
1E
100
AcDbEntity
  8
7
100
AcDbLine
 10
3.852674105206338
 20
-0.3213371256898938
 30
0.0
 11
3.852674105206338
 21
-0.1008646847450123
 31
0.0
  0
LINE
  5
31F7
330
1E
100
AcDbEntity
  8
7
100
AcDbLine
 10
9.384170168198465
 20
1.06448964596365
 30
0.0
 11
9.431414262686654
 21
1.06448964596365
 31
0.0
  0
LINE
  5
31F8
330
1E
100
AcDbEntity
  8
7
100
AcDbLine
 10
8.002280404418934
 20
-0.1008646847450123
 30
0.0
 11
8.002280404418934
 21
-0.3213371256898938
 31
0.0
  0
LINE
  5
31F9
330
1E
100
AcDbEntity
  8
7
100
AcDbLine
 10
8.856611113080354
 20
1.013308543601443
 30
0.0
 11
8.809367018592165
 21
1.013308543601443
 31
0.0
  0
LINE
  5
31FA
330
1E
100
AcDbEntity
  8
7
100
AcDbLine
 10
8.789681979222088
 20
1.06448964596365
 30
0.0
 11
8.880233160324451
 21
1.06448964596365
 31
0.0
  0
LINE
  5
31FB
330
1E
100
AcDbEntity
  8
7
100
AcDbLine
 10
2.52590245166303
 20
-0.3213371256898938
 30
0.0
 11
2.943225286308699
 21
-0.3213371256898938
 31
0.0
  0
LINE
  5
31FC
330
1E
100
AcDbEntity
  8
7
100
AcDbLine
 10
6.423540246938621
 20
0.5251195672234914
 30
0.0
 11
6.423540246938621
 21
0.6353557876959322
 31
0.0
  0
LINE
  5
31FD
330
1E
100
AcDbEntity
  8
7
100
AcDbLine
 10
4.431414262686653
 20
-0.1008646847450123
 30
0.0
 11
4.014091428040982
 21
-0.1008646847450123
 31
0.0
  0
LINE
  5
31FE
330
1E
100
AcDbEntity
  8
7
100
AcDbLine
 10
5.994406388670904
 20
1.261340039664435
 30
0.0
 11
6.014091428040982
 21
1.261340039664435
 31
0.0
  0
LINE
  5
31FF
330
1E
100
AcDbEntity
  8
7
100
AcDbLine
 10
6.014091428040982
 20
-0.4591324012804457
 30
0.0
 11
5.994406388670904
 21
-0.4591324012804457
 31
0.0
  0
LINE
  5
3200
330
1E
100
AcDbEntity
  8
7
100
AcDbLine
 10
5.707004813867754
 20
0.8125211420266431
 30
0.0
 11
3.309367018592164
 21
0.8125211420266431
 31
0.0
  0
LINE
  5
3201
330
1E
100
AcDbEntity
  8
7
100
AcDbLine
 10
5.707004813867754
 20
-0.0299985430127272
 30
0.0
 11
5.707004813867754
 21
0.8125211420266431
 31
0.0
  0
LINE
  5
3202
330
1E
100
AcDbEntity
  8
7
100
AcDbLine
 10
3.309367018592164
 20
-0.0299985430127272
 30
0.0
 11
5.707004813867754
 21
-0.0299985430127272
 31
0.0
  0
LINE
  5
3203
330
1E
100
AcDbEntity
  8
7
100
AcDbLine
 10
3.309367018592164
 20
-0.0299985430127272
 30
0.0
 11
3.309367018592164
 21
0.8125211420266431
 31
0.0
  0
LINE
  5
3204
330
1E
100
AcDbEntity
  8
7
100
AcDbLine
 10
3.069209538277204
 20
0.8125211420266431
 30
0.0
 11
0.6715717430016142
 21
0.8125211420266431
 31
0.0
  0
LINE
  5
3205
330
1E
100
AcDbEntity
  8
7
100
AcDbLine
 10
3.069209538277204
 20
-0.0299985430127272
 30
0.0
 11
3.069209538277204
 21
0.8125211420266431
 31
0.0
  0
LINE
  5
3206
330
1E
100
AcDbEntity
  8
7
100
AcDbLine
 10
0.6715717430016142
 20
-0.0299985430127272
 30
0.0
 11
3.069209538277204
 21
-0.0299985430127272
 31
0.0
  0
LINE
  5
3207
330
1E
100
AcDbEntity
  8
7
100
AcDbLine
 10
0.6715717430016142
 20
-0.0299985430127272
 30
0.0
 11
0.6715717430016142
 21
0.8125211420266431
 31
0.0
  0
LINE
  5
3208
330
1E
100
AcDbEntity
  8
7
100
AcDbLine
 10
0.4314142626866531
 20
0.8125211420266431
 30
0.0
 11
-1.966223532588936
 21
0.8125211420266431
 31
0.0
  0
LINE
  5
3209
330
1E
100
AcDbEntity
  8
7
100
AcDbLine
 10
0.4314142626866531
 20
-0.0299985430127272
 30
0.0
 11
0.4314142626866531
 21
0.8125211420266431
 31
0.0
  0
LINE
  5
320A
330
1E
100
AcDbEntity
  8
7
100
AcDbLine
 10
-1.966223532588936
 20
-0.0299985430127272
 30
0.0
 11
0.4314142626866531
 21
-0.0299985430127272
 31
0.0
  0
LINE
  5
320B
330
1E
100
AcDbEntity
  8
7
100
AcDbLine
 10
-1.966223532588936
 20
-0.0299985430127272
 30
0.0
 11
-1.966223532588936
 21
0.8125211420266431
 31
0.0
  0
LINE
  5
3228
330
1E
100
AcDbEntity
  8
7
100
AcDbLine
 10
3.329052057962243
 20
-0.0299985430127272
 30
0.0
 11
3.329052057962243
 21
-0.0260615351387124
 31
0.0
  0
LINE
  5
3229
330
1E
100
AcDbEntity
  8
7
100
AcDbLine
 10
3.329052057962243
 20
0.8046471262786099
 30
0.0
 11
3.329052057962243
 21
0.8125211420266431
 31
0.0
  0
LINE
  5
322A
330
1E
100
AcDbEntity
  8
7
100
AcDbLine
 10
0.6873197744976772
 20
-0.0299985430127272
 30
0.0
 11
0.6873197744976772
 21
-0.0260615351387124
 31
0.0
  0
LINE
  5
322B
330
1E
100
AcDbEntity
  8
7
100
AcDbLine
 10
0.6873197744976772
 20
0.8046471262786099
 30
0.0
 11
0.6873197744976772
 21
0.8125211420266431
 31
0.0
  0
LINE
  5
322C
330
1E
100
AcDbEntity
  8
7
100
AcDbLine
 10
-1.950475501092873
 20
-0.0299985430127272
 30
0.0
 11
-1.950475501092873
 21
-0.0260615351387124
 31
0.0
  0
LINE
  5
322D
330
1E
100
AcDbEntity
  8
7
100
AcDbLine
 10
-1.950475501092873
 20
0.8046471262786099
 30
0.0
 11
-1.950475501092873
 21
0.8125211420266431
 31
0.0
  0
LINE
  5
323F
330
1E
100
AcDbEntity
  8
7
100
AcDbLine
 10
-2.111892823927519
 20
1.190473897932154
 30
0.0
 11
-2.111892823927519
 21
1.202284921554202
 31
0.0
  0
LINE
  5
3240
330
1E
100
AcDbEntity
  8
7
100
AcDbLine
 10
-2.222129044399959
 20
1.202284921554202
 30
0.0
 11
-2.202444005029881
 21
1.202284921554202
 31
0.0
  0
LINE
  5
324C
330
1E
100
AcDbEntity
  8
7
100
AcDbLine
 10
-2.222129044399959
 20
-0.4000772831702087
 30
0.0
 11
-2.202444005029881
 21
-0.4000772831702087
 31
0.0
  0
LINE
  5
324D
330
1E
100
AcDbEntity
  8
7
100
AcDbLine
 10
-2.596144792431456
 20
0.8873242916329395
 30
0.0
 11
-2.529215658573188
 21
0.9070093310030209
 31
0.0
  0
LINE
  5
3256
330
1E
100
AcDbEntity
  8
7
100
AcDbLine
 10
-2.714255028651928
 20
1.166851850688058
 30
0.0
 11
-2.596144792431456
 21
1.166851850688058
 31
0.0
  0
LINE
  5
3263
330
1E
100
AcDbEntity
  8
7
100
AcDbLine
 10
-2.596144792431456
 20
0.8873242916329395
 30
0.0
 11
-2.714255028651928
 21
0.8873242916329395
 31
0.0
  0
LINE
  5
3264
330
1E
100
AcDbEntity
  8
7
100
AcDbLine
 10
-2.556774713691298
 20
0.2613400396644359
 30
0.0
 11
-2.993782587707046
 21
0.2613400396644359
 31
0.0
  0
LINE
  5
3271
330
1E
100
AcDbEntity
  8
7
100
AcDbLine
 10
-2.993782587707046
 20
0.5408675987195544
 30
0.0
 11
-2.556774713691298
 21
0.5408675987195544
 31
0.0
  0
LINE
  5
3272
330
1E
100
AcDbEntity
  8
7
100
AcDbLine
 10
-2.993782587707046
 20
0.5408675987195544
 30
0.0
 11
-2.993782587707046
 21
1.198347913680184
 31
0.0
  0
LINE
  5
3273
330
1E
100
AcDbEntity
  8
7
100
AcDbLine
 10
-2.993782587707046
 20
-0.3961402752961938
 30
0.0
 11
-2.993782587707046
 21
0.2613400396644359
 31
0.0
  0
LINE
  5
327D
330
1E
100
AcDbEntity
  8
7
100
AcDbLine
 10
-2.596144792431456
 20
-0.3646442123040678
 30
0.0
 11
-2.714255028651928
 21
-0.3646442123040678
 31
0.0
  0
LINE
  5
328A
330
1E
100
AcDbEntity
  8
7
100
AcDbLine
 10
-2.596144792431456
 20
-0.0851166532489494
 30
0.0
 11
-2.714255028651928
 21
-0.0851166532489494
 31
0.0
  0
LINE
  5
3295
330
1E
100
AcDbEntity
  8
7
100
AcDbLine
 10
-2.300869201880275
 20
-0.4591324012804457
 30
0.0
 11
-2.93472746959681
 21
-0.4591324012804457
 31
0.0
  0
LINE
  5
3296
330
1E
100
AcDbEntity
  8
7
100
AcDbLine
 10
-2.300869201880275
 20
-0.4591324012804457
 30
0.0
 11
-2.300869201880275
 21
1.261340039664435
 31
0.0
  0
LINE
  5
3297
330
1E
100
AcDbEntity
  8
7
100
AcDbLine
 10
-2.93472746959681
 20
1.261340039664435
 30
0.0
 11
-2.300869201880275
 21
1.261340039664435
 31
0.0
  0
LINE
  5
32BF
330
1E
100
AcDbEntity
  8
7
100
AcDbLine
 10
6.994406388670904
 20
-0.4591324012804457
 30
0.0
 11
6.97078434142681
 21
-0.4591324012804457
 31
0.0
  0
LINE
  5
32C0
330
1E
100
AcDbEntity
  8
7
100
AcDbLine
 10
6.037713475285077
 20
-0.4591324012804457
 30
0.0
 11
6.014091428040982
 21
-0.4591324012804457
 31
0.0
  0
LINE
  5
32C1
330
1E
100
AcDbEntity
  8
7
100
AcDbLine
 10
6.97078434142681
 20
1.261340039664435
 30
0.0
 11
6.994406388670904
 21
1.261340039664435
 31
0.0
  0
LINE
  5
32C2
330
1E
100
AcDbEntity
  8
7
100
AcDbLine
 10
6.014091428040982
 20
1.261340039664435
 30
0.0
 11
6.037713475285077
 21
1.261340039664435
 31
0.0
  0
LINE
  5
32CC
330
1E
100
AcDbEntity
  8
7
100
AcDbLine
 10
15.60464260914334
 20
1.166851850688058
 30
0.0
 11
15.72275284536382
 21
1.166851850688058
 31
0.0
  0
LINE
  5
32D6
330
1E
100
AcDbEntity
  8
7
100
AcDbLine
 10
15.72275284536382
 20
0.8873242916329395
 30
0.0
 11
15.60464260914334
 21
0.8873242916329395
 31
0.0
  0
LINE
  5
32E0
330
1E
100
AcDbEntity
  8
7
100
AcDbLine
 10
15.72275284536382
 20
-0.3646442123040678
 30
0.0
 11
15.60464260914334
 21
-0.3646442123040678
 31
0.0
  0
LINE
  5
32ED
330
1E
100
AcDbEntity
  8
7
100
AcDbLine
 10
15.72275284536382
 20
-0.0851166532489494
 30
0.0
 11
15.60464260914334
 21
-0.0851166532489494
 31
0.0
  0
LINE
  5
32F3
330
1E
100
AcDbEntity
  8
7
100
AcDbLine
 10
16.00621741229295
 20
1.198347913680184
 30
0.0
 11
16.00621741229295
 21
0.5408675987195544
 31
0.0
  0
LINE
  5
32F4
330
1E
100
AcDbEntity
  8
7
100
AcDbLine
 10
15.56527253040318
 20
0.5408675987195544
 30
0.0
 11
16.00621741229295
 21
0.5408675987195544
 31
0.0
  0
LINE
  5
32FE
330
1E
100
AcDbEntity
  8
7
100
AcDbLine
 10
15.88023316032445
 20
0.2613400396644359
 30
0.0
 11
15.56527253040318
 21
0.2613400396644359
 31
0.0
  0
LINE
  5
32FF
330
1E
100
AcDbEntity
  8
7
100
AcDbLine
 10
16.00621741229295
 20
0.1353557876959321
 30
0.0
 11
16.00621741229295
 21
-0.3961402752961938
 31
0.0
  0
LINE
  5
330C
330
1E
100
AcDbEntity
  8
7
100
AcDbLine
 10
16.00621741229295
 20
0.1353557876959321
 30
0.0
 11
15.88023316032445
 21
0.2613400396644359
 31
0.0
  0
LINE
  5
330D
330
1E
100
AcDbEntity
  8
7
100
AcDbLine
 10
15.30936701859216
 20
1.261340039664435
 30
0.0
 11
15.30936701859216
 21
-0.4591324012804457
 31
0.0
  0
LINE
  5
331C
330
1E
100
AcDbEntity
  8
7
100
AcDbLine
 10
15.12039064063941
 20
1.202284921554202
 30
0.0
 11
15.12432764851342
 21
1.190473897932154
 31
0.0
  0
LINE
  5
3324
330
1E
100
AcDbEntity
  8
7
100
AcDbLine
 10
15.23062686111185
 20
1.202284921554202
 30
0.0
 11
15.21487882961578
 21
1.202284921554202
 31
0.0
  0
LINE
  5
3339
330
1E
100
AcDbEntity
  8
7
100
AcDbLine
 10
15.26212292410397
 20
-0.4512583855324124
 30
0.0
 11
15.26212292410397
 21
1.253466023916406
 31
0.0
  0
LINE
  5
3344
330
1E
100
AcDbEntity
  8
7
100
AcDbLine
 10
15.23062686111185
 20
-0.4000772831702087
 30
0.0
 11
15.21487882961578
 21
-0.4000772831702087
 31
0.0
  0
LINE
  5
3361
330
1E
100
AcDbEntity
  8
7
100
AcDbLine
 10
14.97472134930083
 20
0.8125211420266431
 30
0.0
 11
12.57708355402523
 21
0.8125211420266431
 31
0.0
  0
LINE
  5
3362
330
1E
100
AcDbEntity
  8
7
100
AcDbLine
 10
14.97472134930083
 20
-0.0299985430127272
 30
0.0
 11
14.97472134930083
 21
0.8125211420266431
 31
0.0
  0
LINE
  5
3363
330
1E
100
AcDbEntity
  8
7
100
AcDbLine
 10
12.57708355402523
 20
-0.0299985430127272
 30
0.0
 11
14.97472134930083
 21
-0.0299985430127272
 31
0.0
  0
LINE
  5
3364
330
1E
100
AcDbEntity
  8
7
100
AcDbLine
 10
12.57708355402523
 20
-0.0299985430127272
 30
0.0
 11
12.57708355402523
 21
0.8125211420266431
 31
0.0
  0
LINE
  5
3365
330
1E
100
AcDbEntity
  8
7
100
AcDbLine
 10
12.33692607371027
 20
0.8125211420266431
 30
0.0
 11
9.939288278434684
 21
0.8125211420266431
 31
0.0
  0
LINE
  5
3366
330
1E
100
AcDbEntity
  8
7
100
AcDbLine
 10
12.33692607371027
 20
-0.0299985430127272
 30
0.0
 11
12.33692607371027
 21
0.8125211420266431
 31
0.0
  0
LINE
  5
3367
330
1E
100
AcDbEntity
  8
7
100
AcDbLine
 10
9.939288278434684
 20
-0.0299985430127272
 30
0.0
 11
12.33692607371027
 21
-0.0299985430127272
 31
0.0
  0
LINE
  5
3368
330
1E
100
AcDbEntity
  8
7
100
AcDbLine
 10
9.939288278434684
 20
-0.0299985430127272
 30
0.0
 11
9.939288278434684
 21
0.8125211420266431
 31
0.0
  0
LINE
  5
3369
330
1E
100
AcDbEntity
  8
7
100
AcDbLine
 10
9.699130798119725
 20
0.8125211420266431
 30
0.0
 11
7.301493002844132
 21
0.8125211420266431
 31
0.0
  0
LINE
  5
336A
330
1E
100
AcDbEntity
  8
7
100
AcDbLine
 10
9.699130798119725
 20
-0.0299985430127272
 30
0.0
 11
9.699130798119725
 21
0.8125211420266431
 31
0.0
  0
LINE
  5
336B
330
1E
100
AcDbEntity
  8
7
100
AcDbLine
 10
7.301493002844132
 20
-0.0299985430127272
 30
0.0
 11
9.699130798119725
 21
-0.0299985430127272
 31
0.0
  0
LINE
  5
336C
330
1E
100
AcDbEntity
  8
7
100
AcDbLine
 10
7.301493002844132
 20
-0.0299985430127272
 30
0.0
 11
7.301493002844132
 21
0.8125211420266431
 31
0.0
  0
LINE
  5
3372
330
1E
100
AcDbEntity
  8
7
100
AcDbLine
 10
15.12432764851342
 20
1.190473897932154
 30
0.0
 11
7.045587491033108
 21
1.190473897932154
 31
0.0
  0
LINE
  5
3373
330
1E
100
AcDbEntity
  8
7
100
AcDbLine
 10
7.018028435914999
 20
-0.4591324012804457
 30
0.0
 11
6.994406388670904
 21
-0.4591324012804457
 31
0.0
  0
LINE
  5
3374
330
1E
100
AcDbEntity
  8
7
100
AcDbLine
 10
6.994406388670904
 20
1.261340039664435
 30
0.0
 11
7.018028435914999
 21
1.261340039664435
 31
0.0
  0
LINE
  5
3375
330
1E
100
AcDbEntity
  8
7
100
AcDbLine
 10
14.95897331780476
 20
-0.0299985430127272
 30
0.0
 11
14.95897331780476
 21
-0.0260615351387124
 31
0.0
  0
LINE
  5
3376
330
1E
100
AcDbEntity
  8
7
100
AcDbLine
 10
14.95897331780476
 20
0.8046471262786099
 30
0.0
 11
14.95897331780476
 21
0.8125211420266431
 31
0.0
  0
LINE
  5
3377
330
1E
100
AcDbEntity
  8
7
100
AcDbLine
 10
12.32117804221421
 20
-0.0299985430127272
 30
0.0
 11
12.32117804221421
 21
-0.0260615351387124
 31
0.0
  0
LINE
  5
3378
330
1E
100
AcDbEntity
  8
7
100
AcDbLine
 10
12.32117804221421
 20
0.8046471262786099
 30
0.0
 11
12.32117804221421
 21
0.8125211420266431
 31
0.0
  0
LINE
  5
3379
330
1E
100
AcDbEntity
  8
7
100
AcDbLine
 10
9.683382766623662
 20
-0.0299985430127272
 30
0.0
 11
9.683382766623662
 21
-0.0260615351387124
 31
0.0
  0
LINE
  5
337A
330
1E
100
AcDbEntity
  8
7
100
AcDbLine
 10
9.683382766623662
 20
0.8046471262786099
 30
0.0
 11
9.683382766623662
 21
0.8125211420266431
 31
0.0
  0
LINE
  5
337B
330
1E
100
AcDbEntity
  8
7
100
AcDbLine
 10
6.97078434142681
 20
-0.3882662595481605
 30
0.0
 11
7.010154420166967
 21
-0.3882662595481605
 31
0.0
  0
LINE
  5
337C
330
1E
100
AcDbEntity
  8
7
100
AcDbLine
 10
7.010154420166967
 20
-0.3882662595481605
 30
0.0
 11
7.045587491033108
 21
-0.3882662595481605
 31
0.0
  0
LINE
  5
33DE
330
1E
100
AcDbEntity
  8
7
100
AcDbLine
 10
-1.596144792431456
 20
0.4266943703730988
 30
0.0
 11
-1.596144792431456
 21
0.0684266538376655
 31
0.0
  0
LINE
  5
33DF
330
1E
100
AcDbEntity
  8
7
100
AcDbLine
 10
-1.615829831801534
 20
0.714095945176247
 30
0.0
 11
-1.596144792431456
 21
0.4266943703730988
 31
0.0
  0
LINE
  5
33E0
330
1E
100
AcDbEntity
  8
7
100
AcDbLine
 10
-1.32449124912437
 20
0.0684266538376655
 30
0.0
 11
-0.8008692018802756
 21
0.0684266538376655
 31
0.0
  0
LINE
  5
33E1
330
1E
100
AcDbEntity
  8
7
100
AcDbLine
 10
0.4274772548126365
 20
-0.0260615351387124
 30
0.0
 11
-1.958349516840905
 21
-0.0260615351387124
 31
0.0
  0
LINE
  5
33E2
330
1E
100
AcDbEntity
  8
7
100
AcDbLine
 10
-1.942601485344842
 20
-0.0260615351387124
 30
0.0
 11
-1.958349516840905
 21
-0.0260615351387124
 31
0.0
  0
LINE
  5
33E8
330
1E
100
AcDbEntity
  8
7
100
AcDbLine
 10
-1.915042430226732
 20
0.0684266538376655
 30
0.0
 11
-1.387483375108621
 21
0.0684266538376655
 31
0.0
  0
LINE
  5
33E9
330
1E
100
AcDbEntity
  8
7
100
AcDbLine
 10
-1.174884949911771
 20
0.0684266538376655
 30
0.0
 11
-1.174884949911771
 21
0.714095945176247
 31
0.0
  0
LINE
  5
33EA
330
1E
100
AcDbEntity
  8
7
100
AcDbLine
 10
-0.5843337688094091
 20
0.0684266538376655
 30
0.0
 11
-0.5843337688094091
 21
0.714095945176247
 31
0.0
  0
LINE
  5
33F7
330
1E
100
AcDbEntity
  8
7
100
AcDbLine
 10
-1.915042430226732
 20
0.0684266538376655
 30
0.0
 11
-1.915042430226732
 21
0.714095945176247
 31
0.0
  0
LINE
  5
33F8
330
1E
100
AcDbEntity
  8
7
100
AcDbLine
 10
-1.958349516840905
 20
0.8046471262786099
 30
0.0
 11
-1.958349516840905
 21
-0.0260615351387124
 31
0.0
  0
LINE
  5
33F9
330
1E
100
AcDbEntity
  8
7
100
AcDbLine
 10
-1.942601485344842
 20
0.8046471262786099
 30
0.0
 11
-1.958349516840905
 21
0.8046471262786099
 31
0.0
  0
LINE
  5
33FA
330
1E
100
AcDbEntity
  8
7
100
AcDbLine
 10
-1.942601485344842
 20
0.8046471262786099
 30
0.0
 11
0.4314142626866531
 21
0.8046471262786099
 31
0.0
  0
LINE
  5
33FB
330
1E
100
AcDbEntity
  8
7
100
AcDbLine
 10
0.4274772548126365
 20
0.8046471262786099
 30
0.0
 11
-1.958349516840905
 21
0.8046471262786099
 31
0.0
  0
LINE
  5
33FC
330
1E
100
AcDbEntity
  8
7
100
AcDbLine
 10
0.4274772548126365
 20
0.8046471262786099
 30
0.0
 11
0.4274772548126365
 21
-0.0260615351387124
 31
0.0
  0
LINE
  5
33FD
330
1E
100
AcDbEntity
  8
7
100
AcDbLine
 10
-1.387483375108621
 20
0.0684266538376655
 30
0.0
 11
-1.387483375108621
 21
0.714095945176247
 31
0.0
  0
LINE
  5
33FE
330
1E
100
AcDbEntity
  8
7
100
AcDbLine
 10
-1.915042430226732
 20
0.714095945176247
 30
0.0
 11
-1.387483375108621
 21
0.714095945176247
 31
0.0
  0
LINE
  5
33FF
330
1E
100
AcDbEntity
  8
7
100
AcDbLine
 10
-0.8008692018802756
 20
0.0684266538376655
 30
0.0
 11
-0.8008692018802756
 21
0.714095945176247
 31
0.0
  0
LINE
  5
3405
330
1E
100
AcDbEntity
  8
7
100
AcDbLine
 10
-0.1473258947936609
 20
0.0684266538376655
 30
0.0
 11
-0.1473258947936609
 21
0.714095945176247
 31
0.0
  0
LINE
  5
3406
330
1E
100
AcDbEntity
  8
7
100
AcDbLine
 10
0.3802331603244475
 20
0.714095945176247
 30
0.0
 11
-0.1473258947936609
 21
0.714095945176247
 31
0.0
  0
LINE
  5
3407
330
1E
100
AcDbEntity
  8
7
100
AcDbLine
 10
0.3802331603244475
 20
0.0684266538376655
 30
0.0
 11
0.3802331603244475
 21
0.714095945176247
 31
0.0
  0
LINE
  5
3408
330
1E
100
AcDbEntity
  8
7
100
AcDbLine
 10
0.3802331603244475
 20
0.0684266538376655
 30
0.0
 11
-0.1473258947936609
 21
0.0684266538376655
 31
0.0
  0
LINE
  5
3409
330
1E
100
AcDbEntity
  8
7
100
AcDbLine
 10
-0.7339400680220072
 20
0.0684266538376655
 30
0.0
 11
-0.7339400680220072
 21
0.714095945176247
 31
0.0
  0
LINE
  5
340A
330
1E
100
AcDbEntity
  8
7
100
AcDbLine
 10
-0.2103180207779127
 20
0.714095945176247
 30
0.0
 11
-0.7339400680220072
 21
0.714095945176247
 31
0.0
  0
LINE
  5
340B
330
1E
100
AcDbEntity
  8
7
100
AcDbLine
 10
-0.2103180207779127
 20
0.0684266538376655
 30
0.0
 11
-0.2103180207779127
 21
0.714095945176247
 31
0.0
  0
LINE
  5
340C
330
1E
100
AcDbEntity
  8
7
100
AcDbLine
 10
-0.2103180207779127
 20
0.0684266538376655
 30
0.0
 11
-0.7339400680220072
 21
0.0684266538376655
 31
0.0
  0
LINE
  5
340D
330
1E
100
AcDbEntity
  8
7
100
AcDbLine
 10
-1.285121170384212
 20
0.714095945176247
 30
0.0
 11
-1.285121170384212
 21
0.0684266538376655
 31
0.0
  0
LINE
  5
340E
330
1E
100
AcDbEntity
  8
7
100
AcDbLine
 10
0.4314142626866531
 20
0.8046471262786099
 30
0.0
 11
0.4274772548126365
 21
0.8046471262786099
 31
0.0
  0
LINE
  5
340F
330
1E
100
AcDbEntity
  8
7
100
AcDbLine
 10
0.0062174122929539
 20
0.0684266538376655
 30
0.0
 11
0.0062174122929539
 21
0.714095945176247
 31
0.0
  0
LINE
  5
3410
330
1E
100
AcDbEntity
  8
7
100
AcDbLine
 10
-0.6945699892818498
 20
0.714095945176247
 30
0.0
 11
-0.6945699892818498
 21
0.0684266538376655
 31
0.0
  0
LINE
  5
3411
330
1E
100
AcDbEntity
  8
7
100
AcDbLine
 10
-0.1079558160535035
 20
0.714095945176247
 30
0.0
 11
-0.1079558160535035
 21
0.0684266538376655
 31
0.0
  0
LINE
  5
3412
330
1E
100
AcDbEntity
  8
7
100
AcDbLine
 10
1.041650483159093
 20
0.4266943703730988
 30
0.0
 11
1.041650483159093
 21
0.0684266538376655
 31
0.0
  0
LINE
  5
3413
330
1E
100
AcDbEntity
  8
7
100
AcDbLine
 10
1.021965443789015
 20
0.714095945176247
 30
0.0
 11
1.041650483159093
 21
0.4266943703730988
 31
0.0
  0
LINE
  5
3414
330
1E
100
AcDbEntity
  8
7
100
AcDbLine
 10
1.31330402646618
 20
0.0684266538376655
 30
0.0
 11
1.84086308158429
 21
0.0684266538376655
 31
0.0
  0
LINE
  5
3415
330
1E
100
AcDbEntity
  8
7
100
AcDbLine
 10
3.065272530403188
 20
-0.0260615351387124
 30
0.0
 11
0.6794457587496457
 21
-0.0260615351387124
 31
0.0
  0
LINE
  5
3416
330
1E
100
AcDbEntity
  8
7
100
AcDbLine
 10
0.6951937902457086
 20
-0.0260615351387124
 30
0.0
 11
0.6794457587496457
 21
-0.0260615351387124
 31
0.0
  0
LINE
  5
341C
330
1E
100
AcDbEntity
  8
7
100
AcDbLine
 10
0.7227528453638179
 20
0.0684266538376655
 30
0.0
 11
1.250311900481928
 21
0.0684266538376655
 31
0.0
  0
LINE
  5
341D
330
1E
100
AcDbEntity
  8
7
100
AcDbLine
 10
1.466847333552793
 20
0.0684266538376655
 30
0.0
 11
1.466847333552793
 21
0.714095945176247
 31
0.0
  0
LINE
  5
341E
330
1E
100
AcDbEntity
  8
7
100
AcDbLine
 10
2.053461506781141
 20
0.0684266538376655
 30
0.0
 11
2.053461506781141
 21
0.714095945176247
 31
0.0
  0
LINE
  5
342E
330
1E
100
AcDbEntity
  8
7
100
AcDbLine
 10
0.7227528453638179
 20
0.0684266538376655
 30
0.0
 11
0.7227528453638179
 21
0.714095945176247
 31
0.0
  0
LINE
  5
342F
330
1E
100
AcDbEntity
  8
7
100
AcDbLine
 10
0.6794457587496457
 20
0.8046471262786099
 30
0.0
 11
0.6794457587496457
 21
-0.0260615351387124
 31
0.0
  0
LINE
  5
3430
330
1E
100
AcDbEntity
  8
7
100
AcDbLine
 10
0.6951937902457086
 20
0.8046471262786099
 30
0.0
 11
0.6794457587496457
 21
0.8046471262786099
 31
0.0
  0
LINE
  5
3431
330
1E
100
AcDbEntity
  8
7
100
AcDbLine
 10
0.6951937902457086
 20
0.8046471262786099
 30
0.0
 11
3.069209538277204
 21
0.8046471262786099
 31
0.0
  0
LINE
  5
3432
330
1E
100
AcDbEntity
  8
7
100
AcDbLine
 10
3.065272530403188
 20
0.8046471262786099
 30
0.0
 11
0.6794457587496457
 21
0.8046471262786099
 31
0.0
  0
LINE
  5
3433
330
1E
100
AcDbEntity
  8
7
100
AcDbLine
 10
3.065272530403188
 20
0.8046471262786099
 30
0.0
 11
3.065272530403188
 21
-0.0260615351387124
 31
0.0
  0
LINE
  5
3434
330
1E
100
AcDbEntity
  8
7
100
AcDbLine
 10
1.250311900481928
 20
0.0684266538376655
 30
0.0
 11
1.250311900481928
 21
0.714095945176247
 31
0.0
  0
LINE
  5
3435
330
1E
100
AcDbEntity
  8
7
100
AcDbLine
 10
0.7227528453638179
 20
0.714095945176247
 30
0.0
 11
1.250311900481928
 21
0.714095945176247
 31
0.0
  0
LINE
  5
3436
330
1E
100
AcDbEntity
  8
7
100
AcDbLine
 10
1.84086308158429
 20
0.0684266538376655
 30
0.0
 11
1.84086308158429
 21
0.714095945176247
 31
0.0
  0
LINE
  5
343C
330
1E
100
AcDbEntity
  8
7
100
AcDbLine
 10
2.490469380796888
 20
0.0684266538376655
 30
0.0
 11
2.490469380796888
 21
0.714095945176247
 31
0.0
  0
LINE
  5
343D
330
1E
100
AcDbEntity
  8
7
100
AcDbLine
 10
3.018028435914999
 20
0.714095945176247
 30
0.0
 11
2.490469380796888
 21
0.714095945176247
 31
0.0
  0
LINE
  5
343E
330
1E
100
AcDbEntity
  8
7
100
AcDbLine
 10
3.018028435914999
 20
0.0684266538376655
 30
0.0
 11
3.018028435914999
 21
0.714095945176247
 31
0.0
  0
LINE
  5
343F
330
1E
100
AcDbEntity
  8
7
100
AcDbLine
 10
3.018028435914999
 20
0.0684266538376655
 30
0.0
 11
2.490469380796888
 21
0.0684266538376655
 31
0.0
  0
LINE
  5
3440
330
1E
100
AcDbEntity
  8
7
100
AcDbLine
 10
1.903855207568541
 20
0.0684266538376655
 30
0.0
 11
1.903855207568541
 21
0.714095945176247
 31
0.0
  0
LINE
  5
3441
330
1E
100
AcDbEntity
  8
7
100
AcDbLine
 10
2.427477254812636
 20
0.714095945176247
 30
0.0
 11
1.903855207568541
 21
0.714095945176247
 31
0.0
  0
LINE
  5
3442
330
1E
100
AcDbEntity
  8
7
100
AcDbLine
 10
2.427477254812636
 20
0.0684266538376655
 30
0.0
 11
2.427477254812636
 21
0.714095945176247
 31
0.0
  0
LINE
  5
3443
330
1E
100
AcDbEntity
  8
7
100
AcDbLine
 10
2.427477254812636
 20
0.0684266538376655
 30
0.0
 11
1.903855207568541
 21
0.0684266538376655
 31
0.0
  0
LINE
  5
3444
330
1E
100
AcDbEntity
  8
7
100
AcDbLine
 10
1.352674105206338
 20
0.714095945176247
 30
0.0
 11
1.352674105206338
 21
0.0684266538376655
 31
0.0
  0
LINE
  5
3445
330
1E
100
AcDbEntity
  8
7
100
AcDbLine
 10
3.069209538277204
 20
0.8046471262786099
 30
0.0
 11
3.065272530403188
 21
0.8046471262786099
 31
0.0
  0
LINE
  5
3446
330
1E
100
AcDbEntity
  8
7
100
AcDbLine
 10
2.644012687883503
 20
0.0684266538376655
 30
0.0
 11
2.644012687883503
 21
0.714095945176247
 31
0.0
  0
LINE
  5
3447
330
1E
100
AcDbEntity
  8
7
100
AcDbLine
 10
1.943225286308699
 20
0.714095945176247
 30
0.0
 11
1.943225286308699
 21
0.0684266538376655
 31
0.0
  0
LINE
  5
3448
330
1E
100
AcDbEntity
  8
7
100
AcDbLine
 10
2.529839459537047
 20
0.714095945176247
 30
0.0
 11
2.529839459537047
 21
0.0684266538376655
 31
0.0
  0
LINE
  5
3449
330
1E
100
AcDbEntity
  8
7
100
AcDbLine
 10
3.679445758749645
 20
0.4266943703730988
 30
0.0
 11
3.679445758749645
 21
0.0684266538376655
 31
0.0
  0
LINE
  5
344A
330
1E
100
AcDbEntity
  8
7
100
AcDbLine
 10
3.659760719379566
 20
0.714095945176247
 30
0.0
 11
3.679445758749645
 21
0.4266943703730988
 31
0.0
  0
LINE
  5
344B
330
1E
100
AcDbEntity
  8
7
100
AcDbLine
 10
3.95109930205673
 20
0.0684266538376655
 30
0.0
 11
4.478658357174841
 21
0.0684266538376655
 31
0.0
  0
LINE
  5
344C
330
1E
100
AcDbEntity
  8
7
100
AcDbLine
 10
5.70306780599374
 20
-0.0260615351387124
 30
0.0
 11
3.317241034340195
 21
-0.0260615351387124
 31
0.0
  0
LINE
  5
344D
330
1E
100
AcDbEntity
  8
7
100
AcDbLine
 10
3.332989065836258
 20
-0.0260615351387124
 30
0.0
 11
3.317241034340195
 21
-0.0260615351387124
 31
0.0
  0
LINE
  5
3453
330
1E
100
AcDbEntity
  8
7
100
AcDbLine
 10
3.364485128828384
 20
0.0684266538376655
 30
0.0
 11
3.888107176072479
 21
0.0684266538376655
 31
0.0
  0
LINE
  5
3454
330
1E
100
AcDbEntity
  8
7
100
AcDbLine
 10
4.104642609143345
 20
0.0684266538376655
 30
0.0
 11
4.104642609143345
 21
0.714095945176247
 31
0.0
  0
LINE
  5
3455
330
1E
100
AcDbEntity
  8
7
100
AcDbLine
 10
4.691256782371691
 20
0.0684266538376655
 30
0.0
 11
4.691256782371691
 21
0.714095945176247
 31
0.0
  0
LINE
  5
3462
330
1E
100
AcDbEntity
  8
7
100
AcDbLine
 10
3.364485128828384
 20
0.0684266538376655
 30
0.0
 11
3.364485128828384
 21
0.714095945176247
 31
0.0
  0
LINE
  5
3463
330
1E
100
AcDbEntity
  8
7
100
AcDbLine
 10
3.317241034340195
 20
0.8046471262786099
 30
0.0
 11
3.317241034340195
 21
-0.0260615351387124
 31
0.0
  0
LINE
  5
3464
330
1E
100
AcDbEntity
  8
7
100
AcDbLine
 10
3.332989065836258
 20
0.8046471262786099
 30
0.0
 11
3.317241034340195
 21
0.8046471262786099
 31
0.0
  0
LINE
  5
3465
330
1E
100
AcDbEntity
  8
7
100
AcDbLine
 10
3.332989065836258
 20
0.8046471262786099
 30
0.0
 11
5.707004813867754
 21
0.8046471262786099
 31
0.0
  0
LINE
  5
3466
330
1E
100
AcDbEntity
  8
7
100
AcDbLine
 10
5.70306780599374
 20
0.8046471262786099
 30
0.0
 11
3.317241034340195
 21
0.8046471262786099
 31
0.0
  0
LINE
  5
3467
330
1E
100
AcDbEntity
  8
7
100
AcDbLine
 10
5.70306780599374
 20
0.8046471262786099
 30
0.0
 11
5.70306780599374
 21
-0.0260615351387124
 31
0.0
  0
LINE
  5
3468
330
1E
100
AcDbEntity
  8
7
100
AcDbLine
 10
3.888107176072479
 20
0.0684266538376655
 30
0.0
 11
3.888107176072479
 21
0.714095945176247
 31
0.0
  0
LINE
  5
3469
330
1E
100
AcDbEntity
  8
7
100
AcDbLine
 10
3.364485128828384
 20
0.714095945176247
 30
0.0
 11
3.888107176072479
 21
0.714095945176247
 31
0.0
  0
LINE
  5
346A
330
1E
100
AcDbEntity
  8
7
100
AcDbLine
 10
4.478658357174841
 20
0.0684266538376655
 30
0.0
 11
4.478658357174841
 21
0.714095945176247
 31
0.0
  0
LINE
  5
3470
330
1E
100
AcDbEntity
  8
7
100
AcDbLine
 10
5.12826465638744
 20
0.0684266538376655
 30
0.0
 11
5.12826465638744
 21
0.714095945176247
 31
0.0
  0
LINE
  5
3471
330
1E
100
AcDbEntity
  8
7
100
AcDbLine
 10
5.655823711505551
 20
0.714095945176247
 30
0.0
 11
5.12826465638744
 21
0.714095945176247
 31
0.0
  0
LINE
  5
3472
330
1E
100
AcDbEntity
  8
7
100
AcDbLine
 10
5.655823711505551
 20
0.0684266538376655
 30
0.0
 11
5.655823711505551
 21
0.714095945176247
 31
0.0
  0
LINE
  5
3473
330
1E
100
AcDbEntity
  8
7
100
AcDbLine
 10
5.655823711505551
 20
0.0684266538376655
 30
0.0
 11
5.12826465638744
 21
0.0684266538376655
 31
0.0
  0
LINE
  5
3474
330
1E
100
AcDbEntity
  8
7
100
AcDbLine
 10
4.541650483159093
 20
0.0684266538376655
 30
0.0
 11
4.541650483159093
 21
0.714095945176247
 31
0.0
  0
LINE
  5
3475
330
1E
100
AcDbEntity
  8
7
100
AcDbLine
 10
5.065272530403188
 20
0.714095945176247
 30
0.0
 11
4.541650483159093
 21
0.714095945176247
 31
0.0
  0
LINE
  5
3476
330
1E
100
AcDbEntity
  8
7
100
AcDbLine
 10
5.065272530403188
 20
0.0684266538376655
 30
0.0
 11
5.065272530403188
 21
0.714095945176247
 31
0.0
  0
LINE
  5
3477
330
1E
100
AcDbEntity
  8
7
100
AcDbLine
 10
5.065272530403188
 20
0.0684266538376655
 30
0.0
 11
4.541650483159093
 21
0.0684266538376655
 31
0.0
  0
LINE
  5
3478
330
1E
100
AcDbEntity
  8
7
100
AcDbLine
 10
3.990469380796888
 20
0.714095945176247
 30
0.0
 11
3.990469380796888
 21
0.0684266538376655
 31
0.0
  0
LINE
  5
3479
330
1E
100
AcDbEntity
  8
7
100
AcDbLine
 10
5.707004813867754
 20
0.8046471262786099
 30
0.0
 11
5.70306780599374
 21
0.8046471262786099
 31
0.0
  0
LINE
  5
347A
330
1E
100
AcDbEntity
  8
7
100
AcDbLine
 10
5.281807963474054
 20
0.0684266538376655
 30
0.0
 11
5.281807963474054
 21
0.714095945176247
 31
0.0
  0
LINE
  5
347B
330
1E
100
AcDbEntity
  8
7
100
AcDbLine
 10
4.581020561899251
 20
0.714095945176247
 30
0.0
 11
4.581020561899251
 21
0.0684266538376655
 31
0.0
  0
LINE
  5
347C
330
1E
100
AcDbEntity
  8
7
100
AcDbLine
 10
5.167634735127597
 20
0.714095945176247
 30
0.0
 11
5.167634735127597
 21
0.0684266538376655
 31
0.0
  0
LINE
  5
347D
330
1E
100
AcDbEntity
  8
7
100
AcDbLine
 10
7.943225286308701
 20
0.0684266538376655
 30
0.0
 11
8.466847333552795
 21
0.0684266538376655
 31
0.0
  0
LINE
  5
347E
330
1E
100
AcDbEntity
  8
7
100
AcDbLine
 10
9.691256782371695
 20
-0.0260615351387124
 30
0.0
 11
7.305430010718149
 21
-0.0260615351387124
 31
0.0
  0
LINE
  5
347F
330
1E
100
AcDbEntity
  8
7
100
AcDbLine
 10
7.301493002844132
 20
-0.0260615351387124
 30
0.0
 11
7.305430010718149
 21
-0.0260615351387124
 31
0.0
  0
LINE
  5
3480
330
1E
100
AcDbEntity
  8
7
100
AcDbLine
 10
7.301493002844132
 20
-0.0260615351387124
 30
0.0
 11
9.675508750875632
 21
-0.0260615351387124
 31
0.0
  0
LINE
  5
3481
330
1E
100
AcDbEntity
  8
7
100
AcDbLine
 10
9.675508750875632
 20
-0.0260615351387124
 30
0.0
 11
9.691256782371695
 21
-0.0260615351387124
 31
0.0
  0
LINE
  5
3482
330
1E
100
AcDbEntity
  8
7
100
AcDbLine
 10
7.352674105206338
 20
0.0684266538376655
 30
0.0
 11
7.880233160324449
 21
0.0684266538376655
 31
0.0
  0
LINE
  5
3483
330
1E
100
AcDbEntity
  8
7
100
AcDbLine
 10
7.726689853237834
 20
0.0684266538376655
 30
0.0
 11
7.726689853237834
 21
0.714095945176247
 31
0.0
  0
LINE
  5
3484
330
1E
100
AcDbEntity
  8
7
100
AcDbLine
 10
8.317241034340199
 20
0.0684266538376655
 30
0.0
 11
8.317241034340199
 21
0.714095945176247
 31
0.0
  0
LINE
  5
3485
330
1E
100
AcDbEntity
  8
7
100
AcDbLine
 10
7.352674105206338
 20
0.0684266538376655
 30
0.0
 11
7.352674105206338
 21
0.714095945176247
 31
0.0
  0
LINE
  5
3486
330
1E
100
AcDbEntity
  8
7
100
AcDbLine
 10
7.305430010718149
 20
0.8046471262786099
 30
0.0
 11
7.305430010718149
 21
-0.0260615351387124
 31
0.0
  0
LINE
  5
3487
330
1E
100
AcDbEntity
  8
7
100
AcDbLine
 10
7.301493002844132
 20
0.8046471262786099
 30
0.0
 11
7.305430010718149
 21
0.8046471262786099
 31
0.0
  0
LINE
  5
3488
330
1E
100
AcDbEntity
  8
7
100
AcDbLine
 10
9.329052057962243
 20
0.4266943703730988
 30
0.0
 11
9.329052057962243
 21
0.0684266538376655
 31
0.0
  0
LINE
  5
3489
330
1E
100
AcDbEntity
  8
7
100
AcDbLine
 10
7.301493002844132
 20
0.8046471262786099
 30
0.0
 11
9.675508750875632
 21
0.8046471262786099
 31
0.0
  0
LINE
  5
348A
330
1E
100
AcDbEntity
  8
7
100
AcDbLine
 10
9.691256782371695
 20
0.8046471262786099
 30
0.0
 11
7.305430010718149
 21
0.8046471262786099
 31
0.0
  0
LINE
  5
348B
330
1E
100
AcDbEntity
  8
7
100
AcDbLine
 10
9.691256782371695
 20
0.8046471262786099
 30
0.0
 11
9.691256782371695
 21
-0.0260615351387124
 31
0.0
  0
LINE
  5
348C
330
1E
100
AcDbEntity
  8
7
100
AcDbLine
 10
7.880233160324449
 20
0.0684266538376655
 30
0.0
 11
7.880233160324449
 21
0.714095945176247
 31
0.0
  0
LINE
  5
348D
330
1E
100
AcDbEntity
  8
7
100
AcDbLine
 10
7.352674105206338
 20
0.714095945176247
 30
0.0
 11
7.880233160324449
 21
0.714095945176247
 31
0.0
  0
LINE
  5
348E
330
1E
100
AcDbEntity
  8
7
100
AcDbLine
 10
8.466847333552795
 20
0.0684266538376655
 30
0.0
 11
8.466847333552795
 21
0.714095945176247
 31
0.0
  0
LINE
  5
3494
330
1E
100
AcDbEntity
  8
7
100
AcDbLine
 10
9.12039064063941
 20
0.0684266538376655
 30
0.0
 11
9.12039064063941
 21
0.714095945176247
 31
0.0
  0
LINE
  5
3495
330
1E
100
AcDbEntity
  8
7
100
AcDbLine
 10
9.647949695757521
 20
0.714095945176247
 30
0.0
 11
9.12039064063941
 21
0.714095945176247
 31
0.0
  0
LINE
  5
3496
330
1E
100
AcDbEntity
  8
7
100
AcDbLine
 10
9.647949695757521
 20
0.0684266538376655
 30
0.0
 11
9.647949695757521
 21
0.714095945176247
 31
0.0
  0
LINE
  5
3497
330
1E
100
AcDbEntity
  8
7
100
AcDbLine
 10
9.647949695757521
 20
0.0684266538376655
 30
0.0
 11
9.12039064063941
 21
0.0684266538376655
 31
0.0
  0
LINE
  5
3498
330
1E
100
AcDbEntity
  8
7
100
AcDbLine
 10
8.533776467411062
 20
0.0684266538376655
 30
0.0
 11
8.533776467411062
 21
0.714095945176247
 31
0.0
  0
LINE
  5
3499
330
1E
100
AcDbEntity
  8
7
100
AcDbLine
 10
9.057398514655158
 20
0.714095945176247
 30
0.0
 11
8.533776467411062
 21
0.714095945176247
 31
0.0
  0
LINE
  5
349A
330
1E
100
AcDbEntity
  8
7
100
AcDbLine
 10
9.057398514655158
 20
0.0684266538376655
 30
0.0
 11
9.057398514655158
 21
0.714095945176247
 31
0.0
  0
LINE
  5
349B
330
1E
100
AcDbEntity
  8
7
100
AcDbLine
 10
9.057398514655158
 20
0.0684266538376655
 30
0.0
 11
8.533776467411062
 21
0.0684266538376655
 31
0.0
  0
LINE
  5
349C
330
1E
100
AcDbEntity
  8
7
100
AcDbLine
 10
8.427477254812639
 20
0.714095945176247
 30
0.0
 11
8.427477254812639
 21
0.0684266538376655
 31
0.0
  0
LINE
  5
349D
330
1E
100
AcDbEntity
  8
7
100
AcDbLine
 10
7.84086308158429
 20
0.714095945176247
 30
0.0
 11
7.84086308158429
 21
0.0684266538376655
 31
0.0
  0
LINE
  5
349E
330
1E
100
AcDbEntity
  8
7
100
AcDbLine
 10
9.675508750875632
 20
0.8046471262786099
 30
0.0
 11
9.691256782371695
 21
0.8046471262786099
 31
0.0
  0
LINE
  5
349F
330
1E
100
AcDbEntity
  8
7
100
AcDbLine
 10
9.348737097332325
 20
0.714095945176247
 30
0.0
 11
9.329052057962243
 21
0.4266943703730988
 31
0.0
  0
LINE
  5
34A0
330
1E
100
AcDbEntity
  8
7
100
AcDbLine
 10
8.907792215442558
 20
0.0684266538376655
 30
0.0
 11
8.907792215442558
 21
0.714095945176247
 31
0.0
  0
LINE
  5
34A6
330
1E
100
AcDbEntity
  8
7
100
AcDbLine
 10
9.486532372922873
 20
0.6550408270660136
 30
0.0
 11
9.486532372922873
 21
0.714095945176247
 31
0.0
  0
LINE
  5
34A7
330
1E
100
AcDbEntity
  8
7
100
AcDbLine
 10
9.608579617017362
 20
0.6511038191919952
 30
0.0
 11
9.486532372922873
 21
0.6550408270660136
 31
0.0
  0
LINE
  5
34A8
330
1E
100
AcDbEntity
  8
7
100
AcDbLine
 10
9.608579617017362
 20
0.4148833467510507
 30
0.0
 11
9.608579617017362
 21
0.6511038191919952
 31
0.0
  0
LINE
  5
34A9
330
1E
100
AcDbEntity
  8
7
100
AcDbLine
 10
9.486532372922873
 20
0.4109463388770358
 30
0.0
 11
9.608579617017362
 21
0.4148833467510507
 31
0.0
  0
LINE
  5
34AA
330
1E
100
AcDbEntity
  8
7
100
AcDbLine
 10
9.486532372922873
 20
0.3715762601368766
 30
0.0
 11
9.486532372922873
 21
0.4109463388770358
 31
0.0
  0
LINE
  5
34AB
330
1E
100
AcDbEntity
  8
7
100
AcDbLine
 10
9.608579617017362
 20
0.3637022443888469
 30
0.0
 11
9.486532372922873
 21
0.3715762601368766
 31
0.0
  0
LINE
  5
34AC
330
1E
100
AcDbEntity
  8
7
100
AcDbLine
 10
9.608579617017362
 20
0.1314187798219173
 30
0.0
 11
9.608579617017362
 21
0.3637022443888469
 31
0.0
  0
LINE
  5
34AD
330
1E
100
AcDbEntity
  8
7
100
AcDbLine
 10
9.018028435914999
 20
0.714095945176247
 30
0.0
 11
9.018028435914999
 21
0.0684266538376655
 31
0.0
  0
LINE
  5
34AE
330
1E
100
AcDbEntity
  8
7
100
AcDbLine
 10
10.58102056189925
 20
0.0684266538376655
 30
0.0
 11
11.10857961701736
 21
0.0684266538376655
 31
0.0
  0
LINE
  5
34AF
330
1E
100
AcDbEntity
  8
7
100
AcDbLine
 10
12.33298906583626
 20
-0.0260615351387124
 30
0.0
 11
9.947162294182717
 21
-0.0260615351387124
 31
0.0
  0
LINE
  5
34B0
330
1E
100
AcDbEntity
  8
7
100
AcDbLine
 10
9.939288278434684
 20
-0.0260615351387124
 30
0.0
 11
9.947162294182717
 21
-0.0260615351387124
 31
0.0
  0
LINE
  5
34B6
330
1E
100
AcDbEntity
  8
7
100
AcDbLine
 10
9.990469380796891
 20
0.0684266538376655
 30
0.0
 11
10.51802843591499
 21
0.0684266538376655
 31
0.0
  0
LINE
  5
34B7
330
1E
100
AcDbEntity
  8
7
100
AcDbLine
 10
10.36448512882838
 20
0.0684266538376655
 30
0.0
 11
10.36448512882838
 21
0.714095945176247
 31
0.0
  0
LINE
  5
34B8
330
1E
100
AcDbEntity
  8
7
100
AcDbLine
 10
10.95503630993074
 20
0.0684266538376655
 30
0.0
 11
10.95503630993074
 21
0.714095945176247
 31
0.0
  0
LINE
  5
34B9
330
1E
100
AcDbEntity
  8
7
100
AcDbLine
 10
9.990469380796891
 20
0.0684266538376655
 30
0.0
 11
9.990469380796891
 21
0.714095945176247
 31
0.0
  0
LINE
  5
34BA
330
1E
100
AcDbEntity
  8
7
100
AcDbLine
 10
9.947162294182717
 20
0.8046471262786099
 30
0.0
 11
9.947162294182717
 21
-0.0260615351387124
 31
0.0
  0
LINE
  5
34BB
330
1E
100
AcDbEntity
  8
7
100
AcDbLine
 10
9.939288278434684
 20
0.8046471262786099
 30
0.0
 11
9.947162294182717
 21
0.8046471262786099
 31
0.0
  0
LINE
  5
34BC
330
1E
100
AcDbEntity
  8
7
100
AcDbLine
 10
11.96684733355279
 20
0.4266943703730988
 30
0.0
 11
11.96684733355279
 21
0.0684266538376655
 31
0.0
  0
LINE
  5
34BD
330
1E
100
AcDbEntity
  8
7
100
AcDbLine
 10
9.939288278434684
 20
0.8046471262786099
 30
0.0
 11
12.31330402646618
 21
0.8046471262786099
 31
0.0
  0
LINE
  5
34BE
330
1E
100
AcDbEntity
  8
7
100
AcDbLine
 10
12.33298906583626
 20
0.8046471262786099
 30
0.0
 11
9.947162294182717
 21
0.8046471262786099
 31
0.0
  0
LINE
  5
34BF
330
1E
100
AcDbEntity
  8
7
100
AcDbLine
 10
12.33298906583626
 20
0.8046471262786099
 30
0.0
 11
12.33298906583626
 21
-0.0260615351387124
 31
0.0
  0
LINE
  5
34C0
330
1E
100
AcDbEntity
  8
7
100
AcDbLine
 10
10.51802843591499
 20
0.0684266538376655
 30
0.0
 11
10.51802843591499
 21
0.714095945176247
 31
0.0
  0
LINE
  5
34C1
330
1E
100
AcDbEntity
  8
7
100
AcDbLine
 10
9.990469380796891
 20
0.714095945176247
 30
0.0
 11
10.51802843591499
 21
0.714095945176247
 31
0.0
  0
LINE
  5
34C2
330
1E
100
AcDbEntity
  8
7
100
AcDbLine
 10
11.10857961701736
 20
0.0684266538376655
 30
0.0
 11
11.10857961701736
 21
0.714095945176247
 31
0.0
  0
LINE
  5
34C8
330
1E
100
AcDbEntity
  8
7
100
AcDbLine
 10
11.75818591622996
 20
0.0684266538376655
 30
0.0
 11
11.75818591622996
 21
0.714095945176247
 31
0.0
  0
LINE
  5
34C9
330
1E
100
AcDbEntity
  8
7
100
AcDbLine
 10
12.28574497134807
 20
0.714095945176247
 30
0.0
 11
11.75818591622996
 21
0.714095945176247
 31
0.0
  0
LINE
  5
34CA
330
1E
100
AcDbEntity
  8
7
100
AcDbLine
 10
12.28574497134807
 20
0.0684266538376655
 30
0.0
 11
12.28574497134807
 21
0.714095945176247
 31
0.0
  0
LINE
  5
34CB
330
1E
100
AcDbEntity
  8
7
100
AcDbLine
 10
12.28574497134807
 20
0.0684266538376655
 30
0.0
 11
11.75818591622996
 21
0.0684266538376655
 31
0.0
  0
LINE
  5
34CC
330
1E
100
AcDbEntity
  8
7
100
AcDbLine
 10
11.17157174300161
 20
0.0684266538376655
 30
0.0
 11
11.17157174300161
 21
0.714095945176247
 31
0.0
  0
LINE
  5
34CD
330
1E
100
AcDbEntity
  8
7
100
AcDbLine
 10
11.69519379024571
 20
0.714095945176247
 30
0.0
 11
11.17157174300161
 21
0.714095945176247
 31
0.0
  0
LINE
  5
34CE
330
1E
100
AcDbEntity
  8
7
100
AcDbLine
 10
11.69519379024571
 20
0.0684266538376655
 30
0.0
 11
11.69519379024571
 21
0.714095945176247
 31
0.0
  0
LINE
  5
34CF
330
1E
100
AcDbEntity
  8
7
100
AcDbLine
 10
11.69519379024571
 20
0.0684266538376655
 30
0.0
 11
11.17157174300161
 21
0.0684266538376655
 31
0.0
  0
LINE
  5
34D0
330
1E
100
AcDbEntity
  8
7
100
AcDbLine
 10
11.0692095382772
 20
0.714095945176247
 30
0.0
 11
11.0692095382772
 21
0.0684266538376655
 31
0.0
  0
LINE
  5
34D1
330
1E
100
AcDbEntity
  8
7
100
AcDbLine
 10
10.47865835717484
 20
0.714095945176247
 30
0.0
 11
10.47865835717484
 21
0.0684266538376655
 31
0.0
  0
LINE
  5
34D2
330
1E
100
AcDbEntity
  8
7
100
AcDbLine
 10
12.31330402646618
 20
0.8046471262786099
 30
0.0
 11
12.33298906583626
 21
0.8046471262786099
 31
0.0
  0
LINE
  5
34D3
330
1E
100
AcDbEntity
  8
7
100
AcDbLine
 10
11.98653237292287
 20
0.714095945176247
 30
0.0
 11
11.96684733355279
 21
0.4266943703730988
 31
0.0
  0
LINE
  5
34D4
330
1E
100
AcDbEntity
  8
7
100
AcDbLine
 10
11.54558749103311
 20
0.0684266538376655
 30
0.0
 11
11.54558749103311
 21
0.714095945176247
 31
0.0
  0
LINE
  5
34DA
330
1E
100
AcDbEntity
  8
7
100
AcDbLine
 10
12.12432764851342
 20
0.6550408270660136
 30
0.0
 11
12.12432764851342
 21
0.714095945176247
 31
0.0
  0
LINE
  5
34DB
330
1E
100
AcDbEntity
  8
7
100
AcDbLine
 10
12.24637489260791
 20
0.6511038191919952
 30
0.0
 11
12.12432764851342
 21
0.6550408270660136
 31
0.0
  0
LINE
  5
34DC
330
1E
100
AcDbEntity
  8
7
100
AcDbLine
 10
12.24637489260791
 20
0.4148833467510507
 30
0.0
 11
12.24637489260791
 21
0.6511038191919952
 31
0.0
  0
LINE
  5
34DD
330
1E
100
AcDbEntity
  8
7
100
AcDbLine
 10
12.12432764851342
 20
0.4109463388770358
 30
0.0
 11
12.24637489260791
 21
0.4148833467510507
 31
0.0
  0
LINE
  5
34DE
330
1E
100
AcDbEntity
  8
7
100
AcDbLine
 10
12.12432764851342
 20
0.3715762601368766
 30
0.0
 11
12.12432764851342
 21
0.4109463388770358
 31
0.0
  0
LINE
  5
34DF
330
1E
100
AcDbEntity
  8
7
100
AcDbLine
 10
12.24637489260791
 20
0.3637022443888469
 30
0.0
 11
12.12432764851342
 21
0.3715762601368766
 31
0.0
  0
LINE
  5
34E0
330
1E
100
AcDbEntity
  8
7
100
AcDbLine
 10
12.24637489260791
 20
0.1314187798219173
 30
0.0
 11
12.24637489260791
 21
0.3637022443888469
 31
0.0
  0
LINE
  5
34E1
330
1E
100
AcDbEntity
  8
7
100
AcDbLine
 10
11.65582371150555
 20
0.714095945176247
 30
0.0
 11
11.65582371150555
 21
0.0684266538376655
 31
0.0
  0
LINE
  5
34E2
330
1E
100
AcDbEntity
  8
7
100
AcDbLine
 10
13.2188158374898
 20
0.0684266538376655
 30
0.0
 11
13.74637489260791
 21
0.0684266538376655
 31
0.0
  0
LINE
  5
34E3
330
1E
100
AcDbEntity
  8
7
100
AcDbLine
 10
14.97078434142681
 20
-0.0260615351387124
 30
0.0
 11
12.58495756977326
 21
-0.0260615351387124
 31
0.0
  0
LINE
  5
34E4
330
1E
100
AcDbEntity
  8
7
100
AcDbLine
 10
12.57708355402523
 20
-0.0260615351387124
 30
0.0
 11
12.58495756977326
 21
-0.0260615351387124
 31
0.0
  0
LINE
  5
34EA
330
1E
100
AcDbEntity
  8
7
100
AcDbLine
 10
12.62826465638744
 20
0.0684266538376655
 30
0.0
 11
13.15582371150555
 21
0.0684266538376655
 31
0.0
  0
LINE
  5
34EB
330
1E
100
AcDbEntity
  8
7
100
AcDbLine
 10
13.00621741229295
 20
0.0684266538376655
 30
0.0
 11
13.00621741229295
 21
0.714095945176247
 31
0.0
  0
LINE
  5
34EC
330
1E
100
AcDbEntity
  8
7
100
AcDbLine
 10
13.5928315855213
 20
0.0684266538376655
 30
0.0
 11
13.5928315855213
 21
0.714095945176247
 31
0.0
  0
LINE
  5
34ED
330
1E
100
AcDbEntity
  8
7
100
AcDbLine
 10
12.62826465638744
 20
0.0684266538376655
 30
0.0
 11
12.62826465638744
 21
0.714095945176247
 31
0.0
  0
LINE
  5
34EE
330
1E
100
AcDbEntity
  8
7
100
AcDbLine
 10
12.58495756977326
 20
0.8046471262786099
 30
0.0
 11
12.58495756977326
 21
-0.0260615351387124
 31
0.0
  0
LINE
  5
34EF
330
1E
100
AcDbEntity
  8
7
100
AcDbLine
 10
12.57708355402523
 20
0.8046471262786099
 30
0.0
 11
12.58495756977326
 21
0.8046471262786099
 31
0.0
  0
LINE
  5
34F0
330
1E
100
AcDbEntity
  8
7
100
AcDbLine
 10
14.60464260914334
 20
0.4266943703730988
 30
0.0
 11
14.60464260914334
 21
0.0684266538376655
 31
0.0
  0
LINE
  5
34F1
330
1E
100
AcDbEntity
  8
7
100
AcDbLine
 10
12.57708355402523
 20
0.8046471262786099
 30
0.0
 11
14.95503630993074
 21
0.8046471262786099
 31
0.0
  0
LINE
  5
34F2
330
1E
100
AcDbEntity
  8
7
100
AcDbLine
 10
14.97078434142681
 20
0.8046471262786099
 30
0.0
 11
12.58495756977326
 21
0.8046471262786099
 31
0.0
  0
LINE
  5
34F3
330
1E
100
AcDbEntity
  8
7
100
AcDbLine
 10
14.97078434142681
 20
0.8046471262786099
 30
0.0
 11
14.97078434142681
 21
-0.0260615351387124
 31
0.0
  0
LINE
  5
34F4
330
1E
100
AcDbEntity
  8
7
100
AcDbLine
 10
13.15582371150555
 20
0.0684266538376655
 30
0.0
 11
13.15582371150555
 21
0.714095945176247
 31
0.0
  0
LINE
  5
34F5
330
1E
100
AcDbEntity
  8
7
100
AcDbLine
 10
12.62826465638744
 20
0.714095945176247
 30
0.0
 11
13.15582371150555
 21
0.714095945176247
 31
0.0
  0
LINE
  5
34F6
330
1E
100
AcDbEntity
  8
7
100
AcDbLine
 10
13.74637489260791
 20
0.0684266538376655
 30
0.0
 11
13.74637489260791
 21
0.714095945176247
 31
0.0
  0
LINE
  5
34FC
330
1E
100
AcDbEntity
  8
7
100
AcDbLine
 10
14.39598119182051
 20
0.0684266538376655
 30
0.0
 11
14.39598119182051
 21
0.714095945176247
 31
0.0
  0
LINE
  5
34FD
330
1E
100
AcDbEntity
  8
7
100
AcDbLine
 10
14.92354024693862
 20
0.714095945176247
 30
0.0
 11
14.39598119182051
 21
0.714095945176247
 31
0.0
  0
LINE
  5
34FE
330
1E
100
AcDbEntity
  8
7
100
AcDbLine
 10
14.92354024693862
 20
0.0684266538376655
 30
0.0
 11
14.92354024693862
 21
0.714095945176247
 31
0.0
  0
LINE
  5
34FF
330
1E
100
AcDbEntity
  8
7
100
AcDbLine
 10
14.92354024693862
 20
0.0684266538376655
 30
0.0
 11
14.39598119182051
 21
0.0684266538376655
 31
0.0
  0
LINE
  5
3500
330
1E
100
AcDbEntity
  8
7
100
AcDbLine
 10
13.80936701859216
 20
0.0684266538376655
 30
0.0
 11
13.80936701859216
 21
0.714095945176247
 31
0.0
  0
LINE
  5
3501
330
1E
100
AcDbEntity
  8
7
100
AcDbLine
 10
14.33298906583626
 20
0.714095945176247
 30
0.0
 11
13.80936701859216
 21
0.714095945176247
 31
0.0
  0
LINE
  5
3502
330
1E
100
AcDbEntity
  8
7
100
AcDbLine
 10
14.33298906583626
 20
0.0684266538376655
 30
0.0
 11
14.33298906583626
 21
0.714095945176247
 31
0.0
  0
LINE
  5
3503
330
1E
100
AcDbEntity
  8
7
100
AcDbLine
 10
14.33298906583626
 20
0.0684266538376655
 30
0.0
 11
13.80936701859216
 21
0.0684266538376655
 31
0.0
  0
LINE
  5
3504
330
1E
100
AcDbEntity
  8
7
100
AcDbLine
 10
13.70700481386776
 20
0.714095945176247
 30
0.0
 11
13.70700481386776
 21
0.0684266538376655
 31
0.0
  0
LINE
  5
3505
330
1E
100
AcDbEntity
  8
7
100
AcDbLine
 10
13.11645363276539
 20
0.714095945176247
 30
0.0
 11
13.11645363276539
 21
0.0684266538376655
 31
0.0
  0
LINE
  5
3506
330
1E
100
AcDbEntity
  8
7
100
AcDbLine
 10
14.95503630993074
 20
0.8046471262786099
 30
0.0
 11
14.97078434142681
 21
0.8046471262786099
 31
0.0
  0
LINE
  5
3507
330
1E
100
AcDbEntity
  8
7
100
AcDbLine
 10
14.62432764851342
 20
0.714095945176247
 30
0.0
 11
14.60464260914334
 21
0.4266943703730988
 31
0.0
  0
LINE
  5
3508
330
1E
100
AcDbEntity
  8
7
100
AcDbLine
 10
14.18338276662366
 20
0.0684266538376655
 30
0.0
 11
14.18338276662366
 21
0.714095945176247
 31
0.0
  0
LINE
  5
350E
330
1E
100
AcDbEntity
  8
7
100
AcDbLine
 10
14.76212292410397
 20
0.6550408270660136
 30
0.0
 11
14.76212292410397
 21
0.714095945176247
 31
0.0
  0
LINE
  5
350F
330
1E
100
AcDbEntity
  8
7
100
AcDbLine
 10
14.88417016819846
 20
0.6511038191919952
 30
0.0
 11
14.76212292410397
 21
0.6550408270660136
 31
0.0
  0
LINE
  5
3510
330
1E
100
AcDbEntity
  8
7
100
AcDbLine
 10
14.88417016819846
 20
0.4148833467510507
 30
0.0
 11
14.88417016819846
 21
0.6511038191919952
 31
0.0
  0
LINE
  5
3511
330
1E
100
AcDbEntity
  8
7
100
AcDbLine
 10
14.76212292410397
 20
0.4109463388770358
 30
0.0
 11
14.88417016819846
 21
0.4148833467510507
 31
0.0
  0
LINE
  5
3512
330
1E
100
AcDbEntity
  8
7
100
AcDbLine
 10
14.76212292410397
 20
0.3715762601368766
 30
0.0
 11
14.76212292410397
 21
0.4109463388770358
 31
0.0
  0
LINE
  5
3513
330
1E
100
AcDbEntity
  8
7
100
AcDbLine
 10
14.88417016819846
 20
0.3637022443888469
 30
0.0
 11
14.76212292410397
 21
0.3715762601368766
 31
0.0
  0
LINE
  5
3514
330
1E
100
AcDbEntity
  8
7
100
AcDbLine
 10
14.88417016819846
 20
0.1314187798219173
 30
0.0
 11
14.88417016819846
 21
0.3637022443888469
 31
0.0
  0
LINE
  5
3515
330
1E
100
AcDbEntity
  8
7
100
AcDbLine
 10
14.2936189870961
 20
0.714095945176247
 30
0.0
 11
14.2936189870961
 21
0.0684266538376655
 31
0.0
  0
LINE
  5
3CCA
330
1E
100
AcDbEntity
  8
7
100
AcDbLine
 10
14.76212292410397
 20
0.0684266538376655
 30
0.0
 11
14.76212292410397
 21
0.1235447640738876
 31
0.0
  0
LINE
  5
3CCB
330
1E
100
AcDbEntity
  8
7
100
AcDbLine
 10
14.76212292410397
 20
0.1235447640738876
 30
0.0
 11
14.88417016819846
 21
0.1314187798219173
 31
0.0
  0
LINE
  5
3CCC
330
1E
100
AcDbEntity
  8
7
100
AcDbLine
 10
13.2188158374898
 20
0.0684266538376655
 30
0.0
 11
13.2188158374898
 21
0.714095945176247
 31
0.0
  0
LINE
  5
3CCD
330
1E
100
AcDbEntity
  8
7
100
AcDbLine
 10
13.2188158374898
 20
0.714095945176247
 30
0.0
 11
13.74637489260791
 21
0.714095945176247
 31
0.0
  0
LINE
  5
3CCE
330
1E
100
AcDbEntity
  8
7
100
AcDbLine
 10
12.57708355402523
 20
-0.0260615351387124
 30
0.0
 11
14.95503630993074
 21
-0.0260615351387124
 31
0.0
  0
LINE
  5
3CCF
330
1E
100
AcDbEntity
  8
7
100
AcDbLine
 10
14.95503630993074
 20
-0.0260615351387124
 30
0.0
 11
14.97078434142681
 21
-0.0260615351387124
 31
0.0
  0
LINE
  5
3CD0
330
1E
100
AcDbEntity
  8
7
100
AcDbLine
 10
12.12432764851342
 20
0.0684266538376655
 30
0.0
 11
12.12432764851342
 21
0.1235447640738876
 31
0.0
  0
LINE
  5
3CD1
330
1E
100
AcDbEntity
  8
7
100
AcDbLine
 10
12.12432764851342
 20
0.1235447640738876
 30
0.0
 11
12.24637489260791
 21
0.1314187798219173
 31
0.0
  0
LINE
  5
3CD2
330
1E
100
AcDbEntity
  8
7
100
AcDbLine
 10
10.58102056189925
 20
0.0684266538376655
 30
0.0
 11
10.58102056189925
 21
0.714095945176247
 31
0.0
  0
LINE
  5
3CD3
330
1E
100
AcDbEntity
  8
7
100
AcDbLine
 10
10.58102056189925
 20
0.714095945176247
 30
0.0
 11
11.10857961701736
 21
0.714095945176247
 31
0.0
  0
LINE
  5
3CD4
330
1E
100
AcDbEntity
  8
7
100
AcDbLine
 10
9.939288278434684
 20
-0.0260615351387124
 30
0.0
 11
12.31330402646618
 21
-0.0260615351387124
 31
0.0
  0
LINE
  5
3CD5
330
1E
100
AcDbEntity
  8
7
100
AcDbLine
 10
12.31330402646618
 20
-0.0260615351387124
 30
0.0
 11
12.33298906583626
 21
-0.0260615351387124
 31
0.0
  0
LINE
  5
3CD6
330
1E
100
AcDbEntity
  8
7
100
AcDbLine
 10
9.486532372922873
 20
0.0684266538376655
 30
0.0
 11
9.486532372922873
 21
0.1235447640738876
 31
0.0
  0
LINE
  5
3CD7
330
1E
100
AcDbEntity
  8
7
100
AcDbLine
 10
9.486532372922873
 20
0.1235447640738876
 30
0.0
 11
9.608579617017362
 21
0.1314187798219173
 31
0.0
  0
LINE
  5
3CD8
330
1E
100
AcDbEntity
  8
7
100
AcDbLine
 10
7.943225286308701
 20
0.0684266538376655
 30
0.0
 11
7.943225286308701
 21
0.714095945176247
 31
0.0
  0
LINE
  5
3CD9
330
1E
100
AcDbEntity
  8
7
100
AcDbLine
 10
7.943225286308701
 20
0.714095945176247
 30
0.0
 11
8.466847333552795
 21
0.714095945176247
 31
0.0
  0
LINE
  5
3CDA
330
1E
100
AcDbEntity
  8
7
100
AcDbLine
 10
3.95109930205673
 20
0.0684266538376655
 30
0.0
 11
3.95109930205673
 21
0.714095945176247
 31
0.0
  0
LINE
  5
3CDB
330
1E
100
AcDbEntity
  8
7
100
AcDbLine
 10
3.95109930205673
 20
0.714095945176247
 30
0.0
 11
4.478658357174841
 21
0.714095945176247
 31
0.0
  0
LINE
  5
3CDC
330
1E
100
AcDbEntity
  8
7
100
AcDbLine
 10
3.521965443789014
 20
0.0684266538376655
 30
0.0
 11
3.521965443789014
 21
0.1235447640738876
 31
0.0
  0
LINE
  5
3CDD
330
1E
100
AcDbEntity
  8
7
100
AcDbLine
 10
3.521965443789014
 20
0.1235447640738876
 30
0.0
 11
3.403855207568541
 21
0.1314187798219173
 31
0.0
  0
LINE
  5
3CDE
330
1E
100
AcDbEntity
  8
7
100
AcDbLine
 10
3.403855207568541
 20
0.1314187798219173
 30
0.0
 11
3.403855207568541
 21
0.3637022443888469
 31
0.0
  0
LINE
  5
3CDF
330
1E
100
AcDbEntity
  8
7
100
AcDbLine
 10
3.403855207568541
 20
0.3637022443888469
 30
0.0
 11
3.521965443789014
 21
0.3715762601368766
 31
0.0
  0
LINE
  5
3CE0
330
1E
100
AcDbEntity
  8
7
100
AcDbLine
 10
3.521965443789014
 20
0.3715762601368766
 30
0.0
 11
3.521965443789014
 21
0.4109463388770358
 31
0.0
  0
LINE
  5
3CE1
330
1E
100
AcDbEntity
  8
7
100
AcDbLine
 10
3.521965443789014
 20
0.4109463388770358
 30
0.0
 11
3.403855207568541
 21
0.4148833467510507
 31
0.0
  0
LINE
  5
3CE2
330
1E
100
AcDbEntity
  8
7
100
AcDbLine
 10
3.403855207568541
 20
0.4148833467510507
 30
0.0
 11
3.403855207568541
 21
0.6511038191919952
 31
0.0
  0
LINE
  5
3CE3
330
1E
100
AcDbEntity
  8
7
100
AcDbLine
 10
3.403855207568541
 20
0.6511038191919952
 30
0.0
 11
3.521965443789014
 21
0.6550408270660136
 31
0.0
  0
LINE
  5
3CE4
330
1E
100
AcDbEntity
  8
7
100
AcDbLine
 10
3.521965443789014
 20
0.6550408270660136
 30
0.0
 11
3.521965443789014
 21
0.714095945176247
 31
0.0
  0
LINE
  5
3CE5
330
1E
100
AcDbEntity
  8
7
100
AcDbLine
 10
3.332989065836258
 20
-0.0260615351387124
 30
0.0
 11
5.707004813867754
 21
-0.0260615351387124
 31
0.0
  0
LINE
  5
3CE6
330
1E
100
AcDbEntity
  8
7
100
AcDbLine
 10
5.707004813867754
 20
-0.0260615351387124
 30
0.0
 11
5.70306780599374
 21
-0.0260615351387124
 31
0.0
  0
LINE
  5
3CE7
330
1E
100
AcDbEntity
  8
7
100
AcDbLine
 10
1.31330402646618
 20
0.0684266538376655
 30
0.0
 11
1.31330402646618
 21
0.714095945176247
 31
0.0
  0
LINE
  5
3CE8
330
1E
100
AcDbEntity
  8
7
100
AcDbLine
 10
1.31330402646618
 20
0.714095945176247
 30
0.0
 11
1.84086308158429
 21
0.714095945176247
 31
0.0
  0
LINE
  5
3CE9
330
1E
100
AcDbEntity
  8
7
100
AcDbLine
 10
0.7621229241039753
 20
0.3637022443888469
 30
0.0
 11
0.8841701681984641
 21
0.3715762601368766
 31
0.0
  0
LINE
  5
3CEA
330
1E
100
AcDbEntity
  8
7
100
AcDbLine
 10
0.8841701681984641
 20
0.3715762601368766
 30
0.0
 11
0.8841701681984641
 21
0.4109463388770358
 31
0.0
  0
LINE
  5
3CEB
330
1E
100
AcDbEntity
  8
7
100
AcDbLine
 10
0.8841701681984641
 20
0.4109463388770358
 30
0.0
 11
0.7621229241039753
 21
0.4148833467510507
 31
0.0
  0
LINE
  5
3CEC
330
1E
100
AcDbEntity
  8
7
100
AcDbLine
 10
0.7621229241039753
 20
0.4148833467510507
 30
0.0
 11
0.7621229241039753
 21
0.6511038191919952
 31
0.0
  0
LINE
  5
3CED
330
1E
100
AcDbEntity
  8
7
100
AcDbLine
 10
0.7621229241039753
 20
0.6511038191919952
 30
0.0
 11
0.8841701681984641
 21
0.6550408270660136
 31
0.0
  0
LINE
  5
3CEE
330
1E
100
AcDbEntity
  8
7
100
AcDbLine
 10
0.8841701681984641
 20
0.6550408270660136
 30
0.0
 11
0.8841701681984641
 21
0.714095945176247
 31
0.0
  0
LINE
  5
3CEF
330
1E
100
AcDbEntity
  8
7
100
AcDbLine
 10
0.8841701681984641
 20
0.0684266538376655
 30
0.0
 11
0.8841701681984641
 21
0.1235447640738876
 31
0.0
  0
LINE
  5
3CF0
330
1E
100
AcDbEntity
  8
7
100
AcDbLine
 10
0.8841701681984641
 20
0.1235447640738876
 30
0.0
 11
0.7621229241039753
 21
0.1314187798219173
 31
0.0
  0
LINE
  5
3CF1
330
1E
100
AcDbEntity
  8
7
100
AcDbLine
 10
0.7621229241039753
 20
0.1314187798219173
 30
0.0
 11
0.7621229241039753
 21
0.3637022443888469
 31
0.0
  0
LINE
  5
3CF2
330
1E
100
AcDbEntity
  8
7
100
AcDbLine
 10
0.6951937902457086
 20
-0.0260615351387124
 30
0.0
 11
3.069209538277204
 21
-0.0260615351387124
 31
0.0
  0
LINE
  5
3CF3
330
1E
100
AcDbEntity
  8
7
100
AcDbLine
 10
3.069209538277204
 20
-0.0260615351387124
 30
0.0
 11
3.065272530403188
 21
-0.0260615351387124
 31
0.0
  0
LINE
  5
3CF4
330
1E
100
AcDbEntity
  8
7
100
AcDbLine
 10
-1.32449124912437
 20
0.0684266538376655
 30
0.0
 11
-1.32449124912437
 21
0.714095945176247
 31
0.0
  0
LINE
  5
3CF5
330
1E
100
AcDbEntity
  8
7
100
AcDbLine
 10
-1.32449124912437
 20
0.714095945176247
 30
0.0
 11
-0.8008692018802756
 21
0.714095945176247
 31
0.0
  0
LINE
  5
3CF6
330
1E
100
AcDbEntity
  8
7
100
AcDbLine
 10
-1.753625107392085
 20
0.0684266538376655
 30
0.0
 11
-1.753625107392085
 21
0.1235447640738876
 31
0.0
  0
LINE
  5
3CF7
330
1E
100
AcDbEntity
  8
7
100
AcDbLine
 10
-1.753625107392085
 20
0.1235447640738876
 30
0.0
 11
-1.875672351486574
 21
0.1314187798219173
 31
0.0
  0
LINE
  5
3CF8
330
1E
100
AcDbEntity
  8
7
100
AcDbLine
 10
-1.875672351486574
 20
0.1314187798219173
 30
0.0
 11
-1.875672351486574
 21
0.3637022443888469
 31
0.0
  0
LINE
  5
3CF9
330
1E
100
AcDbEntity
  8
7
100
AcDbLine
 10
-1.875672351486574
 20
0.3637022443888469
 30
0.0
 11
-1.753625107392085
 21
0.3715762601368766
 31
0.0
  0
LINE
  5
3CFA
330
1E
100
AcDbEntity
  8
7
100
AcDbLine
 10
-1.753625107392085
 20
0.3715762601368766
 30
0.0
 11
-1.753625107392085
 21
0.4109463388770358
 31
0.0
  0
LINE
  5
3CFB
330
1E
100
AcDbEntity
  8
7
100
AcDbLine
 10
-1.753625107392085
 20
0.4109463388770358
 30
0.0
 11
-1.875672351486574
 21
0.4148833467510507
 31
0.0
  0
LINE
  5
3CFC
330
1E
100
AcDbEntity
  8
7
100
AcDbLine
 10
-1.875672351486574
 20
0.4148833467510507
 30
0.0
 11
-1.875672351486574
 21
0.6511038191919952
 31
0.0
  0
LINE
  5
3CFD
330
1E
100
AcDbEntity
  8
7
100
AcDbLine
 10
-1.875672351486574
 20
0.6511038191919952
 30
0.0
 11
-1.753625107392085
 21
0.6550408270660136
 31
0.0
  0
LINE
  5
3CFE
330
1E
100
AcDbEntity
  8
7
100
AcDbLine
 10
-1.753625107392085
 20
0.6550408270660136
 30
0.0
 11
-1.753625107392085
 21
0.714095945176247
 31
0.0
  0
LINE
  5
3CFF
330
1E
100
AcDbEntity
  8
7
100
AcDbLine
 10
-1.942601485344842
 20
-0.0260615351387124
 30
0.0
 11
0.4314142626866531
 21
-0.0260615351387124
 31
0.0
  0
LINE
  5
3D00
330
1E
100
AcDbEntity
  8
7
100
AcDbLine
 10
0.4314142626866531
 20
-0.0260615351387124
 30
0.0
 11
0.4274772548126365
 21
-0.0260615351387124
 31
0.0
  0
LINE
  5
3D01
330
1E
100
AcDbEntity
  8
7
100
AcDbLine
 10
7.045587491033108
 20
-0.3882662595481605
 30
0.0
 11
7.037713475285077
 21
-0.4394473619103679
 31
0.0
  0
LINE
  5
3D02
330
1E
100
AcDbEntity
  8
7
100
AcDbLine
 10
7.037713475285077
 20
-0.4394473619103679
 30
0.0
 11
7.018028435914999
 21
-0.4591324012804457
 31
0.0
  0
LINE
  5
3D03
330
1E
100
AcDbEntity
  8
7
100
AcDbLine
 10
7.002280404418936
 20
-0.4433843697843827
 30
0.0
 11
6.998343396544919
 21
-0.4551953934064308
 31
0.0
  0
LINE
  5
3D04
330
1E
100
AcDbEntity
  8
7
100
AcDbLine
 10
6.998343396544919
 20
-0.4551953934064308
 30
0.0
 11
6.994406388670904
 21
-0.4591324012804457
 31
0.0
  0
LINE
  5
3D05
330
1E
100
AcDbEntity
  8
7
100
AcDbLine
 10
7.010154420166967
 20
-0.3882662595481605
 30
0.0
 11
7.010154420166967
 21
-0.3922032674221754
 31
0.0
  0
LINE
  5
3D06
330
1E
100
AcDbEntity
  8
7
100
AcDbLine
 10
7.010154420166967
 20
-0.3922032674221754
 30
0.0
 11
7.010154420166967
 21
-0.4040142910442235
 31
0.0
  0
LINE
  5
3D07
330
1E
100
AcDbEntity
  8
7
100
AcDbLine
 10
7.010154420166967
 20
-0.4040142910442235
 30
0.0
 11
7.006217412292951
 21
-0.4276363382883197
 31
0.0
  0
LINE
  5
3D08
330
1E
100
AcDbEntity
  8
7
100
AcDbLine
 10
7.006217412292951
 20
-0.4276363382883197
 30
0.0
 11
7.002280404418936
 21
-0.4433843697843827
 31
0.0
  0
LINE
  5
3D09
330
1E
100
AcDbEntity
  8
7
100
AcDbLine
 10
6.97078434142681
 20
-0.3882662595481605
 30
0.0
 11
6.97078434142681
 21
-0.4394473619103679
 31
0.0
  0
LINE
  5
3D0A
330
1E
100
AcDbEntity
  8
7
100
AcDbLine
 10
6.97078434142681
 20
-0.4394473619103679
 30
0.0
 11
6.97078434142681
 21
-0.4591324012804457
 31
0.0
  0
LINE
  5
3D0B
330
1E
100
AcDbEntity
  8
7
100
AcDbLine
 10
6.037713475285077
 20
-0.3882662595481605
 30
0.0
 11
6.037713475285077
 21
-0.4394473619103679
 31
0.0
  0
LINE
  5
3D0C
330
1E
100
AcDbEntity
  8
7
100
AcDbLine
 10
6.037713475285077
 20
-0.4394473619103679
 30
0.0
 11
6.037713475285077
 21
-0.4591324012804457
 31
0.0
  0
LINE
  5
3D0D
330
1E
100
AcDbEntity
  8
7
100
AcDbLine
 10
5.998343396544919
 20
-0.4040142910442235
 30
0.0
 11
6.002280404418936
 21
-0.4276363382883197
 31
0.0
  0
LINE
  5
3D0E
330
1E
100
AcDbEntity
  8
7
100
AcDbLine
 10
6.002280404418936
 20
-0.4276363382883197
 30
0.0
 11
6.006217412292951
 21
-0.4433843697843827
 31
0.0
  0
LINE
  5
3D0F
330
1E
100
AcDbEntity
  8
7
100
AcDbLine
 10
6.006217412292951
 20
-0.4433843697843827
 30
0.0
 11
6.010154420166967
 21
-0.4551953934064308
 31
0.0
  0
LINE
  5
3D10
330
1E
100
AcDbEntity
  8
7
100
AcDbLine
 10
6.010154420166967
 20
-0.4551953934064308
 30
0.0
 11
6.014091428040982
 21
-0.4591324012804457
 31
0.0
  0
LINE
  5
3D11
330
1E
100
AcDbEntity
  8
7
100
AcDbLine
 10
5.998343396544919
 20
-0.3882662595481605
 30
0.0
 11
5.998343396544919
 21
-0.3922032674221754
 31
0.0
  0
LINE
  5
3D12
330
1E
100
AcDbEntity
  8
7
100
AcDbLine
 10
5.998343396544919
 20
-0.3922032674221754
 30
0.0
 11
5.998343396544919
 21
-0.4040142910442235
 31
0.0
  0
LINE
  5
3D13
330
1E
100
AcDbEntity
  8
7
100
AcDbLine
 10
5.962910325678778
 20
-0.3882662595481605
 30
0.0
 11
5.97078434142681
 21
-0.4394473619103679
 31
0.0
  0
LINE
  5
3D14
330
1E
100
AcDbEntity
  8
7
100
AcDbLine
 10
5.97078434142681
 20
-0.4394473619103679
 30
0.0
 11
5.994406388670904
 21
-0.4591324012804457
 31
0.0
  0
LINE
  5
3D15
330
1E
100
AcDbEntity
  8
7
100
AcDbLine
 10
7.018028435914999
 20
1.261340039664435
 30
0.0
 11
7.037713475285077
 21
1.241655000294358
 31
0.0
  0
LINE
  5
3D16
330
1E
100
AcDbEntity
  8
7
100
AcDbLine
 10
7.037713475285077
 20
1.241655000294358
 30
0.0
 11
7.045587491033108
 21
1.190473897932154
 31
0.0
  0
LINE
  5
3D17
330
1E
100
AcDbEntity
  8
7
100
AcDbLine
 10
6.994406388670904
 20
1.261340039664435
 30
0.0
 11
6.998343396544919
 21
1.257403031790421
 31
0.0
  0
LINE
  5
3D18
330
1E
100
AcDbEntity
  8
7
100
AcDbLine
 10
6.998343396544919
 20
1.257403031790421
 30
0.0
 11
7.002280404418936
 21
1.245592008168372
 31
0.0
  0
LINE
  5
3D19
330
1E
100
AcDbEntity
  8
7
100
AcDbLine
 10
7.002280404418936
 20
1.245592008168372
 30
0.0
 11
7.006217412292951
 21
1.229843976672309
 31
0.0
  0
LINE
  5
3D1A
330
1E
100
AcDbEntity
  8
7
100
AcDbLine
 10
7.006217412292951
 20
1.229843976672309
 30
0.0
 11
7.010154420166967
 21
1.206221929428217
 31
0.0
  0
LINE
  5
3D1B
330
1E
100
AcDbEntity
  8
7
100
AcDbLine
 10
7.010154420166967
 20
1.206221929428217
 30
0.0
 11
7.010154420166967
 21
1.194410905806169
 31
0.0
  0
LINE
  5
3D1C
330
1E
100
AcDbEntity
  8
7
100
AcDbLine
 10
7.010154420166967
 20
1.194410905806169
 30
0.0
 11
7.010154420166967
 21
1.190473897932154
 31
0.0
  0
LINE
  5
3D1D
330
1E
100
AcDbEntity
  8
7
100
AcDbLine
 10
6.97078434142681
 20
1.261340039664435
 30
0.0
 11
6.97078434142681
 21
1.237717992420343
 31
0.0
  0
LINE
  5
3D1E
330
1E
100
AcDbEntity
  8
7
100
AcDbLine
 10
6.97078434142681
 20
1.237717992420343
 30
0.0
 11
6.97078434142681
 21
1.190473897932154
 31
0.0
  0
LINE
  5
3D1F
330
1E
100
AcDbEntity
  8
7
100
AcDbLine
 10
6.037713475285077
 20
1.261340039664435
 30
0.0
 11
6.037713475285077
 21
1.237717992420343
 31
0.0
  0
LINE
  5
3D20
330
1E
100
AcDbEntity
  8
7
100
AcDbLine
 10
6.037713475285077
 20
1.237717992420343
 30
0.0
 11
6.037713475285077
 21
1.190473897932154
 31
0.0
  0
LINE
  5
3D21
330
1E
100
AcDbEntity
  8
7
100
AcDbLine
 10
6.014091428040982
 20
1.261340039664435
 30
0.0
 11
6.010154420166967
 21
1.257403031790421
 31
0.0
  0
LINE
  5
3D22
330
1E
100
AcDbEntity
  8
7
100
AcDbLine
 10
6.010154420166967
 20
1.257403031790421
 30
0.0
 11
6.006217412292951
 21
1.245592008168372
 31
0.0
  0
LINE
  5
3D23
330
1E
100
AcDbEntity
  8
7
100
AcDbLine
 10
6.006217412292951
 20
1.245592008168372
 30
0.0
 11
6.002280404418936
 21
1.229843976672309
 31
0.0
  0
LINE
  5
3D24
330
1E
100
AcDbEntity
  8
7
100
AcDbLine
 10
6.002280404418936
 20
1.229843976672309
 30
0.0
 11
5.998343396544919
 21
1.206221929428217
 31
0.0
  0
LINE
  5
3D25
330
1E
100
AcDbEntity
  8
7
100
AcDbLine
 10
5.998343396544919
 20
1.206221929428217
 30
0.0
 11
5.998343396544919
 21
1.194410905806169
 31
0.0
  0
LINE
  5
3D26
330
1E
100
AcDbEntity
  8
7
100
AcDbLine
 10
5.998343396544919
 20
1.194410905806169
 30
0.0
 11
5.998343396544919
 21
1.190473897932154
 31
0.0
  0
LINE
  5
3D27
330
1E
100
AcDbEntity
  8
7
100
AcDbLine
 10
5.994406388670904
 20
1.261340039664435
 30
0.0
 11
5.97078434142681
 21
1.241655000294358
 31
0.0
  0
LINE
  5
3D28
330
1E
100
AcDbEntity
  8
7
100
AcDbLine
 10
5.97078434142681
 20
1.241655000294358
 30
0.0
 11
5.962910325678778
 21
1.190473897932154
 31
0.0
  0
LINE
  5
3D29
330
1E
100
AcDbEntity
  8
7
100
AcDbLine
 10
6.037713475285077
 20
1.190473897932154
 30
0.0
 11
5.998343396544919
 21
1.190473897932154
 31
0.0
  0
LINE
  5
3D2A
330
1E
100
AcDbEntity
  8
7
100
AcDbLine
 10
5.998343396544919
 20
1.190473897932154
 30
0.0
 11
5.962910325678778
 21
1.190473897932154
 31
0.0
  0
LINE
  5
3D2B
330
1E
100
AcDbEntity
  8
7
100
AcDbLine
 10
5.962910325678778
 20
-0.3882662595481605
 30
0.0
 11
5.998343396544919
 21
-0.3882662595481605
 31
0.0
  0
LINE
  5
3D2C
330
1E
100
AcDbEntity
  8
7
100
AcDbLine
 10
5.998343396544919
 20
-0.3882662595481605
 30
0.0
 11
6.037713475285077
 21
-0.3882662595481605
 31
0.0
  0
LINE
  5
3D2D
330
1E
100
AcDbEntity
  8
7
100
AcDbLine
 10
7.045587491033108
 20
1.190473897932154
 30
0.0
 11
7.010154420166967
 21
1.190473897932154
 31
0.0
  0
LINE
  5
3D2E
330
1E
100
AcDbEntity
  8
7
100
AcDbLine
 10
7.010154420166967
 20
1.190473897932154
 30
0.0
 11
6.97078434142681
 21
1.190473897932154
 31
0.0
  0
LINE
  5
3D2F
330
1E
100
AcDbEntity
  8
7
100
AcDbLine
 10
7.045587491033108
 20
1.190473897932154
 30
0.0
 11
7.045587491033108
 21
-0.3882662595481605
 31
0.0
  0
LINE
  5
3D30
330
1E
100
AcDbEntity
  8
7
100
AcDbLine
 10
7.045587491033108
 20
-0.3882662595481605
 30
0.0
 11
15.12432764851342
 21
-0.3882662595481605
 31
0.0
  0
LINE
  5
3D31
330
1E
100
AcDbEntity
  8
7
100
AcDbLine
 10
15.0928315855213
 20
1.261340039664435
 30
0.0
 11
15.11251662489137
 21
1.241655000294358
 31
0.0
  0
LINE
  5
3D32
330
1E
100
AcDbEntity
  8
7
100
AcDbLine
 10
15.11251662489137
 20
1.241655000294358
 30
0.0
 11
15.12039064063941
 21
1.202284921554202
 31
0.0
  0
LINE
  5
3D33
330
1E
100
AcDbEntity
  8
7
100
AcDbLine
 10
15.12039064063941
 20
-0.4000772831702087
 30
0.0
 11
15.11251662489137
 21
-0.4433843697843827
 31
0.0
  0
LINE
  5
3D34
330
1E
100
AcDbEntity
  8
7
100
AcDbLine
 10
15.11251662489137
 20
-0.4433843697843827
 30
0.0
 11
15.0928315855213
 21
-0.4591324012804457
 31
0.0
  0
LINE
  5
3D35
330
1E
100
AcDbEntity
  8
7
100
AcDbLine
 10
15.16763473512759
 20
-0.3410221650599716
 30
0.0
 11
15.19913079811972
 21
-0.3607072044300494
 31
0.0
  0
LINE
  5
3D36
330
1E
100
AcDbEntity
  8
7
100
AcDbLine
 10
15.19913079811972
 20
-0.3607072044300494
 30
0.0
 11
15.21487882961578
 21
-0.4000772831702087
 31
0.0
  0
LINE
  5
3D37
330
1E
100
AcDbEntity
  8
7
100
AcDbLine
 10
15.23062686111185
 20
-0.4000772831702087
 30
0.0
 11
15.21487882961578
 21
-0.3607072044300494
 31
0.0
  0
LINE
  5
3D38
330
1E
100
AcDbEntity
  8
7
100
AcDbLine
 10
15.21487882961578
 20
-0.3607072044300494
 30
0.0
 11
15.17944575874964
 21
-0.3410221650599716
 31
0.0
  0
LINE
  5
3D39
330
1E
100
AcDbEntity
  8
7
100
AcDbLine
 10
15.17944575874964
 20
-0.3410221650599716
 30
0.0
 11
15.1440126878835
 21
-0.3528331886820197
 31
0.0
  0
LINE
  5
3D3A
330
1E
100
AcDbEntity
  8
7
100
AcDbLine
 10
15.1440126878835
 20
-0.3528331886820197
 30
0.0
 11
15.12432764851342
 21
-0.3882662595481605
 31
0.0
  0
LINE
  5
3D3B
330
1E
100
AcDbEntity
  8
7
100
AcDbLine
 10
15.12432764851342
 20
-0.3882662595481605
 30
0.0
 11
15.12039064063941
 21
-0.4000772831702087
 31
0.0
  0
LINE
  5
3D3C
330
1E
100
AcDbEntity
  8
7
100
AcDbLine
 10
15.24243788473389
 20
-0.4512583855324124
 30
0.0
 11
15.22275284536382
 21
-0.4315733461623346
 31
0.0
  0
LINE
  5
3D3D
330
1E
100
AcDbEntity
  8
7
100
AcDbLine
 10
15.22275284536382
 20
-0.4315733461623346
 30
0.0
 11
15.21487882961578
 21
-0.4000772831702087
 31
0.0
  0
LINE
  5
3D3E
330
1E
100
AcDbEntity
  8
7
100
AcDbLine
 10
15.23062686111185
 20
-0.4000772831702087
 30
0.0
 11
15.23850087685988
 21
-0.4315733461623346
 31
0.0
  0
LINE
  5
3D3F
330
1E
100
AcDbEntity
  8
7
100
AcDbLine
 10
15.23850087685988
 20
-0.4315733461623346
 30
0.0
 11
15.26212292410397
 21
-0.4512583855324124
 31
0.0
  0
LINE
  5
3D40
330
1E
100
AcDbEntity
  8
7
100
AcDbLine
 10
15.26212292410397
 20
-0.4512583855324124
 30
0.0
 11
15.27787095560004
 21
-0.4591324012804457
 31
0.0
  0
LINE
  5
3D41
330
1E
100
AcDbEntity
  8
7
100
AcDbLine
 10
15.27787095560004
 20
-0.4591324012804457
 30
0.0
 11
15.28574497134807
 21
-0.4591324012804457
 31
0.0
  0
LINE
  5
3D42
330
1E
100
AcDbEntity
  8
7
100
AcDbLine
 10
15.26212292410397
 20
1.253466023916406
 30
0.0
 11
15.23850087685988
 21
1.233780984546328
 31
0.0
  0
LINE
  5
3D43
330
1E
100
AcDbEntity
  8
7
100
AcDbLine
 10
15.23850087685988
 20
1.233780984546328
 30
0.0
 11
15.23062686111185
 21
1.202284921554202
 31
0.0
  0
LINE
  5
3D44
330
1E
100
AcDbEntity
  8
7
100
AcDbLine
 10
15.21487882961578
 20
1.202284921554202
 30
0.0
 11
15.22275284536382
 21
1.233780984546328
 31
0.0
  0
LINE
  5
3D45
330
1E
100
AcDbEntity
  8
7
100
AcDbLine
 10
15.22275284536382
 20
1.233780984546328
 30
0.0
 11
15.24243788473389
 21
1.253466023916406
 31
0.0
  0
LINE
  5
3D46
330
1E
100
AcDbEntity
  8
7
100
AcDbLine
 10
15.28574497134807
 20
1.261340039664435
 30
0.0
 11
15.26999693985201
 21
1.257403031790421
 31
0.0
  0
LINE
  5
3D47
330
1E
100
AcDbEntity
  8
7
100
AcDbLine
 10
15.26999693985201
 20
1.257403031790421
 30
0.0
 11
15.26212292410397
 21
1.253466023916406
 31
0.0
  0
LINE
  5
3D48
330
1E
100
AcDbEntity
  8
7
100
AcDbLine
 10
15.16763473512759
 20
1.143229803443965
 30
0.0
 11
15.19913079811972
 21
1.162914842814043
 31
0.0
  0
LINE
  5
3D49
330
1E
100
AcDbEntity
  8
7
100
AcDbLine
 10
15.19913079811972
 20
1.162914842814043
 30
0.0
 11
15.21487882961578
 21
1.202284921554202
 31
0.0
  0
LINE
  5
3D4A
330
1E
100
AcDbEntity
  8
7
100
AcDbLine
 10
15.23062686111185
 20
1.202284921554202
 30
0.0
 11
15.21487882961578
 21
1.158977834940028
 31
0.0
  0
LINE
  5
3D4B
330
1E
100
AcDbEntity
  8
7
100
AcDbLine
 10
15.21487882961578
 20
1.158977834940028
 30
0.0
 11
15.17944575874964
 21
1.13929279556995
 31
0.0
  0
LINE
  5
3D4C
330
1E
100
AcDbEntity
  8
7
100
AcDbLine
 10
15.17944575874964
 20
1.13929279556995
 30
0.0
 11
15.1440126878835
 21
1.151103819191995
 31
0.0
  0
LINE
  5
3D4D
330
1E
100
AcDbEntity
  8
7
100
AcDbLine
 10
15.1440126878835
 20
1.151103819191995
 30
0.0
 11
15.12432764851342
 21
1.190473897932154
 31
0.0
  0
LINE
  5
3D4E
330
1E
100
AcDbEntity
  8
7
100
AcDbLine
 10
15.24243788473389
 20
1.253466023916406
 30
0.0
 11
15.26212292410397
 21
1.261340039664435
 31
0.0
  0
LINE
  5
3D4F
330
1E
100
AcDbEntity
  8
7
100
AcDbLine
 10
15.26212292410397
 20
1.261340039664435
 30
0.0
 11
15.26999693985201
 21
1.261340039664435
 31
0.0
  0
LINE
  5
3D50
330
1E
100
AcDbEntity
  8
7
100
AcDbLine
 10
15.9432252863087
 20
-0.4591324012804457
 30
0.0
 11
15.30936701859216
 21
-0.4591324012804457
 31
0.0
  0
LINE
  5
3D51
330
1E
100
AcDbEntity
  8
7
100
AcDbLine
 10
15.30936701859216
 20
-0.4591324012804457
 30
0.0
 11
15.29755599497011
 21
-0.4591324012804457
 31
0.0
  0
LINE
  5
3D52
330
1E
100
AcDbEntity
  8
7
100
AcDbLine
 10
15.29755599497011
 20
-0.4591324012804457
 30
0.0
 11
15.28574497134807
 21
-0.4591324012804457
 31
0.0
  0
LINE
  5
3D53
330
1E
100
AcDbEntity
  8
7
100
AcDbLine
 10
15.28574497134807
 20
-0.4591324012804457
 30
0.0
 11
15.26999693985201
 21
-0.4591324012804457
 31
0.0
  0
LINE
  5
3D54
330
1E
100
AcDbEntity
  8
7
100
AcDbLine
 10
15.26999693985201
 20
-0.4591324012804457
 30
0.0
 11
15.25031190048192
 21
-0.4551953934064308
 31
0.0
  0
LINE
  5
3D55
330
1E
100
AcDbEntity
  8
7
100
AcDbLine
 10
15.25031190048192
 20
-0.4551953934064308
 30
0.0
 11
15.24243788473389
 21
-0.4512583855324124
 31
0.0
  0
LINE
  5
3D56
330
1E
100
AcDbEntity
  8
7
100
AcDbLine
 10
15.26999693985201
 20
1.261340039664435
 30
0.0
 11
15.28574497134807
 21
1.261340039664435
 31
0.0
  0
LINE
  5
3D57
330
1E
100
AcDbEntity
  8
7
100
AcDbLine
 10
15.28574497134807
 20
1.261340039664435
 30
0.0
 11
15.29755599497011
 21
1.261340039664435
 31
0.0
  0
LINE
  5
3D58
330
1E
100
AcDbEntity
  8
7
100
AcDbLine
 10
15.29755599497011
 20
1.261340039664435
 30
0.0
 11
15.30936701859216
 21
1.261340039664435
 31
0.0
  0
LINE
  5
3D59
330
1E
100
AcDbEntity
  8
7
100
AcDbLine
 10
15.30936701859216
 20
1.261340039664435
 30
0.0
 11
15.9432252863087
 21
1.261340039664435
 31
0.0
  0
LINE
  5
3D5A
330
1E
100
AcDbEntity
  8
7
100
AcDbLine
 10
15.9432252863087
 20
-0.4551953934064308
 30
0.0
 11
15.98653237292287
 21
-0.4394473619103679
 31
0.0
  0
LINE
  5
3D5B
330
1E
100
AcDbEntity
  8
7
100
AcDbLine
 10
15.98653237292287
 20
-0.4394473619103679
 30
0.0
 11
16.00228040441893
 21
-0.3961402752961938
 31
0.0
  0
LINE
  5
3D5C
330
1E
100
AcDbEntity
  8
7
100
AcDbLine
 10
15.56527253040318
 20
0.5369305908455396
 30
0.0
 11
15.49834339654492
 21
0.5172455514754617
 31
0.0
  0
LINE
  5
3D5D
330
1E
100
AcDbEntity
  8
7
100
AcDbLine
 10
15.49834339654492
 20
0.5172455514754617
 30
0.0
 11
15.44716229418271
 21
0.4700014569872728
 31
0.0
  0
LINE
  5
3D5E
330
1E
100
AcDbEntity
  8
7
100
AcDbLine
 10
15.44716229418271
 20
0.4700014569872728
 30
0.0
 11
15.42747725481263
 21
0.3991353152549877
 31
0.0
  0
LINE
  5
3D5F
330
1E
100
AcDbEntity
  8
7
100
AcDbLine
 10
15.42747725481263
 20
0.3991353152549877
 30
0.0
 11
15.44716229418271
 21
0.332206181396721
 31
0.0
  0
LINE
  5
3D60
330
1E
100
AcDbEntity
  8
7
100
AcDbLine
 10
15.44716229418271
 20
0.332206181396721
 30
0.0
 11
15.4944063886709
 21
0.2810250790345172
 31
0.0
  0
LINE
  5
3D61
330
1E
100
AcDbEntity
  8
7
100
AcDbLine
 10
15.4944063886709
 20
0.2810250790345172
 30
0.0
 11
15.56527253040318
 21
0.2613400396644359
 31
0.0
  0
LINE
  5
3D62
330
1E
100
AcDbEntity
  8
7
100
AcDbLine
 10
16.00228040441893
 20
1.198347913680184
 30
0.0
 11
15.98653237292287
 21
1.241655000294358
 31
0.0
  0
LINE
  5
3D63
330
1E
100
AcDbEntity
  8
7
100
AcDbLine
 10
15.98653237292287
 20
1.241655000294358
 30
0.0
 11
15.9432252863087
 21
1.257403031790421
 31
0.0
  0
LINE
  5
3D64
330
1E
100
AcDbEntity
  8
7
100
AcDbLine
 10
15.86054812095436
 20
-0.2229119288395012
 30
0.0
 11
15.84086308158429
 21
-0.1559827949812309
 31
0.0
  0
LINE
  5
3D65
330
1E
100
AcDbEntity
  8
7
100
AcDbLine
 10
15.84086308158429
 20
-0.1559827949812309
 30
0.0
 11
15.7936189870961
 21
-0.1048016926190272
 31
0.0
  0
LINE
  5
3D66
330
1E
100
AcDbEntity
  8
7
100
AcDbLine
 10
15.7936189870961
 20
-0.1048016926190272
 30
0.0
 11
15.72275284536382
 21
-0.0851166532489494
 31
0.0
  0
LINE
  5
3D67
330
1E
100
AcDbEntity
  8
7
100
AcDbLine
 10
15.72275284536382
 20
-0.3607072044300494
 30
0.0
 11
15.78968197922208
 21
-0.3410221650599716
 31
0.0
  0
LINE
  5
3D68
330
1E
100
AcDbEntity
  8
7
100
AcDbLine
 10
15.78968197922208
 20
-0.3410221650599716
 30
0.0
 11
15.84086308158429
 21
-0.2937780705717827
 31
0.0
  0
LINE
  5
3D69
330
1E
100
AcDbEntity
  8
7
100
AcDbLine
 10
15.84086308158429
 20
-0.2937780705717827
 30
0.0
 11
15.86054812095436
 21
-0.2229119288395012
 31
0.0
  0
LINE
  5
3D6A
330
1E
100
AcDbEntity
  8
7
100
AcDbLine
 10
15.60464260914334
 20
-0.0851166532489494
 30
0.0
 11
15.53771347528508
 21
-0.1048016926190272
 31
0.0
  0
LINE
  5
3D6B
330
1E
100
AcDbEntity
  8
7
100
AcDbLine
 10
15.53771347528508
 20
-0.1048016926190272
 30
0.0
 11
15.48653237292287
 21
-0.1520457871072161
 31
0.0
  0
LINE
  5
3D6C
330
1E
100
AcDbEntity
  8
7
100
AcDbLine
 10
15.48653237292287
 20
-0.1520457871072161
 30
0.0
 11
15.46684733355279
 21
-0.2229119288395012
 31
0.0
  0
LINE
  5
3D6D
330
1E
100
AcDbEntity
  8
7
100
AcDbLine
 10
15.46684733355279
 20
-0.2229119288395012
 30
0.0
 11
15.48653237292287
 21
-0.2898410626977679
 31
0.0
  0
LINE
  5
3D6E
330
1E
100
AcDbEntity
  8
7
100
AcDbLine
 10
15.48653237292287
 20
-0.2898410626977679
 30
0.0
 11
15.53377646741106
 21
-0.3410221650599716
 31
0.0
  0
LINE
  5
3D6F
330
1E
100
AcDbEntity
  8
7
100
AcDbLine
 10
15.53377646741106
 20
-0.3410221650599716
 30
0.0
 11
15.60464260914334
 21
-0.3607072044300494
 31
0.0
  0
LINE
  5
3D70
330
1E
100
AcDbEntity
  8
7
100
AcDbLine
 10
15.60464260914334
 20
1.162914842814043
 30
0.0
 11
15.53771347528508
 21
1.143229803443965
 31
0.0
  0
LINE
  5
3D71
330
1E
100
AcDbEntity
  8
7
100
AcDbLine
 10
15.53771347528508
 20
1.143229803443965
 30
0.0
 11
15.48653237292287
 21
1.095985708955776
 31
0.0
  0
LINE
  5
3D72
330
1E
100
AcDbEntity
  8
7
100
AcDbLine
 10
15.48653237292287
 20
1.095985708955776
 30
0.0
 11
15.46684733355279
 21
1.025119567223491
 31
0.0
  0
LINE
  5
3D73
330
1E
100
AcDbEntity
  8
7
100
AcDbLine
 10
15.46684733355279
 20
1.025119567223491
 30
0.0
 11
15.48653237292287
 21
0.9581904333652246
 31
0.0
  0
LINE
  5
3D74
330
1E
100
AcDbEntity
  8
7
100
AcDbLine
 10
15.48653237292287
 20
0.9581904333652246
 30
0.0
 11
15.53377646741106
 21
0.9070093310030209
 31
0.0
  0
LINE
  5
3D75
330
1E
100
AcDbEntity
  8
7
100
AcDbLine
 10
15.53377646741106
 20
0.9070093310030209
 30
0.0
 11
15.60464260914334
 21
0.8873242916329395
 31
0.0
  0
LINE
  5
3D76
330
1E
100
AcDbEntity
  8
7
100
AcDbLine
 10
15.72275284536382
 20
0.8873242916329395
 30
0.0
 11
15.78968197922208
 21
0.9070093310030209
 31
0.0
  0
LINE
  5
3D77
330
1E
100
AcDbEntity
  8
7
100
AcDbLine
 10
15.78968197922208
 20
0.9070093310030209
 30
0.0
 11
15.84086308158429
 21
0.9542534254912098
 31
0.0
  0
LINE
  5
3D78
330
1E
100
AcDbEntity
  8
7
100
AcDbLine
 10
15.84086308158429
 20
0.9542534254912098
 30
0.0
 11
15.86054812095436
 21
1.025119567223491
 31
0.0
  0
LINE
  5
3D79
330
1E
100
AcDbEntity
  8
7
100
AcDbLine
 10
15.86054812095436
 20
1.025119567223491
 30
0.0
 11
15.84086308158429
 21
1.092048701081761
 31
0.0
  0
LINE
  5
3D7A
330
1E
100
AcDbEntity
  8
7
100
AcDbLine
 10
15.84086308158429
 20
1.092048701081761
 30
0.0
 11
15.7936189870961
 21
1.143229803443965
 31
0.0
  0
LINE
  5
3D7B
330
1E
100
AcDbEntity
  8
7
100
AcDbLine
 10
15.7936189870961
 20
1.143229803443965
 30
0.0
 11
15.72275284536382
 21
1.162914842814043
 31
0.0
  0
LINE
  5
3D7C
330
1E
100
AcDbEntity
  8
7
100
AcDbLine
 10
6.037713475285077
 20
1.190473897932154
 30
0.0
 11
6.037713475285077
 21
-0.3882662595481605
 31
0.0
  0
LINE
  5
3D7D
330
1E
100
AcDbEntity
  8
7
100
AcDbLine
 10
6.037713475285077
 20
-0.3882662595481605
 30
0.0
 11
6.97078434142681
 21
-0.3882662595481605
 31
0.0
  0
LINE
  5
3D7E
330
1E
100
AcDbEntity
  8
7
100
AcDbLine
 10
6.97078434142681
 20
-0.3882662595481605
 30
0.0
 11
6.97078434142681
 21
1.190473897932154
 31
0.0
  0
LINE
  5
3D7F
330
1E
100
AcDbEntity
  8
7
100
AcDbLine
 10
6.97078434142681
 20
1.190473897932154
 30
0.0
 11
6.037713475285077
 21
1.190473897932154
 31
0.0
  0
LINE
  5
3D80
330
1E
100
AcDbEntity
  8
7
100
AcDbLine
 10
-2.257562115266101
 20
1.261340039664435
 30
0.0
 11
-2.241814083770038
 21
1.257403031790421
 31
0.0
  0
LINE
  5
3D81
330
1E
100
AcDbEntity
  8
7
100
AcDbLine
 10
-2.241814083770038
 20
1.257403031790421
 30
0.0
 11
-2.233940068022007
 21
1.253466023916406
 31
0.0
  0
LINE
  5
3D82
330
1E
100
AcDbEntity
  8
7
100
AcDbLine
 10
-2.233940068022007
 20
-0.4512583855324124
 30
0.0
 11
-2.24968809951807
 21
-0.4591324012804457
 31
0.0
  0
LINE
  5
3D83
330
1E
100
AcDbEntity
  8
7
100
AcDbLine
 10
-2.24968809951807
 20
-0.4591324012804457
 30
0.0
 11
-2.257562115266101
 21
-0.4591324012804457
 31
0.0
  0
LINE
  5
3D84
330
1E
100
AcDbEntity
  8
7
100
AcDbLine
 10
-2.24968809951807
 20
1.253466023916406
 30
0.0
 11
-2.269373138888149
 21
1.261340039664435
 31
0.0
  0
LINE
  5
3D85
330
1E
100
AcDbEntity
  8
7
100
AcDbLine
 10
-2.269373138888149
 20
1.261340039664435
 30
0.0
 11
-2.277247154636181
 21
1.261340039664435
 31
0.0
  0
LINE
  5
3D86
330
1E
100
AcDbEntity
  8
7
100
AcDbLine
 10
-2.277247154636181
 20
-0.4591324012804457
 30
0.0
 11
-2.257562115266101
 21
-0.4551953934064308
 31
0.0
  0
LINE
  5
3D87
330
1E
100
AcDbEntity
  8
7
100
AcDbLine
 10
-2.257562115266101
 20
-0.4551953934064308
 30
0.0
 11
-2.24968809951807
 21
-0.4512583855324124
 31
0.0
  0
LINE
  5
3D88
330
1E
100
AcDbEntity
  8
7
100
AcDbLine
 10
-2.300869201880275
 20
1.261340039664435
 30
0.0
 11
-2.289058178258228
 21
1.261340039664435
 31
0.0
  0
LINE
  5
3D89
330
1E
100
AcDbEntity
  8
7
100
AcDbLine
 10
-2.289058178258228
 20
1.261340039664435
 30
0.0
 11
-2.277247154636181
 21
1.261340039664435
 31
0.0
  0
LINE
  5
3D8A
330
1E
100
AcDbEntity
  8
7
100
AcDbLine
 10
-2.277247154636181
 20
1.261340039664435
 30
0.0
 11
-2.257562115266101
 21
1.261340039664435
 31
0.0
  0
LINE
  5
3D8B
330
1E
100
AcDbEntity
  8
7
100
AcDbLine
 10
-2.257562115266101
 20
-0.4591324012804457
 30
0.0
 11
-2.277247154636181
 21
-0.4591324012804457
 31
0.0
  0
LINE
  5
3D8C
330
1E
100
AcDbEntity
  8
7
100
AcDbLine
 10
-2.277247154636181
 20
-0.4591324012804457
 30
0.0
 11
-2.289058178258228
 21
-0.4591324012804457
 31
0.0
  0
LINE
  5
3D8D
330
1E
100
AcDbEntity
  8
7
100
AcDbLine
 10
-2.289058178258228
 20
-0.4591324012804457
 30
0.0
 11
-2.300869201880275
 21
-0.4591324012804457
 31
0.0
  0
LINE
  5
3D8E
330
1E
100
AcDbEntity
  8
7
100
AcDbLine
 10
-2.993782587707046
 20
-0.3961402752961938
 30
0.0
 11
-2.978034556210984
 21
-0.4394473619103679
 31
0.0
  0
LINE
  5
3D8F
330
1E
100
AcDbEntity
  8
7
100
AcDbLine
 10
-2.978034556210984
 20
-0.4394473619103679
 30
0.0
 11
-2.93472746959681
 21
-0.4551953934064308
 31
0.0
  0
LINE
  5
3D90
330
1E
100
AcDbEntity
  8
7
100
AcDbLine
 10
-2.93472746959681
 20
1.257403031790421
 30
0.0
 11
-2.978034556210984
 21
1.241655000294358
 31
0.0
  0
LINE
  5
3D91
330
1E
100
AcDbEntity
  8
7
100
AcDbLine
 10
-2.978034556210984
 20
1.241655000294358
 30
0.0
 11
-2.993782587707046
 21
1.198347913680184
 31
0.0
  0
LINE
  5
3D92
330
1E
100
AcDbEntity
  8
7
100
AcDbLine
 10
-2.458349516840905
 20
-0.2229119288395012
 30
0.0
 11
-2.478034556210984
 21
-0.1559827949812309
 31
0.0
  0
LINE
  5
3D93
330
1E
100
AcDbEntity
  8
7
100
AcDbLine
 10
-2.478034556210984
 20
-0.1559827949812309
 30
0.0
 11
-2.525278650699172
 21
-0.1048016926190272
 31
0.0
  0
LINE
  5
3D94
330
1E
100
AcDbEntity
  8
7
100
AcDbLine
 10
-2.525278650699172
 20
-0.1048016926190272
 30
0.0
 11
-2.596144792431456
 21
-0.0851166532489494
 31
0.0
  0
LINE
  5
3D95
330
1E
100
AcDbEntity
  8
7
100
AcDbLine
 10
-2.596144792431456
 20
-0.3607072044300494
 30
0.0
 11
-2.529215658573188
 21
-0.3410221650599716
 31
0.0
  0
LINE
  5
3D96
330
1E
100
AcDbEntity
  8
7
100
AcDbLine
 10
-2.529215658573188
 20
-0.3410221650599716
 30
0.0
 11
-2.478034556210984
 21
-0.2937780705717827
 31
0.0
  0
LINE
  5
3D97
330
1E
100
AcDbEntity
  8
7
100
AcDbLine
 10
-2.478034556210984
 20
-0.2937780705717827
 30
0.0
 11
-2.458349516840905
 21
-0.2229119288395012
 31
0.0
  0
LINE
  5
3D98
330
1E
100
AcDbEntity
  8
7
100
AcDbLine
 10
-2.714255028651928
 20
-0.0851166532489494
 30
0.0
 11
-2.781184162510196
 21
-0.1048016926190272
 31
0.0
  0
LINE
  5
3D99
330
1E
100
AcDbEntity
  8
7
100
AcDbLine
 10
-2.781184162510196
 20
-0.1048016926190272
 30
0.0
 11
-2.832365264872401
 21
-0.1520457871072161
 31
0.0
  0
LINE
  5
3D9A
330
1E
100
AcDbEntity
  8
7
100
AcDbLine
 10
-2.832365264872401
 20
-0.1520457871072161
 30
0.0
 11
-2.85205030424248
 21
-0.2229119288395012
 31
0.0
  0
LINE
  5
3D9B
330
1E
100
AcDbEntity
  8
7
100
AcDbLine
 10
-2.85205030424248
 20
-0.2229119288395012
 30
0.0
 11
-2.832365264872401
 21
-0.2898410626977679
 31
0.0
  0
LINE
  5
3D9C
330
1E
100
AcDbEntity
  8
7
100
AcDbLine
 10
-2.832365264872401
 20
-0.2898410626977679
 30
0.0
 11
-2.785121170384212
 21
-0.3410221650599716
 31
0.0
  0
LINE
  5
3D9D
330
1E
100
AcDbEntity
  8
7
100
AcDbLine
 10
-2.785121170384212
 20
-0.3410221650599716
 30
0.0
 11
-2.714255028651928
 21
-0.3607072044300494
 31
0.0
  0
LINE
  5
3D9E
330
1E
100
AcDbEntity
  8
7
100
AcDbLine
 10
-2.418979438100747
 20
0.3991353152549877
 30
0.0
 11
-2.438664477470826
 21
0.4660644491132544
 31
0.0
  0
LINE
  5
3D9F
330
1E
100
AcDbEntity
  8
7
100
AcDbLine
 10
-2.438664477470826
 20
0.4660644491132544
 30
0.0
 11
-2.485908571959015
 21
0.5172455514754617
 31
0.0
  0
LINE
  5
3DA0
330
1E
100
AcDbEntity
  8
7
100
AcDbLine
 10
-2.485908571959015
 20
0.5172455514754617
 30
0.0
 11
-2.556774713691298
 21
0.5369305908455396
 31
0.0
  0
LINE
  5
3DA1
330
1E
100
AcDbEntity
  8
7
100
AcDbLine
 10
-2.556774713691298
 20
0.2613400396644359
 30
0.0
 11
-2.489845579833031
 21
0.2810250790345172
 31
0.0
  0
LINE
  5
3DA2
330
1E
100
AcDbEntity
  8
7
100
AcDbLine
 10
-2.489845579833031
 20
0.2810250790345172
 30
0.0
 11
-2.438664477470826
 21
0.3282691735227061
 31
0.0
  0
LINE
  5
3DA3
330
1E
100
AcDbEntity
  8
7
100
AcDbLine
 10
-2.438664477470826
 20
0.3282691735227061
 30
0.0
 11
-2.418979438100747
 21
0.3991353152549877
 31
0.0
  0
LINE
  5
3DA4
330
1E
100
AcDbEntity
  8
7
100
AcDbLine
 10
-2.85205030424248
 20
1.025119567223491
 30
0.0
 11
-2.832365264872401
 21
0.9581904333652246
 31
0.0
  0
LINE
  5
3DA5
330
1E
100
AcDbEntity
  8
7
100
AcDbLine
 10
-2.832365264872401
 20
0.9581904333652246
 30
0.0
 11
-2.785121170384212
 21
0.9070093310030209
 31
0.0
  0
LINE
  5
3DA6
330
1E
100
AcDbEntity
  8
7
100
AcDbLine
 10
-2.785121170384212
 20
0.9070093310030209
 30
0.0
 11
-2.714255028651928
 21
0.8873242916329395
 31
0.0
  0
LINE
  5
3DA7
330
1E
100
AcDbEntity
  8
7
100
AcDbLine
 10
-2.714255028651928
 20
1.162914842814043
 30
0.0
 11
-2.781184162510196
 21
1.143229803443965
 31
0.0
  0
LINE
  5
3DA8
330
1E
100
AcDbEntity
  8
7
100
AcDbLine
 10
-2.781184162510196
 20
1.143229803443965
 30
0.0
 11
-2.832365264872401
 21
1.095985708955776
 31
0.0
  0
LINE
  5
3DA9
330
1E
100
AcDbEntity
  8
7
100
AcDbLine
 10
-2.832365264872401
 20
1.095985708955776
 30
0.0
 11
-2.85205030424248
 21
1.025119567223491
 31
0.0
  0
LINE
  5
3DAA
330
1E
100
AcDbEntity
  8
7
100
AcDbLine
 10
-2.529215658573188
 20
0.9070093310030209
 30
0.0
 11
-2.478034556210984
 21
0.9542534254912098
 31
0.0
  0
LINE
  5
3DAB
330
1E
100
AcDbEntity
  8
7
100
AcDbLine
 10
-2.478034556210984
 20
0.9542534254912098
 30
0.0
 11
-2.458349516840905
 21
1.025119567223491
 31
0.0
  0
LINE
  5
3DAC
330
1E
100
AcDbEntity
  8
7
100
AcDbLine
 10
-2.458349516840905
 20
1.025119567223491
 30
0.0
 11
-2.478034556210984
 21
1.092048701081761
 31
0.0
  0
LINE
  5
3DAD
330
1E
100
AcDbEntity
  8
7
100
AcDbLine
 10
-2.478034556210984
 20
1.092048701081761
 30
0.0
 11
-2.525278650699172
 21
1.143229803443965
 31
0.0
  0
LINE
  5
3DAE
330
1E
100
AcDbEntity
  8
7
100
AcDbLine
 10
-2.525278650699172
 20
1.143229803443965
 30
0.0
 11
-2.596144792431456
 21
1.162914842814043
 31
0.0
  0
LINE
  5
3DAF
330
1E
100
AcDbEntity
  8
7
100
AcDbLine
 10
-2.084333768809409
 20
-0.4591324012804457
 30
0.0
 11
-2.100081800305471
 21
-0.4433843697843827
 31
0.0
  0
LINE
  5
3DB0
330
1E
100
AcDbEntity
  8
7
100
AcDbLine
 10
-2.100081800305471
 20
-0.4433843697843827
 30
0.0
 11
-2.111892823927519
 21
-0.4000772831702087
 31
0.0
  0
LINE
  5
3DB1
330
1E
100
AcDbEntity
  8
7
100
AcDbLine
 10
-2.111892823927519
 20
-0.4000772831702087
 30
0.0
 11
-2.111892823927519
 21
-0.3882662595481605
 31
0.0
  0
LINE
  5
3DB2
330
1E
100
AcDbEntity
  8
7
100
AcDbLine
 10
-2.111892823927519
 20
1.202284921554202
 30
0.0
 11
-2.100081800305471
 21
1.241655000294358
 31
0.0
  0
LINE
  5
3DB3
330
1E
100
AcDbEntity
  8
7
100
AcDbLine
 10
-2.100081800305471
 20
1.241655000294358
 30
0.0
 11
-2.084333768809409
 21
1.261340039664435
 31
0.0
  0
LINE
  5
3DB4
330
1E
100
AcDbEntity
  8
7
100
AcDbLine
 10
-2.159136918415708
 20
1.143229803443965
 30
0.0
 11
-2.190632981407834
 21
1.162914842814043
 31
0.0
  0
LINE
  5
3DB5
330
1E
100
AcDbEntity
  8
7
100
AcDbLine
 10
-2.190632981407834
 20
1.162914842814043
 30
0.0
 11
-2.202444005029881
 21
1.202284921554202
 31
0.0
  0
LINE
  5
3DB6
330
1E
100
AcDbEntity
  8
7
100
AcDbLine
 10
-2.233940068022007
 20
1.253466023916406
 30
0.0
 11
-2.210318020777912
 21
1.233780984546328
 31
0.0
  0
LINE
  5
3DB7
330
1E
100
AcDbEntity
  8
7
100
AcDbLine
 10
-2.210318020777912
 20
1.233780984546328
 30
0.0
 11
-2.202444005029881
 21
1.202284921554202
 31
0.0
  0
LINE
  5
3DB8
330
1E
100
AcDbEntity
  8
7
100
AcDbLine
 10
-2.159136918415708
 20
-0.3410221650599716
 30
0.0
 11
-2.190632981407834
 21
-0.3607072044300494
 31
0.0
  0
LINE
  5
3DB9
330
1E
100
AcDbEntity
  8
7
100
AcDbLine
 10
-2.190632981407834
 20
-0.3607072044300494
 30
0.0
 11
-2.202444005029881
 21
-0.4000772831702087
 31
0.0
  0
LINE
  5
3DBA
330
1E
100
AcDbEntity
  8
7
100
AcDbLine
 10
-2.202444005029881
 20
-0.4000772831702087
 30
0.0
 11
-2.210318020777912
 21
-0.4315733461623346
 31
0.0
  0
LINE
  5
3DBB
330
1E
100
AcDbEntity
  8
7
100
AcDbLine
 10
-2.210318020777912
 20
-0.4315733461623346
 30
0.0
 11
-2.233940068022007
 21
-0.4512583855324124
 31
0.0
  0
LINE
  5
3DBC
330
1E
100
AcDbEntity
  8
7
100
AcDbLine
 10
-2.222129044399959
 20
1.202284921554202
 30
0.0
 11
-2.230003060147991
 21
1.233780984546328
 31
0.0
  0
LINE
  5
3DBD
330
1E
100
AcDbEntity
  8
7
100
AcDbLine
 10
-2.230003060147991
 20
1.233780984546328
 30
0.0
 11
-2.24968809951807
 21
1.253466023916406
 31
0.0
  0
LINE
  5
3DBE
330
1E
100
AcDbEntity
  8
7
100
AcDbLine
 10
-2.24968809951807
 20
1.253466023916406
 30
0.0
 11
-2.24968809951807
 21
-0.4512583855324124
 31
0.0
  0
LINE
  5
3DBF
330
1E
100
AcDbEntity
  8
7
100
AcDbLine
 10
-2.24968809951807
 20
-0.4512583855324124
 30
0.0
 11
-2.230003060147991
 21
-0.4315733461623346
 31
0.0
  0
LINE
  5
3DC0
330
1E
100
AcDbEntity
  8
7
100
AcDbLine
 10
-2.230003060147991
 20
-0.4315733461623346
 30
0.0
 11
-2.222129044399959
 21
-0.4000772831702087
 31
0.0
  0
LINE
  5
3DC1
330
1E
100
AcDbEntity
  8
7
100
AcDbLine
 10
-2.222129044399959
 20
1.202284921554202
 30
0.0
 11
-2.206381012903896
 21
1.158977834940028
 31
0.0
  0
LINE
  5
3DC2
330
1E
100
AcDbEntity
  8
7
100
AcDbLine
 10
-2.206381012903896
 20
1.158977834940028
 30
0.0
 11
-2.170947942037755
 21
1.13929279556995
 31
0.0
  0
LINE
  5
3DC3
330
1E
100
AcDbEntity
  8
7
100
AcDbLine
 10
-2.170947942037755
 20
1.13929279556995
 30
0.0
 11
-2.135514871171613
 21
1.151103819191995
 31
0.0
  0
LINE
  5
3DC4
330
1E
100
AcDbEntity
  8
7
100
AcDbLine
 10
-2.135514871171613
 20
1.151103819191995
 30
0.0
 11
-2.111892823927519
 21
1.190473897932154
 31
0.0
  0
LINE
  5
3DC5
330
1E
100
AcDbEntity
  8
7
100
AcDbLine
 10
-2.170947942037755
 20
-0.3410221650599716
 30
0.0
 11
-2.135514871171613
 21
-0.3528331886820197
 31
0.0
  0
LINE
  5
3DC6
330
1E
100
AcDbEntity
  8
7
100
AcDbLine
 10
-2.135514871171613
 20
-0.3528331886820197
 30
0.0
 11
-2.111892823927519
 21
-0.3882662595481605
 31
0.0
  0
LINE
  5
3DC7
330
1E
100
AcDbEntity
  8
7
100
AcDbLine
 10
-2.111892823927519
 20
-0.3882662595481605
 30
0.0
 11
5.962910325678778
 21
-0.3882662595481605
 31
0.0
  0
LINE
  5
3DC8
330
1E
100
AcDbEntity
  8
7
100
AcDbLine
 10
5.962910325678778
 20
-0.3882662595481605
 30
0.0
 11
5.962910325678778
 21
1.190473897932154
 31
0.0
  0
LINE
  5
3DC9
330
1E
100
AcDbEntity
  8
7
100
AcDbLine
 10
5.962910325678778
 20
1.190473897932154
 30
0.0
 11
-2.111892823927519
 21
1.190473897932154
 31
0.0
  0
LINE
  5
3DCA
330
1E
100
AcDbEntity
  8
7
100
AcDbLine
 10
-2.222129044399959
 20
-0.4000772831702087
 30
0.0
 11
-2.206381012903896
 21
-0.3607072044300494
 31
0.0
  0
LINE
  5
3DCB
330
1E
100
AcDbEntity
  8
7
100
AcDbLine
 10
-2.206381012903896
 20
-0.3607072044300494
 30
0.0
 11
-2.170947942037755
 21
-0.3410221650599716
 31
0.0
  0
LINE
  5
3DCC
330
1E
100
AcDbEntity
  8
7
100
AcDbLine
 10
0.7975559949701179
 20
-0.3213371256898938
 30
0.0
 11
1.214878829615786
 21
-0.3213371256898938
 31
0.0
  0
LINE
  5
3DCD
330
1E
100
AcDbEntity
  8
7
100
AcDbLine
 10
1.214878829615786
 20
-0.3213371256898938
 30
0.0
 11
1.214878829615786
 21
-0.1008646847450123
 31
0.0
  0
LINE
  5
3DCE
330
1E
100
AcDbEntity
  8
7
100
AcDbLine
 10
13.88023316032445
 20
9.749529016042391
 30
0.0
 11
13.88023316032445
 21
9.792836102656561
 31
0.0
  0
LINE
  5
3DCF
330
1E
100
AcDbEntity
  8
7
100
AcDbLine
 10
13.88023316032445
 20
9.792836102656561
 30
0.0
 11
13.90779221544256
 21
9.824332165648687
 31
0.0
  0
LINE
  5
3DD0
330
1E
100
AcDbEntity
  8
7
100
AcDbLine
 10
14.06133552252917
 20
9.895198307380972
 30
0.0
 11
14.10464260914334
 21
9.899135315254987
 31
0.0
  0
LINE
  5
3DD1
330
1E
100
AcDbEntity
  8
7
100
AcDbLine
 10
14.10464260914334
 20
9.899135315254987
 30
0.0
 11
14.14007568000949
 21
9.871576260136876
 31
0.0
  0
LINE
  5
3DD2
330
1E
100
AcDbEntity
  8
7
100
AcDbLine
 10
14.18338276662366
 20
9.615670748325854
 30
0.0
 11
14.17157174300161
 21
9.643229803443965
 31
0.0
  0
LINE
  5
3DD3
330
1E
100
AcDbEntity
  8
7
100
AcDbLine
 10
14.17157174300161
 20
9.643229803443965
 30
0.0
 11
14.03377646741106
 21
9.580237677459713
 31
0.0
  0
LINE
  5
3DD4
330
1E
100
AcDbEntity
  8
7
100
AcDbLine
 10
14.03377646741106
 20
9.580237677459713
 30
0.0
 11
14.04558749103311
 21
9.552678622341602
 31
0.0
  0
LINE
  5
3DD5
330
1E
100
AcDbEntity
  8
7
100
AcDbLine
 10
12.8448000894583
 20
9.265277047538454
 30
0.0
 11
12.80936701859216
 21
9.292836102656561
 31
0.0
  0
LINE
  5
3DD6
330
1E
100
AcDbEntity
  8
7
100
AcDbLine
 10
12.80936701859216
 20
9.292836102656561
 30
0.0
 11
12.76605993197799
 21
9.292836102656561
 31
0.0
  0
LINE
  5
3DD7
330
1E
100
AcDbEntity
  8
7
100
AcDbLine
 10
12.15582371150555
 20
8.83220618139672
 30
0.0
 11
12.10464260914334
 21
8.938505393995146
 31
0.0
  0
LINE
  5
3DD8
330
1E
100
AcDbEntity
  8
7
100
AcDbLine
 10
12.10464260914334
 20
8.938505393995146
 30
0.0
 11
12.57708355402523
 21
9.162914842814043
 31
0.0
  0
LINE
  5
3DD9
330
1E
100
AcDbEntity
  8
7
100
AcDbLine
 10
11.42354024693862
 20
8.666851850688058
 30
0.0
 11
11.46684733355279
 21
8.666851850688058
 31
0.0
  0
LINE
  5
3DDA
330
1E
100
AcDbEntity
  8
7
100
AcDbLine
 10
11.46684733355279
 20
8.666851850688058
 30
0.0
 11
11.50228040441893
 21
8.63929279556995
 31
0.0
  0
LINE
  5
3DDB
330
1E
100
AcDbEntity
  8
7
100
AcDbLine
 10
11.54558749103311
 20
8.383387283758924
 30
0.0
 11
11.52983945953704
 21
8.410946338877035
 31
0.0
  0
LINE
  5
3DDC
330
1E
100
AcDbEntity
  8
7
100
AcDbLine
 10
11.52983945953704
 20
8.410946338877035
 30
0.0
 11
11.39598119182051
 21
8.347954212892783
 31
0.0
  0
LINE
  5
3DDD
330
1E
100
AcDbEntity
  8
7
100
AcDbLine
 10
11.39598119182051
 20
8.347954212892783
 30
0.0
 11
11.40779221544255
 21
8.320395157774672
 31
0.0
  0
LINE
  5
3DDE
330
1E
100
AcDbEntity
  8
7
100
AcDbLine
 10
9.974721349300828
 20
7.98968649635735
 30
0.0
 11
9.943225286308702
 21
7.958190433365224
 31
0.0
  0
LINE
  5
3DDF
330
1E
100
AcDbEntity
  8
7
100
AcDbLine
 10
9.943225286308702
 20
7.958190433365224
 30
0.0
 11
9.943225286308702
 21
7.91488334675105
 31
0.0
  0
LINE
  5
3DE0
330
1E
100
AcDbEntity
  8
7
100
AcDbLine
 10
10.20700481386775
 20
8.036930590845539
 30
0.0
 11
10.17157174300161
 21
8.06448964596365
 31
0.0
  0
LINE
  5
3DE1
330
1E
100
AcDbEntity
  8
7
100
AcDbLine
 10
10.17157174300161
 20
8.06448964596365
 30
0.0
 11
10.12826465638744
 21
8.060552638089632
 31
0.0
  0
LINE
  5
3DE2
330
1E
100
AcDbEntity
  8
7
100
AcDbLine
 10
9.518028435914999
 20
7.603859724703806
 30
0.0
 11
9.466847333552795
 21
7.710158937302232
 31
0.0
  0
LINE
  5
3DE3
330
1E
100
AcDbEntity
  8
7
100
AcDbLine
 10
9.466847333552795
 20
7.710158937302232
 30
0.0
 11
9.939288278434684
 21
7.930631378247113
 31
0.0
  0
LINE
  5
3DE4
330
1E
100
AcDbEntity
  8
7
100
AcDbLine
 10
8.600705601269332
 20
7.288899094782546
 30
0.0
 11
8.600705601269332
 21
7.33220618139672
 31
0.0
  0
LINE
  5
3DE5
330
1E
100
AcDbEntity
  8
7
100
AcDbLine
 10
8.600705601269332
 20
7.33220618139672
 30
0.0
 11
8.632201664261458
 21
7.363702244388846
 31
0.0
  0
LINE
  5
3DE6
330
1E
100
AcDbEntity
  8
7
100
AcDbLine
 10
8.785744971348073
 20
7.434568386121128
 30
0.0
 11
8.829052057962243
 21
7.438505393995146
 31
0.0
  0
LINE
  5
3DE7
330
1E
100
AcDbEntity
  8
7
100
AcDbLine
 10
8.829052057962243
 20
7.438505393995146
 30
0.0
 11
8.864485128828388
 21
7.410946338877035
 31
0.0
  0
LINE
  5
3DE8
330
1E
100
AcDbEntity
  8
7
100
AcDbLine
 10
8.903855207568543
 20
7.155040827066013
 30
0.0
 11
8.892044183946495
 21
7.182599882184121
 31
0.0
  0
LINE
  5
3DE9
330
1E
100
AcDbEntity
  8
7
100
AcDbLine
 10
8.892044183946495
 20
7.182599882184121
 30
0.0
 11
8.758185916229962
 21
7.119607756199869
 31
0.0
  0
LINE
  5
3DEA
330
1E
100
AcDbEntity
  8
7
100
AcDbLine
 10
8.758185916229962
 20
7.119607756199869
 30
0.0
 11
8.76999693985201
 21
7.092048701081758
 31
0.0
  0
LINE
  5
3DEB
330
1E
100
AcDbEntity
  8
7
100
AcDbLine
 10
7.336926073710275
 20
6.761340039664435
 30
0.0
 11
7.305430010718149
 21
6.729843976672309
 31
0.0
  0
LINE
  5
3DEC
330
1E
100
AcDbEntity
  8
7
100
AcDbLine
 10
7.305430010718149
 20
6.729843976672309
 30
0.0
 11
7.305430010718149
 21
6.682599882184121
 31
0.0
  0
LINE
  5
3DED
330
1E
100
AcDbEntity
  8
7
100
AcDbLine
 10
7.56527253040319
 20
6.804647126278609
 30
0.0
 11
7.53377646741106
 21
6.83220618139672
 31
0.0
  0
LINE
  5
3DEE
330
1E
100
AcDbEntity
  8
7
100
AcDbLine
 10
7.53377646741106
 20
6.83220618139672
 30
0.0
 11
7.49046938079689
 21
6.83220618139672
 31
0.0
  0
LINE
  5
3DEF
330
1E
100
AcDbEntity
  8
7
100
AcDbLine
 10
6.880233160324447
 20
6.371576260136876
 30
0.0
 11
6.825115050088227
 21
6.477875472735302
 31
0.0
  0
LINE
  5
3DF0
330
1E
100
AcDbEntity
  8
7
100
AcDbLine
 10
6.825115050088227
 20
6.477875472735302
 30
0.0
 11
7.301493002844132
 21
6.702284921554202
 31
0.0
  0
LINE
  5
3DF1
330
1E
100
AcDbEntity
  8
7
100
AcDbLine
 10
5.671571743001614
 20
6.761340039664435
 30
0.0
 11
5.70306780599374
 21
6.729843976672309
 31
0.0
  0
LINE
  5
3DF2
330
1E
100
AcDbEntity
  8
7
100
AcDbLine
 10
5.70306780599374
 20
6.729843976672309
 30
0.0
 11
5.70306780599374
 21
6.682599882184121
 31
0.0
  0
LINE
  5
3DF3
330
1E
100
AcDbEntity
  8
7
100
AcDbLine
 10
5.549524498907125
 20
6.513308543601443
 30
0.0
 11
5.411729223316573
 21
6.580237677459713
 31
0.0
  0
LINE
  5
3DF4
330
1E
100
AcDbEntity
  8
7
100
AcDbLine
 10
5.411729223316573
 20
6.580237677459713
 30
0.0
 11
5.411729223316573
 21
6.576300669585695
 31
0.0
  0
LINE
  5
3DF5
330
1E
100
AcDbEntity
  8
7
100
AcDbLine
 10
5.533776467411062
 20
6.485749488483335
 30
0.0
 11
5.549524498907125
 21
6.513308543601443
 31
0.0
  0
LINE
  5
3DF6
330
1E
100
AcDbEntity
  8
7
100
AcDbLine
 10
5.549524498907125
 20
6.513308543601443
 30
0.0
 11
5.411729223316573
 21
6.576300669585695
 31
0.0
  0
LINE
  5
3DF7
330
1E
100
AcDbEntity
  8
7
100
AcDbLine
 10
5.411729223316573
 20
6.576300669585695
 30
0.0
 11
5.399918199694527
 21
6.548741614467587
 31
0.0
  0
LINE
  5
3DF8
330
1E
100
AcDbEntity
  8
7
100
AcDbLine
 10
4.222752845363817
 20
7.434568386121128
 30
0.0
 11
4.179445758749645
 21
7.438505393995146
 31
0.0
  0
LINE
  5
3DF9
330
1E
100
AcDbEntity
  8
7
100
AcDbLine
 10
4.179445758749645
 20
7.438505393995146
 30
0.0
 11
4.147949695757519
 21
7.410946338877035
 31
0.0
  0
LINE
  5
3DFA
330
1E
100
AcDbEntity
  8
7
100
AcDbLine
 10
4.407792215442558
 20
7.288899094782546
 30
0.0
 11
4.407792215442558
 21
7.33220618139672
 31
0.0
  0
LINE
  5
3DFB
330
1E
100
AcDbEntity
  8
7
100
AcDbLine
 10
4.407792215442558
 20
7.33220618139672
 30
0.0
 11
4.376296152450432
 21
7.363702244388846
 31
0.0
  0
LINE
  5
3DFC
330
1E
100
AcDbEntity
  8
7
100
AcDbLine
 10
3.636138672135471
 20
7.536930590845539
 30
0.0
 11
3.679445758749645
 21
7.64716681131798
 31
0.0
  0
LINE
  5
3DFD
330
1E
100
AcDbEntity
  8
7
100
AcDbLine
 10
3.679445758749645
 20
7.64716681131798
 30
0.0
 11
4.155823711505551
 21
7.422757362499083
 31
0.0
  0
LINE
  5
3DFE
330
1E
100
AcDbEntity
  8
7
100
AcDbLine
 10
3.033776467411062
 20
7.98968649635735
 30
0.0
 11
3.065272530403188
 21
7.958190433365224
 31
0.0
  0
LINE
  5
3DFF
330
1E
100
AcDbEntity
  8
7
100
AcDbLine
 10
3.065272530403188
 20
7.958190433365224
 30
0.0
 11
3.065272530403188
 21
7.91488334675105
 31
0.0
  0
LINE
  5
3E00
330
1E
100
AcDbEntity
  8
7
100
AcDbLine
 10
2.89598119182051
 20
7.718032953050265
 30
0.0
 11
2.911729223316573
 21
7.745592008168372
 31
0.0
  0
LINE
  5
3E01
330
1E
100
AcDbEntity
  8
7
100
AcDbLine
 10
2.911729223316573
 20
7.745592008168372
 30
0.0
 11
2.773933947726023
 21
7.808584134152624
 31
0.0
  0
LINE
  5
3E02
330
1E
100
AcDbEntity
  8
7
100
AcDbLine
 10
2.773933947726023
 20
7.808584134152624
 30
0.0
 11
2.762122924103975
 21
7.781025079034517
 31
0.0
  0
LINE
  5
3E03
330
1E
100
AcDbEntity
  8
7
100
AcDbLine
 10
1.584957569773267
 20
8.666851850688058
 30
0.0
 11
1.541650483159093
 21
8.666851850688058
 31
0.0
  0
LINE
  5
3E04
330
1E
100
AcDbEntity
  8
7
100
AcDbLine
 10
1.541650483159093
 20
8.666851850688058
 30
0.0
 11
1.506217412292951
 21
8.63929279556995
 31
0.0
  0
LINE
  5
3E05
330
1E
100
AcDbEntity
  8
7
100
AcDbLine
 10
1.769996939852006
 20
8.517245551475461
 30
0.0
 11
1.769996939852006
 21
8.56448964596365
 31
0.0
  0
LINE
  5
3E06
330
1E
100
AcDbEntity
  8
7
100
AcDbLine
 10
1.769996939852006
 20
8.56448964596365
 30
0.0
 11
1.73850087685988
 21
8.595985708955776
 31
0.0
  0
LINE
  5
3E07
330
1E
100
AcDbEntity
  8
7
100
AcDbLine
 10
0.9983433965449197
 20
8.765277047538454
 30
0.0
 11
1.041650483159093
 21
8.875513268010895
 31
0.0
  0
LINE
  5
3E08
330
1E
100
AcDbEntity
  8
7
100
AcDbLine
 10
1.041650483159093
 20
8.875513268010895
 30
0.0
 11
1.518028435914999
 21
8.655040827066013
 31
0.0
  0
LINE
  5
3E09
330
1E
100
AcDbEntity
  8
7
100
AcDbLine
 10
0.1676347351275975
 20
9.265277047538454
 30
0.0
 11
0.1991307981197234
 21
9.292836102656561
 31
0.0
  0
LINE
  5
3E0A
330
1E
100
AcDbEntity
  8
7
100
AcDbLine
 10
0.1991307981197234
 20
9.292836102656561
 30
0.0
 11
0.2424378847338975
 21
9.292836102656561
 31
0.0
  0
LINE
  5
3E0B
330
1E
100
AcDbEntity
  8
7
100
AcDbLine
 10
0.3959811918205105
 20
9.22196996092428
 30
0.0
 11
0.4274772548126365
 21
9.190473897932154
 31
0.0
  0
LINE
  5
3E0C
330
1E
100
AcDbEntity
  8
7
100
AcDbLine
 10
0.4274772548126365
 20
9.190473897932154
 30
0.0
 11
0.4274772548126365
 21
9.143229803443965
 31
0.0
  0
LINE
  5
3E0D
330
1E
100
AcDbEntity
  8
7
100
AcDbLine
 10
0.2739339477260234
 20
8.973938464861287
 30
0.0
 11
0.1361386721354716
 21
9.040867598719554
 31
0.0
  0
LINE
  5
3E0E
330
1E
100
AcDbEntity
  8
7
100
AcDbLine
 10
0.1361386721354716
 20
9.040867598719554
 30
0.0
 11
0.1361386721354716
 21
9.036930590845539
 31
0.0
  0
LINE
  5
3E0F
330
1E
100
AcDbEntity
  8
7
100
AcDbLine
 10
0.2581859162299604
 20
8.946379409743176
 30
0.0
 11
0.2699969398520068
 21
8.973938464861287
 31
0.0
  0
LINE
  5
3E10
330
1E
100
AcDbEntity
  8
7
100
AcDbLine
 10
0.2699969398520068
 20
8.973938464861287
 30
0.0
 11
0.1361386721354716
 21
9.036930590845539
 31
0.0
  0
LINE
  5
3E11
330
1E
100
AcDbEntity
  8
7
100
AcDbLine
 10
0.1361386721354716
 20
9.036930590845539
 30
0.0
 11
0.1243276485134253
 21
9.009371535727428
 31
0.0
  0
LINE
  5
3E12
330
1E
100
AcDbEntity
  8
7
100
AcDbLine
 10
-1.052837705817283
 20
9.895198307380972
 30
0.0
 11
-1.096144792431456
 21
9.899135315254987
 31
0.0
  0
LINE
  5
3E13
330
1E
100
AcDbEntity
  8
7
100
AcDbLine
 10
-1.096144792431456
 20
9.899135315254987
 30
0.0
 11
-1.131577863297597
 21
9.871576260136876
 31
0.0
  0
LINE
  5
3E14
330
1E
100
AcDbEntity
  8
7
100
AcDbLine
 10
-0.8677983357385432
 20
9.749529016042391
 30
0.0
 11
-0.8677983357385432
 21
9.792836102656561
 31
0.0
  0
LINE
  5
3E15
330
1E
100
AcDbEntity
  8
7
100
AcDbLine
 10
-0.8677983357385432
 20
9.792836102656561
 30
0.0
 11
-0.8992943987306691
 21
9.824332165648687
 31
0.0
  0
LINE
  5
3E16
330
1E
100
AcDbEntity
  8
7
100
AcDbLine
 10
-1.643388886919645
 20
9.99756051210538
 30
0.0
 11
-1.596144792431456
 21
10.1038597247038
 31
0.0
  0
LINE
  5
3E17
330
1E
100
AcDbEntity
  8
7
100
AcDbLine
 10
-1.596144792431456
 20
10.1038597247038
 30
0.0
 11
-1.11976683967555
 21
9.883387283758924
 31
0.0
  0
LINE
  5
3E18
330
1E
100
AcDbEntity
  8
7
100
AcDbLine
 10
7.018028435914999
 20
5.544804606593569
 30
0.0
 11
7.037713475285077
 21
5.49756051210538
 31
0.0
  0
LINE
  5
3E19
330
1E
100
AcDbEntity
  8
7
100
AcDbLine
 10
7.037713475285077
 20
5.49756051210538
 30
0.0
 11
7.045587491033108
 21
5.477875472735302
 31
0.0
  0
LINE
  5
3E1A
330
1E
100
AcDbEntity
  8
7
100
AcDbLine
 10
6.994406388670904
 20
5.536930590845539
 30
0.0
 11
6.998343396544919
 21
5.513308543601443
 31
0.0
  0
LINE
  5
3E1B
330
1E
100
AcDbEntity
  8
7
100
AcDbLine
 10
6.998343396544919
 20
5.513308543601443
 30
0.0
 11
7.002280404418936
 21
5.493623504231365
 31
0.0
  0
LINE
  5
3E1C
330
1E
100
AcDbEntity
  8
7
100
AcDbLine
 10
7.002280404418936
 20
5.493623504231365
 30
0.0
 11
7.006217412292951
 21
5.477875472735302
 31
0.0
  0
LINE
  5
3E1D
330
1E
100
AcDbEntity
  8
7
100
AcDbLine
 10
6.97078434142681
 20
5.532993582971524
 30
0.0
 11
6.97078434142681
 21
5.481812480609317
 31
0.0
  0
LINE
  5
3E1E
330
1E
100
AcDbEntity
  8
7
100
AcDbLine
 10
6.97078434142681
 20
5.481812480609317
 30
0.0
 11
6.97078434142681
 21
5.462127441239239
 31
0.0
  0
LINE
  5
3E1F
330
1E
100
AcDbEntity
  8
7
100
AcDbLine
 10
6.037713475285077
 20
5.532993582971524
 30
0.0
 11
6.037713475285077
 21
5.481812480609317
 31
0.0
  0
LINE
  5
3E20
330
1E
100
AcDbEntity
  8
7
100
AcDbLine
 10
6.037713475285077
 20
5.481812480609317
 30
0.0
 11
6.037713475285077
 21
5.462127441239239
 31
0.0
  0
LINE
  5
3E21
330
1E
100
AcDbEntity
  8
7
100
AcDbLine
 10
6.014091428040982
 20
5.536930590845539
 30
0.0
 11
6.010154420166967
 21
5.513308543601443
 31
0.0
  0
LINE
  5
3E22
330
1E
100
AcDbEntity
  8
7
100
AcDbLine
 10
6.010154420166967
 20
5.513308543601443
 30
0.0
 11
6.006217412292951
 21
5.493623504231365
 31
0.0
  0
LINE
  5
3E23
330
1E
100
AcDbEntity
  8
7
100
AcDbLine
 10
6.006217412292951
 20
5.493623504231365
 30
0.0
 11
6.002280404418936
 21
5.477875472735302
 31
0.0
  0
LINE
  5
3E24
330
1E
100
AcDbEntity
  8
7
100
AcDbLine
 10
6.002280404418936
 20
5.477875472735302
 30
0.0
 11
5.998343396544919
 21
5.466064449113254
 31
0.0
  0
LINE
  5
3E25
330
1E
100
AcDbEntity
  8
7
100
AcDbLine
 10
5.994406388670904
 20
5.544804606593569
 30
0.0
 11
5.97078434142681
 21
5.49756051210538
 31
0.0
  0
LINE
  5
3E26
330
1E
100
AcDbEntity
  8
7
100
AcDbLine
 10
5.97078434142681
 20
5.49756051210538
 30
0.0
 11
5.962910325678778
 21
5.477875472735302
 31
0.0
  0
LINE
  5
3E27
330
1E
100
AcDbEntity
  8
7
100
AcDbLine
 10
6.037713475285077
 20
5.462127441239239
 30
0.0
 11
5.998343396544919
 21
5.466064449113254
 31
0.0
  0
LINE
  5
3E28
330
1E
100
AcDbEntity
  8
7
100
AcDbLine
 10
5.998343396544919
 20
5.466064449113254
 30
0.0
 11
5.962910325678778
 21
5.477875472735302
 31
0.0
  0
LINE
  5
3E29
330
1E
100
AcDbEntity
  8
7
100
AcDbLine
 10
7.045587491033108
 20
5.477875472735302
 30
0.0
 11
7.010154420166967
 21
5.466064449113254
 31
0.0
  0
LINE
  5
3E2A
330
1E
100
AcDbEntity
  8
7
100
AcDbLine
 10
7.010154420166967
 20
5.466064449113254
 30
0.0
 11
6.97078434142681
 21
5.462127441239239
 31
0.0
  0
LINE
  5
3E2B
330
1E
100
AcDbEntity
  8
7
100
AcDbLine
 10
6.994406388670904
 20
5.536930590845539
 30
0.0
 11
7.018028435914999
 21
5.544804606593569
 31
0.0
  0
LINE
  5
3E2C
330
1E
100
AcDbEntity
  8
7
100
AcDbLine
 10
7.018028435914999
 20
5.544804606593569
 30
0.0
 11
15.0928315855213
 21
9.308584134152624
 31
0.0
  0
LINE
  5
3E2D
330
1E
100
AcDbEntity
  8
7
100
AcDbLine
 10
14.77393394772602
 20
9.985749488483335
 30
0.0
 11
14.7424378847339
 21
10.01724555147546
 31
0.0
  0
LINE
  5
3E2E
330
1E
100
AcDbEntity
  8
7
100
AcDbLine
 10
14.7424378847339
 20
10.01724555147546
 30
0.0
 11
14.69519379024571
 21
10.01724555147546
 31
0.0
  0
LINE
  5
3E2F
330
1E
100
AcDbEntity
  8
7
100
AcDbLine
 10
15.0928315855213
 20
9.308584134152624
 30
0.0
 11
15.11251662489137
 21
9.265277047538454
 31
0.0
  0
LINE
  5
3E30
330
1E
100
AcDbEntity
  8
7
100
AcDbLine
 10
15.11251662489137
 20
9.265277047538454
 30
0.0
 11
15.12039064063941
 21
9.245592008168372
 31
0.0
  0
LINE
  5
3E31
330
1E
100
AcDbEntity
  8
7
100
AcDbLine
 10
15.26212292410397
 20
9.308584134152624
 30
0.0
 11
15.23850087685988
 21
9.29677311053058
 31
0.0
  0
LINE
  5
3E32
330
1E
100
AcDbEntity
  8
7
100
AcDbLine
 10
15.23850087685988
 20
9.29677311053058
 30
0.0
 11
15.23062686111185
 21
9.292836102656561
 31
0.0
  0
LINE
  5
3E33
330
1E
100
AcDbEntity
  8
7
100
AcDbLine
 10
15.21487882961578
 20
9.33220618139672
 30
0.0
 11
15.22275284536382
 21
9.33220618139672
 31
0.0
  0
LINE
  5
3E34
330
1E
100
AcDbEntity
  8
7
100
AcDbLine
 10
15.22275284536382
 20
9.33220618139672
 30
0.0
 11
15.24243788473389
 21
9.344017205018769
 31
0.0
  0
LINE
  5
3E35
330
1E
100
AcDbEntity
  8
7
100
AcDbLine
 10
15.28574497134807
 20
9.316458149900658
 30
0.0
 11
15.26999693985201
 21
9.312521142026643
 31
0.0
  0
LINE
  5
3E36
330
1E
100
AcDbEntity
  8
7
100
AcDbLine
 10
15.26999693985201
 20
9.312521142026643
 30
0.0
 11
15.26212292410397
 21
9.308584134152624
 31
0.0
  0
LINE
  5
3E37
330
1E
100
AcDbEntity
  8
7
100
AcDbLine
 10
15.10464260914334
 20
9.281025079034517
 30
0.0
 11
15.12432764851342
 21
9.288899094782546
 31
0.0
  0
LINE
  5
3E38
330
1E
100
AcDbEntity
  8
7
100
AcDbLine
 10
15.12432764851342
 20
9.288899094782546
 30
0.0
 11
15.16369772725358
 21
9.308584134152624
 31
0.0
  0
LINE
  5
3E39
330
1E
100
AcDbEntity
  8
7
100
AcDbLine
 10
15.16369772725358
 20
9.308584134152624
 30
0.0
 11
15.19913079811972
 21
9.324332165648687
 31
0.0
  0
LINE
  5
3E3A
330
1E
100
AcDbEntity
  8
7
100
AcDbLine
 10
15.19913079811972
 20
9.324332165648687
 30
0.0
 11
15.21487882961578
 21
9.33220618139672
 31
0.0
  0
LINE
  5
3E3B
330
1E
100
AcDbEntity
  8
7
100
AcDbLine
 10
15.23062686111185
 20
9.292836102656561
 30
0.0
 11
15.21487882961578
 21
9.288899094782546
 31
0.0
  0
LINE
  5
3E3C
330
1E
100
AcDbEntity
  8
7
100
AcDbLine
 10
15.21487882961578
 20
9.288899094782546
 30
0.0
 11
15.17944575874964
 21
9.269214055412469
 31
0.0
  0
LINE
  5
3E3D
330
1E
100
AcDbEntity
  8
7
100
AcDbLine
 10
15.17944575874964
 20
9.269214055412469
 30
0.0
 11
15.1440126878835
 21
9.253466023916406
 31
0.0
  0
LINE
  5
3E3E
330
1E
100
AcDbEntity
  8
7
100
AcDbLine
 10
15.1440126878835
 20
9.253466023916406
 30
0.0
 11
15.12432764851342
 21
9.245592008168372
 31
0.0
  0
LINE
  5
3E3F
330
1E
100
AcDbEntity
  8
7
100
AcDbLine
 10
15.24243788473389
 20
9.344017205018769
 30
0.0
 11
15.26212292410397
 21
9.351891220766798
 31
0.0
  0
LINE
  5
3E40
330
1E
100
AcDbEntity
  8
7
100
AcDbLine
 10
15.26212292410397
 20
9.351891220766798
 30
0.0
 11
15.26999693985201
 21
9.351891220766798
 31
0.0
  0
LINE
  5
3E41
330
1E
100
AcDbEntity
  8
7
100
AcDbLine
 10
15.30936701859216
 20
9.316458149900658
 30
0.0
 11
15.29755599497011
 21
9.316458149900658
 31
0.0
  0
LINE
  5
3E42
330
1E
100
AcDbEntity
  8
7
100
AcDbLine
 10
15.29755599497011
 20
9.316458149900658
 30
0.0
 11
15.28574497134807
 21
9.312521142026643
 31
0.0
  0
LINE
  5
3E43
330
1E
100
AcDbEntity
  8
7
100
AcDbLine
 10
15.30936701859216
 20
9.355828228640813
 30
0.0
 11
15.28968197922208
 21
9.355828228640813
 31
0.0
  0
LINE
  5
3E44
330
1E
100
AcDbEntity
  8
7
100
AcDbLine
 10
15.28968197922208
 20
9.355828228640813
 30
0.0
 11
15.26605993197799
 21
9.351891220766798
 31
0.0
  0
LINE
  5
3E45
330
1E
100
AcDbEntity
  8
7
100
AcDbLine
 10
16.00621741229295
 20
9.320395157774672
 30
0.0
 11
15.98653237292287
 21
9.320395157774672
 31
0.0
  0
LINE
  5
3E46
330
1E
100
AcDbEntity
  8
7
100
AcDbLine
 10
15.98653237292287
 20
9.320395157774672
 30
0.0
 11
15.9432252863087
 21
9.320395157774672
 31
0.0
  0
LINE
  5
3E47
330
1E
100
AcDbEntity
  8
7
100
AcDbLine
 10
15.9432252863087
 20
9.359765236514832
 30
0.0
 11
15.98653237292287
 21
9.359765236514832
 31
0.0
  0
LINE
  5
3E48
330
1E
100
AcDbEntity
  8
7
100
AcDbLine
 10
15.98653237292287
 20
9.359765236514832
 30
0.0
 11
16.00621741229295
 21
9.359765236514832
 31
0.0
  0
LINE
  5
3E49
330
1E
100
AcDbEntity
  8
7
100
AcDbLine
 10
6.97078434142681
 20
5.532993582971524
 30
0.0
 11
6.994406388670904
 21
5.536930590845539
 31
0.0
  0
LINE
  5
3E4A
330
1E
100
AcDbEntity
  8
7
100
AcDbLine
 10
6.994406388670904
 20
5.536930590845539
 30
0.0
 11
6.817241034340195
 21
6.344017205018769
 31
0.0
  0
LINE
  5
3E4B
330
1E
100
AcDbEntity
  8
7
100
AcDbLine
 10
6.675508750875629
 20
6.277088071160498
 30
0.0
 11
6.817241034340195
 21
6.344017205018769
 31
0.0
  0
LINE
  5
3E4C
330
1E
100
AcDbEntity
  8
7
100
AcDbLine
 10
6.817241034340195
 20
6.344017205018769
 30
0.0
 11
14.69519379024571
 21
10.01724555147546
 31
0.0
  0
LINE
  5
3E4D
330
1E
100
AcDbEntity
  8
7
100
AcDbLine
 10
-2.257562115266101
 20
9.351891220766798
 30
0.0
 11
-2.241814083770038
 21
9.347954212892783
 31
0.0
  0
LINE
  5
3E4E
330
1E
100
AcDbEntity
  8
7
100
AcDbLine
 10
-2.241814083770038
 20
9.347954212892783
 30
0.0
 11
-2.233940068022007
 21
9.344017205018769
 31
0.0
  0
LINE
  5
3E4F
330
1E
100
AcDbEntity
  8
7
100
AcDbLine
 10
-2.24968809951807
 20
9.308584134152624
 30
0.0
 11
-2.269373138888149
 21
9.312521142026643
 31
0.0
  0
LINE
  5
3E50
330
1E
100
AcDbEntity
  8
7
100
AcDbLine
 10
-2.269373138888149
 20
9.312521142026643
 30
0.0
 11
-2.277247154636181
 21
9.316458149900658
 31
0.0
  0
LINE
  5
3E51
330
1E
100
AcDbEntity
  8
7
100
AcDbLine
 10
-2.257562115266101
 20
9.351891220766798
 30
0.0
 11
-2.281184162510196
 21
9.355828228640813
 31
0.0
  0
LINE
  5
3E52
330
1E
100
AcDbEntity
  8
7
100
AcDbLine
 10
-2.281184162510196
 20
9.355828228640813
 30
0.0
 11
-2.300869201880275
 21
9.355828228640813
 31
0.0
  0
LINE
  5
3E53
330
1E
100
AcDbEntity
  8
7
100
AcDbLine
 10
-2.277247154636181
 20
9.312521142026643
 30
0.0
 11
-2.289058178258228
 21
9.316458149900658
 31
0.0
  0
LINE
  5
3E54
330
1E
100
AcDbEntity
  8
7
100
AcDbLine
 10
-2.289058178258228
 20
9.316458149900658
 30
0.0
 11
-2.300869201880275
 21
9.316458149900658
 31
0.0
  0
LINE
  5
3E55
330
1E
100
AcDbEntity
  8
7
100
AcDbLine
 10
-2.93472746959681
 20
9.320395157774672
 30
0.0
 11
-2.978034556210984
 21
9.320395157774672
 31
0.0
  0
LINE
  5
3E56
330
1E
100
AcDbEntity
  8
7
100
AcDbLine
 10
-2.978034556210984
 20
9.320395157774672
 30
0.0
 11
-2.993782587707046
 21
9.320395157774672
 31
0.0
  0
LINE
  5
3E57
330
1E
100
AcDbEntity
  8
7
100
AcDbLine
 10
-2.993782587707046
 20
9.320395157774672
 30
0.0
 11
-2.993782587707046
 21
9.359765236514832
 31
0.0
  0
LINE
  5
3E58
330
1E
100
AcDbEntity
  8
7
100
AcDbLine
 10
-2.993782587707046
 20
9.359765236514832
 30
0.0
 11
-2.978034556210984
 21
9.359765236514832
 31
0.0
  0
LINE
  5
3E59
330
1E
100
AcDbEntity
  8
7
100
AcDbLine
 10
-2.978034556210984
 20
9.359765236514832
 30
0.0
 11
-2.93472746959681
 21
9.359765236514832
 31
0.0
  0
LINE
  5
3E5A
330
1E
100
AcDbEntity
  8
7
100
AcDbLine
 10
-2.111892823927519
 20
9.245592008168372
 30
0.0
 11
-2.100081800305471
 21
9.265277047538454
 31
0.0
  0
LINE
  5
3E5B
330
1E
100
AcDbEntity
  8
7
100
AcDbLine
 10
-2.100081800305471
 20
9.265277047538454
 30
0.0
 11
-2.080396760935393
 21
9.308584134152624
 31
0.0
  0
LINE
  5
3E5C
330
1E
100
AcDbEntity
  8
7
100
AcDbLine
 10
-2.115829831801534
 20
9.288899094782546
 30
0.0
 11
-2.155199910541692
 21
9.308584134152624
 31
0.0
  0
LINE
  5
3E5D
330
1E
100
AcDbEntity
  8
7
100
AcDbLine
 10
-2.155199910541692
 20
9.308584134152624
 30
0.0
 11
-2.190632981407834
 21
9.324332165648687
 31
0.0
  0
LINE
  5
3E5E
330
1E
100
AcDbEntity
  8
7
100
AcDbLine
 10
-2.190632981407834
 20
9.324332165648687
 30
0.0
 11
-2.202444005029881
 21
9.33220618139672
 31
0.0
  0
LINE
  5
3E5F
330
1E
100
AcDbEntity
  8
7
100
AcDbLine
 10
-2.233940068022007
 20
9.344017205018769
 30
0.0
 11
-2.210318020777912
 21
9.33220618139672
 31
0.0
  0
LINE
  5
3E60
330
1E
100
AcDbEntity
  8
7
100
AcDbLine
 10
-2.210318020777912
 20
9.33220618139672
 30
0.0
 11
-2.202444005029881
 21
9.33220618139672
 31
0.0
  0
LINE
  5
3E61
330
1E
100
AcDbEntity
  8
7
100
AcDbLine
 10
-2.222129044399959
 20
9.292836102656561
 30
0.0
 11
-2.230003060147991
 21
9.29677311053058
 31
0.0
  0
LINE
  5
3E62
330
1E
100
AcDbEntity
  8
7
100
AcDbLine
 10
-2.230003060147991
 20
9.29677311053058
 30
0.0
 11
-2.24968809951807
 21
9.308584134152624
 31
0.0
  0
LINE
  5
3E63
330
1E
100
AcDbEntity
  8
7
100
AcDbLine
 10
-2.222129044399959
 20
9.292836102656561
 30
0.0
 11
-2.206381012903896
 21
9.288899094782546
 31
0.0
  0
LINE
  5
3E64
330
1E
100
AcDbEntity
  8
7
100
AcDbLine
 10
-2.206381012903896
 20
9.288899094782546
 30
0.0
 11
-2.170947942037755
 21
9.269214055412469
 31
0.0
  0
LINE
  5
3E65
330
1E
100
AcDbEntity
  8
7
100
AcDbLine
 10
-2.170947942037755
 20
9.269214055412469
 30
0.0
 11
-2.135514871171613
 21
9.253466023916406
 31
0.0
  0
LINE
  5
3E66
330
1E
100
AcDbEntity
  8
7
100
AcDbLine
 10
-2.135514871171613
 20
9.253466023916406
 30
0.0
 11
-2.111892823927519
 21
9.245592008168372
 31
0.0
  0
LINE
  5
3E67
330
1E
100
AcDbEntity
  8
7
100
AcDbLine
 10
-1.163073926289723
 20
9.655040827066013
 30
0.0
 11
-1.009530619203109
 21
9.584174685333728
 31
0.0
  0
LINE
  5
3E68
330
1E
100
AcDbEntity
  8
7
100
AcDbLine
 10
-1.009530619203109
 20
9.584174685333728
 30
0.0
 11
-1.104018808179487
 21
9.387324291632939
 31
0.0
  0
LINE
  5
3E69
330
1E
100
AcDbEntity
  8
7
100
AcDbLine
 10
-1.104018808179487
 20
9.387324291632939
 30
0.0
 11
-1.257562115266101
 21
9.458190433365224
 31
0.0
  0
LINE
  5
3E6A
330
1E
100
AcDbEntity
  8
7
100
AcDbLine
 10
-1.257562115266101
 20
9.458190433365224
 30
0.0
 11
-1.163073926289723
 21
9.655040827066013
 31
0.0
  0
LINE
  5
3E6B
330
1E
100
AcDbEntity
  8
7
100
AcDbLine
 10
1.474721349300825
 20
8.426694370373098
 30
0.0
 11
1.62826465638744
 21
8.355828228640813
 31
0.0
  0
LINE
  5
3E6C
330
1E
100
AcDbEntity
  8
7
100
AcDbLine
 10
1.62826465638744
 20
8.355828228640813
 30
0.0
 11
1.533776467411062
 21
8.155040827066013
 31
0.0
  0
LINE
  5
3E6D
330
1E
100
AcDbEntity
  8
7
100
AcDbLine
 10
1.533776467411062
 20
8.155040827066013
 30
0.0
 11
1.380233160324447
 21
8.225906968798295
 31
0.0
  0
LINE
  5
3E6E
330
1E
100
AcDbEntity
  8
7
100
AcDbLine
 10
1.380233160324447
 20
8.225906968798295
 30
0.0
 11
1.474721349300825
 21
8.426694370373098
 31
0.0
  0
LINE
  5
3E6F
330
1E
100
AcDbEntity
  8
7
100
AcDbLine
 10
0.1322016642614567
 20
9.052678622341602
 30
0.0
 11
0.2857449713480697
 21
8.981812480609317
 31
0.0
  0
LINE
  5
3E70
330
1E
100
AcDbEntity
  8
7
100
AcDbLine
 10
0.2857449713480697
 20
8.981812480609317
 30
0.0
 11
0.191256782371692
 21
8.781025079034517
 31
0.0
  0
LINE
  5
3E71
330
1E
100
AcDbEntity
  8
7
100
AcDbLine
 10
0.191256782371692
 20
8.781025079034517
 30
0.0
 11
0.0377134752850799
 21
8.851891220766798
 31
0.0
  0
LINE
  5
3E72
330
1E
100
AcDbEntity
  8
7
100
AcDbLine
 10
0.0377134752850799
 20
8.851891220766798
 30
0.0
 11
0.1322016642614567
 21
9.052678622341602
 31
0.0
  0
LINE
  5
3E73
330
1E
100
AcDbEntity
  8
7
100
AcDbLine
 10
4.112516624891377
 20
7.194410905806169
 30
0.0
 11
4.266059931977991
 21
7.123544764073884
 31
0.0
  0
LINE
  5
3E74
330
1E
100
AcDbEntity
  8
7
100
AcDbLine
 10
4.266059931977991
 20
7.123544764073884
 30
0.0
 11
4.171571743001614
 21
6.926694370373098
 31
0.0
  0
LINE
  5
3E75
330
1E
100
AcDbEntity
  8
7
100
AcDbLine
 10
4.171571743001614
 20
6.926694370373098
 30
0.0
 11
4.018028435914999
 21
6.99756051210538
 31
0.0
  0
LINE
  5
3E76
330
1E
100
AcDbEntity
  8
7
100
AcDbLine
 10
4.018028435914999
 20
6.99756051210538
 30
0.0
 11
4.112516624891377
 21
7.194410905806169
 31
0.0
  0
LINE
  5
3E77
330
1E
100
AcDbEntity
  8
7
100
AcDbLine
 10
2.829052057962243
 20
7.552678622341602
 30
0.0
 11
2.675508750875629
 21
7.623544764073884
 31
0.0
  0
LINE
  5
3E78
330
1E
100
AcDbEntity
  8
7
100
AcDbLine
 10
2.675508750875629
 20
7.623544764073884
 30
0.0
 11
2.769996939852006
 21
7.820395157774672
 31
0.0
  0
LINE
  5
3E79
330
1E
100
AcDbEntity
  8
7
100
AcDbLine
 10
2.769996939852006
 20
7.820395157774672
 30
0.0
 11
2.923540246938621
 21
7.749529016042391
 31
0.0
  0
LINE
  5
3E7A
330
1E
100
AcDbEntity
  8
7
100
AcDbLine
 10
2.923540246938621
 20
7.749529016042391
 30
0.0
 11
2.829052057962243
 21
7.552678622341602
 31
0.0
  0
LINE
  5
3E7B
330
1E
100
AcDbEntity
  8
7
100
AcDbLine
 10
5.407792215442558
 20
6.592048701081758
 30
0.0
 11
5.561335522529173
 21
6.521182559349476
 31
0.0
  0
LINE
  5
3E7C
330
1E
100
AcDbEntity
  8
7
100
AcDbLine
 10
5.561335522529173
 20
6.521182559349476
 30
0.0
 11
5.47078434142681
 21
6.320395157774672
 31
0.0
  0
LINE
  5
3E7D
330
1E
100
AcDbEntity
  8
7
100
AcDbLine
 10
5.47078434142681
 20
6.320395157774672
 30
0.0
 11
5.31330402646618
 21
6.391261299506957
 31
0.0
  0
LINE
  5
3E7E
330
1E
100
AcDbEntity
  8
7
100
AcDbLine
 10
5.31330402646618
 20
6.391261299506957
 30
0.0
 11
5.407792215442558
 21
6.592048701081758
 31
0.0
  0
LINE
  5
3E7F
330
1E
100
AcDbEntity
  8
7
100
AcDbLine
 10
6.195193790245708
 20
6.344017205018769
 30
0.0
 11
-1.686695973533818
 21
10.01724555147546
 31
0.0
  0
LINE
  5
3E80
330
1E
100
AcDbEntity
  8
7
100
AcDbLine
 10
-1.686695973533818
 20
10.01724555147546
 30
0.0
 11
-1.730003060147991
 21
10.01724555147546
 31
0.0
  0
LINE
  5
3E81
330
1E
100
AcDbEntity
  8
7
100
AcDbLine
 10
-2.080396760935393
 20
9.308584134152624
 30
0.0
 11
5.994406388670904
 21
5.544804606593569
 31
0.0
  0
LINE
  5
3E82
330
1E
100
AcDbEntity
  8
7
100
AcDbLine
 10
5.994406388670904
 20
5.544804606593569
 30
0.0
 11
6.014091428040982
 21
5.536930590845539
 31
0.0
  0
LINE
  5
3E83
330
1E
100
AcDbEntity
  8
7
100
AcDbLine
 10
12.09676859339531
 20
7.83220618139672
 30
0.0
 11
12.07314654615122
 21
7.820395157774672
 31
0.0
  0
LINE
  5
3E84
330
1E
100
AcDbEntity
  8
7
100
AcDbLine
 10
12.07314654615122
 20
7.820395157774672
 30
0.0
 11
12.05346150678114
 21
7.812521142026643
 31
0.0
  0
ENDSEC
  0
SECTION
  2
OBJECTS
  0
DICTIONARY
  5
C
330
0
100
AcDbDictionary
  3
ACAD_GROUP
350
D
  3
ACAD_LAYOUT
350
19
  3
ACAD_MLINESTYLE
350
16
  3
ACAD_PLOTSETTINGS
350
18
1001
ACAD
1000
TREAT_AS_HARD
1070
     0
  0
DICTIONARY
  5
525B
330
1E
100
AcDbDictionary
  3
ACAD_LAYOUTSELFREF
350
5294
1001
ACAD
1000
TREAT_AS_HARD
1070
     1
  0
DICTIONARY
  5
525D
330
1A
100
AcDbDictionary
  3
ACAD_LAYOUTSELFREF
350
5293
1001
ACAD
1000
TREAT_AS_HARD
1070
     1
  0
DICTIONARY
  5
D
102
{ACAD_REACTORS
330
C
102
}
330
C
100
AcDbDictionary
1001
ACAD
1000
TREAT_AS_HARD
1070
     0
  0
DICTIONARY
  5
19
102
{ACAD_REACTORS
330
C
102
}
330
C
100
AcDbDictionary
1001
ACAD
1000
TREAT_AS_HARD
1070
     0
  0
DICTIONARY
  5
16
102
{ACAD_REACTORS
330
C
102
}
330
C
100
AcDbDictionary
  3
STANDARD
350
17
1001
ACAD
1000
TREAT_AS_HARD
1070
     0
  0
DICTIONARY
  5
18
102
{ACAD_REACTORS
330
C
102
}
330
C
100
AcDbDictionary
1001
ACAD
1000
TREAT_AS_HARD
1070
     0
  0
XRECORD
  5
5294
102
{ACAD_REACTORS
330
525B
102
}
330
525B
100
AcDbXrecord
340
1E
  0
XRECORD
  5
5293
102
{ACAD_REACTORS
330
525D
102
}
330
525D
100
AcDbXrecord
340
1A
  0
MLINESTYLE
  5
17
102
{ACAD_REACTORS
330
16
102
}
330
16
100
AcDbMlineStyle
  2
STANDARD
 70
     0
  3

 62
   256
 51
90.0
 52
90.0
 71
     2
 49
0.5
 62
   256
  6
BYLAYER
 49
-0.5
 62
   256
  6
BYLAYER
  0
ENDSEC
  0
EOF
