999
DXF file: C:\Users\sesa63760\Dev\_Creo\CAD\MCADID0005510_3D-CAD\drw0001_5.dxf
999
Pro/ENGINEER 2019471 by Parametric Technology Corporation
  0
SECTION
  2
HEADER
  9
$ACADVER
  1
AC1024
  9
$DWGCODEPAGE
  3
ANSI_1252
  9
$EXTMAX
 10
15.4972239592
 20
21.9175024566
 30
0.0
  9
$EXTMIN
 10
0.0
 20
0.0
 30
0.0
  9
$LIMMIN
 10
0.0
 20
0.0
  9
$LIMMAX
 10
15.4972239592
 20
21.9175024566
  9
$VIEWCTR
 10
7.7486119796
 20
10.9587512283
  9
$VIEWSIZE
 40
21.9175024566
  9
$CLAYER
  8
0
  9
$LTSCALE
 40
1.4286964564
  9
$CELTYPE
  6
BYLAYER
  9
$DIMSCALE
 40
1.0
  9
$DIMASZ
 40
0.1844907614
  9
$DIMEXO
 40
1.0
  9
$DIMDLI
 40
0.9870993699
  9
$DIMEXE
 40
1.0
  9
$DIMCEN
 40
0.2337866929
  9
$DIMLFAC
 40
1.0
  9
$DIMBLK
  1
_FILLED
  9
$DIMALT
 70
0
  9
$DIMALTF
 40
0.0393700787
  9
$DIMTXT
 40
0.258287066
  9
$DIMTOL
 70
1
  9
$DIMLIM
 70
0
  9
$DIMTFAC
 40
1.0
  9
$DIMTP
 40
0.01
  9
$DIMTM
 40
0.01
  9
$DIMGAP
 40
0.625
  9
$DIMDSEP
 70
46
  9
$AUNITS
 70
0
  9
$PDMODE
 70
3
  9
$PDSIZE
 40
0.3125
  9
$HANDSEED
  5
2B0
  9
$TILEMODE
 70
1
  9
$MEASUREMENT
 70
1
  9
$INSUNITS
 70
4
  0
ENDSEC
  0
SECTION
  2
CLASSES
  0
CLASS
  1
ACDBDICTIONARYWDFLT
  2
AcDbDictionaryWithDefault
  3
AutoCAD 2000
 90
0
 91
1
280
0
281
0
  0
CLASS
  1
ACDBPLACEHOLDER
  2
AcDbPlaceHolder
  3
AutoCAD 2000
 90
0
 91
1
280
0
281
0
  0
CLASS
  1
LAYOUT
  2
AcDbLayout
  3
AutoCAD 2000
 90
0
 91
0
280
0
281
0
  0
ENDSEC
  0
SECTION
  2
TABLES
  0
TABLE
  2
VPORT
  5
8
100
AcDbSymbolTable
 70
2
  0
VPORT
  5
1F4
100
AcDbSymbolTableRecord
100
AcDbViewportTableRecord
  2
*ACTIVE
 70
0
 10
0.0
 20
0.0
 11
1.0
 21
1.0
 12
7.7486119796
 22
10.9587512283
 13
0.0
 23
0.0
 14
1.0
 24
1.0
 15
0.0
 25
0.0
 16
0.0
 26
0.0
 36
1.0
 17
0.0
 27
0.0
 37
0.0
 40
21.9175024566
 41
0.7070707071
 42
50.0
 43
0.0
 44
0.0
 50
0.0
 51
0.0
 71
0
 72
100
 73
1
 74
1
 75
0
 76
0
 77
0
 78
0
  0
ENDTAB
  0
TABLE
  2
LTYPE
  5
5
100
AcDbSymbolTable
 70
6
  0
LTYPE
  5
14
100
AcDbSymbolTableRecord
100
AcDbLinetypeTableRecord
  2
BYBLOCK
 70
0
  3

 72
65
 73
0
 40
0.0
  0
LTYPE
  5
15
100
AcDbSymbolTableRecord
100
AcDbLinetypeTableRecord
  2
BYLAYER
 70
0
  3

 72
65
 73
0
 40
0.0
  0
LTYPE
  5
16
100
AcDbSymbolTableRecord
100
AcDbLinetypeTableRecord
  2
CONTINUOUS
 70
64
  3
Solid line
 72
65
 73
0
 40
0.0
  0
LTYPE
  5
1F5
100
AcDbSymbolTableRecord
100
AcDbLinetypeTableRecord
  2
CENTER
 70
64
  3
____ _ ____ _ ____ _ ____ _ ____ _ ____ _ ____
 72
65
 73
4
 40
0.6
 49
0.375
 74
0
 49
-0.075
 74
0
 49
0.075
 74
0
 49
-0.075
 74
0
  0
LTYPE
  5
1F6
100
AcDbSymbolTableRecord
100
AcDbLinetypeTableRecord
  2
HIDDEN
 70
64
  3
- - - - - - - - - - - - - - - - - - - -
 72
65
 73
2
 40
0.2
 49
0.1
 74
0
 49
-0.1
 74
0
  0
LTYPE
  5
1F7
100
AcDbSymbolTableRecord
100
AcDbLinetypeTableRecord
  2
PHANTOM
 70
64
  3
_____ _ _ _____ _ _ _____ _ _ _____
 72
65
 73
6
 40
0.8
 49
0.45
 74
0
 49
-0.05
 74
0
 49
0.1
 74
0
 49
-0.05
 74
0
 49
0.1
 74
0
 49
-0.05
 74
0
  0
LTYPE
  5
1F8
100
AcDbSymbolTableRecord
100
AcDbLinetypeTableRecord
  2
DOT
 70
64
  3
. . . . . . . . . . . . . . . . . . . .
 72
65
 73
2
 40
0.2
 49
0.1
 74
0
 49
-0.1
 74
0
  0
LTYPE
  5
1F9
100
AcDbSymbolTableRecord
100
AcDbLinetypeTableRecord
  2
DASHED
 70
64
  3
- - - - - - - - - - - - - - - - - - - -
 72
65
 73
2
 40
0.2
 49
0.1
 74
0
 49
-0.1
 74
0
  0
ENDTAB
  0
TABLE
  2
LAYER
  5
2
100
AcDbSymbolTable
 70
36
  0
LAYER
  5
10
100
AcDbSymbolTableRecord
100
AcDbLayerTableRecord
  2
0
 70
0
 62
7
  6
CONTINUOUS
370
-3
390
F
  0
LAYER
  5
1FA
100
AcDbSymbolTableRecord
100
AcDbLayerTableRecord
  2
DEFAULT_1
 70
0
 62
7
  6
CENTER
370
-3
390
F
  0
LAYER
  5
1FB
100
AcDbSymbolTableRecord
100
AcDbLayerTableRecord
  2
DEFAULT_2
 70
0
 62
7
  6
HIDDEN
370
-3
390
F
  0
LAYER
  5
1FC
100
AcDbSymbolTableRecord
100
AcDbLayerTableRecord
  2
DEFAULT_3
 70
0
 62
7
  6
PHANTOM
370
-3
390
F
  0
LAYER
  5
1FD
100
AcDbSymbolTableRecord
100
AcDbLayerTableRecord
  2
00_COMPONENTS
 70
0
 62
7
  6
CONTINUOUS
370
-3
390
F
  0
LAYER
  5
1FE
100
AcDbSymbolTableRecord
100
AcDbLayerTableRecord
  2
01_1_DEFAULT_DATUMS
 70
0
 62
7
  6
CONTINUOUS
370
-3
390
F
  0
LAYER
  5
1FF
100
AcDbSymbolTableRecord
100
AcDbLayerTableRecord
  2
01_PLANES
 70
0
 62
7
  6
CONTINUOUS
370
-3
390
F
  0
LAYER
  5
200
100
AcDbSymbolTableRecord
100
AcDbLayerTableRecord
  2
02_COORD_SYS
 70
0
 62
7
  6
CONTINUOUS
370
-3
390
F
  0
LAYER
  5
201
100
AcDbSymbolTableRecord
100
AcDbLayerTableRecord
  2
03_AXES
 70
0
 62
7
  6
CONTINUOUS
370
-3
390
F
  0
LAYER
  5
202
100
AcDbSymbolTableRecord
100
AcDbLayerTableRecord
  2
04_POINTS
 70
0
 62
7
  6
CONTINUOUS
370
-3
390
F
  0
LAYER
  5
203
100
AcDbSymbolTableRecord
100
AcDbLayerTableRecord
  2
05_CURVES
 70
0
 62
7
  6
CONTINUOUS
370
-3
390
F
  0
LAYER
  5
204
100
AcDbSymbolTableRecord
100
AcDbLayerTableRecord
  2
06_SURFS
 70
0
 62
7
  6
CONTINUOUS
370
-3
390
F
  0
LAYER
  5
205
100
AcDbSymbolTableRecord
100
AcDbLayerTableRecord
  2
07_COSMETICS
 70
0
 62
7
  6
CONTINUOUS
370
-3
390
F
  0
LAYER
  5
206
100
AcDbSymbolTableRecord
100
AcDbLayerTableRecord
  2
10_NOTES
 70
0
 62
7
  6
CONTINUOUS
370
-3
390
F
  0
LAYER
  5
207
100
AcDbSymbolTableRecord
100
AcDbLayerTableRecord
  2
11_NOTES_PUB
 70
0
 62
7
  6
CONTINUOUS
370
-3
390
F
  0
LAYER
  5
208
100
AcDbSymbolTableRecord
100
AcDbLayerTableRecord
  2
13_REF_GTOL
 70
0
 62
7
  6
CONTINUOUS
370
-3
390
F
  0
LAYER
  5
209
100
AcDbSymbolTableRecord
100
AcDbLayerTableRecord
  2
16_MISC
 70
0
 62
7
  6
CONTINUOUS
370
-3
390
F
  0
LAYER
  5
20A
100
AcDbSymbolTableRecord
100
AcDbLayerTableRecord
  2
17_NO_PRINT
 70
0
 62
7
  6
CONTINUOUS
370
-3
390
F
  0
LAYER
  5
20B
100
AcDbSymbolTableRecord
100
AcDbLayerTableRecord
  2
18_DATUM_CAMS_JOINTS
 70
0
 62
7
  6
CONTINUOUS
370
-3
390
F
  0
LAYER
  5
20C
100
AcDbSymbolTableRecord
100
AcDbLayerTableRecord
  2
19_DATUM_FUNCTIONAL
 70
0
 62
7
  6
CONTINUOUS
370
-3
390
F
  0
LAYER
  5
20D
100
AcDbSymbolTableRecord
100
AcDbLayerTableRecord
  2
20_DATUM_KINEMATIC_SCHEME
 70
0
 62
7
  6
CONTINUOUS
370
-3
390
F
  0
ENDTAB
  0
TABLE
  2
STYLE
  5
3
100
AcDbSymbolTable
 70
1
  0
STYLE
  5
11
100
AcDbSymbolTableRecord
100
AcDbTextStyleTableRecord
  2
STANDARD
 70
0
 40
0.0
 41
1.0
 50
0.0
 71
0
 42
0.2
  3
ARIAL.TTF
  4

  0
STYLE
  5
20E
100
AcDbSymbolTableRecord
100
AcDbTextStyleTableRecord
  2
TEXTSTYLE_1
 70
0
 40
0.0
 41
0.8
 50
0.0
 71
0
 42
0.2
  3
gdt
  4

  0
ENDTAB
  0
TABLE
  2
VIEW
  5
6
100
AcDbSymbolTable
 70
0
  0
ENDTAB
  0
TABLE
  2
UCS
  5
7
100
AcDbSymbolTable
 70
0
  0
ENDTAB
  0
TABLE
  2
APPID
  5
9
100
AcDbSymbolTable
 70
1
  0
APPID
  5
20F
100
AcDbSymbolTableRecord
100
AcDbRegAppTableRecord
  2
ACAD
 70
0
  0
ENDTAB
  0
TABLE
  2
BLOCK_RECORD
  5
1
100
AcDbSymbolTable
 70
0
  0
BLOCK_RECORD
  5
210
100
AcDbSymbolTableRecord
100
AcDbBlockTableRecord
  2
*Model_Space
  0
BLOCK_RECORD
  5
211
100
AcDbSymbolTableRecord
100
AcDbBlockTableRecord
  2
*Paper_Space
  0
BLOCK_RECORD
  5
212
100
AcDbSymbolTableRecord
100
AcDbBlockTableRecord
  2
_FILLED
  0
ENDTAB
  0
TABLE
  2
DIMSTYLE
  5
A
100
AcDbSymbolTable
 70
1
100
AcDbDimStyleTable
 71
0
  0
DIMSTYLE
105
213
100
AcDbSymbolTableRecord
100
AcDbDimStyleTableRecord
  2
STANDARD
 70
0
  3

  4

 40
1.0
 41
0.1844907614
 42
1.0
 43
0.38
 44
1.0
 45
0.0
 46
0.0
 47
0.01
 48
0.01
140
0.258287066
141
0.09
142
0.0
143
25.4
144
1.0
145
0.0
146
1.0
147
0.625
 71
1
 72
0
 73
0
 74
0
 75
0
 76
0
 77
1
 78
8
 79
2
170
0
171
1
172
0
173
0
174
0
175
0
176
0
177
0
178
0
270
2
179
2
271
2
272
2
273
2
274
2
275
0
280
0
281
0
282
0
283
1
284
8
285
0
286
0
287
3
288
0
340
11
278
46
341
212
342
212
343
212
344
212
  0
ENDTAB
  0
ENDSEC
  0
SECTION
  2
BLOCKS
  0
BLOCK
  5
20
100
AcDbEntity
  8
0
100
AcDbBlockBegin
  2
*Model_Space
 70
0
 10
0.0
 20
0.0
 30
0.0
  3
*Model_Space
  1

  0
ENDBLK
  5
21
100
AcDbEntity
  8
0
100
AcDbBlockEnd
  0
BLOCK
  5
1C
100
AcDbEntity
  8
0
100
AcDbBlockBegin
  2
*Paper_Space
 70
0
 10
0.0
 20
0.0
 30
0.0
  3
*Paper_Space
  1

  0
ENDBLK
  5
1D
100
AcDbEntity
  8
0
100
AcDbBlockEnd
  0
BLOCK
  5
214
100
AcDbEntity
  8
0
100
AcDbBlockBegin
  2
_FILLED
 70
64
 10
0.0
 20
0.0
  3
_FILLED
  1

  0
SOLID
  5
215
100
AcDbEntity
  8
0
  6
BYBLOCK
 62
0
100
AcDbTrace
 10
0.0
 20
0.0
 11
-1.0
 21
0.25
 12
-1.0
 22
-0.25
 13
-1.0
 23
-0.25
  0
ENDBLK
  5
216
100
AcDbEntity
  8
0
  6
BYBLOCK
 62
0
100
AcDbBlockEnd
  0
ENDSEC
  0
SECTION
  2
ENTITIES
  0
LINE
  5
217
100
AcDbEntity
  8
0
100
AcDbLine
 62
7
  6
BYLAYER
 10
2.619750379
 20
12.8379869211
 11
2.6197461147
 21
12.8379736796
  0
LINE
  5
218
100
AcDbEntity
  8
0
100
AcDbLine
 62
7
  6
BYLAYER
 10
4.5973228104
 20
15.5680218065
 11
4.5978661938
 21
15.5684162945
  0
LINE
  5
219
100
AcDbEntity
  8
0
100
AcDbLine
 62
7
  6
BYLAYER
 10
7.8060266582
 20
5.6996903389
 11
7.8060354831
 21
5.6996903619
  0
LINE
  5
21A
100
AcDbEntity
  8
0
100
AcDbLine
 62
7
  6
BYLAYER
 10
4.6010015345
 20
6.7409561325
 11
4.6008745485
 21
6.741047879
  0
LINE
  5
21B
100
AcDbEntity
  8
0
100
AcDbLine
 62
7
  6
BYLAYER
 10
2.619749929
 20
9.4677351188
 11
2.6197525485
 21
9.4677271279
  0
LINE
  5
21C
100
AcDbEntity
  8
0
100
AcDbLine
 62
7
  6
BYLAYER
 10
5.6493461016
 20
14.1580641145
 11
5.5079247453
 21
14.0166427583
  0
LINE
  5
21D
100
AcDbEntity
  8
0
100
AcDbLine
 62
7
  6
BYLAYER
 10
4.9422393204
 20
13.4509573333
 11
4.8008179641
 21
13.3095359771
  0
LINE
  5
21E
100
AcDbEntity
  8
0
100
AcDbLine
 62
7
  6
BYLAYER
 10
9.3060217836
 20
15.8165498207
 11
9.7530231273
 21
16.0945067282
  0
LINE
  5
21F
100
AcDbEntity
  8
0
100
AcDbLine
 62
7
  6
BYLAYER
 10
6.3060231356
 20
15.9028602945
 11
6.3060231356
 21
15.6334431644
  0
LINE
  5
220
100
AcDbEntity
  8
0
100
AcDbLine
 62
7
  6
BYLAYER
 10
6.7060217842
 20
15.9028602945
 11
6.7060217842
 21
15.8528602945
  0
LINE
  5
221
100
AcDbEntity
  8
0
100
AcDbLine
 62
7
  6
BYLAYER
 10
4.4423700241
 20
13.6679839171
 11
4.8008179641
 21
13.3095359771
  0
LINE
  5
222
100
AcDbEntity
  8
0
100
AcDbLine
 62
7
  6
BYLAYER
 10
7.5060217842
 20
15.8528602945
 11
7.5060217842
 21
15.2528602945
  0
LINE
  5
223
100
AcDbEntity
  8
0
100
AcDbLine
 62
7
  6
BYLAYER
 10
7.8059938416
 20
5.6987181377
 11
7.8060395878
 21
5.1577783042
  0
LINE
  5
224
100
AcDbEntity
  8
0
100
AcDbLine
 62
7
  6
BYLAYER
 10
7.805977044
 20
17.149994723
 11
7.8059736597
 21
16.6093968847
  0
LINE
  5
225
100
AcDbEntity
  8
0
100
AcDbLine
 62
7
  6
BYLAYER
 10
7.8060217817
 20
16.4528602945
 11
7.8060217804
 21
16.3528602945
  0
LINE
  5
226
100
AcDbEntity
  8
0
100
AcDbLine
 62
7
  6
BYLAYER
 10
7.8375963594
 20
16.3526277436
 11
7.843068608
 21
16.4527311545
  0
LINE
  5
227
100
AcDbEntity
  8
0
100
AcDbLine
 62
7
  6
BYLAYER
 10
4.6000424606
 20
6.7402586292
 11
4.2822145167
 21
6.3027272603
  0
LINE
  5
228
100
AcDbEntity
  8
0
100
AcDbLine
 62
7
  6
BYLAYER
 10
11.012037606
 20
15.5655915876
 11
11.3298442862
 21
16.0030178391
  0
LINE
  5
229
100
AcDbEntity
  8
0
100
AcDbLine
 62
7
  6
BYLAYER
 10
2.6188146495
 20
9.4674675583
 11
2.1043377945
 21
9.3002532793
  0
LINE
  5
22A
100
AcDbEntity
  8
0
100
AcDbLine
 62
7
  6
BYLAYER
 10
12.9929302439
 20
12.8381931374
 11
13.5113938759
 21
13.00664693
  0
LINE
  5
22B
100
AcDbEntity
  8
0
100
AcDbLine
 62
7
  6
BYLAYER
 10
4.5668299719
 20
13.8263666818
 11
4.9422393204
 21
13.4509573333
  0
LINE
  5
22C
100
AcDbEntity
  8
0
100
AcDbLine
 62
7
  6
BYLAYER
 10
4.2794574875
 20
16.0035999103
 11
4.5981767653
 21
15.5669149143
  0
LINE
  5
22D
100
AcDbEntity
  8
0
100
AcDbLine
 62
7
  6
BYLAYER
 10
11.0120169442
 20
6.7402139844
 11
11.3298806266
 21
6.3027148818
  0
LINE
  5
22E
100
AcDbEntity
  8
0
100
AcDbLine
 62
7
  6
BYLAYER
 10
8.1060217842
 20
15.8528602945
 11
8.1060217842
 21
15.2528602945
  0
LINE
  5
22F
100
AcDbEntity
  8
0
100
AcDbLine
 62
7
  6
BYLAYER
 10
12.9933563398
 20
9.4673582311
 11
13.5077141389
 21
9.3002789098
  0
LINE
  5
230
100
AcDbEntity
  8
0
100
AcDbLine
 62
7
  6
BYLAYER
 10
2.1044394431
 20
13.0054158783
 11
2.6188875387
 21
12.8382616332
  0
LINE
  5
231
100
AcDbEntity
  8
0
100
AcDbLine
 62
7
  6
BYLAYER
 10
5.5079247453
 20
14.0166427583
 11
5.1325153968
 21
14.3920521068
  0
LINE
  5
232
100
AcDbEntity
  8
0
100
AcDbLine
 62
7
  6
BYLAYER
 10
5.2908981616
 20
14.5165120545
 11
5.6493461016
 21
14.1580641145
  0
LINE
  5
233
100
AcDbEntity
  8
0
100
AcDbLine
 62
7
  6
BYLAYER
 10
8.9060217842
 20
15.9028602945
 11
8.9060217842
 21
15.8528602945
  0
LINE
  5
234
100
AcDbEntity
  8
0
100
AcDbLine
 62
7
  6
BYLAYER
 10
9.3060178312
 20
15.9028602945
 11
9.3060178312
 21
15.6334433236
  0
LINE
  5
235
100
AcDbEntity
  8
0
100
AcDbLine
 62
7
  6
BYLAYER
 10
6.3120500642
 20
15.8128050124
 11
5.8710609586
 21
16.0870194539
  0
LINE
  5
236
100
AcDbEntity
  8
0
100
AcDbLine
 62
7
  6
BYLAYER
 10
10.2044587752
 20
15.2528602945
 11
10.1545585627
 21
15.2528602945
  0
LINE
  5
237
100
AcDbEntity
  8
0
100
AcDbLine
 62
7
  6
BYLAYER
 10
8.1060217842
 20
15.2528602945
 11
7.5060217842
 21
15.2528602945
  0
LINE
  5
238
100
AcDbEntity
  8
0
100
AcDbLine
 62
7
  6
BYLAYER
 10
5.4574850057
 20
15.2528602945
 11
5.4075847931
 21
15.2528602945
  0
LINE
  5
239
100
AcDbEntity
  8
0
100
AcDbLine
 62
7
  6
BYLAYER
 10
12.9923022197
 20
9.4677612939
 11
12.992298423
 21
9.4677497115
  0
LINE
  5
23A
100
AcDbEntity
  8
0
100
AcDbLine
 62
7
  6
BYLAYER
 10
11.011309814
 20
6.7411495695
 11
11.0113265753
 21
6.7411618143
  0
LINE
  5
23B
100
AcDbEntity
  8
0
100
AcDbLine
 62
7
  6
BYLAYER
 10
8.9060217842
 20
15.8528602945
 11
8.1060217842
 21
15.8528602945
  0
LINE
  5
23C
100
AcDbEntity
  8
0
100
AcDbLine
 62
7
  6
BYLAYER
 10
6.7060217842
 20
15.8528602945
 11
7.5060217842
 21
15.8528602945
  0
LINE
  5
23D
100
AcDbEntity
  8
0
100
AcDbLine
 62
7
  6
BYLAYER
 10
9.3060204328
 20
15.9028602945
 11
6.3060257421
 21
15.9028602945
  0
LINE
  5
23E
100
AcDbEntity
  8
0
100
AcDbLine
 62
7
  6
BYLAYER
 10
12.9922917806
 20
12.8379911406
 11
12.9922877968
 21
12.8380032933
  0
LINE
  5
23F
100
AcDbEntity
  8
0
100
AcDbLine
 62
7
  6
BYLAYER
 10
7.8060350381
 20
16.6107225548
 11
7.8059912007
 21
16.6107225328
  0
LINE
  5
240
100
AcDbEntity
  8
0
100
AcDbLine
 62
7
  6
BYLAYER
 10
11.0144342016
 20
15.5681142243
 11
11.0142730289
 21
15.5682315461
  0
LINE
  5
241
100
AcDbEntity
  8
0
100
AcDbLine
 62
7
  6
BYLAYER
 10
11.0112820883
 20
15.5645912739
 11
11.0112242771
 21
15.5646335058
  0
ARC
  5
242
100
AcDbEntity
  8
0
100
AcDbCircle
 62
7
  6
BYLAYER
 10
7.753412716
 20
11.1941663206
 40
5.8720307658
100
AcDbArc
 50
53.3481323058
 51
89.4921424189
  0
ARC
  5
243
100
AcDbEntity
  8
0
100
AcDbCircle
 62
7
  6
BYLAYER
 10
7.7475167731
 20
11.1821561712
 40
5.4860240726
100
AcDbArc
 50
38.2552182366
 51
89.3889837608
  0
ARC
  5
244
100
AcDbEntity
  8
0
100
AcDbCircle
 62
7
  6
BYLAYER
 10
7.6541403669
 20
11.0722446649
 40
5.4513544673
100
AcDbArc
 50
271.5965671015
 51
296.5808826379
  0
CIRCLE
  5
245
100
AcDbEntity
  8
0
100
AcDbCircle
 62
7
  6
BYLAYER
 10
5.3060217842
 20
11.1528602945
 40
0.5
  0
ARC
  5
246
100
AcDbEntity
  8
0
100
AcDbCircle
 62
7
  6
BYLAYER
 10
5.2250820329
 20
13.7338000458
 40
0.6
100
AcDbArc
 50
224.9999999996
 51
45.0000000004
  0
ARC
  5
247
100
AcDbEntity
  8
0
100
AcDbCircle
 62
7
  6
BYLAYER
 10
5.2250820329
 20
13.7338000458
 40
0.4
100
AcDbArc
 50
224.9999999879
 51
45.0000000021
  0
CIRCLE
  5
248
100
AcDbEntity
  8
0
100
AcDbCircle
 62
7
  6
BYLAYER
 10
7.8060217842
 20
8.6528602945
 40
0.5
  0
ARC
  5
249
100
AcDbEntity
  8
0
100
AcDbCircle
 62
7
  6
BYLAYER
 10
7.8040547608
 20
11.1468332251
 40
6.0039979339
100
AcDbArc
 50
89.9813419425
 51
107.0189455735
  0
ARC
  5
24A
100
AcDbEntity
  8
0
100
AcDbCircle
 62
7
  6
BYLAYER
 10
7.8063771175
 20
11.1527419032
 40
5.9993512414
100
AcDbArc
 50
166.4731699488
 51
90.0037063722
  0
ARC
  5
24B
100
AcDbEntity
  8
0
100
AcDbCircle
 62
7
  6
BYLAYER
 10
7.8580967092
 20
11.1672860625
 40
5.5655854827
100
AcDbArc
 50
197.7918060813
 51
197.975602015
  0
ARC
  5
24C
100
AcDbEntity
  8
0
100
AcDbCircle
 62
7
  6
BYLAYER
 10
7.8338855096
 20
11.1134830127
 40
5.5610468312
100
AcDbArc
 50
125.827726715
 51
125.9935399713
  0
ARC
  5
24D
100
AcDbEntity
  8
0
100
AcDbCircle
 62
7
  6
BYLAYER
 10
7.8653157016
 20
11.1803661809
 40
5.4879112582
100
AcDbArc
 50
90.6190364895
 51
141.7382376198
  0
ARC
  5
24E
100
AcDbEntity
  8
0
100
AcDbCircle
 62
7
  6
BYLAYER
 10
7.8068137047
 20
11.1529276521
 40
5.4577199485
100
AcDbArc
 50
53.9974434344
 51
38.8816214347
  0
CIRCLE
  5
24F
100
AcDbEntity
  8
0
100
AcDbCircle
 62
7
  6
BYLAYER
 10
7.8060217842
 20
11.1528602945
 40
5.45
  0
CIRCLE
  5
250
100
AcDbEntity
  8
0
100
AcDbCircle
 62
7
  6
BYLAYER
 10
7.8060217842
 20
11.1528602945
 40
5.3
  0
CIRCLE
  5
251
100
AcDbEntity
  8
0
100
AcDbCircle
 62
7
  6
BYLAYER
 10
7.8060217842
 20
11.1528602945
 40
5.2
  0
ARC
  5
252
100
AcDbEntity
  8
0
100
AcDbCircle
 62
7
  6
BYLAYER
 10
7.8060217842
 20
11.1528602945
 40
4.75
100
AcDbArc
 50
59.6730219032
 51
120.3269780968
  0
ARC
  5
253
100
AcDbEntity
  8
0
100
AcDbCircle
 62
7
  6
BYLAYER
 10
7.8060217842
 20
11.1528602945
 40
4.725
100
AcDbArc
 50
60.1953212431
 51
119.8046787569
  0
CIRCLE
  5
254
100
AcDbEntity
  8
0
100
AcDbCircle
 62
7
  6
BYLAYER
 10
7.8060217842
 20
11.1528602945
 40
4.2
  0
CIRCLE
  5
255
100
AcDbEntity
  8
0
100
AcDbCircle
 62
7
  6
BYLAYER
 10
10.3060217842
 20
11.1528602945
 40
0.5
  0
ARC
  5
256
100
AcDbEntity
  8
0
100
AcDbCircle
 62
7
  6
BYLAYER
 10
7.8060217842
 20
13.5028602945
 40
2.6
100
AcDbArc
 50
67.380135052
 51
112.619864948
  0
ARC
  5
257
100
AcDbEntity
  8
0
100
AcDbCircle
 62
7
  6
BYLAYER
 10
7.8060830158
 20
14.2194600429
 40
2.1334002527
100
AcDbArc
 50
89.1536293631
 51
90.0016430474
  0
CIRCLE
  5
258
100
AcDbEntity
  8
0
100
AcDbCircle
 62
7
  6
BYLAYER
 10
7.8060217842
 20
13.6528602945
 40
0.5
  0
SPLINE
  5
259
100
AcDbEntity
  8
0
100
AcDbSpline
 62
7
  6
BYLAYER
 70
0
 71
3
 72
23
 73
19
 74
0
 42
0.0000001
 43
0.0000001
 44
0.0000000001
 40
0.0
 40
0.0
 40
0.0
 40
0.0
 40
0.0616003624
 40
0.123484091
 40
0.185446442
 40
0.2470544975
 40
0.3092039566
 40
0.3716634708
 40
0.4342065965
 40
0.4966452078
 40
0.559198356
 40
0.6217045301
 40
0.6843641259
 40
0.747229426
 40
0.8099045617
 40
0.8730762778
 40
0.9364747831
 40
1.0
 40
1.0
 40
1.0
 40
1.0
 10
7.8060217842
 20
16.6680384013
 30
0.0
 10
7.4443838388
 20
16.6721753258
 30
0.0
 10
6.716589759
 20
16.6089707203
 30
0.0
 10
5.6650433517
 20
16.3016275266
 30
0.0
 10
4.6934722495
 20
15.7944827976
 30
0.0
 10
3.8385851735
 20
15.1065175001
 30
0.0
 10
3.1321735051
 20
14.262829218
 30
0.0
 10
2.6018838569
 20
13.2922971408
 30
0.0
 10
2.2718021476
 20
12.2349951891
 30
0.0
 10
2.1543660334
 20
11.1330930216
 30
0.0
 10
2.2546459359
 20
10.0297337333
 30
0.0
 10
2.5676910265
 20
8.9656460917
 30
0.0
 10
3.0831882969
 20
7.9814617733
 30
0.0
 10
3.7804543616
 20
7.1151630542
 30
0.0
 10
4.6354065808
 20
6.3994807465
 30
0.0
 10
5.6157381929
 20
5.8613981
 30
0.0
 10
6.6867233162
 20
5.5237381005
 30
0.0
 10
7.4330841302
 20
5.4419642256
 30
0.0
 10
7.8060227957
 20
5.4377379664
 30
0.0
  0
SPLINE
  5
25A
100
AcDbEntity
  8
0
100
AcDbSpline
 62
7
  6
BYLAYER
 70
0
 71
3
 72
20
 73
16
 74
0
 42
0.0000001
 43
0.0000001
 44
0.0000000001
 40
0.0
 40
0.0
 40
0.0
 40
0.0
 40
0.077198805
 40
0.1541939422
 40
0.2310959412
 40
0.3079943326
 40
0.384227476
 40
0.4604353388
 40
0.5369703126
 40
0.6137702868
 40
0.6908488478
 40
0.7691005233
 40
0.8468578627
 40
0.9239032881
 40
1.0
 40
1.0
 40
1.0
 40
1.0
 10
11.2587547218
 20
15.9051976324
 30
0.0
 10
11.5590737069
 20
15.6819185535
 30
0.0
 10
12.1185567803
 20
15.1781413678
 30
0.0
 10
12.7950808215
 20
14.2768926255
 30
0.0
 10
13.2875658058
 20
13.2646711171
 30
0.0
 10
13.5773071862
 20
12.180721087
 30
0.0
 10
13.6546821037
 20
11.0649224112
 30
0.0
 10
13.5198658924
 20
9.9563321283
 30
0.0
 10
13.1745811569
 20
8.8912978089
 30
0.0
 10
12.6301760101
 20
7.9080221959
 30
0.0
 10
11.9004146008
 20
7.04214307
 30
0.0
 10
11.0123820964
 20
6.3316202356
 30
0.0
 10
10.002041976
 20
5.8096943124
 30
0.0
 10
8.9199977788
 20
5.497730363
 30
0.0
 10
8.1748825694
 20
5.4335579304
 30
0.0
 10
7.8060227957
 20
5.4377379664
 30
0.0
  0
SPLINE
  5
25B
100
AcDbEntity
  8
0
100
AcDbSpline
 62
7
  6
BYLAYER
 70
0
 71
3
 72
14
 73
10
 74
0
 42
0.0000001
 43
0.0000001
 44
0.0000000001
 40
0.0
 40
0.0
 40
0.0
 40
0.0
 40
0.1410446644
 40
0.2838976687
 40
0.4268480849
 40
0.5698238278
 40
0.7127831193
 40
0.8565961472
 40
1.0
 40
1.0
 40
1.0
 40
1.0
 10
7.806023919
 20
16.9322718163
 30
0.0
 10
7.4369881501
 20
16.9431265378
 30
0.0
 10
6.6901196498
 20
16.8927644941
 30
0.0
 10
5.6040340821
 20
16.6036927143
 30
0.0
 10
4.5878518272
 20
16.1109344608
 30
0.0
 10
3.6844556691
 20
15.4329725857
 30
0.0
 10
2.924045221
 20
14.5948068827
 30
0.0
 10
2.3346547377
 20
13.6277057774
 30
0.0
 10
2.0701374404
 20
12.9183086316
 30
0.0
 10
1.9724862034
 20
12.5558621908
 30
0.0
  0
SPLINE
  5
25C
100
AcDbEntity
  8
0
100
AcDbSpline
 62
7
  6
BYLAYER
 70
0
 71
3
 72
23
 73
19
 74
0
 42
0.0000001
 43
0.0000001
 44
0.0000000001
 40
0.0
 40
0.0
 40
0.0
 40
0.0
 40
0.0626541548
 40
0.1250823053
 40
0.1862872723
 40
0.2483733854
 40
0.3114476263
 40
0.3740176272
 40
0.4351880499
 40
0.4968801758
 40
0.5600871892
 40
0.6234552373
 40
0.6856430767
 40
0.7480379195
 40
0.8103965651
 40
0.8739156642
 40
0.9367878967
 40
1.0
 40
1.0
 40
1.0
 40
1.0
 10
7.8059669231
 20
5.1570430349
 30
0.0
 10
8.1987584489
 20
5.1586239522
 30
0.0
 10
8.9845318662
 20
5.2386038219
 30
0.0
 10
10.1099359852
 20
5.5751776642
 30
0.0
 10
11.146731079
 20
6.1219520024
 30
0.0
 10
12.0551196141
 20
6.8690665271
 30
0.0
 10
12.8076695696
 20
7.7832951474
 30
0.0
 10
13.3707412849
 20
8.8184619118
 30
0.0
 10
13.7206956588
 20
9.9350780043
 30
0.0
 10
13.8400303
 20
11.1032552863
 30
0.0
 10
13.7298974026
 20
12.2857235763
 30
0.0
 10
13.3957084808
 20
13.4287020678
 30
0.0
 10
12.8465261029
 20
14.4802005233
 30
0.0
 10
12.0993978172
 20
15.3935316767
 30
0.0
 10
11.1835392286
 20
16.1492792877
 30
0.0
 10
10.1379761848
 20
16.71931575
 30
0.0
 10
8.9957423595
 20
17.0752765747
 30
0.0
 10
8.2023621337
 20
17.1513727516
 30
0.0
 10
7.8060733664
 20
17.1496236583
 30
0.0
  0
SPLINE
  5
25D
100
AcDbEntity
  8
0
100
AcDbSpline
 62
7
  6
BYLAYER
 70
0
 71
3
 72
23
 73
19
 74
0
 42
0.0000001
 43
0.0000001
 44
0.0000000001
 40
0.0
 40
0.0
 40
0.0
 40
0.0
 40
0.0629798463
 40
0.1261933293
 40
0.1882384878
 40
0.2501613689
 40
0.312391291
 40
0.3752763926
 40
0.4373506354
 40
0.4992807631
 40
0.5623549159
 40
0.6259440534
 40
0.6880867817
 40
0.7492703267
 40
0.8111089568
 40
0.8746169773
 40
0.9375043634
 40
1.0
 40
1.0
 40
1.0
 40
1.0
 10
7.8059782768
 20
5.1551120518
 30
0.0
 10
8.200808436
 20
5.1568203587
 30
0.0
 10
8.9935874715
 20
5.2393956236
 30
0.0
 10
10.1290282859
 20
5.5852379222
 30
0.0
 10
11.1722946059
 20
6.1392179099
 30
0.0
 10
12.0780200144
 20
6.8882028631
 30
0.0
 10
12.8218301426
 20
7.8040906367
 30
0.0
 10
13.3792249441
 20
8.8448209504
 30
0.0
 10
13.7279170943
 20
9.971333386
 30
0.0
 10
13.8433916752
 20
11.1465447273
 30
0.0
 10
13.7221434546
 20
12.3303371293
 30
0.0
 10
13.375579502
 20
13.4697309682
 30
0.0
 10
12.8234645663
 20
14.5118804434
 30
0.0
 10
12.0812530963
 20
15.4145721794
 30
0.0
 10
11.1701388977
 20
16.1591318113
 30
0.0
 10
10.1245577272
 20
16.7219988403
 30
0.0
 10
8.9865234635
 20
17.0749551618
 30
0.0
 10
8.1978495846
 20
17.1529569964
 30
0.0
 10
7.8060539931
 20
17.1515157251
 30
0.0
  0
SPLINE
  5
25E
100
AcDbEntity
  8
0
100
AcDbSpline
 62
7
  6
BYLAYER
 70
0
 71
3
 72
17
 73
13
 74
0
 42
0.0000001
 43
0.0000001
 44
0.0000000001
 40
0.0
 40
0.0
 40
0.0
 40
0.0
 40
0.1052163861
 40
0.2113446044
 40
0.3155199092
 40
0.4186352054
 40
0.5216685346
 40
0.626501242
 40
0.7302837702
 40
0.833393334
 40
0.9383165999
 40
1.0
 40
1.0
 40
1.0
 40
1.0
 10
7.8060539931
 20
17.1515157251
 30
0.0
 10
7.4102898075
 20
17.1500598549
 30
0.0
 10
6.6135980378
 20
17.0664761536
 30
0.0
 10
5.4725472523
 20
16.7155430828
 30
0.0
 10
4.4261024867
 20
16.1561438529
 30
0.0
 10
3.521072185
 20
15.4063562602
 30
0.0
 10
2.7820067992
 20
14.4901509139
 30
0.0
 10
2.2288193011
 20
13.4486783956
 30
0.0
 10
1.8824584563
 20
12.3206608505
 30
0.0
 10
1.7674370526
 20
11.1453650897
 30
0.0
 10
1.8740270482
 20
10.1296922332
 30
0.0
 10
2.0345194386
 20
9.5219016503
 30
0.0
 10
2.1063865206
 20
9.3009156132
 30
0.0
  0
SPLINE
  5
25F
100
AcDbEntity
  8
0
100
AcDbSpline
 62
7
  6
BYLAYER
 70
0
 71
3
 72
22
 73
18
 74
0
 42
0.0000001
 43
0.0000001
 44
0.0000000001
 40
0.0
 40
0.0
 40
0.0
 40
0.0
 40
0.0657607393
 40
0.1312922583
 40
0.1968431579
 40
0.2621159832
 40
0.3279220885
 40
0.3939148446
 40
0.4599698981
 40
0.526459959
 40
0.5930002356
 40
0.6594073256
 40
0.72658829
 40
0.7944608602
 40
0.8633393041
 40
0.9320273472
 40
1.0
 40
1.0
 40
1.0
 40
1.0
 10
7.8060269732
 20
5.6229222037
 30
0.0
 10
7.4471181254
 20
5.6127852337
 30
0.0
 10
6.7266342844
 20
5.6603462159
 30
0.0
 10
5.6817590837
 20
5.9384815472
 30
0.0
 10
4.7122646908
 20
6.4118971696
 30
0.0
 10
3.8499852915
 20
7.0620965898
 30
0.0
 10
3.1222686326
 20
7.8633377891
 30
0.0
 10
2.5566585184
 20
8.7914767279
 30
0.0
 10
2.1768680335
 20
9.813815267
 30
0.0
 10
1.9957109814
 20
10.8920753116
 30
0.0
 10
2.017133344
 20
11.9871453292
 30
0.0
 10
2.2441042648
 20
13.062676407
 30
0.0
 10
2.6725974696
 20
14.082913704
 30
0.0
 10
3.2915834076
 20
15.016237909
 30
0.0
 10
4.0797207539
 20
15.8239709106
 30
0.0
 10
5.007196933
 20
16.4674701905
 30
0.0
 10
5.6945342782
 20
16.7709858444
 30
0.0
 10
6.046512911
 20
16.8886623091
 30
0.0
  0
SPLINE
  5
260
100
AcDbEntity
  8
0
100
AcDbSpline
 62
7
  6
BYLAYER
 70
0
 71
3
 72
11
 73
7
 74
0
 42
0.0000001
 43
0.0000001
 44
0.0000000001
 40
0.0
 40
0.0
 40
0.0
 40
0.0
 40
0.1420196853
 40
0.4270063875
 40
0.7123889088
 40
1.0
 40
1.0
 40
1.0
 40
1.0
 10
11.3338931806
 20
16.0043043598
 30
0.0
 10
11.1895278754
 20
16.1093261202
 30
0.0
 10
10.7412879923
 20
16.4055821175
 30
0.0
 10
9.9309969624
 20
16.7952833438
 30
0.0
 10
8.8880530294
 20
17.0851169536
 30
0.0
 10
8.1670573387
 20
17.1506628051
 30
0.0
 10
7.8060099263
 20
17.1508196441
 30
0.0
  0
SPLINE
  5
261
100
AcDbEntity
  8
0
100
AcDbSpline
 62
7
  6
BYLAYER
 70
0
 71
3
 72
20
 73
16
 74
0
 42
0.0000001
 43
0.0000001
 44
0.0000000001
 40
0.0
 40
0.0
 40
0.0
 40
0.0
 40
0.0778022681
 40
0.1549907353
 40
0.2321786719
 40
0.3086557145
 40
0.3850890237
 40
0.4617982737
 40
0.5384088856
 40
0.6147992407
 40
0.691977127
 40
0.7703330052
 40
0.8476335628
 40
0.9245377418
 40
1.0
 40
1.0
 40
1.0
 40
1.0
 10
7.8060217842
 20
16.7718150921
 30
0.0
 10
7.4441327267
 20
16.7679813142
 30
0.0
 10
6.7219712755
 20
16.6895885966
 30
0.0
 10
5.684909749
 20
16.3660512379
 30
0.0
 10
4.7334338947
 20
15.8539855246
 30
0.0
 10
3.8998164849
 20
15.1721106712
 30
0.0
 10
3.2146081211
 20
14.3440852682
 30
0.0
 10
2.6995414848
 20
13.4002087591
 30
0.0
 10
2.3739124428
 20
12.3754763553
 30
0.0
 10
2.2525618555
 20
11.304827848
 30
0.0
 10
2.3415068254
 20
10.2228220984
 30
0.0
 10
2.6403318384
 20
9.1744063862
 30
0.0
 10
3.1393457292
 20
8.2064865872
 30
0.0
 10
3.810316596
 20
7.3666761013
 30
0.0
 10
4.3547954496
 20
6.904992312
 30
0.0
 10
4.6430986755
 20
6.7047439415
 30
0.0
  0
SPLINE
  5
262
100
AcDbEntity
  8
0
100
AcDbSpline
 62
7
  6
BYLAYER
 70
0
 71
3
 72
23
 73
19
 74
0
 42
0.0000001
 43
0.0000001
 44
0.0000000001
 40
0.0
 40
0.0
 40
0.0
 40
0.0
 40
0.0616981906
 40
0.1234979267
 40
0.1852675118
 40
0.2470316424
 40
0.3095456298
 40
0.3721426902
 40
0.4346769499
 40
0.4972018136
 40
0.5597050496
 40
0.6220570143
 40
0.6847785224
 40
0.7477452945
 40
0.8103112439
 40
0.8733009599
 40
0.9366741338
 40
1.0
 40
1.0
 40
1.0
 40
1.0
 10
7.8060217842
 20
16.7718150605
 30
0.0
 10
8.1749098096
 20
16.775722984
 30
0.0
 10
8.9160590996
 20
16.7101607953
 30
0.0
 10
9.9859865653
 20
16.3981010557
 30
0.0
 10
10.9752626289
 20
15.8826532382
 30
0.0
 10
11.8468938702
 20
15.1800079316
 30
0.0
 10
12.5684932002
 20
14.3174988786
 30
0.0
 10
13.1097815395
 20
13.3262828806
 30
0.0
 10
13.4439719172
 20
12.2474226662
 30
0.0
 10
13.5610702846
 20
11.1249108699
 30
0.0
 10
13.4586731351
 20
10.001979952
 30
0.0
 10
13.1381497987
 20
8.9196053985
 30
0.0
 10
12.6113515323
 20
7.9182106466
 30
0.0
 10
11.9000979345
 20
7.0365516602
 30
0.0
 10
11.0298428037
 20
6.3087959627
 30
0.0
 10
10.0317508736
 20
5.7642114658
 30
0.0
 10
8.9433723639
 20
5.4216019879
 30
0.0
 10
8.1846388325
 20
5.3380582759
 30
0.0
 10
7.8060214263
 20
5.3338314826
 30
0.0
  0
SPLINE
  5
263
100
AcDbEntity
  8
0
100
AcDbSpline
 62
7
  6
BYLAYER
 70
0
 71
3
 72
22
 73
18
 74
0
 42
0.0000001
 43
0.0000001
 44
0.0000000001
 40
0.0
 40
0.0
 40
0.0
 40
0.0
 40
0.0657096739
 40
0.1317718051
 40
0.1978524909
 40
0.2635162947
 40
0.3297465933
 40
0.3964762116
 40
0.4631083705
 40
0.529784854
 40
0.596658329
 40
0.663368796
 40
0.7300653602
 40
0.7969824214
 40
0.8646981573
 40
0.9324576512
 40
1.0
 40
1.0
 40
1.0
 40
1.0
 10
7.8060214263
 20
5.3338314826
 30
0.0
 10
7.4384911044
 20
5.3297284629
 30
0.0
 10
6.6987926513
 20
5.3926001721
 30
0.0
 10
5.6274818726
 20
5.6942925067
 30
0.0
 10
4.6314831047
 20
6.1914132021
 30
0.0
 10
3.7465737817
 20
6.8681822108
 30
0.0
 10
3.0030717669
 20
7.7027133328
 30
0.0
 10
2.426513017
 20
8.6665184184
 30
0.0
 10
2.040978443
 20
9.7241998965
 30
0.0
 10
1.8639683822
 20
10.8367591009
 30
0.0
 10
1.8993026749
 20
11.9630084264
 30
0.0
 10
2.1444867522
 20
13.0629700216
 30
0.0
 10
2.5930410546
 20
14.0972044604
 30
0.0
 10
3.2315259962
 20
15.0329225535
 30
0.0
 10
4.0382135423
 20
15.8369795158
 30
0.0
 10
4.9850477545
 20
16.4758694486
 30
0.0
 10
5.6864432391
 20
16.7742680634
 30
0.0
 10
6.046512911
 20
16.8886623091
 30
0.0
  0
SPLINE
  5
264
100
AcDbEntity
  8
0
100
AcDbSpline
 62
7
  6
BYLAYER
 70
0
 71
3
 72
57
 73
53
 74
0
 42
0.0000001
 43
0.0000001
 44
0.0000000001
 40
0.0
 40
0.0
 40
0.0
 40
0.0
 40
0.01617677
 40
0.0336022675
 40
0.0525077471
 40
0.0731251882
 40
0.0956838021
 40
0.1203882082
 40
0.1472938093
 40
0.176226734
 40
0.2069764287
 40
0.2393981
 40
0.2740285297
 40
0.3116685302
 40
0.3530286989
 40
0.398687851
 40
0.4490381993
 40
0.504033151
 40
0.5615182593
 40
0.6184973455
 40
0.6722913898
 40
0.7213702504
 40
0.7652035821
 40
0.8034076568
 40
0.8358461749
 40
0.8628096892
 40
0.8851065522
 40
0.903516854
 40
0.9187426842
 40
0.9314105783
 40
0.9420614339
 40
0.9511483252
 40
0.9590438895
 40
0.9660274516
 40
0.9721569374
 40
0.9774166976
 40
0.9818204997
 40
0.9854223744
 40
0.9883490569
 40
0.9907290193
 40
0.9926698785
 40
0.9942598763
 40
0.9955700736
 40
0.9966519211
 40
0.9975294939
 40
0.9982232702
 40
0.9987588823
 40
0.9991652987
 40
0.9994672688
 40
0.9996851875
 40
0.9998356196
 40
1.0
 40
1.0
 40
1.0
 40
1.0
 10
7.8060217842
 20
16.3528602945
 30
0.0
 10
7.8147658198
 20
16.3528602945
 30
0.0
 10
7.8329290491
 20
16.3527497596
 30
0.0
 10
7.8613069263
 20
16.352221738
 30
0.0
 10
7.8920745027
 20
16.3512364257
 30
0.0
 10
7.9255964876
 20
16.3496775058
 30
0.0
 10
7.9622187506
 20
16.347398933
 30
0.0
 10
8.0021856524
 20
16.3442279199
 30
0.0
 10
8.0455166497
 20
16.3399811817
 30
0.0
 10
8.0919996812
 20
16.3344843441
 30
0.0
 10
8.1413077154
 20
16.3275786058
 30
0.0
 10
8.1934845595
 20
16.3190473536
 30
0.0
 10
8.2491010451
 20
16.30856847
 30
0.0
 10
8.3091542119
 20
16.2956446861
 30
0.0
 10
8.3746174388
 20
16.2796388015
 30
0.0
 10
8.4461906663
 20
16.2598264113
 30
0.0
 10
8.5241117352
 20
16.2354720445
 30
0.0
 10
8.6071558112
 20
16.2062531862
 30
0.0
 10
8.6924011443
 20
16.1726778456
 30
0.0
 10
8.7757692554
 20
16.1362792225
 30
0.0
 10
8.8537615579
 20
16.0990542364
 30
0.0
 10
8.924203354
 20
16.0626077503
 30
0.0
 10
8.9861772941
 20
16.0282081256
 30
0.0
 10
9.0395407456
 20
15.9968748441
 30
0.0
 10
9.0845184009
 20
15.9692918836
 30
0.0
 10
9.1217782953
 20
15.9455849963
 30
0.0
 10
9.1523737879
 20
15.925536707
 30
0.0
 10
9.1774844331
 20
15.9086979738
 30
0.0
 10
9.1981662189
 20
15.8946014947
 30
0.0
 10
9.2153027942
 20
15.882751538
 30
0.0
 10
9.2296421895
 20
15.8726914826
 30
0.0
 10
9.2418135669
 20
15.8640333103
 30
0.0
 10
9.2523221004
 20
15.8564578033
 30
0.0
 10
9.2614935926
 20
15.8497615908
 30
0.0
 10
9.269481137
 20
15.8438602308
 30
0.0
 10
9.2763218754
 20
15.8387534983
 30
0.0
 10
9.2820509757
 20
15.8344416784
 30
0.0
 10
9.2867651858
 20
15.8308785713
 30
0.0
 10
9.29060533
 20
15.8279732915
 30
0.0
 10
9.2937312128
 20
15.8256120121
 30
0.0
 10
9.2962837655
 20
15.8236904582
 30
0.0
 10
9.2983780551
 20
15.8221216118
 30
0.0
 10
9.3001044811
 20
15.8208361707
 30
0.0
 10
9.3015255866
 20
15.8197854949
 30
0.0
 10
9.3026819584
 20
15.8189372301
 30
0.0
 10
9.3036029447
 20
15.8182672815
 30
0.0
 10
9.304320114
 20
15.8177500907
 30
0.0
 10
9.3048671285
 20
15.8173590345
 30
0.0
 10
9.3052756248
 20
15.8170695024
 30
0.0
 10
9.3055720786
 20
15.8168611809
 30
0.0
 10
9.3058082892
 20
15.8166964854
 30
0.0
 10
9.3059484081
 20
15.8165999288
 30
0.0
 10
9.3060217842
 20
15.8165498197
 30
0.0
  0
SPLINE
  5
265
100
AcDbEntity
  8
0
100
AcDbSpline
 62
7
  6
BYLAYER
 70
0
 71
3
 72
19
 73
15
 74
0
 42
0.0000001
 43
0.0000001
 44
0.0000000001
 40
0.0
 40
0.0
 40
0.0
 40
0.0
 40
0.0084094732
 40
0.0343474267
 40
0.0783181317
 40
0.1411403319
 40
0.2228769895
 40
0.3205526213
 40
0.4293578828
 40
0.5434150573
 40
0.6589365464
 40
0.773941625
 40
0.8880314904
 40
1.0
 40
1.0
 40
1.0
 40
1.0
 10
6.3060217842
 20
15.8165498194
 30
0.0
 10
6.3096801476
 20
15.819246363
 30
0.0
 10
6.3245832622
 20
15.8303130048
 30
0.0
 10
6.3583865306
 20
15.8557887544
 30
0.0
 10
6.4170261854
 20
15.897125185
 30
0.0
 10
6.5016894011
 20
15.9538379345
 30
0.0
 10
6.6134214609
 20
16.0221507785
 30
0.0
 10
6.7503232081
 20
16.0966351982
 30
0.0
 10
6.9077096464
 20
16.1693409713
 30
0.0
 10
7.0788025766
 20
16.2343792138
 30
0.0
 10
7.2576177594
 20
16.2870867332
 30
0.0
 10
7.4401521518
 20
16.3251496644
 30
0.0
 10
7.6232906425
 20
16.3476637387
 30
0.0
 10
7.7455097906
 20
16.3528602945
 30
0.0
 10
7.8060217842
 20
16.3528602945
 30
0.0
  0
SPLINE
  5
266
100
AcDbEntity
  8
0
100
AcDbSpline
 62
7
  6
BYLAYER
 70
0
 71
3
 72
43
 73
39
 74
0
 42
0.0000001
 43
0.0000001
 44
0.0000000001
 40
0.0
 40
0.0
 40
0.0
 40
0.0
 40
0.1130806322
 40
0.2268382365
 40
0.3358106655
 40
0.435222613
 40
0.5215100995
 40
0.5952899352
 40
0.6578781124
 40
0.7108806329
 40
0.755813804
 40
0.7937895621
 40
0.825876522
 40
0.853121616
 40
0.8763460795
 40
0.8960789468
 40
0.9128044395
 40
0.9269735865
 40
0.9390011468
 40
0.949249763
 40
0.9580299422
 40
0.9655989154
 40
0.9720925957
 40
0.9775774994
 40
0.9821310916
 40
0.9858522777
 40
0.9888753199
 40
0.991325156
 40
0.9933079122
 40
0.9949117744
 40
0.996208441
 40
0.9972484475
 40
0.998067725
 40
0.998698836
 40
0.9991715223
 40
0.9995132829
 40
0.9997483006
 40
1.0
 40
1.0
 40
1.0
 40
1.0
 10
7.8060218372
 20
16.3528602945
 30
0.0
 10
7.7449050839
 20
16.352860296
 30
0.0
 10
7.6222517418
 20
16.3476624322
 30
0.0
 10
7.4419472476
 20
16.3252770994
 30
0.0
 10
7.2712770618
 20
16.2899490075
 30
0.0
 10
7.1179680592
 20
16.2463629903
 30
0.0
 10
6.9856698982
 20
16.1996052971
 30
0.0
 10
6.8744137208
 20
16.1536277423
 30
0.0
 10
6.7815278355
 20
16.1105853196
 30
0.0
 10
6.7041463877
 20
16.0713182021
 30
0.0
 10
6.6396929932
 20
16.0360621546
 30
0.0
 10
6.5859272866
 20
16.0048739041
 30
0.0
 10
6.5409454211
 20
15.9776190125
 30
0.0
 10
6.5031687831
 20
15.9538710361
 30
0.0
 10
6.4713288367
 20
15.9332333113
 30
0.0
 10
6.4444634549
 20
15.9153786621
 30
0.0
 10
6.4218088804
 20
15.9000326454
 30
0.0
 10
6.4026921834
 20
15.8868904898
 30
0.0
 10
6.3865410885
 20
15.8756146166
 30
0.0
 10
6.3728466305
 20
15.8659087333
 30
0.0
 10
6.361175912
 20
15.8575154597
 30
0.0
 10
6.3512004186
 20
15.8502413753
 30
0.0
 10
6.3427018454
 20
15.8439650603
 30
0.0
 10
6.3355421126
 20
15.8386194257
 30
0.0
 10
6.3296010834
 20
15.8341462959
 30
0.0
 10
6.3247303684
 20
15.8304637587
 30
0.0
 10
6.3207675341
 20
15.8274657412
 30
0.0
 10
6.3175515262
 20
15.8250378642
 30
0.0
 10
6.3149436778
 20
15.8230774501
 30
0.0
 10
6.3128295394
 20
15.8214975142
 30
0.0
 10
6.3111191699
 20
15.8202284738
 30
0.0
 10
6.3097453631
 20
15.8192174949
 30
0.0
 10
6.3086578638
 20
15.8184243785
 30
0.0
 10
6.3078153267
 20
15.817815758
 30
0.0
 10
6.3071798822
 20
15.8173612077
 30
0.0
 10
6.3067169838
 20
15.817033415
 30
0.0
 10
6.3063504212
 20
15.8167762572
 30
0.0
 10
6.3061340655
 20
15.8166266271
 30
0.0
 10
6.3060217842
 20
15.8165498197
 30
0.0
  0
SPLINE
  5
267
100
AcDbEntity
  8
0
100
AcDbSpline
 62
7
  6
BYLAYER
 70
0
 71
3
 72
23
 73
19
 74
0
 42
0.0000001
 43
0.0000001
 44
0.0000000001
 40
0.0
 40
0.0
 40
0.0
 40
0.0
 40
0.0615811559
 40
0.1235317562
 40
0.1856080421
 40
0.2474045106
 40
0.3096867266
 40
0.3721562649
 40
0.4345885887
 40
0.4968463987
 40
0.5592111178
 40
0.6216031425
 40
0.6842286237
 40
0.7471605551
 40
0.8099093218
 40
0.8731253399
 40
0.9365359172
 40
1.0
 40
1.0
 40
1.0
 40
1.0
 10
7.8060217842
 20
5.4377248031
 30
0.0
 10
8.1804150771
 20
5.4334790405
 30
0.0
 10
8.934346239
 20
5.4996059438
 30
0.0
 10
10.0242381234
 20
5.8181560442
 30
0.0
 10
11.0321749926
 20
6.3449513712
 30
0.0
 10
11.918832857
 20
7.0599852967
 30
0.0
 10
12.6508417121
 20
7.9360406863
 30
0.0
 10
13.1981536377
 20
8.942323007
 30
0.0
 10
13.5386003823
 20
10.0358692902
 30
0.0
 10
13.6583053569
 20
11.1741898
 30
0.0
 10
13.5550964776
 20
12.3138601543
 30
0.0
 10
13.2311453527
 20
13.4137287366
 30
0.0
 10
12.6984522799
 20
14.4329547327
 30
0.0
 10
11.9758857336
 20
15.3305939424
 30
0.0
 10
11.0898493184
 20
16.0727083667
 30
0.0
 10
10.0737378043
 20
16.6300932721
 30
0.0
 10
8.9645035173
 20
16.9791742112
 30
0.0
 10
8.1918655262
 20
17.0637932945
 30
0.0
 10
7.8060220039
 20
17.0679286716
 30
0.0
  0
SPLINE
  5
268
100
AcDbEntity
  8
0
100
AcDbSpline
 62
7
  6
BYLAYER
 70
0
 71
3
 72
14
 73
10
 74
0
 42
0.0000001
 43
0.0000001
 44
0.0000000001
 40
0.0
 40
0.0
 40
0.0
 40
0.0
 40
0.1423808612
 40
0.2848914386
 40
0.4273665851
 40
0.5700565192
 40
0.713028764
 40
0.8562152987
 40
1.0
 40
1.0
 40
1.0
 40
1.0
 10
7.8060220039
 20
17.0679286716
 30
0.0
 10
7.4292319537
 20
17.0719670157
 30
0.0
 10
6.6725960807
 20
17.007313832
 30
0.0
 10
5.5779926865
 20
16.6975277403
 30
0.0
 10
4.5611426704
 20
16.1847597671
 30
0.0
 10
3.6587353009
 20
15.4883645464
 30
0.0
 10
2.9031720218
 20
14.6321073626
 30
0.0
 10
2.3222479859
 20
13.6461389223
 30
0.0
 10
2.0654151327
 20
12.9256131696
 30
0.0
 10
1.972516277
 20
12.5566002018
 30
0.0
  0
SPLINE
  5
269
100
AcDbEntity
  8
0
100
AcDbSpline
 62
7
  6
BYLAYER
 70
0
 71
3
 72
17
 73
13
 74
0
 42
0.0000001
 43
0.0000001
 44
0.0000000001
 40
0.0
 40
0.0
 40
0.0
 40
0.0
 40
0.1013467567
 40
0.2023040995
 40
0.3028017215
 40
0.4036606597
 40
0.5043710465
 40
0.6043838738
 40
0.7040216135
 40
0.8035944573
 40
0.9022367177
 40
1.0
 40
1.0
 40
1.0
 40
1.0
 10
7.8060284975
 20
16.9322749987
 30
0.0
 10
8.1739662253
 20
16.9219982348
 30
0.0
 10
8.9083874623
 20
16.8301278367
 30
0.0
 10
9.9595443842
 20
16.4856046612
 30
0.0
 10
10.9246440362
 20
15.9477428473
 30
0.0
 10
11.7672538578
 20
15.2344283086
 30
0.0
 10
12.4552995394
 20
14.3732729007
 30
0.0
 10
12.9612398249
 20
13.398971565
 30
0.0
 10
13.2674707723
 20
12.3490890263
 30
0.0
 10
13.3635823353
 20
11.2645097087
 30
0.0
 10
13.2471301889
 20
10.1892485992
 30
0.0
 10
13.0324934373
 20
9.5034016763
 30
0.0
 10
12.8940389886
 20
9.1764421769
 30
0.0
  0
SPLINE
  5
26A
100
AcDbEntity
  8
0
100
AcDbSpline
 62
7
  6
BYLAYER
 70
0
 71
3
 72
23
 73
19
 74
0
 42
0.0000001
 43
0.0000001
 44
0.0000000001
 40
0.0
 40
0.0
 40
0.0
 40
0.0
 40
0.0615326125
 40
0.1234391902
 40
0.1854326243
 40
0.2470666184
 40
0.3092356576
 40
0.3716910191
 40
0.434185433
 40
0.4965354748
 40
0.5590024219
 40
0.6214605548
 40
0.6841175795
 40
0.7470201906
 40
0.8097625331
 40
0.8729893246
 40
0.9364277816
 40
1.0
 40
1.0
 40
1.0
 40
1.0
 10
7.8060198296
 20
16.668039164
 30
0.0
 10
7.4447812633
 20
16.6722629638
 30
0.0
 10
6.7172452318
 20
16.6090679965
 30
0.0
 10
5.6657723303
 20
16.3018559505
 30
0.0
 10
4.6936068166
 20
15.7947737846
 30
0.0
 10
3.8385604881
 20
15.1062973339
 30
0.0
 10
3.1317811553
 20
14.2625853691
 30
0.0
 10
2.6020090313
 20
13.2919992161
 30
0.0
 10
2.2718420609
 20
12.2356186482
 30
0.0
 10
2.1546353636
 20
11.135031615
 30
0.0
 10
2.2540297623
 20
10.032948947
 30
0.0
 10
2.5662740214
 20
8.9694689281
 30
0.0
 10
3.0808681101
 20
7.9849184281
 30
0.0
 10
3.7779287688
 20
7.1176540865
 30
0.0
 10
4.6332457349
 20
6.4009361229
 30
0.0
 10
5.6141864301
 20
5.8619320857
 30
0.0
 10
6.6859511101
 20
5.5239346709
 30
0.0
 10
7.4328078211
 20
5.4419571848
 30
0.0
 10
7.8060217842
 20
5.4377247963
 30
0.0
  0
SPLINE
  5
26B
100
AcDbEntity
  8
0
100
AcDbSpline
 62
7
  6
BYLAYER
 70
0
 71
3
 72
11
 73
7
 74
0
 42
0.0000001
 43
0.0000001
 44
0.0000000001
 40
0.0
 40
0.0
 40
0.0
 40
0.0
 40
0.312968812
 40
0.623277231
 40
0.9277736932
 40
1.0
 40
1.0
 40
1.0
 40
1.0
 10
7.80607283
 20
17.1478510433
 30
0.0
 10
7.4134436185
 20
17.1465109864
 30
0.0
 10
6.6298619625
 20
17.0677892441
 30
0.0
 10
5.5077293721
 20
16.7338729024
 30
0.0
 10
4.7402557801
 20
16.3290702522
 30
0.0
 10
4.3518683242
 20
16.058316353
 30
0.0
 10
4.278653377
 20
16.0046979075
 30
0.0
  0
SPLINE
  5
26C
100
AcDbEntity
  8
0
100
AcDbSpline
 62
7
  6
BYLAYER
 70
0
 71
3
 72
254
 73
250
 74
0
 42
0.0000001
 43
0.0000001
 44
0.0000000001
 40
0.0
 40
0.0
 40
0.0
 40
0.0
 40
0.0038551931
 40
0.0077408685
 40
0.0116561772
 40
0.0156168755
 40
0.0196405645
 40
0.0237267152
 40
0.0278638131
 40
0.0320141721
 40
0.0361342134
 40
0.0401780652
 40
0.0441203218
 40
0.0480472976
 40
0.0520555586
 40
0.0561417785
 40
0.0602752488
 40
0.064420392
 40
0.0685389966
 40
0.0725859135
 40
0.0765328864
 40
0.0804619528
 40
0.0844704246
 40
0.0885571147
 40
0.0926911215
 40
0.0968369851
 40
0.1009566031
 40
0.1050053728
 40
0.108953268
 40
0.1128799894
 40
0.1168856036
 40
0.1209710482
 40
0.1251044607
 40
0.1292503649
 40
0.1333708283
 40
0.1374219999
 40
0.1413723937
 40
0.1452984133
 40
0.1493017956
 40
0.1533860206
 40
0.1575187959
 40
0.1616647011
 40
0.1657859156
 40
0.1698392076
 40
0.1737916988
 40
0.1777166587
 40
0.18171769
 40
0.1858008243
 40
0.1899330667
 40
0.1940790222
 40
0.1982010399
 40
0.2022564
 40
0.2062108606
 40
0.2101345725
 40
0.2141330672
 40
0.218215072
 40
0.2223467959
 40
0.2264927541
 40
0.2306154076
 40
0.2346728311
 40
0.2386299588
 40
0.2425533195
 40
0.2465495383
 40
0.2506302747
 40
0.2547613599
 40
0.2589073594
 40
0.2630308801
 40
0.2670902437
 40
0.2710489965
 40
0.2749706355
 40
0.2789639568
 40
0.2830435599
 40
0.2871741965
 40
0.291320175
 40
0.2954442147
 40
0.2995055595
 40
0.3034674762
 40
0.3073894815
 40
0.3113806641
 40
0.3154588437
 40
0.319588791
 40
0.3237348157
 40
0.3278596312
 40
0.3319228328
 40
0.3358868166
 40
0.3398077234
 40
0.343796114
 40
0.3478730366
 40
0.3520024792
 40
0.3561484955
 40
0.3602738956
 40
0.3643389177
 40
0.3683056457
 40
0.3722264601
 40
0.3762124366
 40
0.3802879672
 40
0.3844168017
 40
0.3885628305
 40
0.3926888653
 40
0.396755627
 40
0.4007248578
 40
0.4046452991
 40
0.4086286962
 40
0.4127028509
 40
0.416831107
 40
0.4209771257
 40
0.4251038098
 40
0.4291722753
 40
0.4331438655
 40
0.4370637313
 40
0.4410443675
 40
0.4451171048
 40
0.4492448296
 40
0.4533908381
 40
0.457518039
 40
0.4615881296
 40
0.4655626237
 40
0.469482879
 40
0.4734612062
 40
0.4775324164
 40
0.4816594484
 40
0.4858054362
 40
0.4899333796
 40
0.4940051377
 40
0.4979816548
 40
0.501900817
 40
0.5058759568
 40
0.5099456679
 40
0.514072245
 40
0.5182182157
 40
0.5223465894
 40
0.526419859
 40
0.5303995891
 40
0.5343198542
 40
0.5382929945
 40
0.5423610507
 40
0.5464868621
 40
0.5506328198
 40
0.5547618603
 40
0.5588366677
 40
0.5628187322
 40
0.5667386169
 40
0.570708876
 40
0.5747753221
 40
0.5789005953
 40
0.5830465287
 40
0.5871760728
 40
0.5912523083
 40
0.5952371618
 40
0.5991576323
 40
0.6031255528
 40
0.6071903081
 40
0.6113149104
 40
0.6154608195
 40
0.6195909145
 40
0.623668537
 40
0.6276559991
 40
0.6315768516
 40
0.6355422873
 40
0.639605317
 40
0.6437292651
 40
0.6478751276
 40
0.6520058015
 40
0.6560848258
 40
0.6600747337
 40
0.6639956904
 40
0.6679583992
 40
0.672019621
 40
0.6761429646
 40
0.6802888017
 40
0.6844199514
 40
0.6885002432
 40
0.6924929758
 40
0.6964150412
 40
0.7003756974
 40
0.7044350761
 40
0.7085576272
 40
0.7127033851
 40
0.7168351928
 40
0.7209169144
 40
0.7249118187
 40
0.7288335316
 40
0.7327910394
 40
0.7368484511
 40
0.7409704668
 40
0.7451162123
 40
0.749248437
 40
0.7533312988
 40
0.7573291348
 40
0.7612525819
 40
0.7652084771
 40
0.7692639631
 40
0.7733850976
 40
0.7775307692
 40
0.7816635991
 40
0.7857477323
 40
0.7897478785
 40
0.7936716921
 40
0.7976249332
 40
0.80167837
 40
0.8057988551
 40
0.8099444905
 40
0.8140778053
 40
0.8181630735
 40
0.8221657933
 40
0.8260908697
 40
0.8300421503
 40
0.8340935315
 40
0.8382132005
 40
0.8423587532
 40
0.8464925671
 40
0.8505789289
 40
0.854584037
 40
0.8585101899
 40
0.8624593812
 40
0.866508654
 40
0.8706275598
 40
0.8747730793
 40
0.8789074965
 40
0.8829950815
 40
0.8870024617
 40
0.8909293363
 40
0.8948760367
 40
0.8989229188
 40
0.9030409674
 40
0.9071864124
 40
0.9113213854
 40
0.9154102105
 40
0.9194204811
 40
0.9233497169
 40
0.9272955016
 40
0.9313405493
 40
0.9354575869
 40
0.9396022942
 40
0.9437367125
 40
0.947825088
 40
0.951835195
 40
0.9557623424
 40
0.9597034289
 40
0.9637454953
 40
0.9678637933
 40
0.9720131744
 40
0.9761516737
 40
0.9802418959
 40
0.9842653734
 40
0.9882186133
 40
0.9921408481
 40
0.9960693723
 40
1.0
 40
1.0
 40
1.0
 40
1.0
 10
7.806000102
 20
16.6060303193
 30
0.0
 10
7.6342941697
 20
16.6064776136
 30
0.0
 10
7.2892646792
 20
16.591474031
 30
0.0
 10
6.7742703602
 20
16.5202063824
 30
0.0
 10
6.2638970532
 20
16.3982941466
 30
0.0
 10
5.7627090294
 20
16.2231259179
 30
0.0
 10
5.274816856
 20
15.9952105299
 30
0.0
 10
4.8050831262
 20
15.7161978213
 30
0.0
 10
4.3604665309
 20
15.3890622258
 30
0.0
 10
3.9489426254
 20
15.0188992219
 30
0.0
 10
3.5785743374
 20
14.6131628295
 30
0.0
 10
3.2555987554
 20
14.1803035041
 30
0.0
 10
2.9814908957
 20
13.72495344
 30
0.0
 10
2.7557360367
 20
13.2455312162
 30
0.0
 10
2.5770614754
 20
12.7398593374
 30
0.0
 10
2.4470628819
 20
12.2100682026
 30
0.0
 10
2.3689411504
 20
11.6640202356
 30
0.0
 10
2.3446927784
 20
11.1115017573
 30
0.0
 10
2.3746256824
 20
10.5631199117
 30
0.0
 10
2.4571703341
 20
10.0291040574
 30
0.0
 10
2.5900653303
 20
9.514045298
 30
0.0
 10
2.7739877527
 20
9.0167373095
 30
0.0
 10
3.0095972079
 20
8.5348141566
 30
0.0
 10
3.2964920719
 20
8.0707790068
 30
0.0
 10
3.6313548881
 20
7.6323462644
 30
0.0
 10
4.008604391
 20
7.2277980062
 30
0.0
 10
4.4209175993
 20
6.8647663129
 30
0.0
 10
4.8598665538
 20
6.5493409512
 30
0.0
 10
5.3204491397
 20
6.2832018373
 30
0.0
 10
5.8039255339
 20
6.065968038
 30
0.0
 10
6.3125597668
 20
5.8964243656
 30
0.0
 10
6.8444411614
 20
5.7759623535
 30
0.0
 10
7.3917979769
 20
5.7076351895
 30
0.0
 10
7.9447759946
 20
5.6932817252
 30
0.0
 10
8.4928401425
 20
5.7330401096
 30
0.0
 10
9.0257144233
 20
5.825189814
 30
0.0
 10
9.538517158
 20
5.9673116627
 30
0.0
 10
10.032283744
 20
6.1599616239
 30
0.0
 10
10.5094995993
 20
6.4039306519
 30
0.0
 10
10.9680002013
 20
6.6988667665
 30
0.0
 10
11.40023539
 20
7.0414302424
 30
0.0
 10
11.7979714957
 20
7.4258808467
 30
0.0
 10
12.1537425576
 20
7.8448349831
 30
0.0
 10
12.4615390693
 20
8.2897481461
 30
0.0
 10
12.7195678212
 20
8.7552971067
 30
0.0
 10
12.928142691
 20
9.2424867282
 30
0.0
 10
13.0884460351
 20
9.7537049617
 30
0.0
 10
13.1992955733
 20
10.2873053209
 30
0.0
 10
13.2577821508
 20
10.8356474964
 30
0.0
 10
13.2622176591
 20
11.388813212
 30
0.0
 10
13.2126241799
 20
11.9363341011
 30
0.0
 10
13.1108685324
 20
12.4679034255
 30
0.0
 10
12.959529009
 20
12.9783374312
 30
0.0
 10
12.7581887441
 20
13.4684733562
 30
0.0
 10
12.5059277146
 20
13.9408834633
 30
0.0
 10
12.2030424046
 20
14.3937346397
 30
0.0
 10
11.8528819342
 20
14.8196534134
 30
0.0
 10
11.4613529346
 20
15.2104511034
 30
0.0
 10
11.0359046367
 20
15.5588252942
 30
0.0
 10
10.5851799682
 20
15.8588696896
 30
0.0
 10
10.1148149444
 20
16.1086916658
 30
0.0
 10
9.6240696356
 20
16.3085471355
 30
0.0
 10
9.1104429324
 20
16.459573935
 30
0.0
 10
8.5753113727
 20
16.5607901187
 30
0.0
 10
8.0261646886
 20
16.609426742
 30
0.0
 10
7.4729911323
 20
16.6039458091
 30
0.0
 10
6.9262005354
 20
16.544528431
 30
0.0
 10
6.3961089351
 20
16.4331890219
 30
0.0
 10
5.8881968831
 20
16.2726699293
 30
0.0
 10
5.4018350705
 20
16.0627098802
 30
0.0
 10
4.9343801781
 20
15.8022620323
 30
0.0
 10
4.4873295117
 20
15.4915551101
 30
0.0
 10
4.0678634015
 20
15.1339278211
 30
0.0
 10
3.684128339
 20
14.7354547747
 30
0.0
 10
3.343272533
 20
14.3036574068
 30
0.0
 10
3.0510858559
 20
13.8472646891
 30
0.0
 10
2.8095513343
 20
13.3722236519
 30
0.0
 10
2.6184638379
 20
12.8780750681
 30
0.0
 10
2.4767392451
 20
12.3622170984
 30
0.0
 10
2.3851660989
 20
11.8257462236
 30
0.0
 10
2.3463774429
 20
11.2759797955
 30
0.0
 10
2.3617620236
 20
10.7229850579
 30
0.0
 10
2.4309792816
 20
10.177117067
 30
0.0
 10
2.5518744441
 20
9.6486485112
 30
0.0
 10
2.7215552947
 20
9.1433317553
 30
0.0
 10
2.940114307
 20
8.660794026
 30
0.0
 10
3.2086920763
 20
8.1983915411
 30
0.0
 10
3.527116757
 20
7.7572889941
 30
0.0
 10
3.8920896143
 20
7.3444260877
 30
0.0
 10
4.2973836869
 20
6.9678891733
 30
0.0
 10
4.7353962613
 20
6.6346847377
 30
0.0
 10
5.1973168853
 20
6.3504786494
 30
0.0
 10
5.6768911721
 20
6.117331683
 30
0.0
 10
6.1742901049
 20
5.935078149
 30
0.0
 10
6.6922082651
 20
5.8026943833
 30
0.0
 10
7.2298352947
 20
5.7207872445
 30
0.0
 10
7.7800413725
 20
5.691859675
 30
0.0
 10
8.3326765049
 20
5.7171506982
 30
0.0
 10
8.8774284573
 20
5.7961596387
 30
0.0
 10
9.4040853485
 20
5.9265908641
 30
0.0
 10
9.906639253
 20
6.1053986524
 30
0.0
 10
10.3852080358
 20
6.3324947594
 30
0.0
 10
10.8424200336
 20
6.6091099417
 30
0.0
 10
11.2774346024
 20
6.9351377143
 30
0.0
 10
11.68355977
 20
7.3073333834
 30
0.0
 10
12.0527709511
 20
7.7193179601
 30
0.0
 10
12.3781975643
 20
8.1634006144
 30
0.0
 10
12.6543097458
 20
8.6307013752
 30
0.0
 10
12.8789813095
 20
9.1146650062
 30
0.0
 10
13.0523464946
 20
9.6151635939
 30
0.0
 10
13.1753613331
 20
10.1349711769
 30
0.0
 10
13.2475896463
 20
10.6735680507
 30
0.0
 10
13.2666535491
 20
11.2240295796
 30
0.0
 10
13.231464102
 20
11.7761243665
 30
0.0
 10
13.1426825723
 20
12.319570851
 30
0.0
 10
13.0027448215
 20
12.8442323633
 30
0.0
 10
12.814853449
 20
13.3438610547
 30
0.0
 10
12.5792900874
 20
13.8183196716
 30
0.0
 10
12.2947400876
 20
14.2702048753
 30
0.0
 10
11.9612362872
 20
14.6989930016
 30
0.0
 10
11.5819530598
 20
15.0982494636
 30
0.0
 10
11.1634161447
 20
15.4600162599
 30
0.0
 10
10.7134109121
 20
15.77755159
 30
0.0
 10
10.2408779364
 20
16.0454688941
 30
0.0
 10
9.7526692419
 20
16.2615874947
 30
0.0
 10
9.2492247369
 20
16.4260181616
 30
0.0
 10
8.7277049767
 20
16.5396446276
 30
0.0
 10
8.188332248
 20
16.6021914715
 30
0.0
 10
7.637805018
 20
16.6114006782
 30
0.0
 10
7.0864293301
 20
16.5663323331
 30
0.0
 10
6.5444694678
 20
16.4678077505
 30
0.0
 10
6.0219803799
 20
16.318402189
 30
0.0
 10
5.5254380133
 20
16.1214805614
 30
0.0
 10
5.0552328747
 20
15.877531945
 30
0.0
 10
4.6088098928
 20
15.5851629971
 30
0.0
 10
4.1863794613
 20
15.2443206566
 30
0.0
 10
3.7941122838
 20
14.8580924938
 30
0.0
 10
3.4399012582
 20
14.4331509066
 30
0.0
 10
3.1303652529
 20
13.9773850614
 30
0.0
 10
2.8707248998
 20
13.4997619412
 30
0.0
 10
2.6631987751
 20
13.0073889184
 30
0.0
 10
2.507717726
 20
12.5010438551
 30
0.0
 10
2.4034954034
 20
11.9779003
 30
0.0
 10
2.3506476151
 20
11.4379144979
 30
0.0
 10
2.3513013307
 20
10.8875155822
 30
0.0
 10
2.4062455936
 20
10.3370439168
 30
0.0
 10
2.5144998311
 20
9.7967574278
 30
0.0
 10
2.673348326
 20
9.2766295309
 30
0.0
 10
2.8792592548
 20
8.7833470655
 30
0.0
 10
3.1315262927
 20
8.3175465117
 30
0.0
 10
3.4316156209
 20
7.8767239226
 30
0.0
 10
3.7796765548
 20
7.460786784
 30
0.0
 10
4.1727209836
 20
7.0756392676
 30
0.0
 10
4.6039342761
 20
6.7291050887
 30
0.0
 10
5.0653124295
 20
6.4276876803
 30
0.0
 10
5.54786746
 20
6.1764366713
 30
0.0
 10
6.0442503819
 20
5.9775919208
 30
0.0
 10
6.5533447782
 20
5.8311145214
 30
0.0
 10
7.0779496786
 20
5.7363189639
 30
0.0
 10
7.6183694371
 20
5.6931760207
 30
0.0
 10
8.1684541789
 20
5.7036879035
 30
0.0
 10
8.7178402883
 20
5.768493525
 30
0.0
 10
9.2562667555
 20
5.886451228
 30
0.0
 10
9.7738492548
 20
6.0547058678
 30
0.0
 10
10.2637087784
 20
6.2695567438
 30
0.0
 10
10.7249647508
 20
6.5300699346
 30
0.0
 10
11.1600559023
 20
6.8377740529
 30
0.0
 10
11.5693673616
 20
7.1929225764
 30
0.0
 10
11.9472683025
 20
7.5926415967
 30
0.0
 10
12.2860127954
 20
8.0299852796
 30
0.0
 10
12.5792050773
 20
8.4968252201
 30
0.0
 10
12.8219671689
 20
8.9841542123
 30
0.0
 10
13.0120525094
 20
9.4843928437
 30
0.0
 10
13.1494806945
 20
9.9960830734
 30
0.0
 10
13.2348354146
 20
10.521981207
 30
0.0
 10
13.2682777799
 20
11.0626487059
 30
0.0
 10
13.2479243426
 20
11.6122277984
 30
0.0
 10
13.1732835832
 20
12.1603478569
 30
0.0
 10
13.0456588351
 20
12.696735545
 30
0.0
 10
12.8680433443
 20
13.2115973297
 30
0.0
 10
12.6443093376
 20
13.6978777801
 30
0.0
 10
12.3756298866
 20
14.1544535305
 30
0.0
 10
12.0604256068
 20
14.5836863015
 30
0.0
 10
11.6983299989
 20
14.9862449977
 30
0.0
 10
11.2920874544
 20
15.3567790063
 30
0.0
 10
10.8487609957
 20
15.6876296288
 30
0.0
 10
10.376612912
 20
15.9725009511
 30
0.0
 10
9.8846718152
 20
16.20668433
 30
0.0
 10
9.38073847
 20
16.387940408
 30
0.0
 10
8.8666145553
 20
16.5162818906
 30
0.0
 10
8.3395972617
 20
16.5921923397
 30
0.0
 10
7.7988673584
 20
16.6159505925
 30
0.0
 10
7.2499799872
 20
16.5857840439
 30
0.0
 10
6.7033051543
 20
16.5013451288
 30
0.0
 10
6.1691434608
 20
16.3641035848
 30
0.0
 10
5.6571738153
 20
16.17718525
 30
0.0
 10
5.1745758474
 20
15.9446130042
 30
0.0
 10
4.7227268641
 20
15.6677948555
 30
0.0
 10
4.2994100574
 20
15.3451389974
 30
0.0
 10
3.9037123992
 20
14.9761969572
 30
0.0
 10
3.5406778806
 20
14.5635717908
 30
0.0
 10
3.2178413856
 20
14.114405772
 30
0.0
 10
2.9414017165
 20
13.6370979967
 30
0.0
 10
2.7159026082
 20
13.1407056828
 30
0.0
 10
2.5435596764
 20
12.6332357682
 30
0.0
 10
2.42435619
 20
12.1168297158
 30
0.0
 10
2.3579076001
 20
11.5888539824
 30
0.0
 10
2.3438328786
 20
11.0482399105
 30
0.0
 10
2.3837998989
 20
10.5002329365
 30
0.0
 10
2.4780156958
 20
9.9551849614
 30
0.0
 10
2.6248405577
 20
9.4234348952
 30
0.0
 10
2.8210150326
 20
8.9145495403
 30
0.0
 10
3.0623670762
 20
8.4358069728
 30
0.0
 10
3.3472502343
 20
7.9888266599
 30
0.0
 10
3.677256347
 20
7.5715472533
 30
0.0
 10
4.0529181936
 20
7.1828307461
 30
0.0
 10
4.4717815176
 20
6.8274149423
 30
0.0
 10
4.9266427504
 20
6.512699586
 30
0.0
 10
5.4089584735
 20
6.2447905506
 30
0.0
 10
5.9096381472
 20
6.028069608
 30
0.0
 10
6.4204819126
 20
5.8647140852
 30
0.0
 10
6.9390075794
 20
5.7546932546
 30
0.0
 10
7.4677635048
 20
5.6977174295
 30
0.0
 10
8.0080655098
 20
5.6933168266
 30
0.0
 10
8.5549932368
 20
5.7430607638
 30
0.0
 10
9.0982407259
 20
5.8470236459
 30
0.0
 10
9.6274246884
 20
6.0033966615
 30
0.0
 10
10.1330828539
 20
6.2087886003
 30
0.0
 10
10.6078569557
 20
6.458880725
 30
0.0
 10
11.049885439
 20
6.7517793455
 30
0.0
 10
11.4610537766
 20
7.0890505248
 30
0.0
 10
11.8426940695
 20
7.4713003799
 30
0.0
 10
12.1903670119
 20
7.89621516
 30
0.0
 10
12.4968207819
 20
8.3565397771
 30
0.0
 10
12.7560465414
 20
8.8435761653
 30
0.0
 10
12.9638320955
 20
9.3481993868
 30
0.0
 10
13.1180654034
 20
9.8620465062
 30
0.0
 10
13.2188136682
 20
10.3823348019
 30
0.0
 10
13.2662745745
 20
10.911575713
 30
0.0
 10
13.2609894048
 20
11.4514153738
 30
0.0
 10
13.201446568
 20
11.9973353008
 30
0.0
 10
13.0876759598
 20
12.5389656863
 30
0.0
 10
12.9217258305
 20
13.0656378175
 30
0.0
 10
12.7070580548
 20
13.5683041298
 30
0.0
 10
12.4477559425
 20
14.0400788293
 30
0.0
 10
12.1466406156
 20
14.4772999385
 30
0.0
 10
11.8054028808
 20
14.8784114563
 30
0.0
 10
11.4274790265
 20
15.2435530394
 30
0.0
 10
11.1532091416
 20
15.4620398774
 30
0.0
 10
11.0113094379
 20
15.5645712524
 30
0.0
  0
SPLINE
  5
26D
100
AcDbEntity
  8
0
100
AcDbSpline
 62
7
  6
BYLAYER
 70
0
 71
3
 72
254
 73
250
 74
0
 42
0.0000001
 43
0.0000001
 44
0.0000000001
 40
0.0
 40
0.0
 40
0.0
 40
0.0
 40
0.0039517404
 40
0.0078923691
 40
0.0118160788
 40
0.0157664643
 40
0.0197894672
 40
0.0238805787
 40
0.0280189819
 40
0.0321673479
 40
0.0362842667
 40
0.0403249534
 40
0.044264988
 40
0.0481916163
 40
0.0522017932
 40
0.0562903313
 40
0.060424463
 40
0.0645683681
 40
0.06868418
 40
0.0727279237
 40
0.0766727138
 40
0.0806014289
 40
0.0846116772
 40
0.0887005645
 40
0.0928352134
 40
0.096979882
 40
0.1010967793
 40
0.105142437
 40
0.1090881883
 40
0.1130145237
 40
0.117021788
 40
0.1211093384
 40
0.1252433972
 40
0.1293881701
 40
0.1335060056
 40
0.1375541409
 40
0.1415024319
 40
0.1454280293
 40
0.1494329301
 40
0.1535191583
 40
0.1576525746
 40
0.1617974065
 40
0.1659160846
 40
0.1699664166
 40
0.1739168475
 40
0.1778413552
 40
0.1818437801
 40
0.1859288155
 40
0.1900616902
 40
0.1942066273
 40
0.1983261992
 40
0.2023786756
 40
0.2063311181
 40
0.2102543513
 40
0.2142541184
 40
0.2183379198
 40
0.2224702637
 40
0.2266152564
 40
0.2307355543
 40
0.2347901701
 40
0.238745319
 40
0.242668176
 40
0.2466655522
 40
0.2507479833
 40
0.2548796734
 40
0.2590247562
 40
0.2631460105
 40
0.2672026436
 40
0.2711594589
 40
0.2750805732
 40
0.2790749401
 40
0.2831561327
 40
0.2872873543
 40
0.2914324629
 40
0.2955543264
 40
0.29961302
 40
0.3035730389
 40
0.3074944988
 40
0.3114866192
 40
0.315566284
 40
0.319696793
 40
0.3238419911
 40
0.3279647193
 40
0.3320253508
 40
0.3359874794
 40
0.3399078247
 40
0.3438970486
 40
0.3479753485
 40
0.3521053244
 40
0.3562505547
 40
0.3603739573
 40
0.3644364926
 40
0.3684014076
 40
0.3723216443
 40
0.3763083534
 40
0.3803851544
 40
0.384514491
 40
0.3886597714
 40
0.3927838958
 40
0.396848254
 40
0.4008157151
 40
0.4047355665
 40
0.4087196005
 40
0.4127949183
 40
0.4169236412
 40
0.4210689459
 40
0.4251938064
 40
0.4292599535
 40
0.433229817
 40
0.4371490807
 40
0.4411302617
 40
0.4452040562
 40
0.44933221
 40
0.4534775359
 40
0.4576029977
 40
0.4616708549
 40
0.4656436662
 40
0.4695633093
 40
0.4735420937
 40
0.4776142562
 40
0.4817416757
 40
0.4858870087
 40
0.4900132966
 40
0.4940829095
 40
0.4980577894
 40
0.5019763298
 40
0.5059518417
 40
0.5100223997
 40
0.5141493192
 40
0.5182946601
 40
0.5224214609
 40
0.5264926748
 40
0.5304708146
 40
0.5343904494
 40
0.5383638802
 40
0.5424326787
 40
0.5465587843
 40
0.5507041334
 40
0.5548316817
 40
0.558904525
 40
0.5628850488
 40
0.5668042965
 40
0.5707747675
 40
0.5748418507
 40
0.5789673662
 40
0.5831127096
 40
0.5872408404
 40
0.5913152042
 40
0.5952985676
 40
0.599218395
 40
0.603186452
 40
0.6072517414
 40
0.611376532
 40
0.6155218663
 40
0.619650624
 40
0.6237264678
 40
0.6277124925
 40
0.6316326978
 40
0.6355981982
 40
0.6396616597
 40
0.643785739
 40
0.6479310385
 40
0.6520604493
 40
0.6561377894
 40
0.6601263143
 40
0.6640466195
 40
0.6680093233
 40
0.6720708766
 40
0.6761942925
 40
0.6803395752
 40
0.6844695332
 40
0.6885482359
 40
0.6925396426
 40
0.696461054
 40
0.7004216385
 40
0.704481249
 40
0.7086038103
 40
0.7127490189
 40
0.7168797046
 40
0.7209599347
 40
0.7249535732
 40
0.7288746295
 40
0.7328320001
 40
0.7368895448
 40
0.7410115067
 40
0.745156705
 40
0.7492878743
 40
0.7533693424
 40
0.7573659756
 40
0.7612887656
 40
0.7652444607
 40
0.7692999821
 40
0.7734209962
 40
0.7775661193
 40
0.7816979577
 40
0.7857807966
 40
0.7897798059
 40
0.7937029627
 40
0.7976559425
 40
0.8017093183
 40
0.8058296146
 40
0.8099746973
 40
0.8141070815
 40
0.8181911541
 40
0.8221928056
 40
0.8261172272
 40
0.8300681873
 40
0.834119413
 40
0.8382388233
 40
0.8423838156
 40
0.8465167566
 40
0.8506020224
 40
0.8546061341
 40
0.8585316355
 40
0.8624804488
 40
0.8665294728
 40
0.8706480484
 40
0.8747929968
 40
0.8789265957
 40
0.8830131845
 40
0.8870196431
 40
0.8909458705
 40
0.8948921364
 40
0.8989386778
 40
0.9030563235
 40
0.907201184
 40
0.9113353905
 40
0.9154233202
 40
0.9194327485
 40
0.9233613438
 40
0.9273066384
 40
0.9313512535
 40
0.9354678123
 40
0.9396119166
 40
0.9437456157
 40
0.9478331952
 40
0.9518425413
 40
0.955769056
 40
0.9597096014
 40
0.9637511527
 40
0.9678688947
 40
0.9720176416
 40
0.976155482
 40
0.9802450453
 40
0.984267807
 40
0.988220338
 40
0.9921420627
 40
0.9960701183
 40
1.0
 40
1.0
 40
1.0
 40
1.0
 10
12.9922913279
 20
12.8379927013
 30
0.0
 10
12.938338848
 20
13.005526202
 30
0.0
 10
12.8146929001
 20
13.3352513615
 30
0.0
 10
12.5832098863
 20
13.8087538038
 30
0.0
 10
12.3065382525
 20
14.2574095387
 30
0.0
 10
11.9834534293
 20
14.6785499901
 30
0.0
 10
11.614665751
 20
15.0705789129
 30
0.0
 10
11.2026495838
 20
15.4297644271
 30
0.0
 10
10.7527980297
 20
15.7499916492
 30
0.0
 10
10.2727230263
 20
16.0251496683
 30
0.0
 10
9.7719107415
 20
16.2500401737
 30
0.0
 10
9.2601643479
 20
16.4214657028
 30
0.0
 10
8.7422042785
 20
16.539474426
 30
0.0
 10
8.2162689323
 20
16.6040556423
 30
0.0
 10
7.679915801
 20
16.6158001345
 30
0.0
 10
7.1358112088
 20
16.5737648317
 30
0.0
 10
6.5926096995
 20
16.4773866239
 30
0.0
 10
6.0603091203
 20
16.3278729656
 30
0.0
 10
5.5490150137
 20
16.1282636846
 30
0.0
 10
5.0678261344
 20
15.8832096608
 30
0.0
 10
4.6202779227
 20
15.5961937806
 30
0.0
 10
4.2053653645
 20
15.266113116
 30
0.0
 10
3.8210201108
 20
14.8916644123
 30
0.0
 10
3.4696548448
 20
14.4740466324
 30
0.0
 10
3.1576721885
 20
14.0189601618
 30
0.0
 10
2.8912193161
 20
13.5343803122
 30
0.0
 10
2.6752027059
 20
13.0296165409
 30
0.0
 10
2.5127128412
 20
12.5144639978
 30
0.0
 10
2.4037696244
 20
11.9940490607
 30
0.0
 10
2.3484180031
 20
11.4669499617
 30
0.0
 10
2.3461457504
 20
10.9306591121
 30
0.0
 10
2.3977624151
 20
10.3875578274
 30
0.0
 10
2.5037220242
 20
9.8461522646
 30
0.0
 10
2.6626506247
 20
9.3164555455
 30
0.0
 10
2.8713719546
 20
8.8084622561
 30
0.0
 10
3.1250786389
 20
8.3312777075
 30
0.0
 10
3.4200413969
 20
7.8886718774
 30
0.0
 10
3.7571965279
 20
7.4797742241
 30
0.0
 10
4.1380105088
 20
7.1024377674
 30
0.0
 10
4.5614417807
 20
6.758753767
 30
0.0
 10
5.0218324813
 20
6.4549540249
 30
0.0
 10
5.5110742535
 20
6.1970934409
 30
0.0
 10
6.0198460119
 20
5.9899107902
 30
0.0
 10
6.538260743
 20
5.8363917097
 30
0.0
 10
7.0608419078
 20
5.7365649259
 30
0.0
 10
7.5887418637
 20
5.6904666562
 30
0.0
 10
8.1245809522
 20
5.6976520094
 30
0.0
 10
8.6663079868
 20
5.7588063119
 30
0.0
 10
9.2056012362
 20
5.8742911454
 30
0.0
 10
9.732434188
 20
6.0425738746
 30
0.0
 10
10.236915245
 20
6.26034907
 30
0.0
 10
10.7099455094
 20
6.5226617379
 30
0.0
 10
11.1475097756
 20
6.8255315091
 30
0.0
 10
11.5503247725
 20
7.1697008352
 30
0.0
 10
11.920584151
 20
7.5567883777
 30
0.0
 10
12.2565092868
 20
7.9859123684
 30
0.0
 10
12.5520470795
 20
8.4514739239
 30
0.0
 10
12.8012347959
 20
8.9452246461
 30
0.0
 10
12.9995007553
 20
9.4578264924
 30
0.0
 10
13.1439803803
 20
9.9793244569
 30
0.0
 10
13.2346464107
 20
10.5039044342
 30
0.0
 10
13.2714846278
 20
11.0324427582
 30
0.0
 10
13.2548626741
 20
11.5676581051
 30
0.0
 10
13.1842094915
 20
12.1078309101
 30
0.0
 10
13.059246261
 20
12.644840624
 30
0.0
 10
12.881665435
 20
13.1686427157
 30
0.0
 10
12.6549030464
 20
13.6694409864
 30
0.0
 10
12.3840566709
 20
14.1381634818
 30
0.0
 10
12.0733604025
 20
14.5705563663
 30
0.0
 10
11.7222855769
 20
14.9671795075
 30
0.0
 10
11.3290672702
 20
15.3302572173
 30
0.0
 10
10.8944154112
 20
15.6583231919
 30
0.0
 10
10.4238461973
 20
15.9455121718
 30
0.0
 10
9.9257495053
 20
16.1859521581
 30
0.0
 10
9.4094889367
 20
16.3752322022
 30
0.0
 10
8.885072075
 20
16.5106175549
 30
0.0
 10
8.3586460357
 20
16.5920901088
 30
0.0
 10
7.8296235091
 20
16.6196709561
 30
0.0
 10
7.2952026061
 20
16.5936438064
 30
0.0
 10
6.7567647537
 20
16.5135423445
 30
0.0
 10
6.2222101682
 20
16.3791595711
 30
0.0
 10
5.7016090102
 20
16.1923495072
 30
0.0
 10
5.2046648057
 20
15.9566802088
 30
0.0
 10
4.7403751817
 20
15.677368935
 30
0.0
 10
4.3132136556
 20
15.3588820709
 30
0.0
 10
3.9228184604
 20
15.0009337944
 30
0.0
 10
3.5669928491
 20
14.6016655509
 30
0.0
 10
3.2468908531
 20
14.161627377
 30
0.0
 10
2.9681540914
 20
13.686209939
 30
0.0
 10
2.7365510111
 20
13.1839230933
 30
0.0
 10
2.5563405007
 20
12.6641678686
 30
0.0
 10
2.4301217124
 20
12.1369982586
 30
0.0
 10
2.3578931165
 20
11.6088871728
 30
0.0
 10
2.3395836836
 20
11.079540385
 30
0.0
 10
2.3749990336
 20
10.5460830585
 30
0.0
 10
2.4645136309
 20
10.0095569947
 30
0.0
 10
2.6082729178
 20
9.4776295438
 30
0.0
 10
2.8042600104
 20
8.9603988147
 30
0.0
 10
3.0487706551
 20
8.4674861219
 30
0.0
 10
3.3364724821
 20
8.0077983478
 30
0.0
 10
3.6626685732
 20
7.5860124542
 30
0.0
 10
4.0273899144
 20
7.2019587093
 30
0.0
 10
4.4325809082
 20
6.8534833323
 30
0.0
 10
4.8778562928
 20
6.5414393334
 30
0.0
 10
5.357966313
 20
6.2712424816
 30
0.0
 10
5.8642827954
 20
6.0485557444
 30
0.0
 10
6.3873596365
 20
5.8774889218
 30
0.0
 10
6.9171111551
 20
5.7604977692
 30
0.0
 10
7.4467486323
 20
5.6975517326
 30
0.0
 10
7.9762654787
 20
5.688517612
 30
0.0
 10
8.5085940455
 20
5.733294356
 30
0.0
 10
9.0430322349
 20
5.8321765242
 30
0.0
 10
9.5721603042
 20
5.9852582044
 30
0.0
 10
10.0858544279
 20
6.1903599404
 30
0.0
 10
10.5745650109
 20
6.4436372424
 30
0.0
 10
11.0294893164
 20
6.7396473849
 30
0.0
 10
11.4457625745
 20
7.0734647171
 30
0.0
 10
11.8233670882
 20
7.4448523722
 30
0.0
 10
12.1643989788
 20
7.8558300862
 30
0.0
 10
12.4682962866
 20
8.306182621
 30
0.0
 10
12.7298728888
 20
8.7908191072
 30
0.0
 10
12.943574642
 20
9.3010002514
 30
0.0
 10
13.1054365876
 20
9.8272274402
 30
0.0
 10
13.2131506772
 20
10.3593938057
 30
0.0
 10
13.2667852886
 20
10.8904018404
 30
0.0
 10
13.2665486625
 20
11.4199340661
 30
0.0
 10
13.2124474404
 20
11.9509650482
 30
0.0
 10
13.1042552051
 20
12.4831350877
 30
0.0
 10
12.9419178991
 20
13.0092898539
 30
0.0
 10
12.7277741934
 20
13.5192866571
 30
0.0
 10
12.4658121266
 20
14.0036357599
 30
0.0
 10
12.1615822175
 20
14.4536444031
 30
0.0
 10
11.8202404047
 20
14.8642723987
 30
0.0
 10
11.4423051821
 20
15.2353214067
 30
0.0
 10
11.025689267
 20
15.5688211393
 30
0.0
 10
10.5704275077
 20
15.8644928427
 30
0.0
 10
10.0814345626
 20
16.1173809051
 30
0.0
 10
9.5675605171
 20
16.3220388642
 30
0.0
 10
9.0383661555
 20
16.4746443608
 30
0.0
 10
8.5039402305
 20
16.5730480313
 30
0.0
 10
7.9716449521
 20
16.6173586365
 30
0.0
 10
7.4421392904
 20
16.6078513563
 30
0.0
 10
6.9124893315
 20
16.5444382998
 30
0.0
 10
6.3827429498
 20
16.4269694988
 30
0.0
 10
5.859744916
 20
16.2554282793
 30
0.0
 10
5.353617255
 20
16.0323014633
 30
0.0
 10
4.87379949
 20
15.76172291
 30
0.0
 10
4.4288742487
 20
15.449352193
 30
0.0
 10
4.0240398632
 20
15.100574626
 30
0.0
 10
3.6596648393
 20
14.7161982938
 30
0.0
 10
3.3337939522
 20
14.2940769349
 30
0.0
 10
3.046436406
 20
13.8340583846
 30
0.0
 10
2.802318849
 20
13.3408686337
 30
0.0
 10
2.6067773771
 20
12.823462535
 30
0.0
 10
2.463495013
 20
12.2914749327
 30
0.0
 10
2.3744590921
 20
11.7549698003
 30
0.0
 10
2.3395092011
 20
11.2215561627
 30
0.0
 10
2.3582913166
 20
10.6922316912
 30
0.0
 10
2.4309871566
 20
10.1641185029
 30
0.0
 10
2.5576829246
 20
9.6369628276
 30
0.0
 10
2.7383667318
 20
9.1172929054
 30
0.0
 10
2.9704079359
 20
8.6151994185
 30
0.0
 10
3.2495225464
 20
8.1400790666
 30
0.0
 10
3.569945152
 20
7.7003972576
 30
0.0
 10
3.9260649621
 20
7.3014924494
 30
0.0
 10
4.3167743394
 20
6.9438978459
 30
0.0
 10
4.7442640884
 20
6.625743529
 30
0.0
 10
5.2088777927
 20
6.3467821485
 30
0.0
 10
5.706093686
 20
6.1115096925
 30
0.0
 10
6.2268656649
 20
5.925147034
 30
0.0
 10
6.7614743575
 20
5.7912418056
 30
0.0
 10
7.2998826049
 20
5.7116190176
 30
0.0
 10
7.8342493135
 20
5.6860564462
 30
0.0
 10
8.3632383428
 20
5.7141091004
 30
0.0
 10
8.8896561655
 20
5.7960489077
 30
0.0
 10
9.4140504188
 20
5.9319104025
 30
0.0
 10
9.9302192301
 20
6.1216625467
 30
0.0
 10
10.4281181209
 20
6.3625386994
 30
0.0
 10
10.8983856779
 20
6.650101755
 30
0.0
 10
11.3326752037
 20
6.9784822496
 30
0.0
 10
11.7255233737
 20
7.3418460899
 30
0.0
 10
12.0762373644
 20
7.7387747386
 30
0.0
 10
12.3865938149
 20
8.1714884252
 30
0.0
 10
12.6570847775
 20
8.6405281571
 30
0.0
 10
12.8834465956
 20
9.1415926096
 30
0.0
 10
13.060578267
 20
9.6655609996
 30
0.0
 10
13.1850634453
 20
10.2026190573
 30
0.0
 10
13.2552381137
 20
10.7427538745
 30
0.0
 10
13.2713964925
 20
11.2779046604
 30
0.0
 10
13.2340876347
 20
11.8063983014
 30
0.0
 10
13.1429544874
 20
12.3309596065
 30
0.0
 10
12.9979997276
 20
12.852426124
 30
0.0
 10
12.7992630069
 20
13.3649295613
 30
0.0
 10
12.5496411306
 20
13.8584779884
 30
0.0
 10
12.2537329828
 20
14.3237335049
 30
0.0
 10
11.9174993879
 20
14.7524894366
 30
0.0
 10
11.5469619242
 20
15.139200295
 30
0.0
 10
11.1438501857
 20
15.4830018239
 30
0.0
 10
10.7059726243
 20
15.7855245079
 30
0.0
 10
10.2326321693
 20
16.0474762351
 30
0.0
 10
9.7278907256
 20
16.2648470827
 30
0.0
 10
9.2008961781
 20
16.4326788816
 30
0.0
 10
8.6615603434
 20
16.5476852192
 30
0.0
 10
8.1198796857
 20
16.6083613336
 30
0.0
 10
7.5841155504
 20
16.6150843085
 30
0.0
 10
7.0562713993
 20
16.5685169296
 30
0.0
 10
6.5337193103
 20
16.4682233457
 30
0.0
 10
6.0153448607
 20
16.3142303046
 30
0.0
 10
5.5066782894
 20
16.1065783869
 30
0.0
 10
5.0176434196
 20
15.8482857614
 30
0.0
 10
4.5575631232
 20
15.5441194716
 30
0.0
 10
4.1345055802
 20
15.2001332817
 30
0.0
 10
3.7540747515
 20
14.8225270397
 30
0.0
 10
3.4172940504
 20
14.41334167
 30
0.0
 10
3.1226853934
 20
13.970430089
 30
0.0
 10
2.8693449411
 20
13.4929423717
 30
0.0
 10
2.661031629
 20
12.9846945444
 30
0.0
 10
2.5025556943
 20
12.454840992
 30
0.0
 10
2.3970749391
 20
11.9133985676
 30
0.0
 10
2.3459359585
 20
11.3703520889
 30
0.0
 10
2.3486691779
 20
10.8341467262
 30
0.0
 10
2.404487963
 20
10.307114605
 30
0.0
 10
2.5138974348
 20
9.7867390762
 30
0.0
 10
2.6768599406
 20
9.2716354281
 30
0.0
 10
2.8933442752
 20
8.7669834408
 30
0.0
 10
3.1602271395
 20
8.2826149072
 30
0.0
 10
3.4725727428
 20
7.8278428519
 30
0.0
 10
3.8242340855
 20
7.4106041253
 30
0.0
 10
4.208840795
 20
7.0365449263
 30
0.0
 10
4.6240316302
 20
6.7068452586
 30
0.0
 10
5.0718774164
 20
6.420190677
 30
0.0
 10
5.553361606
 20
6.1755083557
 30
0.0
 10
6.0649034148
 20
5.976310902
 30
0.0
 10
6.5973552155
 20
5.8272516425
 30
0.0
 10
7.1405874912
 20
5.7313524179
 30
0.0
 10
7.6846290951
 20
5.6897938797
 30
0.0
 10
8.2208873523
 20
5.7019975809
 30
0.0
 10
8.7467461217
 20
5.767043891
 30
0.0
 10
9.2646571843
 20
5.8855185016
 30
0.0
 10
9.7763486027
 20
6.0574161185
 30
0.0
 10
10.2770507895
 20
6.2827768615
 30
0.0
 10
10.7569116901
 20
6.5583657038
 30
0.0
 10
11.2064224404
 20
6.8789381453
 30
0.0
 10
11.6180515888
 20
7.2384068508
 30
0.0
 10
11.9865160546
 20
7.6307620495
 30
0.0
 10
12.3092126455
 20
8.0521973898
 30
0.0
 10
12.5851875159
 20
8.5006302463
 30
0.0
 10
12.8156274325
 20
8.9728286139
 30
0.0
 10
12.9386444532
 20
9.3011411744
 30
0.0
 10
12.9922978644
 20
9.467748185
 30
0.0
  0
SPLINE
  5
26E
100
AcDbEntity
  8
0
100
AcDbSpline
 62
7
  6
BYLAYER
 70
0
 71
3
 72
23
 73
19
 74
0
 42
0.0000001
 43
0.0000001
 44
0.0000000001
 40
0.0
 40
0.0
 40
0.0
 40
0.0
 40
0.0626012416
 40
0.1249932297
 40
0.1861865055
 40
0.2482996292
 40
0.311350225
 40
0.3738989228
 40
0.4350749396
 40
0.4967561427
 40
0.5599641251
 40
0.6233660779
 40
0.6855537803
 40
0.7479595947
 40
0.8103113404
 40
0.8738640544
 40
0.9367521974
 40
1.0
 40
1.0
 40
1.0
 40
1.0
 10
7.8059669231
 20
17.148677554
 30
0.0
 10
8.1984196066
 20
17.1470980006
 30
0.0
 10
8.9835729244
 20
17.0668595341
 30
0.0
 10
10.1084631784
 20
16.7310158002
 30
0.0
 10
11.1453569336
 20
16.1847126917
 30
0.0
 10
12.0538595799
 20
15.4378222189
 30
0.0
 10
12.8064038511
 20
14.5237803632
 30
0.0
 10
13.3697732814
 20
13.4891103548
 30
0.0
 10
13.7202610083
 20
12.3728499509
 30
0.0
 10
13.8399689965
 20
11.2047418904
 30
0.0
 10
13.7300416175
 20
10.0221323014
 30
0.0
 10
13.3962948173
 20
8.8788341102
 30
0.0
 10
12.8474785319
 20
7.8268360089
 30
0.0
 10
12.1004640823
 20
6.9133760888
 30
0.0
 10
11.1845277358
 20
6.1574092283
 30
0.0
 10
10.1389226413
 20
5.5869389315
 30
0.0
 10
8.9962740122
 20
5.2305520824
 30
0.0
 10
8.2025787472
 20
5.1543468813
 30
0.0
 10
7.8060733665
 20
5.1560969307
 30
0.0
  0
SPLINE
  5
26F
100
AcDbEntity
  8
0
100
AcDbSpline
 62
7
  6
BYLAYER
 70
0
 71
3
 72
23
 73
19
 74
0
 42
0.0000001
 43
0.0000001
 44
0.0000000001
 40
0.0
 40
0.0
 40
0.0
 40
0.0
 40
0.0629807794
 40
0.1261950586
 40
0.1882416929
 40
0.2501659507
 40
0.3123968015
 40
0.3752820973
 40
0.4373560896
 40
0.4992862942
 40
0.5623598518
 40
0.6259482879
 40
0.6880905737
 40
0.7492737122
 40
0.8111116299
 40
0.8746187238
 40
0.9375051017
 40
1.0
 40
1.0
 40
1.0
 40
1.0
 10
7.8059782768
 20
17.1506085372
 30
0.0
 10
8.2008142811
 20
17.148900205
 30
0.0
 10
8.9936040776
 20
17.0663221913
 30
0.0
 10
10.1290635664
 20
16.7204706125
 30
0.0
 10
11.1723445911
 20
16.1664688055
 30
0.0
 10
12.0780817159
 20
15.4174599453
 30
0.0
 10
12.8218848554
 20
14.5015460878
 30
0.0
 10
13.3792690372
 20
13.4608037103
 30
0.0
 10
13.7279349887
 20
12.334282571
 30
0.0
 10
13.843387882
 20
11.1590749605
 30
0.0
 10
13.7221294334
 20
9.9752910156
 30
0.0
 10
13.3755455068
 20
8.8359147419
 30
0.0
 10
12.8234251969
 20
7.7937794943
 30
0.0
 10
12.081206241
 20
6.8911066816
 30
0.0
 10
11.1700978849
 20
6.146561131
 30
0.0
 10
10.1245273098
 20
5.5837093186
 30
0.0
 10
8.9865076838
 20
5.2307640678
 30
0.0
 10
8.1978449523
 20
5.1527636096
 30
0.0
 10
7.8060539931
 20
5.1542048638
 30
0.0
  0
SPLINE
  5
270
100
AcDbEntity
  8
0
100
AcDbSpline
 62
7
  6
BYLAYER
 70
0
 71
3
 72
14
 73
10
 74
0
 42
0.0000001
 43
0.0000001
 44
0.0000000001
 40
0.0
 40
0.0
 40
0.0
 40
0.0
 40
0.1577035367
 40
0.3168233748
 40
0.4730312813
 40
0.6275964849
 40
0.7819923874
 40
0.9392026502
 40
1.0
 40
1.0
 40
1.0
 40
1.0
 10
7.8060539931
 20
5.1542048638
 30
0.0
 10
7.4106261404
 20
5.1556594968
 30
0.0
 10
6.6145026513
 20
5.2393275601
 30
0.0
 10
5.4741257396
 20
5.5898654054
 30
0.0
 10
4.4280285222
 20
6.1484133443
 30
0.0
 10
3.5232757572
 20
6.8971468173
 30
0.0
 10
2.7843905689
 20
7.8123862689
 30
0.0
 10
2.3431916512
 20
8.6416806055
 30
0.0
 10
2.1520588942
 20
9.1552098799
 30
0.0
 10
2.1042373632
 20
9.300220159
 30
0.0
  0
SPLINE
  5
271
100
AcDbEntity
  8
0
100
AcDbSpline
 62
7
  6
BYLAYER
 70
0
 71
3
 72
23
 73
19
 74
0
 42
0.0000001
 43
0.0000001
 44
0.0000000001
 40
0.0
 40
0.0
 40
0.0
 40
0.0
 40
0.0623795219
 40
0.1248752202
 40
0.1872872269
 40
0.2493625317
 40
0.3117931715
 40
0.373982517
 40
0.4354690787
 40
0.4965388114
 40
0.5579941229
 40
0.6198543868
 40
0.6827640726
 40
0.7463971419
 40
0.8096767896
 40
0.8734018605
 40
0.9370082081
 40
1.0
 40
1.0
 40
1.0
 40
1.0
 10
7.8059852662
 20
17.1467684818
 30
0.0
 10
8.1970489909
 20
17.1458280752
 30
0.0
 10
8.9816359981
 20
17.0686223421
 30
0.0
 10
10.114201335
 20
16.7327130997
 30
0.0
 10
11.1555586236
 20
16.1765712976
 30
0.0
 10
12.0635120929
 20
15.424157316
 30
0.0
 10
12.8125267659
 20
14.5158558647
 30
0.0
 10
13.3746740049
 20
13.4849845666
 30
0.0
 10
13.7188177415
 20
12.3708836441
 30
0.0
 10
13.8359944005
 20
11.2160781387
 30
0.0
 10
13.7356359094
 20
10.0578696873
 30
0.0
 10
13.4178930028
 20
8.9269614044
 30
0.0
 10
12.8750317259
 20
7.8685526677
 30
0.0
 10
12.1216668626
 20
6.9368994173
 30
0.0
 10
11.1992879563
 20
6.1656419495
 30
0.0
 10
10.1453593147
 20
5.5857404347
 30
0.0
 10
8.9974020409
 20
5.2313563936
 30
0.0
 10
8.2009679751
 20
5.1568739609
 30
0.0
 10
7.806067029
 20
5.1582231771
 30
0.0
  0
SPLINE
  5
272
100
AcDbEntity
  8
0
100
AcDbSpline
 62
7
  6
BYLAYER
 70
0
 71
3
 72
23
 73
19
 74
0
 42
0.0000001
 43
0.0000001
 44
0.0000000001
 40
0.0
 40
0.0
 40
0.0
 40
0.0
 40
0.0622975617
 40
0.1248266228
 40
0.1872525839
 40
0.249224755
 40
0.3114111369
 40
0.373301729
 40
0.4346469896
 40
0.4957300082
 40
0.5573468828
 40
0.6193129968
 40
0.6822367996
 40
0.745888571
 40
0.8092245446
 40
0.8730844806
 40
0.9368676771
 40
1.0
 40
1.0
 40
1.0
 40
1.0
 10
7.806067029
 20
5.1582231771
 30
0.0
 10
7.4155192233
 20
5.1595575204
 30
0.0
 10
6.6313323375
 20
5.2378009678
 30
0.0
 10
5.4993270987
 20
5.5740733382
 30
0.0
 10
4.4569489853
 20
6.1274691409
 30
0.0
 10
3.5502518319
 20
6.8784201739
 30
0.0
 10
2.8046486954
 20
7.7842302467
 30
0.0
 10
2.2437924543
 20
8.810544843
 30
0.0
 10
1.8952761094
 20
9.9203584905
 30
0.0
 10
1.7746739496
 20
11.0752423178
 30
0.0
 10
1.8745034788
 20
12.2353971935
 30
0.0
 10
2.191880562
 20
13.3680327273
 30
0.0
 10
2.7307605514
 20
14.429357486
 30
0.0
 10
3.4827847375
 20
15.3631244534
 30
0.0
 10
4.4062740691
 20
16.1352704982
 30
0.0
 10
5.4620627973
 20
16.7161986701
 30
0.0
 10
6.6115945266
 20
17.0749343382
 30
0.0
 10
7.4101935132
 20
17.1500734614
 30
0.0
 10
7.8059734328
 20
17.1484393946
 30
0.0
  0
SPLINE
  5
273
100
AcDbEntity
  8
0
100
AcDbSpline
 62
7
  6
BYLAYER
 70
0
 71
3
 72
23
 73
19
 74
0
 42
0.0000001
 43
0.0000001
 44
0.0000000001
 40
0.0
 40
0.0
 40
0.0
 40
0.0
 40
0.0623858558
 40
0.1243121528
 40
0.186049515
 40
0.2487893868
 40
0.3128248227
 40
0.3751972904
 40
0.4367970002
 40
0.499429023
 40
0.5625215067
 40
0.6247060785
 40
0.686755792
 40
0.7506708526
 40
0.8135644812
 40
0.8756117127
 40
0.9369051744
 40
1.0
 40
1.0
 40
1.0
 40
1.0
 10
7.8060384113
 20
17.1464968427
 30
0.0
 10
7.4149284351
 20
17.1464964033
 30
0.0
 10
6.6336058213
 20
17.0714891181
 30
0.0
 10
5.5082258723
 20
16.7379080638
 30
0.0
 10
4.4710693335
 20
16.1823411588
 30
0.0
 10
3.5519495261
 20
15.4280301213
 30
0.0
 10
2.7905336759
 20
14.5091398444
 30
0.0
 10
2.2268698335
 20
13.464953454
 30
0.0
 10
1.88822478
 20
12.3369903736
 30
0.0
 10
1.7755171857
 20
11.1607503377
 30
0.0
 10
1.887296069
 20
9.9808288198
 30
0.0
 10
2.2237010119
 20
8.8474384831
 30
0.0
 10
2.7856474113
 20
7.8012088773
 30
0.0
 10
3.5460163267
 20
6.8836074442
 30
0.0
 10
4.4669860814
 20
6.1284094475
 30
0.0
 10
5.5017809295
 20
5.5707734094
 30
0.0
 10
6.6285203864
 20
5.2337363558
 30
0.0
 10
7.4104727103
 20
5.1573621218
 30
0.0
 10
7.8060270508
 20
5.1578620928
 30
0.0
  0
SPLINE
  5
274
100
AcDbEntity
  8
0
100
AcDbSpline
 62
7
  6
BYLAYER
 70
0
 71
3
 72
23
 73
19
 74
0
 42
0.0000001
 43
0.0000001
 44
0.0000000001
 40
0.0
 40
0.0
 40
0.0
 40
0.0
 40
0.0620350317
 40
0.1231057634
 40
0.1854954913
 40
0.24867277
 40
0.3129398613
 40
0.3755167857
 40
0.4382770879
 40
0.5014826975
 40
0.5635116853
 40
0.6243989181
 40
0.6866828031
 40
0.7508111466
 40
0.8135827048
 40
0.8749547272
 40
0.937025263
 40
1.0
 40
1.0
 40
1.0
 40
1.0
 10
7.8060283297
 20
17.1473726123
 30
0.0
 10
8.1949367183
 20
17.1483071462
 30
0.0
 10
8.9690310307
 20
17.0756901202
 30
0.0
 10
10.0907152539
 20
16.7421778624
 30
0.0
 10
11.1295879557
 20
16.1870188696
 30
0.0
 10
12.0582071145
 20
15.431398744
 30
0.0
 10
12.8255357607
 20
14.5096759961
 30
0.0
 10
13.3898622962
 20
13.4540819912
 30
0.0
 10
13.7262391592
 20
12.3127300663
 30
0.0
 10
13.8364561736
 20
11.1321753033
 30
0.0
 10
13.7236431409
 20
9.9635436322
 30
0.0
 10
13.3857258082
 20
8.8447009353
 30
0.0
 10
12.8250201622
 20
7.8042211747
 30
0.0
 10
12.0660143457
 20
6.8831542056
 30
0.0
 10
11.1497036047
 20
6.1275467542
 30
0.0
 10
10.1136575326
 20
5.5723822172
 30
0.0
 10
8.9865823565
 20
5.2370084417
 30
0.0
 10
8.2008299316
 20
5.1592284233
 30
0.0
 10
7.8060295076
 20
5.1587584161
 30
0.0
  0
SPLINE
  5
275
100
AcDbEntity
  8
0
100
AcDbSpline
 62
7
  6
BYLAYER
 70
0
 71
3
 72
23
 73
19
 74
0
 42
0.0000001
 43
0.0000001
 44
0.0000000001
 40
0.0
 40
0.0
 40
0.0
 40
0.0
 40
0.0620292827
 40
0.1229607239
 40
0.1849699964
 40
0.2480619687
 40
0.3124101238
 40
0.374973355
 40
0.4373350869
 40
0.500230875
 40
0.5625823879
 40
0.6240030914
 40
0.6861858322
 40
0.7500475362
 40
0.8127160157
 40
0.8745960989
 40
0.9368729716
 40
1.0
 40
1.0
 40
1.0
 40
1.0
 10
7.8060295076
 20
5.1587584161
 30
0.0
 10
7.4171559455
 20
5.1582954647
 30
0.0
 10
6.6442231299
 20
5.2317377831
 30
0.0
 10
5.5249479564
 20
5.5613367015
 30
0.0
 10
4.4885768035
 20
6.1133400536
 30
0.0
 10
3.561630911
 20
6.8672796437
 30
0.0
 10
2.7938972519
 20
7.7882407472
 30
0.0
 10
2.2263904724
 20
8.8396648211
 30
0.0
 10
1.8882121763
 20
9.9758446878
 30
0.0
 10
1.7758425488
 20
11.1537705992
 30
0.0
 10
1.8866132491
 20
12.3259440309
 30
0.0
 10
2.2212006595
 20
13.4507737741
 30
0.0
 10
2.780119471
 20
14.493600909
 30
0.0
 10
3.5368679846
 20
15.4127678399
 30
0.0
 10
4.4528084333
 20
16.1698270168
 30
0.0
 10
5.4900936161
 20
16.7308408611
 30
0.0
 10
6.6220312184
 20
17.069919626
 30
0.0
 10
7.4102429314
 20
17.1468794495
 30
0.0
 10
7.8059987508
 20
17.1468326759
 30
0.0
  0
SPLINE
  5
276
100
AcDbEntity
  8
0
100
AcDbSpline
 62
7
  6
BYLAYER
 70
0
 71
3
 72
23
 73
19
 74
0
 42
0.0000001
 43
0.0000001
 44
0.0000000001
 40
0.0
 40
0.0
 40
0.0
 40
0.0
 40
0.0618909611
 40
0.1227592995
 40
0.1848477848
 40
0.2479831744
 40
0.3123039692
 40
0.374843118
 40
0.4372946541
 40
0.5002710972
 40
0.562597025
 40
0.6239435172
 40
0.6861668183
 40
0.7500778427
 40
0.8127504062
 40
0.8745528765
 40
0.9368413711
 40
1.0
 40
1.0
 40
1.0
 40
1.0
 10
7.8060285321
 20
5.157800457
 30
0.0
 10
8.1940414368
 20
5.1572787182
 30
0.0
 10
8.9657071622
 20
5.2309661749
 30
0.0
 10
10.0841815888
 20
5.5604422447
 30
0.0
 10
11.1210861313
 20
6.1122193097
 30
0.0
 10
12.0491469225
 20
6.8657620614
 30
0.0
 10
12.8172882677
 20
7.7864118927
 30
0.0
 10
13.384881131
 20
8.838079965
 30
0.0
 10
13.7236899279
 20
9.975032541
 30
0.0
 10
13.8366315178
 20
11.1538619704
 30
0.0
 10
13.7258177394
 20
12.3259720548
 30
0.0
 10
13.3908906688
 20
13.4503156994
 30
0.0
 10
12.8319885867
 20
14.4932450998
 30
0.0
 10
12.0752130772
 20
15.4131813091
 30
0.0
 10
11.1593719005
 20
16.1702357884
 30
0.0
 10
10.1221932517
 20
16.7306288232
 30
0.0
 10
8.990489858
 20
17.0697281944
 30
0.0
 10
8.2020028249
 20
17.1467870954
 30
0.0
 10
7.8060421774
 20
17.1468338931
 30
0.0
  0
SPLINE
  5
277
100
AcDbEntity
  8
0
100
AcDbSpline
 62
7
  6
BYLAYER
 70
0
 71
3
 72
11
 73
7
 74
0
 42
0.0000001
 43
0.0000001
 44
0.0000000001
 40
0.0
 40
0.0
 40
0.0
 40
0.0
 40
0.3117555192
 40
0.6200945094
 40
0.9251201999
 40
1.0
 40
1.0
 40
1.0
 40
1.0
 10
7.8060682856
 20
17.1473461444
 30
0.0
 10
7.4149430706
 20
17.1464062836
 30
0.0
 10
6.6352926792
 20
17.0691807011
 30
0.0
 10
5.5155075727
 20
16.7386004764
 30
0.0
 10
4.7468587883
 20
16.3325409018
 30
0.0
 10
4.3551538839
 20
16.0594800003
 30
0.0
 10
4.2792758679
 20
16.0038476245
 30
0.0
  0
SPLINE
  5
278
100
AcDbEntity
  8
0
100
AcDbSpline
 62
7
  6
BYLAYER
 70
0
 71
3
 72
23
 73
19
 74
0
 42
0.0000001
 43
0.0000001
 44
0.0000000001
 40
0.0
 40
0.0
 40
0.0
 40
0.0
 40
0.0626160087
 40
0.1247101213
 40
0.1856473888
 40
0.2477989281
 40
0.3114071713
 40
0.3741478319
 40
0.4352907971
 40
0.497263896
 40
0.5607768002
 40
0.6239499901
 40
0.6858607923
 40
0.7484788536
 40
0.8108186166
 40
0.8741155684
 40
0.9367595487
 40
1.0
 40
1.0
 40
1.0
 40
1.0
 10
7.8059683729
 20
5.157726125
 30
0.0
 10
8.198522818
 20
5.1590667434
 30
0.0
 10
8.9819978491
 20
5.2379764331
 30
0.0
 10
10.104102742
 20
5.5717386273
 30
0.0
 10
11.1378839577
 20
6.1169811042
 30
0.0
 10
12.0489325595
 20
6.8639318935
 30
0.0
 10
12.8065278485
 20
7.7803813215
 30
0.0
 10
13.3726298516
 20
8.8189836549
 30
0.0
 10
13.7212049207
 20
9.9389213323
 30
0.0
 10
13.839200537
 20
11.110706845
 30
0.0
 10
13.7281858288
 20
12.2955471976
 30
0.0
 10
13.3935775117
 20
13.4374242296
 30
0.0
 10
12.8422596044
 20
14.486089348
 30
0.0
 10
12.0936941694
 20
15.3975291521
 30
0.0
 10
11.1779219582
 20
16.1530186297
 30
0.0
 10
10.1349635019
 20
16.7218571984
 30
0.0
 10
8.9946283981
 20
17.0751650301
 30
0.0
 10
8.2025446383
 20
17.150474025
 30
0.0
 10
7.8060764815
 20
17.1488375775
 30
0.0
  0
SPLINE
  5
279
100
AcDbEntity
  8
0
100
AcDbSpline
 62
7
  6
BYLAYER
 70
0
 71
3
 72
17
 73
13
 74
0
 42
0.0000001
 43
0.0000001
 44
0.0000000001
 40
0.0
 40
0.0
 40
0.0
 40
0.0
 40
0.1013167695
 40
0.1990712738
 40
0.2979709119
 40
0.3997988665
 40
0.5015021811
 40
0.6009294664
 40
0.7000843833
 40
0.8008449628
 40
0.9018047816
 40
1.0
 40
1.0
 40
1.0
 40
1.0
 10
2.1043377945
 20
9.3002532793
 30
0.0
 10
1.9868747679
 20
9.6628611197
 30
0.0
 10
1.8207497137
 20
10.3983739848
 30
0.0
 10
1.7820235719
 20
11.5251730388
 30
0.0
 10
1.9614637776
 20
12.640653969
 30
0.0
 10
2.3499584246
 20
13.7170149463
 30
0.0
 10
2.9312970649
 20
14.705012828
 30
0.0
 10
3.6805437821
 20
15.559844675
 30
0.0
 10
4.5794858861
 20
16.2497387047
 30
0.0
 10
5.5963911956
 20
16.7616611461
 30
0.0
 10
6.6858736863
 20
17.0776218653
 30
0.0
 10
7.4366211985
 20
17.1516037639
 30
0.0
 10
7.8060359882
 20
17.1522407678
 30
0.0
  0
SPLINE
  5
27A
100
AcDbEntity
  8
0
100
AcDbSpline
 62
7
  6
BYLAYER
 70
0
 71
3
 72
17
 73
13
 74
0
 42
0.0000001
 43
0.0000001
 44
0.0000000001
 40
0.0
 40
0.0
 40
0.0
 40
0.0
 40
0.0647702892
 40
0.1697297409
 40
0.2722050028
 40
0.3747935391
 40
0.4800216594
 40
0.5856592269
 40
0.6896777204
 40
0.7922676443
 40
0.8961098319
 40
1.0
 40
1.0
 40
1.0
 40
1.0
 10
2.1050324064
 20
9.3004727516
 30
0.0
 10
2.0303920461
 20
9.5327866602
 30
0.0
 10
1.8712669079
 20
10.1532703068
 30
0.0
 10
1.7719266169
 20
11.178648044
 30
0.0
 10
1.8864777769
 20
12.3468350917
 30
0.0
 10
2.2333201841
 20
13.4693568096
 30
0.0
 10
2.7974108433
 20
14.5130785372
 30
0.0
 10
3.55353406
 20
15.4342266771
 30
0.0
 10
4.4668691852
 20
16.1851413537
 30
0.0
 10
5.5072221386
 20
16.7326454544
 30
0.0
 10
6.6323456567
 20
17.0677885383
 30
0.0
 10
7.4152786842
 20
17.1471490567
 30
0.0
 10
7.8060457594
 20
17.1487218258
 30
0.0
  0
SPLINE
  5
27B
100
AcDbEntity
  8
0
100
AcDbSpline
 62
7
  6
BYLAYER
 70
0
 71
3
 72
14
 73
10
 74
0
 42
0.0000001
 43
0.0000001
 44
0.0000000001
 40
0.0
 40
0.0
 40
0.0
 40
0.0
 40
0.1454998964
 40
0.2853898351
 40
0.4257380303
 40
0.5692238589
 40
0.7137218305
 40
0.8571767124
 40
1.0
 40
1.0
 40
1.0
 40
1.0
 10
2.564178489
 20
9.4496796925
 30
0.0
 10
2.6665953443
 20
9.1340154609
 30
0.0
 10
2.9235007579
 20
8.5315184174
 30
0.0
 10
3.4563992727
 20
7.7140661438
 30
0.0
 10
4.1246806614
 20
7.0085836104
 30
0.0
 10
4.9168789556
 20
6.4276694066
 30
0.0
 10
5.8091980908
 20
5.9992432875
 30
0.0
 10
6.7648903891
 20
5.7464302862
 30
0.0
 10
7.4211429708
 20
5.7060464012
 30
0.0
 10
7.7467940906
 20
5.7143969147
 30
0.0
  0
SPLINE
  5
27C
100
AcDbEntity
  8
0
100
AcDbSpline
 62
7
  6
BYLAYER
 70
0
 71
3
 72
14
 73
10
 74
0
 42
0.0000001
 43
0.0000001
 44
0.0000000001
 40
0.0
 40
0.0
 40
0.0
 40
0.0
 40
0.1417813951
 40
0.2787540302
 40
0.4144643035
 40
0.5548102762
 40
0.7001024877
 40
0.8494888062
 40
1.0
 40
1.0
 40
1.0
 40
1.0
 10
7.7467940906
 20
5.7143969147
 30
0.0
 10
7.4170761167
 20
5.6867510647
 30
0.0
 10
6.7617925681
 20
5.6921058504
 30
0.0
 10
5.8089940956
 20
5.8910003614
 30
0.0
 10
4.9168892468
 20
6.2721061155
 30
0.0
 10
4.0996150696
 20
6.8297725821
 30
0.0
 10
3.3801265045
 20
7.5545138371
 30
0.0
 10
2.7924423871
 20
8.4179179503
 30
0.0
 10
2.506896239
 20
9.0617814485
 30
0.0
 10
2.3939628199
 20
9.394378753
 30
0.0
  0
SPLINE
  5
27D
100
AcDbEntity
  8
0
100
AcDbSpline
 62
7
  6
BYLAYER
 70
0
 71
3
 72
33
 73
29
 74
0
 42
0.0000001
 43
0.0000001
 44
0.0000000001
 40
0.0
 40
0.0
 40
0.0
 40
0.0
 40
0.0374092966
 40
0.0746283563
 40
0.1119421318
 40
0.149753549
 40
0.1882283694
 40
0.2270867436
 40
0.2661586626
 40
0.3052094345
 40
0.3439456712
 40
0.3825594611
 40
0.4213445528
 40
0.4603457962
 40
0.4993273502
 40
0.5383584449
 40
0.5773392393
 40
0.6158988867
 40
0.6536189236
 40
0.6914685696
 40
0.7296197514
 40
0.7681596171
 40
0.8066576549
 40
0.8447877644
 40
0.8826019709
 40
0.9218443798
 40
0.9613447907
 40
1.0
 40
1.0
 40
1.0
 40
1.0
 10
2.3939628199
 20
9.394378753
 30
0.0
 10
2.2763697904
 20
9.7406989561
 30
0.0
 10
2.1058939007
 20
10.4555875617
 30
0.0
 10
2.0655195008
 20
11.5563124337
 30
0.0
 10
2.2438269875
 20
12.6470963104
 30
0.0
 10
2.6260534383
 20
13.6966211354
 30
0.0
 10
3.206209975
 20
14.6696045711
 30
0.0
 10
3.9776594861
 20
15.5173939863
 30
0.0
 10
4.9117198053
 20
16.1908088293
 30
0.0
 10
5.9559691097
 20
16.6710062389
 30
0.0
 10
7.0681979889
 20
16.9435147009
 30
0.0
 10
8.2105269456
 20
16.9912796521
 30
0.0
 10
9.3408792306
 20
16.8051894466
 30
0.0
 10
10.41776087
 20
16.4063612106
 30
0.0
 10
11.4025162808
 20
15.8103626254
 30
0.0
 10
12.2516923344
 20
15.0321845208
 30
0.0
 10
12.9214814377
 20
14.1007223392
 30
0.0
 10
13.3975646525
 20
13.0722385197
 30
0.0
 10
13.6746322053
 20
11.9849521269
 30
0.0
 10
13.7437085898
 20
10.8681470021
 30
0.0
 10
13.5888013679
 20
9.7518416978
 30
0.0
 10
13.2259032874
 20
8.6789424269
 30
0.0
 10
12.6725980527
 20
7.6910117231
 30
0.0
 10
11.9497688262
 20
6.8277882337
 30
0.0
 10
11.0658260498
 20
6.1187105214
 30
0.0
 10
10.0518766182
 20
5.5837394097
 30
0.0
 10
8.9488051766
 20
5.2441300418
 30
0.0
 10
8.1839251446
 20
5.1592185587
 30
0.0
 10
7.8060352548
 20
5.1543685582
 30
0.0
  0
SPLINE
  5
27E
100
AcDbEntity
  8
0
100
AcDbSpline
 62
7
  6
BYLAYER
 70
0
 71
3
 72
47
 73
43
 74
0
 42
0.0000001
 43
0.0000001
 44
0.0000000001
 40
0.0
 40
0.0
 40
0.0
 40
0.0
 40
0.0255049793
 40
0.0509183262
 40
0.0761298255
 40
0.1010907251
 40
0.1265069871
 40
0.1522065417
 40
0.1779264615
 40
0.2035609758
 40
0.2292121522
 40
0.254803014
 40
0.2802335909
 40
0.3056027342
 40
0.3309604129
 40
0.3563142836
 40
0.3816396546
 40
0.4068295034
 40
0.4319070083
 40
0.4567850449
 40
0.4815068259
 40
0.5063421596
 40
0.5312814238
 40
0.5564043744
 40
0.5815879624
 40
0.6066904617
 40
0.6316030666
 40
0.6563916099
 40
0.6811710157
 40
0.7059148244
 40
0.7306797486
 40
0.7552863592
 40
0.7797094927
 40
0.8041052249
 40
0.8286457731
 40
0.8531049053
 40
0.8775784964
 40
0.9021810548
 40
0.9269554738
 40
0.9516249941
 40
0.9758570494
 40
1.0
 40
1.0
 40
1.0
 40
1.0
 10
7.8060410609
 20
17.1522130732
 30
0.0
 10
7.4072555546
 20
17.1466638051
 30
0.0
 10
6.610143871
 20
17.0542765906
 30
0.0
 10
5.4698064876
 20
16.6892425226
 30
0.0
 10
4.4270320104
 20
16.1162390976
 30
0.0
 10
3.5218579015
 20
15.3432025031
 30
0.0
 10
2.7884911553
 20
14.3963377115
 30
0.0
 10
2.2482641588
 20
13.3147099818
 30
0.0
 10
1.9297229507
 20
12.1438724449
 30
0.0
 10
1.8642236816
 20
10.9323396266
 30
0.0
 10
2.0512805204
 20
9.7364604189
 30
0.0
 10
2.4679432966
 20
8.6041586059
 30
0.0
 10
3.0976777133
 20
7.5791277147
 30
0.0
 10
3.9272309452
 20
6.7122042886
 30
0.0
 10
4.9153683055
 20
6.0353771761
 30
0.0
 10
6.015685415
 20
5.5652680297
 30
0.0
 10
7.1858008699
 20
5.322664905
 30
0.0
 10
8.3767123732
 20
5.3342367492
 30
0.0
 10
9.5323916509
 20
5.5862173385
 30
0.0
 10
10.6100266304
 20
6.0546226234
 30
0.0
 10
11.5725034946
 20
6.7237399199
 30
0.0
 10
12.3731838234
 20
7.5817455568
 30
0.0
 10
12.986680959
 20
8.5884248863
 30
0.0
 10
13.3928022614
 20
9.7009148703
 30
0.0
 10
13.5668471902
 20
10.8762327733
 30
0.0
 10
13.4828422692
 20
12.0581462004
 30
0.0
 10
13.1628990485
 20
13.1912381453
 30
0.0
 10
12.6291946754
 20
14.2349859721
 30
0.0
 10
11.8964058768
 20
15.1481312979
 30
0.0
 10
10.9849671379
 20
15.8822677511
 30
0.0
 10
9.9480357393
 20
16.4166168245
 30
0.0
 10
8.8309627677
 20
16.735292832
 30
0.0
 10
7.6772173367
 20
16.8194728439
 30
0.0
 10
6.533307314
 20
16.6563336379
 30
0.0
 10
5.4451099718
 20
16.2688882611
 30
0.0
 10
4.4531682991
 20
15.6737936233
 30
0.0
 10
3.6045385511
 20
14.884720889
 30
0.0
 10
2.9424736652
 20
13.9281021368
 30
0.0
 10
2.4855897956
 20
12.8558537044
 30
0.0
 10
2.2541617249
 20
11.7186347937
 30
0.0
 10
2.2681118097
 20
10.5680461715
 30
0.0
 10
2.4383858337
 20
9.8245131377
 30
0.0
 10
2.5586959227
 20
9.4666705655
 30
0.0
  0
SPLINE
  5
27F
100
AcDbEntity
  8
0
100
AcDbSpline
 62
7
  6
BYLAYER
 70
0
 71
3
 72
14
 73
10
 74
0
 42
0.0000001
 43
0.0000001
 44
0.0000000001
 40
0.0
 40
0.0
 40
0.0
 40
0.0
 40
0.1575118093
 40
0.3173776299
 40
0.4745349646
 40
0.6289891607
 40
0.7825220581
 40
0.9396079922
 40
1.0
 40
1.0
 40
1.0
 40
1.0
 10
7.8060434335
 20
5.1536112282
 30
0.0
 10
7.4110896437
 20
5.1546669304
 30
0.0
 10
6.6134628409
 20
5.238443727
 30
0.0
 10
5.4699006155
 20
5.5919352449
 30
0.0
 10
4.4213284543
 20
6.1541716231
 30
0.0
 10
3.5165762792
 20
6.9027870088
 30
0.0
 10
2.7805648416
 20
7.816916301
 30
0.0
 10
2.3425435656
 20
8.6439481308
 30
0.0
 10
2.152433893
 20
9.156407849
 30
0.0
 10
2.1050127888
 20
9.3004754595
 30
0.0
  0
SPLINE
  5
280
100
AcDbEntity
  8
0
100
AcDbSpline
 62
7
  6
BYLAYER
 70
0
 71
3
 72
23
 73
19
 74
0
 42
0.0000001
 43
0.0000001
 44
0.0000000001
 40
0.0
 40
0.0
 40
0.0
 40
0.0
 40
0.0624287373
 40
0.1263055702
 40
0.1895640199
 40
0.2513324531
 40
0.3126703181
 40
0.3754657448
 40
0.4385453327
 40
0.500977399
 40
0.5636020109
 40
0.6267836324
 40
0.6893369866
 40
0.7505191664
 40
0.8122966817
 40
0.8753401438
 40
0.9384571557
 40
1.0
 40
1.0
 40
1.0
 40
1.0
 10
7.8060138165
 20
17.1525251593
 30
0.0
 10
8.1973836809
 20
17.1521675611
 30
0.0
 10
8.9911490327
 20
17.0698444077
 30
0.0
 10
10.133473393
 20
16.7171671534
 30
0.0
 10
11.18390061
 20
16.1542622414
 30
0.0
 10
12.0922815416
 20
15.407062446
 30
0.0
 10
12.8294296511
 20
14.4945415998
 30
0.0
 10
13.3816199438
 20
13.4508454046
 30
0.0
 10
13.7283109175
 20
12.314721301
 30
0.0
 10
13.8461112808
 20
11.1330613571
 30
0.0
 10
13.7201854449
 20
9.9515699549
 30
0.0
 10
13.3659179344
 20
8.8174653826
 30
0.0
 10
12.808097502
 20
7.7788898767
 30
0.0
 10
12.0664513846
 20
6.8732034631
 30
0.0
 10
11.1554784678
 20
6.1328576652
 30
0.0
 10
10.1075293262
 20
5.578352315
 30
0.0
 10
8.9751931551
 20
5.2336975917
 30
0.0
 10
8.1918326103
 20
5.1535365864
 30
0.0
 10
7.8060164673
 20
5.1531840627
 30
0.0
  0
SPLINE
  5
281
100
AcDbEntity
  8
0
100
AcDbSpline
 62
7
  6
BYLAYER
 70
0
 71
3
 72
17
 73
13
 74
0
 42
0.0000001
 43
0.0000001
 44
0.0000000001
 40
0.0
 40
0.0
 40
0.0
 40
0.0
 40
0.0638077776
 40
0.1684352162
 40
0.2723939215
 40
0.3771389775
 40
0.4819117591
 40
0.5847178794
 40
0.6878806348
 40
0.7923207683
 40
0.8974268184
 40
1.0
 40
1.0
 40
1.0
 40
1.0
 10
2.1060922877
 20
9.3008218558
 30
0.0
 10
2.0315132926
 20
9.5293464611
 30
0.0
 10
1.8699156562
 20
10.1440934957
 30
0.0
 10
1.7660945376
 20
11.1704061139
 30
0.0
 10
1.8897780742
 20
12.3506894097
 30
0.0
 10
2.243391877
 20
13.4833327731
 30
0.0
 10
2.8034085859
 20
14.524144049
 30
0.0
 10
3.5479910816
 20
15.4349670447
 30
0.0
 10
4.4598939364
 20
16.1768759762
 30
0.0
 10
5.5070763974
 20
16.7287900492
 30
0.0
 10
6.6373172506
 20
17.0709222015
 30
0.0
 10
7.4202068392
 20
17.1511086126
 30
0.0
 10
7.80603756
 20
17.1521399291
 30
0.0
  0
SPLINE
  5
282
100
AcDbEntity
  8
0
100
AcDbSpline
 62
7
  6
BYLAYER
 70
0
 71
3
 72
14
 73
10
 74
0
 42
0.0000001
 43
0.0000001
 44
0.0000000001
 40
0.0
 40
0.0
 40
0.0
 40
0.0
 40
0.1433672289
 40
0.2878254191
 40
0.4336357474
 40
0.5776602471
 40
0.7177141002
 40
0.8568253093
 40
1.0
 40
1.0
 40
1.0
 40
1.0
 10
7.8060409739
 20
5.1542740795
 30
0.0
 10
7.4464046546
 20
5.153673655
 30
0.0
 10
6.7223086546
 20
5.2177404655
 30
0.0
 10
5.6702979949
 20
5.5167201033
 30
0.0
 10
4.6865765328
 20
5.9980288832
 30
0.0
 10
3.8115664747
 20
6.6378688379
 30
0.0
 10
3.07530912
 20
7.41081002
 30
0.0
 10
2.4938323805
 20
8.3029540444
 30
0.0
 10
2.2157338656
 20
8.9588076467
 30
0.0
 10
2.1043975188
 20
9.300268768
 30
0.0
  0
SPLINE
  5
283
100
AcDbEntity
  8
0
100
AcDbSpline
 62
7
  6
BYLAYER
 70
0
 71
3
 72
11
 73
7
 74
0
 42
0.0000001
 43
0.0000001
 44
0.0000000001
 40
0.0
 40
0.0
 40
0.0
 40
0.0
 40
0.2534624877
 40
0.4984322762
 40
0.7465778021
 40
1.0
 40
1.0
 40
1.0
 40
1.0
 10
4.2805408952
 20
16.0020014642
 30
0.0
 10
4.5376575047
 20
16.1894565764
 30
0.0
 10
5.0739240424
 20
16.5176605336
 30
0.0
 10
5.9414600506
 20
16.8818712951
 30
0.0
 10
6.856893222
 20
17.100558049
 30
0.0
 10
7.4878200896
 20
17.1486918243
 30
0.0
 10
7.8059633122
 20
17.147655445
 30
0.0
  0
SPLINE
  5
284
100
AcDbEntity
  8
0
100
AcDbSpline
 62
7
  6
BYLAYER
 70
0
 71
3
 72
23
 73
19
 74
0
 42
0.0000001
 43
0.0000001
 44
0.0000000001
 40
0.0
 40
0.0
 40
0.0
 40
0.0
 40
0.062258201
 40
0.1247370996
 40
0.1871422666
 40
0.2491475556
 40
0.3113714214
 40
0.373311289
 40
0.4346756338
 40
0.4957514661
 40
0.5573443866
 40
0.6193071037
 40
0.6822520188
 40
0.7459305412
 40
0.8092836865
 40
0.8731385393
 40
0.9368983522
 40
1.0
 40
1.0
 40
1.0
 40
1.0
 10
7.8059633122
 20
17.147655445
 30
0.0
 10
8.1962652371
 20
17.1463840025
 30
0.0
 10
8.9798135216
 20
17.0676637967
 30
0.0
 10
10.1113960795
 20
16.7325299772
 30
0.0
 10
11.153551242
 20
16.1791157567
 30
0.0
 10
12.0606776023
 20
15.4282526465
 30
0.0
 10
12.8071618969
 20
14.5221815069
 30
0.0
 10
13.3685646487
 20
13.4953507677
 30
0.0
 10
13.7167147074
 20
12.3849940116
 30
0.0
 10
13.8370734733
 20
11.2301971995
 30
0.0
 10
13.7375613971
 20
10.0702581429
 30
0.0
 10
13.4204769935
 20
8.937540946
 30
0.0
 10
12.8810367035
 20
7.8761540879
 30
0.0
 10
12.128582899
 20
6.9422442187
 30
0.0
 10
11.2049923053
 20
6.1698584543
 30
0.0
 10
10.1492694752
 20
5.5888823464
 30
0.0
 10
8.9998962718
 20
5.2308218422
 30
0.0
 10
8.2016584371
 20
5.1558670082
 30
0.0
 10
7.8060699803
 20
5.1574596649
 30
0.0
  0
SPLINE
  5
285
100
AcDbEntity
  8
0
100
AcDbSpline
 62
7
  6
BYLAYER
 70
0
 71
3
 72
14
 73
10
 74
0
 42
0.0000001
 43
0.0000001
 44
0.0000000001
 40
0.0
 40
0.0
 40
0.0
 40
0.0
 40
0.1574652528
 40
0.3155143047
 40
0.4706439973
 40
0.6254677233
 40
0.781057996
 40
0.9382845198
 40
1.0
 40
1.0
 40
1.0
 40
1.0
 10
7.8060652916
 20
5.1551120517
 30
0.0
 10
7.4112292873
 20
5.156820384
 30
0.0
 10
6.6184394908
 20
5.2393983977
 30
0.0
 10
5.482980002
 20
5.5852499765
 30
0.0
 10
4.4396989773
 20
6.1392517835
 30
0.0
 10
3.5339618525
 20
6.8882606437
 30
0.0
 10
2.790158713
 20
7.8041745012
 30
0.0
 10
2.3441080188
 20
8.6370360626
 30
0.0
 10
2.1515991118
 20
9.1526209136
 30
0.0
 10
2.1030400727
 20
9.2998251931
 30
0.0
  0
SPLINE
  5
286
100
AcDbEntity
  8
0
100
AcDbSpline
 62
7
  6
BYLAYER
 70
0
 71
3
 72
23
 73
19
 74
0
 42
0.0000001
 43
0.0000001
 44
0.0000000001
 40
0.0
 40
0.0
 40
0.0
 40
0.0
 40
0.0630761177
 40
0.1267188361
 40
0.1891971031
 40
0.2510183473
 40
0.3127718795
 40
0.3756512725
 40
0.4379458035
 40
0.4998264764
 40
0.5627663317
 40
0.626433118
 40
0.6886311455
 40
0.7494072962
 40
0.8110940028
 40
0.8747286381
 40
0.9378074897
 40
1.0
 40
1.0
 40
1.0
 40
1.0
 10
7.8059895752
 20
17.1515157252
 30
0.0
 10
8.2014160366
 20
17.1500610973
 30
0.0
 10
8.9975375132
 20
17.0663935307
 30
0.0
 10
10.1379135657
 20
16.7158569746
 30
0.0
 10
11.1840122107
 20
16.1573093397
 30
0.0
 10
12.0887672825
 20
15.4085745608
 30
0.0
 10
12.8276548999
 20
14.4933319736
 30
0.0
 10
13.3813466915
 20
13.4525897165
 30
0.0
 10
13.7286280718
 20
12.3247440086
 30
0.0
 10
13.844771465
 20
11.1493730277
 30
0.0
 10
13.7210718937
 20
9.966331342
 30
0.0
 10
13.3709849042
 20
8.8280607791
 30
0.0
 10
12.8179987649
 20
7.7885941472
 30
0.0
 10
12.0790401432
 20
6.887506368
 30
0.0
 10
11.1694988783
 20
6.145069346
 30
0.0
 10
10.1219657962
 20
5.5836109799
 30
0.0
 10
8.983628801
 20
5.231919498
 30
0.0
 10
8.1959296921
 20
5.1525808065
 30
0.0
 10
7.8060410609
 20
5.1535075158
 30
0.0
  0
SPLINE
  5
287
100
AcDbEntity
  8
0
100
AcDbSpline
 62
7
  6
BYLAYER
 70
0
 71
3
 72
19
 73
15
 74
0
 42
0.0000001
 43
0.0000001
 44
0.0000000001
 40
0.0
 40
0.0
 40
0.0
 40
0.0
 40
0.0819547409
 40
0.1612953224
 40
0.2392789687
 40
0.3176253601
 40
0.3981807884
 40
0.4791698384
 40
0.5621358288
 40
0.6487481232
 40
0.7342774941
 40
0.8205427409
 40
0.9095357417
 40
1.0
 40
1.0
 40
1.0
 40
1.0
 10
4.5656914704
 20
15.6128329191
 30
0.0
 10
4.2589999847
 20
15.3900531042
 30
0.0
 10
3.6982194445
 20
14.8886286121
 30
0.0
 10
3.0350816827
 20
13.9937888414
 30
0.0
 10
2.5693870948
 20
12.999947815
 30
0.0
 10
2.3154520634
 20
11.9260145178
 30
0.0
 10
2.2926947953
 20
10.8078840377
 30
0.0
 10
2.5172876261
 20
9.6903839447
 30
0.0
 10
2.9849545557
 20
8.6207681182
 30
0.0
 10
3.6716482515
 20
7.6515663066
 30
0.0
 10
4.5378300326
 20
6.8187436382
 30
0.0
 10
5.5450410564
 20
6.1440685986
 30
0.0
 10
6.6741431898
 20
5.6438310148
 30
0.0
 10
7.4851821622
 20
5.4439750725
 30
0.0
 10
7.8988587396
 20
5.3811207881
 30
0.0
  0
SPLINE
  5
288
100
AcDbEntity
  8
0
100
AcDbSpline
 62
7
  6
BYLAYER
 70
0
 71
3
 72
19
 73
15
 74
0
 42
0.0000001
 43
0.0000001
 44
0.0000000001
 40
0.0
 40
0.0
 40
0.0
 40
0.0
 40
0.1364581734
 40
0.2440537612
 40
0.3292300174
 40
0.4122595221
 40
0.487902676
 40
0.56107988
 40
0.6299356769
 40
0.700717428
 40
0.7733122867
 40
0.847922465
 40
0.9238820093
 40
1.0
 40
1.0
 40
1.0
 40
1.0
 10
7.8988587396
 20
5.3811207881
 30
0.0
 10
7.2862892509
 20
5.6398160102
 30
0.0
 10
6.2150026604
 20
6.1663442918
 30
0.0
 10
4.8878872477
 20
7.0784668806
 30
0.0
 10
3.9080409255
 20
8.0061479917
 30
0.0
 10
3.1957475095
 20
8.9666957841
 30
0.0
 10
2.7185243364
 20
10.0001698209
 30
0.0
 10
2.4963740643
 20
11.0470452351
 30
0.0
 10
2.5151184879
 20
12.092262458
 30
0.0
 10
2.7605578924
 20
13.105336841
 30
0.0
 10
3.2256288881
 20
14.0687643372
 30
0.0
 10
3.890230799
 20
14.9387552444
 30
0.0
 10
4.7253150622
 20
15.6723023778
 30
0.0
 10
5.3736117133
 20
16.04385617
 30
0.0
 10
5.7129701548
 20
16.1935798287
 30
0.0
  0
SPLINE
  5
289
100
AcDbEntity
  8
0
100
AcDbSpline
 62
7
  6
BYLAYER
 70
0
 71
3
 72
24
 73
20
 74
0
 42
0.0000001
 43
0.0000001
 44
0.0000000001
 40
0.0
 40
0.0
 40
0.0
 40
0.0
 40
0.0613357352
 40
0.1209627935
 40
0.1801459396
 40
0.2401203037
 40
0.300614613
 40
0.3600315594
 40
0.418750989
 40
0.4775189295
 40
0.5366325416
 40
0.5960258845
 40
0.6552297819
 40
0.7140088564
 40
0.7722366424
 40
0.8295202147
 40
0.8862242036
 40
0.9431285059
 40
1.0
 40
1.0
 40
1.0
 40
1.0
 10
4.2804996936
 20
16.0021853446
 30
0.0
 10
3.9708695107
 20
15.7708970217
 30
0.0
 10
3.4014937147
 20
15.2562680101
 30
0.0
 10
2.713193522
 20
14.3450566275
 30
0.0
 10
2.2218302107
 20
13.323280595
 30
0.0
 10
1.9304468464
 20
12.2226769785
 30
0.0
 10
1.8468686626
 20
11.0857528777
 30
0.0
 10
1.975557684
 20
9.9604981802
 30
0.0
 10
2.3200672739
 20
8.8928060602
 30
0.0
 10
2.8601346987
 20
7.9125089616
 30
0.0
 10
3.5725607414
 20
7.0441508415
 30
0.0
 10
4.4357131148
 20
6.319967572
 30
0.0
 10
5.423444552
 20
5.7810204794
 30
0.0
 10
6.4898136714
 20
5.4483669172
 30
0.0
 10
7.5863889121
 20
5.3183946389
 30
0.0
 10
8.6754471148
 20
5.3885438376
 30
0.0
 10
9.7243223437
 20
5.6608302799
 30
0.0
 10
10.6978008807
 20
6.1293930877
 30
0.0
 10
11.2802745669
 20
6.5551342196
 30
0.0
 10
11.549288188
 20
6.7918732634
 30
0.0
  0
SPLINE
  5
28A
100
AcDbEntity
  8
0
100
AcDbSpline
 62
7
  6
BYLAYER
 70
0
 71
3
 72
43
 73
39
 74
0
 42
0.0000001
 43
0.0000001
 44
0.0000000001
 40
0.0
 40
0.0
 40
0.0
 40
0.0
 40
0.0265452184
 40
0.0530922189
 40
0.0795751095
 40
0.1061512092
 40
0.1330190737
 40
0.1601406032
 40
0.1873578081
 40
0.2144685869
 40
0.2415551475
 40
0.2688282082
 40
0.2962915934
 40
0.3238357516
 40
0.3512484428
 40
0.3786435576
 40
0.4061427273
 40
0.4338728228
 40
0.4616821419
 40
0.4892008054
 40
0.5164262128
 40
0.5441684462
 40
0.5724080808
 40
0.6007094614
 40
0.6289180191
 40
0.6573312893
 40
0.6859179955
 40
0.7146328255
 40
0.7431640309
 40
0.7716844196
 40
0.8001910252
 40
0.8286692453
 40
0.8566956082
 40
0.885180133
 40
0.9143507506
 40
0.9430982063
 40
0.9716043208
 40
1.0
 40
1.0
 40
1.0
 40
1.0
 10
11.549288188
 20
6.7918732634
 30
0.0
 10
11.266902823
 20
6.5409722425
 30
0.0
 10
10.6525910196
 20
6.092032504
 30
0.0
 10
9.6206858025
 20
5.6082363635
 30
0.0
 10
8.5106656733
 20
5.3452568699
 30
0.0
 10
7.3671076578
 20
5.3039433169
 30
0.0
 10
6.227327512
 20
5.4797744006
 30
0.0
 10
5.1326704888
 20
5.8738852579
 30
0.0
 10
4.139360256
 20
6.4870657321
 30
0.0
 10
3.288194507
 20
7.2836247085
 30
0.0
 10
2.6018263643
 20
8.22633594
 30
0.0
 10
2.1041548596
 20
9.2875162071
 30
0.0
 10
1.831846193
 20
10.4348164642
 30
0.0
 10
1.7927804623
 20
11.6144298447
 30
0.0
 10
1.9761804612
 20
12.7787656466
 30
0.0
 10
2.3755127801
 20
13.8878603857
 30
0.0
 10
2.9922880224
 20
14.898422367
 30
0.0
 10
3.8004849136
 20
15.7706422529
 30
0.0
 10
4.7579495274
 20
16.4753138228
 30
0.0
 10
5.8242657705
 20
16.9855035917
 30
0.0
 10
6.9694938205
 20
17.2762309209
 30
0.0
 10
8.1594018904
 20
17.3369917139
 30
0.0
 10
9.3544005432
 20
17.1715945203
 30
0.0
 10
10.5037904993
 20
16.7819941969
 30
0.0
 10
11.5558837639
 20
16.1706222761
 30
0.0
 10
12.4662957222
 20
15.3579088872
 30
0.0
 10
13.210919836
 20
14.3828645423
 30
0.0
 10
13.7599513997
 20
13.2832343004
 30
0.0
 10
14.0816879485
 20
12.0972314234
 30
0.0
 10
14.1582836481
 20
10.8742811248
 30
0.0
 10
14.0051356831
 20
9.6602326521
 30
0.0
 10
13.6326480026
 20
8.5017693721
 30
0.0
 10
13.0470381114
 20
7.434743129
 30
0.0
 10
12.255303163
 20
6.4972840255
 30
0.0
 10
11.2938501478
 20
5.7193443698
 30
0.0
 10
10.2047924561
 20
5.1327908558
 30
0.0
 10
9.0353640279
 20
4.7638388129
 30
0.0
 10
8.2242322968
 20
4.6770485423
 30
0.0
 10
7.8201900878
 20
4.6715455249
 30
0.0
  0
SPLINE
  5
28B
100
AcDbEntity
  8
0
100
AcDbSpline
 62
7
  6
BYLAYER
 70
0
 71
3
 72
58
 73
54
 74
0
 42
0.0000001
 43
0.0000001
 44
0.0000000001
 40
0.0
 40
0.0
 40
0.0
 40
0.0
 40
0.0213523937
 40
0.0425361878
 40
0.0635146256
 40
0.0842323395
 40
0.1156231036
 40
0.1345741163
 40
0.1536196326
 40
0.1727888601
 40
0.1920924959
 40
0.2115275237
 40
0.2310319167
 40
0.250529735
 40
0.2699571656
 40
0.2892861018
 40
0.3084938137
 40
0.3275692215
 40
0.3465567982
 40
0.3655154242
 40
0.3845020297
 40
0.4035644988
 40
0.4227484332
 40
0.4420821424
 40
0.461525975
 40
0.4810250546
 40
0.5005260179
 40
0.5199669957
 40
0.5392804905
 40
0.5584189354
 40
0.5774199694
 40
0.5963422819
 40
0.6152449025
 40
0.6341915717
 40
0.6532473256
 40
0.6724591124
 40
0.6918050278
 40
0.7112487843
 40
0.7307516624
 40
0.7502480721
 40
0.7696625506
 40
0.7889351579
 40
0.8080707295
 40
0.8270890148
 40
0.8460207389
 40
0.8649454374
 40
0.8839564639
 40
0.9031230627
 40
0.9224146168
 40
0.9417747624
 40
0.9611583569
 40
0.9805632832
 40
1.0
 40
1.0
 40
1.0
 40
1.0
 10
7.8201900878
 20
4.6715455249
 30
0.0
 10
7.9568675448
 20
4.6716991711
 30
0.0
 10
8.2276082843
 20
4.6822021176
 30
0.0
 10
8.6397246822
 20
4.7134823034
 30
0.0
 10
9.0115508978
 20
4.804810252
 30
0.0
 10
9.5797529817
 20
4.7877021265
 30
0.0
 10
9.4777816228
 20
5.4986006234
 30
0.0
 10
9.9966819678
 20
5.5377312738
 30
0.0
 10
10.3112803525
 20
5.7057588614
 30
0.0
 10
10.6466008912
 20
5.8643190257
 30
0.0
 10
10.9657495865
 20
6.0523074131
 30
0.0
 10
11.2767728718
 20
6.2584704367
 30
0.0
 10
11.5750862934
 20
6.4845023629
 30
0.0
 10
11.8591246046
 20
6.7281958218
 30
0.0
 10
12.1265792578
 20
6.9883737951
 30
0.0
 10
12.3762656164
 20
7.2631326297
 30
0.0
 10
12.6072846606
 20
7.5508751808
 30
0.0
 10
12.8190488448
 20
7.8503982004
 30
0.0
 10
13.0110920471
 20
8.161065866
 30
0.0
 10
13.1831149432
 20
8.4826079743
 30
0.0
 10
13.3350087376
 20
8.8146579768
 30
0.0
 10
13.46661628
 20
9.156802118
 30
0.0
 10
13.5775950214
 20
9.5085124238
 30
0.0
 10
13.6674505156
 20
9.8687182636
 30
0.0
 10
13.7355685061
 20
10.2357123809
 30
0.0
 10
13.7812078863
 20
10.6072603957
 30
0.0
 10
13.8036853048
 20
10.980906984
 30
0.0
 10
13.8032552266
 20
11.35403282
 30
0.0
 10
13.780266632
 20
11.7241243742
 30
0.0
 10
13.7350342624
 20
12.0893239703
 30
0.0
 10
13.6678511946
 20
12.448583165
 30
0.0
 10
13.5789492016
 20
12.8015377154
 30
0.0
 10
13.4683830189
 20
13.14795276
 30
0.0
 10
13.336211377
 20
13.4876278705
 30
0.0
 10
13.1825853686
 20
13.8203297153
 30
0.0
 10
13.0078179735
 20
14.1453326972
 30
0.0
 10
12.8122892514
 20
14.4612142674
 30
0.0
 10
12.5966397965
 20
14.7660141936
 30
0.0
 10
12.3617892207
 20
15.057516017
 30
0.0
 10
12.1096333434
 20
15.3339191852
 30
0.0
 10
11.8421677222
 20
15.5934237143
 30
0.0
 10
11.5610825548
 20
15.8345775917
 30
0.0
 10
11.2677841244
 20
16.056539696
 30
0.0
 10
10.9632450539
 20
16.2588907696
 30
0.0
 10
10.6479874904
 20
16.441431474
 30
0.0
 10
10.3219502277
 20
16.6038444839
 30
0.0
 10
9.9850160151
 20
16.7461399114
 30
0.0
 10
9.6377409731
 20
16.868173753
 30
0.0
 10
9.2815311187
 20
16.9694424613
 30
0.0
 10
8.9184700841
 20
17.0491875755
 30
0.0
 10
8.5504906565
 20
17.1067067506
 30
0.0
 10
8.1792015003
 20
17.1416090788
 30
0.0
 10
7.9305129138
 20
17.1495438478
 30
0.0
 10
7.8060977525
 20
17.1496617044
 30
0.0
  0
SPLINE
  5
28C
100
AcDbEntity
  8
0
100
AcDbSpline
 62
7
  6
BYLAYER
 70
0
 71
3
 72
11
 73
7
 74
0
 42
0.0000001
 43
0.0000001
 44
0.0000000001
 40
0.0
 40
0.0
 40
0.0
 40
0.0
 40
0.2521093624
 40
0.5000402619
 40
0.7481366727
 40
1.0
 40
1.0
 40
1.0
 40
1.0
 10
7.8059649654
 20
17.1496618153
 30
0.0
 10
7.4895720667
 20
17.1499225244
 30
0.0
 10
6.8609537863
 20
17.1006784356
 30
0.0
 10
5.94377842
 20
16.8829104847
 30
0.0
 10
5.0736774225
 20
16.5208558738
 30
0.0
 10
4.5363874165
 20
16.1909921044
 30
0.0
 10
4.2808928907
 20
16.0048961628
 30
0.0
  0
SPLINE
  5
28D
100
AcDbEntity
  8
0
100
AcDbSpline
 62
7
  6
BYLAYER
 70
0
 71
3
 72
22
 73
18
 74
0
 42
0.0000001
 43
0.0000001
 44
0.0000000001
 40
0.0
 40
0.0
 40
0.0
 40
0.0
 40
0.0661545436
 40
0.132118301
 40
0.1980814331
 40
0.2636426672
 40
0.3293337089
 40
0.3957942359
 40
0.4626412565
 40
0.529467459
 40
0.5962858158
 40
0.6633219168
 40
0.7304877347
 40
0.7975892521
 40
0.8647235667
 40
0.9321087006
 40
1.0
 40
1.0
 40
1.0
 40
1.0
 10
5.7129701548
 20
16.1935798287
 30
0.0
 10
6.0319739341
 20
16.3343230877
 30
0.0
 10
6.6994261188
 20
16.5512629987
 30
0.0
 10
7.7417886772
 20
16.6765873729
 30
0.0
 10
8.7863180543
 20
16.6093885111
 30
0.0
 10
9.8000333929
 20
16.3535941067
 30
0.0
 10
10.7489391262
 20
15.9068681472
 30
0.0
 10
11.5978686185
 20
15.2801191204
 30
0.0
 10
12.3211970114
 20
14.5043964958
 30
0.0
 10
12.8924688741
 20
13.6082318398
 30
0.0
 10
13.2848415686
 20
12.6186679485
 30
0.0
 10
13.4752749637
 20
11.5697573798
 30
0.0
 10
13.4700600954
 20
10.5029848495
 30
0.0
 10
13.2727365361
 20
9.4540873734
 30
0.0
 10
12.8852285087
 20
8.4574618268
 30
0.0
 10
12.3081705003
 20
7.5525657178
 30
0.0
 10
11.8167812299
 20
7.0295423696
 30
0.0
 10
11.549288188
 20
6.7918732634
 30
0.0
  0
SPLINE
  5
28E
100
AcDbEntity
  8
0
100
AcDbSpline
 62
7
  6
BYLAYER
 70
0
 71
3
 72
22
 73
18
 74
0
 42
0.0000001
 43
0.0000001
 44
0.0000000001
 40
0.0
 40
0.0
 40
0.0
 40
0.0
 40
0.0660080042
 40
0.1326437553
 40
0.1997746592
 40
0.2671273229
 40
0.3343160358
 40
0.4010814762
 40
0.4676031805
 40
0.5339661147
 40
0.6000355943
 40
0.6663315127
 40
0.7329639234
 40
0.7997366186
 40
0.8670864718
 40
0.9340412296
 40
1.0
 40
1.0
 40
1.0
 40
1.0
 10
11.549288188
 20
6.7918732634
 30
0.0
 10
11.833296603
 20
7.0418081192
 30
0.0
 10
12.3575803655
 20
7.6000253579
 30
0.0
 10
12.9642057845
 20
8.5805664479
 30
0.0
 10
13.3538119266
 20
9.6743267048
 30
0.0
 10
13.5199592266
 20
10.8255968891
 30
0.0
 10
13.4583474209
 20
11.9854420976
 30
0.0
 10
13.1626974313
 20
13.1046878099
 30
0.0
 10
12.6397010038
 20
14.1316404002
 30
0.0
 10
11.9281527528
 20
15.0318272733
 30
0.0
 10
11.0557964974
 20
15.7759250248
 30
0.0
 10
10.0471042571
 20
16.3265869293
 30
0.0
 10
8.941014184
 20
16.6517192843
 30
0.0
 10
7.7872928595
 20
16.7510459983
 30
0.0
 10
6.6340082062
 20
16.6183995325
 30
0.0
 10
5.5392652292
 20
16.2454020888
 30
0.0
 10
4.8814892035
 20
15.8486553542
 30
0.0
 10
4.5787261994
 20
15.6222721764
 30
0.0
  0
SPLINE
  5
28F
100
AcDbEntity
  8
0
100
AcDbSpline
 62
7
  6
BYLAYER
 70
0
 71
3
 72
20
 73
16
 74
0
 42
0.0000001
 43
0.0000001
 44
0.0000000001
 40
0.0
 40
0.0
 40
0.0
 40
0.0
 40
0.0766773321
 40
0.1535573821
 40
0.2301074011
 40
0.3068311018
 40
0.3836720862
 40
0.4606158273
 40
0.5376084462
 40
0.6145521875
 40
0.6915367117
 40
0.7683985853
 40
0.8455105899
 40
0.9226928993
 40
1.0
 40
1.0
 40
1.0
 40
1.0
 10
7.8060190237
 20
5.1531086716
 30
0.0
 10
7.4212167695
 20
5.153069036
 30
0.0
 10
6.6485401024
 20
5.2277590865
 30
0.0
 10
5.5352080845
 20
5.5592815929
 30
0.0
 10
4.5053423183
 20
6.09802341
 30
0.0
 10
3.5982114129
 20
6.8241393582
 30
0.0
 10
2.8451341056
 20
7.7117484958
 30
0.0
 10
2.2769144434
 20
8.7292361759
 30
0.0
 10
1.913719547
 20
9.8370952645
 30
0.0
 10
1.7708015005
 20
10.9944845629
 30
0.0
 10
1.8532155679
 20
12.1569521169
 30
0.0
 10
2.1565266283
 20
13.2831698293
 30
0.0
 10
2.6730145667
 20
14.3300103144
 30
0.0
 10
3.3802300158
 20
15.2612982006
 30
0.0
 10
3.9664130426
 20
15.7776148614
 30
0.0
 10
4.2803414934
 20
16.0055710074
 30
0.0
  0
SPLINE
  5
290
100
AcDbEntity
  8
0
100
AcDbSpline
 62
7
  6
BYLAYER
 70
0
 71
3
 72
23
 73
19
 74
0
 42
0.0000001
 43
0.0000001
 44
0.0000000001
 40
0.0
 40
0.0
 40
0.0
 40
0.0
 40
0.0627145568
 40
0.1252595529
 40
0.1870273564
 40
0.249639034
 40
0.3135085732
 40
0.3764910039
 40
0.4384681713
 40
0.501127765
 40
0.5643416116
 40
0.6266963614
 40
0.6883324936
 40
0.7509728943
 40
0.8133902689
 40
0.8759532881
 40
0.9376561006
 40
1.0
 40
1.0
 40
1.0
 40
1.0
 10
7.8060756356
 20
17.1497884349
 30
0.0
 10
8.1993535171
 20
17.1495666174
 30
0.0
 10
8.9867201711
 20
17.0705913382
 30
0.0
 10
10.1168591559
 20
16.731401596
 30
0.0
 10
11.1577278431
 20
16.1753019065
 30
0.0
 10
12.0742932125
 20
15.4194781838
 30
0.0
 10
12.8327813239
 20
14.4949998923
 30
0.0
 10
13.393014365
 20
13.4429705455
 30
0.0
 10
13.73301827
 20
12.3085032296
 30
0.0
 10
13.8407841762
 20
11.1277328536
 30
0.0
 10
13.719119536
 20
9.9462652654
 30
0.0
 10
13.3736720165
 20
8.816336558
 30
0.0
 10
12.81378543
 20
7.7799422644
 30
0.0
 10
12.061317134
 20
6.8730512845
 30
0.0
 10
11.1433093526
 20
6.1257940934
 30
0.0
 10
10.1046700086
 20
5.5692515962
 30
0.0
 10
8.9770994968
 20
5.2300539788
 30
0.0
 10
8.196933273
 20
5.1545753998
 30
0.0
 10
7.8059806462
 20
5.1554394488
 30
0.0
  0
SPLINE
  5
291
100
AcDbEntity
  8
0
100
AcDbSpline
 62
7
  6
BYLAYER
 70
0
 71
3
 72
20
 73
16
 74
0
 42
0.0000001
 43
0.0000001
 44
0.0000000001
 40
0.0
 40
0.0
 40
0.0
 40
0.0
 40
0.0774644822
 40
0.1545814183
 40
0.231131535
 40
0.3083528952
 40
0.3859267178
 40
0.4628191743
 40
0.5390551937
 40
0.615803674
 40
0.6932627972
 40
0.7700642393
 40
0.8461107405
 40
0.9228390089
 40
1.0
 40
1.0
 40
1.0
 40
1.0
 10
7.8059806462
 20
5.1554394488
 30
0.0
 10
7.417393369
 20
5.1559863099
 30
0.0
 10
6.6401444418
 20
5.2331987558
 30
0.0
 10
5.5222924744
 20
5.5653168468
 30
0.0
 10
4.4898201825
 20
6.1068397694
 30
0.0
 10
3.5830360271
 20
6.8428049972
 30
0.0
 10
2.8311663782
 20
7.7383436838
 30
0.0
 10
2.2667165299
 20
8.7567774515
 30
0.0
 10
1.908152328
 20
9.860443654
 30
0.0
 10
1.7729278548
 20
11.0159532074
 30
0.0
 10
1.8608505282
 20
12.1784687542
 30
0.0
 10
2.1655161415
 20
13.3001374018
 30
0.0
 10
2.6782118067
 20
14.3395971977
 30
0.0
 10
3.3844465122
 20
15.2603293664
 30
0.0
 10
3.9664884963
 20
15.7758502281
 30
0.0
 10
4.2794574875
 20
16.0035999103
 30
0.0
  0
SPLINE
  5
292
100
AcDbEntity
  8
0
100
AcDbSpline
 62
7
  6
BYLAYER
 70
0
 71
3
 72
23
 73
19
 74
0
 42
0.0000001
 43
0.0000001
 44
0.0000000001
 40
0.0
 40
0.0
 40
0.0
 40
0.0
 40
0.0616571127
 40
0.1235527189
 40
0.1855223731
 40
0.2471874359
 40
0.3093839553
 40
0.3718526949
 40
0.434399668
 40
0.4968625557
 40
0.5594341817
 40
0.6219436771
 40
0.6845777561
 40
0.7474286949
 40
0.8100516421
 40
0.873161184
 40
0.9365125629
 40
1.0
 40
1.0
 40
1.0
 40
1.0
 10
7.8060217842
 20
5.4377555824
 30
0.0
 10
7.4311639745
 20
5.433645594
 30
0.0
 10
6.6770938309
 20
5.4995780322
 30
0.0
 10
5.5877408187
 20
5.8182380836
 30
0.0
 10
4.5814717845
 20
6.344215159
 30
0.0
 10
3.6957812539
 20
7.0573013965
 30
0.0
 10
2.9643365749
 20
7.932034361
 30
0.0
 10
2.4154040016
 20
8.9376528037
 30
0.0
 10
2.0741934846
 20
10.0330290502
 30
0.0
 10
1.9531054394
 20
11.1744968854
 30
0.0
 10
2.0577441751
 20
12.3173525155
 30
0.0
 10
2.3826370556
 20
13.4190830428
 30
0.0
 10
2.9170429127
 20
14.4377552811
 30
0.0
 10
3.6393791767
 20
15.3339657862
 30
0.0
 10
4.5245755165
 20
16.0741059462
 30
0.0
 10
5.5392056206
 20
16.6303649153
 30
0.0
 10
6.6475965399
 20
16.9793041977
 30
0.0
 10
7.4200378184
 20
17.0636599135
 30
0.0
 10
7.8060235861
 20
17.0678824923
 30
0.0
  0
SPLINE
  5
293
100
AcDbEntity
  8
0
100
AcDbSpline
 62
7
  6
BYLAYER
 70
0
 71
3
 72
14
 73
10
 74
0
 42
0.0000001
 43
0.0000001
 44
0.0000000001
 40
0.0
 40
0.0
 40
0.0
 40
0.0
 40
0.1422868401
 40
0.2848882684
 40
0.4274805693
 40
0.5702754108
 40
0.7133026067
 40
0.8564212061
 40
1.0
 40
1.0
 40
1.0
 40
1.0
 10
7.8060235861
 20
17.0678824923
 30
0.0
 10
8.1825937776
 20
17.0720020672
 30
0.0
 10
8.9393169409
 20
17.0075161569
 30
0.0
 10
10.034214095
 20
16.697344642
 30
0.0
 10
11.0519994156
 20
16.1843562593
 30
0.0
 10
11.9547155746
 20
15.4869671679
 30
0.0
 10
12.7103004664
 20
14.6302984661
 30
0.0
 10
13.2905265213
 20
13.644467504
 30
0.0
 10
13.5468870532
 20
12.9245138201
 30
0.0
 10
13.6396530227
 20
12.5559982642
 30
0.0
  0
SPLINE
  5
294
100
AcDbEntity
  8
0
100
AcDbSpline
 62
7
  6
BYLAYER
 70
0
 71
3
 72
14
 73
10
 74
0
 42
0.0000001
 43
0.0000001
 44
0.0000000001
 40
0.0
 40
0.0
 40
0.0
 40
0.0
 40
0.1439343594
 40
0.2874996104
 40
0.4310875688
 40
0.5741313075
 40
0.7166430046
 40
0.8589604538
 40
1.0
 40
1.0
 40
1.0
 40
1.0
 10
13.6396530227
 20
12.5559982642
 30
0.0
 10
13.5416798975
 20
12.9197862612
 30
0.0
 10
13.2761984967
 20
13.6296583231
 30
0.0
 10
12.6852742057
 20
14.5984876231
 30
0.0
 10
11.9234524632
 20
15.4370999168
 30
0.0
 10
11.0184134623
 20
16.1139167684
 30
0.0
 10
10.0042030165
 20
16.6050526813
 30
0.0
 10
8.9204138198
 20
16.8927579703
 30
0.0
 10
8.1750468948
 20
16.9426314094
 30
0.0
 10
7.8060210665
 20
16.9322213592
 30
0.0
  0
SPLINE
  5
295
100
AcDbEntity
  8
0
100
AcDbSpline
 62
7
  6
BYLAYER
 70
0
 71
3
 72
17
 73
13
 74
0
 42
0.0000001
 43
0.0000001
 44
0.0000000001
 40
0.0
 40
0.0
 40
0.0
 40
0.0
 40
0.1014339354
 40
0.2023843295
 40
0.3028150537
 40
0.4034887716
 40
0.5039709937
 40
0.6038020006
 40
0.7033706141
 40
0.8030885526
 40
0.9020209814
 40
1.0
 40
1.0
 40
1.0
 40
1.0
 10
7.8060210665
 20
16.9322213592
 30
0.0
 10
7.4378616709
 20
16.9218357506
 30
0.0
 10
6.7033225124
 20
16.8301283531
 30
0.0
 10
5.6523934615
 20
16.4855468631
 30
0.0
 10
4.6884401534
 20
15.9482057899
 30
0.0
 10
3.8470447301
 20
15.2366343993
 30
0.0
 10
3.1600374563
 20
14.3778282201
 30
0.0
 10
2.6537220721
 20
13.4060498511
 30
0.0
 10
2.3461321241
 20
12.3572509361
 30
0.0
 10
2.2483053005
 20
11.2717580722
 30
0.0
 10
2.3636366434
 20
10.1941892472
 30
0.0
 10
2.578548765
 20
9.5066721371
 30
0.0
 10
2.7170110251
 20
9.1789616766
 30
0.0
  0
SPLINE
  5
296
100
AcDbEntity
  8
0
100
AcDbSpline
 62
7
  6
BYLAYER
 70
0
 71
3
 72
23
 73
19
 74
0
 42
0.0000001
 43
0.0000001
 44
0.0000000001
 40
0.0
 40
0.0
 40
0.0
 40
0.0
 40
0.0632650267
 40
0.126371772
 40
0.1892211641
 40
0.2517510126
 40
0.3148938248
 40
0.3779249259
 40
0.440628677
 40
0.5031313283
 40
0.565432512
 40
0.6278324736
 40
0.6902608234
 40
0.7524708996
 40
0.8141834148
 40
0.8763225399
 40
0.9383457515
 40
1.0
 40
1.0
 40
1.0
 40
1.0
 10
7.8060217842
 20
5.4377555703
 30
0.0
 10
8.17743503
 20
5.441827792
 30
0.0
 10
8.9205850223
 20
5.5229329151
 30
0.0
 10
9.9868464251
 20
5.858022363
 30
0.0
 10
10.9646662164
 20
6.3912597062
 30
0.0
 10
11.8203865349
 20
7.1041843335
 30
0.0
 10
12.5225514487
 20
7.970452442
 30
0.0
 10
13.0414595719
 20
8.9585978319
 30
0.0
 10
13.3569879923
 20
10.0251904497
 30
0.0
 10
13.4572857976
 20
11.1286037649
 30
0.0
 10
13.3416844387
 20
12.2286871756
 30
0.0
 10
13.013113341
 20
13.2845160229
 30
0.0
 10
12.4851063837
 20
14.2554967149
 30
0.0
 10
11.7792952794
 20
15.1007707448
 30
0.0
 10
10.9238615684
 20
15.7912711168
 30
0.0
 10
9.9504790548
 20
16.300481212
 30
0.0
 10
8.8969020455
 20
16.6086746488
 30
0.0
 10
8.1679765509
 20
16.6723234282
 30
0.0
 10
7.8060228809
 20
16.6680817675
 30
0.0
  0
SPLINE
  5
297
100
AcDbEntity
  8
0
100
AcDbSpline
 62
7
  6
BYLAYER
 70
0
 71
3
 72
75
 73
71
 74
0
 42
0.0000001
 43
0.0000001
 44
0.0000000001
 40
0.0
 40
0.0
 40
0.0
 40
0.0
 40
0.0149077094
 40
0.0295075982
 40
0.0440550686
 40
0.0587791091
 40
0.0736518389
 40
0.0884561662
 40
0.1031372508
 40
0.1178093035
 40
0.1325409348
 40
0.1471549567
 40
0.1619051798
 40
0.1767404306
 40
0.19152669
 40
0.2062666965
 40
0.2210184749
 40
0.2356808343
 40
0.2503212988
 40
0.2651661518
 40
0.2799643579
 40
0.2946942006
 40
0.3094173942
 40
0.324064194
 40
0.3387000314
 40
0.3534122312
 40
0.3681325319
 40
0.3828383415
 40
0.3974889511
 40
0.4120659696
 40
0.426576637
 40
0.4411952521
 40
0.4558365277
 40
0.470498801
 40
0.4852186745
 40
0.4999888566
 40
0.5147651693
 40
0.5294610031
 40
0.5440788774
 40
0.5586847706
 40
0.5732704175
 40
0.5877514255
 40
0.6023509834
 40
0.6170265456
 40
0.6317070901
 40
0.64638174
 40
0.6610322696
 40
0.6757015166
 40
0.6904424121
 40
0.7052502583
 40
0.719995862
 40
0.7346615257
 40
0.7494187439
 40
0.7641143156
 40
0.7789212723
 40
0.79369221
 40
0.8084711702
 40
0.8230572666
 40
0.8377718194
 40
0.852543944
 40
0.8672741407
 40
0.882094192
 40
0.8968937073
 40
0.9116724057
 40
0.926263186
 40
0.9408756429
 40
0.9557922705
 40
0.9705439952
 40
0.9852439719
 40
1.0
 40
1.0
 40
1.0
 40
1.0
 10
2.7178634648
 20
9.1780076445
 30
0.0
 10
2.5817405806
 20
9.5282715049
 30
0.0
 10
2.3831354181
 20
10.2517423779
 30
0.0
 10
2.3155782599
 20
11.3673797728
 30
0.0
 10
2.4694957254
 20
12.4702070097
 30
0.0
 10
2.8482846917
 20
13.5247848423
 30
0.0
 10
3.4350808457
 20
14.4871804633
 30
0.0
 10
4.2073619179
 20
15.306775754
 30
0.0
 10
5.1246688805
 20
15.95065988
 30
0.0
 10
6.1520302204
 20
16.394295831
 30
0.0
 10
7.2462525115
 20
16.6199941396
 30
0.0
 10
8.3655022295
 20
16.6209024055
 30
0.0
 10
9.4639697352
 20
16.3927776582
 30
0.0
 10
10.4981416203
 20
15.9461813448
 30
0.0
 10
11.4172168251
 20
15.2954906041
 30
0.0
 10
12.1856724366
 20
14.4753058107
 30
0.0
 10
12.7669884944
 20
13.5169717608
 30
0.0
 10
13.1437726141
 20
12.4642369272
 30
0.0
 10
13.2983471888
 20
11.3543577987
 30
0.0
 10
13.2253583075
 20
10.2325974634
 30
0.0
 10
12.9236439535
 20
9.1472469298
 30
0.0
 10
12.4085460229
 20
8.1491651179
 30
0.0
 10
11.7049589762
 20
7.2784015825
 30
0.0
 10
10.8403238164
 20
6.5714284274
 30
0.0
 10
9.8523078126
 20
6.0510411563
 30
0.0
 10
8.7767171138
 20
5.7438660634
 30
0.0
 10
7.659672742
 20
5.6577488135
 30
0.0
 10
6.5502705965
 20
5.8028761042
 30
0.0
 10
5.49592676
 20
6.1657225807
 30
0.0
 10
4.5414072262
 20
6.7326140084
 30
0.0
 10
3.7201177761
 20
7.4779654728
 30
0.0
 10
3.063890822
 20
8.3745046415
 30
0.0
 10
2.6014817424
 20
9.3887954472
 30
0.0
 10
2.3507889195
 20
10.4777791657
 30
0.0
 10
2.3285145694
 20
11.598252044
 30
0.0
 10
2.5317741429
 20
12.7034168993
 30
0.0
 10
2.9587248758
 20
13.7422006994
 30
0.0
 10
3.5828338838
 20
14.6710916396
 30
0.0
 10
4.3805864001
 20
15.449767838
 30
0.0
 10
5.3152282695
 20
16.0519267553
 30
0.0
 10
6.3492276794
 20
16.4515120277
 30
0.0
 10
7.4418174396
 20
16.6358476986
 30
0.0
 10
8.5518315819
 20
16.5983610748
 30
0.0
 10
9.6358415664
 20
16.3346380052
 30
0.0
 10
10.6470617954
 20
15.8586274804
 30
0.0
 10
11.5385957585
 20
15.185762162
 30
0.0
 10
12.2780659736
 20
14.3490611799
 30
0.0
 10
12.8312794341
 20
13.3770731486
 30
0.0
 10
13.1799000817
 20
12.3102295758
 30
0.0
 10
13.302101562
 20
11.1923667717
 30
0.0
 10
13.195583004
 20
10.0750619235
 30
0.0
 10
12.8648311839
 20
9.0037960855
 30
0.0
 10
12.323848215
 20
8.0232910964
 30
0.0
 10
11.5939032224
 20
7.1692324661
 30
0.0
 10
10.7038541292
 20
6.4830262783
 30
0.0
 10
9.6919833006
 20
5.9890574407
 30
0.0
 10
8.6053471019
 20
5.7160750556
 30
0.0
 10
7.4877983042
 20
5.6653547838
 30
0.0
 10
6.3834565116
 20
5.8444418777
 30
0.0
 10
5.3342495239
 20
6.2430329703
 30
0.0
 10
4.3866855428
 20
6.8496982737
 30
0.0
 10
3.5813124309
 20
7.6363022068
 30
0.0
 10
2.9527869728
 20
8.5719395576
 30
0.0
 10
2.531163592
 20
9.6107902358
 30
0.0
 10
2.3277291492
 20
10.7084314764
 30
0.0
 10
2.3519007076
 20
11.8278954995
 30
0.0
 10
2.6013951486
 20
12.9241174697
 30
0.0
 10
3.0737445303
 20
13.9466285495
 30
0.0
 10
3.7382109942
 20
14.8503184279
 30
0.0
 10
4.2963332899
 20
15.3494800046
 30
0.0
 10
4.5973228104
 20
15.5680218065
 30
0.0
  0
SPLINE
  5
298
100
AcDbEntity
  8
0
100
AcDbSpline
 62
7
  6
BYLAYER
 70
0
 71
3
 72
252
 73
248
 74
0
 42
0.0000001
 43
0.0000001
 44
0.0000000001
 40
0.0
 40
0.0
 40
0.0
 40
0.0
 40
0.0039834691
 40
0.0079549678
 40
0.0119093259
 40
0.0158905494
 40
0.0199448852
 40
0.0240678366
 40
0.0282385612
 40
0.0324196433
 40
0.036569534
 40
0.0406432436
 40
0.0446151893
 40
0.0485719651
 40
0.052612027
 40
0.0567314475
 40
0.0608974832
 40
0.0650741722
 40
0.0692236143
 40
0.073301613
 40
0.0772792844
 40
0.081237783
 40
0.0852767281
 40
0.0893955661
 40
0.0935616989
 40
0.0977392613
 40
0.1018904737
 40
0.1059716334
 40
0.1099513167
 40
0.1139071063
 40
0.1179417841
 40
0.1220582621
 40
0.1262233361
 40
0.1304010681
 40
0.1345538458
 40
0.1386386794
 40
0.142622025
 40
0.1465768838
 40
0.1506079469
 40
0.1547220498
 40
0.1588859854
 40
0.1630638121
 40
0.1672180246
 40
0.1713062272
 40
0.1752929069
 40
0.1792465785
 40
0.1832738929
 40
0.1873856964
 40
0.1915485728
 40
0.1957265141
 40
0.1998821775
 40
0.2039736735
 40
0.2079636326
 40
0.2119160414
 40
0.2159394123
 40
0.2200488145
 40
0.2242106178
 40
0.2283886046
 40
0.2325455129
 40
0.2366402262
 40
0.2406341761
 40
0.2445863571
 40
0.2486061138
 40
0.2527129483
 40
0.2568735195
 40
0.2610515405
 40
0.2652098925
 40
0.2693077299
 40
0.2733047551
 40
0.2772554345
 40
0.2812708716
 40
0.2853751609
 40
0.2895346726
 40
0.2937126689
 40
0.2978720829
 40
0.3019729484
 40
0.3059745013
 40
0.3099259323
 40
0.3139380003
 40
0.3180394741
 40
0.3221976257
 40
0.3263755989
 40
0.3305363036
 40
0.3346401183
 40
0.3386452365
 40
0.3425960556
 40
0.3466040051
 40
0.3507026987
 40
0.3548596594
 40
0.3590375557
 40
0.3631993303
 40
0.3673059659
 40
0.3713152737
 40
0.3752666249
 40
0.3792709687
 40
0.3833667354
 40
0.3875223536
 40
0.3917001503
 40
0.3958630171
 40
0.3999723753
 40
0.4039856707
 40
0.4079373949
 40
0.4119379875
 40
0.4160307651
 40
0.4201850404
 40
0.4243626893
 40
0.4285266292
 40
0.4326386505
 40
0.4366558262
 40
0.4406078499
 40
0.4446045419
 40
0.4486942041
 40
0.452847144
 40
0.457024634
 40
0.4611894961
 40
0.4653040114
 40
0.469325509
 40
0.4732789113
 40
0.4772723359
 40
0.4813587958
 40
0.4855101909
 40
0.4896874421
 40
0.4938534007
 40
0.4979705113
 40
0.501995638
 40
0.5059490929
 40
0.5099382534
 40
0.5140213228
 40
0.5181713724
 40
0.5223484258
 40
0.5265151753
 40
0.5306345631
 40
0.5346642191
 40
0.5386199806
 40
0.542606435
 40
0.5466861318
 40
0.5508344622
 40
0.555011216
 40
0.5591789439
 40
0.5633007053
 40
0.5673342036
 40
0.5712909503
 40
0.575273697
 40
0.5793498335
 40
0.5834966342
 40
0.5876731098
 40
0.5918416435
 40
0.595965578
 40
0.6000032159
 40
0.6039619773
 40
0.6079417891
 40
0.6120143549
 40
0.6161594375
 40
0.6203355745
 40
0.6245049317
 40
0.6286309918
 40
0.6326725969
 40
0.6366332778
 40
0.6406100789
 40
0.6446789646
 40
0.6488222971
 40
0.6529980504
 40
0.6571682184
 40
0.6612964035
 40
0.6653418431
 40
0.6693042944
 40
0.6732779097
 40
0.6773429352
 40
0.6814844979
 40
0.6856598822
 40
0.6898307605
 40
0.693960868
 40
0.6980103208
 40
0.7019755416
 40
0.7059469103
 40
0.7100081826
 40
0.7141477458
 40
0.7183226192
 40
0.7224943055
 40
0.7266265431
 40
0.7306796062
 40
0.7346463925
 40
0.7386143137
 40
0.7426713791
 40
0.7468090938
 40
0.7509835854
 40
0.7551558913
 40
0.7592898606
 40
0.7633468686
 40
0.7673171177
 40
0.7712835691
 40
0.7753368788
 40
0.7794723824
 40
0.7836462834
 40
0.7878193111
 40
0.7919551985
 40
0.7960157673
 40
0.7999883592
 40
0.8039522121
 40
0.8080013199
 40
0.8121347345
 40
0.8163081389
 40
0.8204817809
 40
0.8246193888
 40
0.8286835715
 40
0.832659322
 40
0.8366215381
 40
0.840666644
 40
0.8447977624
 40
0.8489705431
 40
0.8531447745
 40
0.8572840662
 40
0.8613516808
 40
0.8653304646
 40
0.8692910139
 40
0.8733320204
 40
0.8774608083
 40
0.8816329862
 40
0.8858078611
 40
0.8899489529
 40
0.8940199501
 40
0.8980015604
 40
0.90196016
 40
0.9059967082
 40
0.910122945
 40
0.9142944377
 40
0.9184698791
 40
0.9226126946
 40
0.9266873609
 40
0.93067316
 40
0.9346316736
 40
0.9386647559
 40
0.9427884849
 40
0.9469587845
 40
0.9511338328
 40
0.9552769473
 40
0.9593527762
 40
0.9633387846
 40
0.9672930151
 40
0.971320218
 40
0.9754422094
 40
0.9796157229
 40
0.9837957049
 40
0.9879414773
 40
0.9920261413
 40
0.996038495
 40
1.0
 40
1.0
 40
1.0
 40
1.0
 10
2.6197433926
 20
12.8379655304
 30
0.0
 10
2.5650075768
 20
12.6709877916
 30
0.0
 10
2.4713682527
 20
12.3321515957
 30
0.0
 10
2.3803590939
 20
11.813958591
 30
0.0
 10
2.3403232662
 20
11.289351804
 30
0.0
 10
2.3538033881
 20
10.7597151526
 30
0.0
 10
2.4211830597
 20
10.2267328549
 30
0.0
 10
2.5426525605
 20
9.694846963
 30
0.0
 10
2.7174581574
 20
9.1721255876
 30
0.0
 10
2.9430621613
 20
8.6679331286
 30
0.0
 10
3.2148894845
 20
8.1920025192
 30
0.0
 10
3.5269161293
 20
7.7526893013
 30
0.0
 10
3.875252404
 20
7.3527847309
 30
0.0
 10
4.2612803161
 20
6.9912808785
 30
0.0
 10
4.6866822397
 20
6.6662570967
 30
0.0
 10
5.1499334859
 20
6.379942563
 30
0.0
 10
5.6444730095
 20
6.137841475
 30
0.0
 10
6.1615784585
 20
5.9448545633
 30
0.0
 10
6.691360522
 20
5.8044838084
 30
0.0
 10
7.2237109446
 20
5.718370559
 30
0.0
 10
7.7535693324
 20
5.6857967024
 30
0.0
 10
8.2822925274
 20
5.7070218714
 30
0.0
 10
8.812383914
 20
5.7819391223
 30
0.0
 10
9.3413946199
 20
5.9109662799
 30
0.0
 10
9.8609538777
 20
6.0933381107
 30
0.0
 10
10.3614592956
 20
6.3262967931
 30
0.0
 10
10.8334961513
 20
6.6052861377
 30
0.0
 10
11.2687166148
 20
6.9242321115
 30
0.0
 10
11.6638969021
 20
7.2788555073
 30
0.0
 10
12.019764728
 20
7.6701669692
 30
0.0
 10
12.3382112106
 20
8.1000054184
 30
0.0
 10
12.6174206151
 20
8.5670952613
 30
0.0
 10
12.8520982952
 20
9.0650611735
 30
0.0
 10
13.0374381565
 20
9.5851163005
 30
0.0
 10
13.1700645472
 20
10.1173998224
 30
0.0
 10
13.2483972329
 20
10.6516580907
 30
0.0
 10
13.2731853429
 20
11.1823277485
 30
0.0
 10
13.2442771412
 20
11.710427985
 30
0.0
 10
13.1616467005
 20
12.2386474088
 30
0.0
 10
13.0249679283
 20
12.7650570475
 30
0.0
 10
12.8350019378
 20
13.2815749218
 30
0.0
 10
12.5946127091
 20
13.7786062761
 30
0.0
 10
12.3084172431
 20
14.246842058
 30
0.0
 10
11.9826121195
 20
14.6778958043
 30
0.0
 10
11.6218463473
 20
15.0681912524
 30
0.0
 10
11.2254725817
 20
15.4182462643
 30
0.0
 10
10.7914773202
 20
15.7299371765
 30
0.0
 10
10.3208466916
 20
16.0018813368
 30
0.0
 10
9.8197155986
 20
16.2290114781
 30
0.0
 10
9.2969248652
 20
16.4066109167
 30
0.0
 10
8.7623121247
 20
16.5314189559
 30
0.0
 10
8.2262441874
 20
16.6019221622
 30
0.0
 10
7.6947908635
 20
16.6188913478
 30
0.0
 10
7.1673234288
 20
16.5823047095
 30
0.0
 10
6.6410262781
 20
16.4919909538
 30
0.0
 10
6.1173151761
 20
16.3477084871
 30
0.0
 10
5.6039486415
 20
16.1502013797
 30
0.0
 10
5.1105145743
 20
15.9024413462
 30
0.0
 10
4.646225212
 20
15.6091131824
 30
0.0
 10
4.2194642504
 20
15.2765194072
 30
0.0
 10
3.8341408421
 20
14.9096631988
 30
0.0
 10
3.4899462751
 20
14.5082933535
 30
0.0
 10
3.1850551007
 20
14.070245838
 30
0.0
 10
2.9204277676
 20
13.5962127285
 30
0.0
 10
2.7008916893
 20
13.0920544535
 30
0.0
 10
2.5310752983
 20
12.5666626671
 30
0.0
 10
2.4141291394
 20
12.0298641957
 30
0.0
 10
2.3514873911
 20
11.4921048266
 30
0.0
 10
2.3423567369
 20
10.9599454403
 30
0.0
 10
2.3866064684
 20
10.4331810134
 30
0.0
 10
2.4845555169
 20
9.9089130861
 30
0.0
 10
2.6363727587
 20
9.3880420395
 30
0.0
 10
2.8413481467
 20
8.8779626885
 30
0.0
 10
3.0964080238
 20
8.3882510871
 30
0.0
 10
3.3967929068
 20
7.9280394636
 30
0.0
 10
3.7361077197
 20
7.5056806095
 30
0.0
 10
4.1090072271
 20
7.1254005703
 30
0.0
 10
4.5153120653
 20
6.7871035617
 30
0.0
 10
4.9573056063
 20
6.4890464357
 30
0.0
 10
5.4345968757
 20
6.2317789212
 30
0.0
 10
5.9416362365
 20
6.019874687
 30
0.0
 10
6.4694854727
 20
5.8578757485
 30
0.0
 10
7.0083159248
 20
5.7488255701
 30
0.0
 10
7.5476643113
 20
5.6940651372
 30
0.0
 10
8.0805262405
 20
5.6927866705
 30
0.0
 10
8.6066234382
 20
5.744703984
 30
0.0
 10
9.128829509
 20
5.8502717088
 30
0.0
 10
9.6467360886
 20
6.0095794369
 30
0.0
 10
10.1533811143
 20
6.2219637312
 30
0.0
 10
10.6392369291
 20
6.4842669027
 30
0.0
 10
11.0952325513
 20
6.791647733
 30
0.0
 10
11.5130629517
 20
7.1376251525
 30
0.0
 10
11.8882067942
 20
7.5165245648
 30
0.0
 10
12.220548916
 20
7.9277113459
 30
0.0
 10
12.5117267634
 20
8.3735566593
 30
0.0
 10
12.7615809123
 20
8.8539754445
 30
0.0
 10
12.9658020031
 20
9.3637581427
 30
0.0
 10
13.1199357598
 20
9.8939322501
 30
0.0
 10
13.2210404332
 20
10.4346474257
 30
0.0
 10
13.2678768846
 20
10.975446024
 30
0.0
 10
13.2612738492
 20
11.5089127312
 30
0.0
 10
13.2016883377
 20
12.0342733074
 30
0.0
 10
13.0885379639
 20
12.5543321567
 30
0.0
 10
12.9217958952
 20
13.0691523644
 30
0.0
 10
12.7020683833
 20
13.5722304606
 30
0.0
 10
12.4325869731
 20
14.0541031084
 30
0.0
 10
12.1182829833
 20
14.5057468144
 30
0.0
 10
11.7657128888
 20
14.9189254491
 30
0.0
 10
11.3808635526
 20
15.2888481416
 30
0.0
 10
10.9648467526
 20
15.6151867654
 30
0.0
 10
10.5152432888
 20
15.8994510712
 30
0.0
 10
10.0318306511
 20
16.1418472161
 30
0.0
 10
9.5194495625
 20
16.338342172
 30
0.0
 10
8.9870865953
 20
16.4845726293
 30
0.0
 10
8.4446334021
 20
16.5776932519
 30
0.0
 10
7.9025244276
 20
16.6165725449
 30
0.0
 10
7.3685515219
 20
16.6020672715
 30
0.0
 10
6.8439963581
 20
16.5348175938
 30
0.0
 10
6.3261685208
 20
16.4141286125
 30
0.0
 10
5.8145568381
 20
16.2400182277
 30
0.0
 10
5.3151794659
 20
16.0130258546
 30
0.0
 10
4.8374125224
 20
15.7364413238
 30
0.0
 10
4.3902455992
 20
15.4152930491
 30
0.0
 10
3.9818326223
 20
15.056204813
 30
0.0
 10
3.617208553
 20
14.6654595913
 30
0.0
 10
3.2969180411
 20
14.2446666802
 30
0.0
 10
3.0195951214
 20
13.7914038674
 30
0.0
 10
2.7846950708
 20
13.3051391031
 30
0.0
 10
2.5959610975
 20
12.7903146955
 30
0.0
 10
2.457661458
 20
12.2559019967
 30
0.0
 10
2.3725513224
 20
11.7118524879
 30
0.0
 10
2.3416526461
 20
11.1685699671
 30
0.0
 10
2.3640725197
 20
10.6341922423
 30
0.0
 10
2.4389763184
 20
10.1105173555
 30
0.0
 10
2.5671492863
 20
9.595006744
 30
0.0
 10
2.7485515224
 20
9.086722508
 30
0.0
 10
2.9827199849
 20
8.5911733725
 30
0.0
 10
3.2663221206
 20
8.1176303726
 30
0.0
 10
3.5942211694
 20
7.6750651616
 30
0.0
 10
3.9597461379
 20
7.2715206586
 30
0.0
 10
4.3563685357
 20
6.9122266384
 30
0.0
 10
4.7819726216
 20
6.5979672982
 30
0.0
 10
5.2388891475
 20
6.3275735415
 30
0.0
 10
5.7279130666
 20
6.1002058983
 30
0.0
 10
6.2450318124
 20
5.9192846587
 30
0.0
 10
6.7813530738
 20
5.7889620446
 30
0.0
 10
7.3268576076
 20
5.7119064041
 30
0.0
 10
7.8711698623
 20
5.6890299518
 30
0.0
 10
8.4058403598
 20
5.7193938122
 30
0.0
 10
8.9285549371
 20
5.801962612
 30
0.0
 10
9.4416658222
 20
5.9375840493
 30
0.0
 10
9.9465071407
 20
6.126221736
 30
0.0
 10
10.4380961527
 20
6.3674943675
 30
0.0
 10
10.9072917385
 20
6.6580457013
 30
0.0
 10
11.3451262162
 20
6.9926207108
 30
0.0
 10
11.7436700185
 20
7.3645010037
 30
0.0
 10
12.0975345386
 20
7.7669345023
 30
0.0
 10
12.4057023135
 20
8.1973005221
 30
0.0
 10
12.6691417336
 20
8.6577925149
 30
0.0
 10
12.8889419938
 20
9.1494582965
 30
0.0
 10
13.0620130924
 20
9.6687247771
 30
0.0
 10
13.1843244029
 20
10.206814226
 30
0.0
 10
13.253293016
 20
10.7536292854
 30
0.0
 10
13.2681172531
 20
11.2988250906
 30
0.0
 10
13.229790716
 20
11.8336793673
 30
0.0
 10
13.1395510713
 20
12.3553609622
 30
0.0
 10
12.9965232926
 20
12.8659975955
 30
0.0
 10
12.8007149389
 20
13.3672833575
 30
0.0
 10
12.552422708
 20
13.854779479
 30
0.0
 10
12.2550018218
 20
14.3195071225
 30
0.0
 10
11.913831792
 20
14.7524924172
 30
0.0
 10
11.5356815294
 20
15.1459143155
 30
0.0
 10
11.1275071518
 20
15.4942582645
 30
0.0
 10
10.6924310874
 20
15.7962777065
 30
0.0
 10
10.228446587
 20
16.0527438192
 30
0.0
 10
9.7342626681
 20
16.2649482739
 30
0.0
 10
9.2130040898
 20
16.4301403936
 30
0.0
 10
8.6732919075
 20
16.5444164215
 30
0.0
 10
8.1253072514
 20
16.605277154
 30
0.0
 10
7.5793689805
 20
16.6120293812
 30
0.0
 10
7.0444373573
 20
16.5657299262
 30
0.0
 10
6.5238606932
 20
16.4678178147
 30
0.0
 10
6.0157699897
 20
16.3174331776
 30
0.0
 10
5.5181492029
 20
16.1145269034
 30
0.0
 10
5.0348763069
 20
15.859310209
 30
0.0
 10
4.5747331113
 20
15.5551090062
 30
0.0
 10
4.1467065932
 20
15.2074308031
 30
0.0
 10
3.758519983
 20
14.8231016726
 30
0.0
 10
3.4157836207
 20
14.4092655068
 30
0.0
 10
3.1199690933
 20
13.9695400694
 30
0.0
 10
2.8704887544
 20
13.5021537411
 30
0.0
 10
2.6658985153
 20
13.0055776273
 30
0.0
 10
2.5086018245
 20
12.4824816012
 30
0.0
 10
2.402374529
 20
11.9412932232
 30
0.0
 10
2.3496330666
 20
11.3922897664
 30
0.0
 10
2.350960812
 20
10.8457596646
 30
0.0
 10
2.4052344315
 20
10.3108262494
 30
0.0
 10
2.51083663
 20
9.7913391822
 30
0.0
 10
2.668567963
 20
9.2857671027
 30
0.0
 10
2.8785396543
 20
8.7918686056
 30
0.0
 10
3.1406059305
 20
8.3129473691
 30
0.0
 10
3.4515074504
 20
7.857520419
 30
0.0
 10
3.8056168084
 20
7.4345755579
 30
0.0
 10
4.196040642
 20
7.0517528926
 30
0.0
 10
4.6154642168
 20
6.7147272399
 30
0.0
 10
5.0597908398
 20
6.4251887943
 30
0.0
 10
5.530507808
 20
6.1827168335
 30
0.0
 10
6.0293672873
 20
5.985771157
 30
0.0
 10
6.5541522487
 20
5.8364017861
 30
0.0
 10
7.0966715133
 20
5.7382530316
 30
0.0
 10
7.6465508435
 20
5.6936579085
 30
0.0
 10
8.1935155393
 20
5.7030915106
 30
0.0
 10
8.7283171527
 20
5.765354397
 30
0.0
 10
9.2466268279
 20
5.8786588076
 30
0.0
 10
9.7496185841
 20
6.0437020799
 30
0.0
 10
10.2397048088
 20
6.260683723
 30
0.0
 10
10.7141528949
 20
6.529515367
 30
0.0
 10
11.1647440587
 20
6.8470320126
 30
0.0
 10
11.5824947921
 20
7.2074898864
 30
0.0
 10
11.9598346836
 20
7.6039181783
 30
0.0
 10
12.2910524614
 20
8.0288474375
 30
0.0
 10
12.5742458107
 20
8.4777160894
 30
0.0
 10
12.8096851626
 20
8.951679449
 30
0.0
 10
12.9989577824
 20
9.4526964326
 30
0.0
 10
13.1403730045
 20
9.9790066802
 30
0.0
 10
13.2304223333
 20
10.5227077166
 30
0.0
 10
13.2668548978
 20
11.0733403741
 30
0.0
 10
13.2492983113
 20
11.6206249428
 30
0.0
 10
13.1790329133
 20
12.1552170222
 30
0.0
 10
13.0580098767
 20
12.6723231846
 30
0.0
 10
12.8856814732
 20
13.1727294838
 30
0.0
 10
12.6617494555
 20
13.6589503774
 30
0.0
 10
12.3862619384
 20
14.1288036946
 30
0.0
 10
12.0622736901
 20
14.5743959423
 30
0.0
 10
11.695644872
 20
14.9867601341
 30
0.0
 10
11.2934371841
 20
15.3583907527
 30
0.0
 10
10.8632537709
 20
15.6835793538
 30
0.0
 10
10.4100820154
 20
15.9602437691
 30
0.0
 10
9.9330913301
 20
16.18853912
 30
0.0
 10
9.4300624857
 20
16.3700782385
 30
0.0
 10
8.9022068117
 20
16.5035390896
 30
0.0
 10
8.3571239718
 20
16.5855029497
 30
0.0
 10
7.8055899095
 20
16.6137596653
 30
0.0
 10
7.2578587316
 20
16.5880863881
 30
0.0
 10
6.7226152743
 20
16.5097489542
 30
0.0
 10
6.2056892382
 20
16.3807101477
 30
0.0
 10
5.8741775136
 20
16.2610349591
 30
0.0
 10
5.7129701548
 20
16.1935798287
 30
0.0
  0
SPLINE
  5
299
100
AcDbEntity
  8
0
100
AcDbSpline
 62
7
  6
BYLAYER
 70
0
 71
3
 72
254
 73
250
 74
0
 42
0.0000001
 43
0.0000001
 44
0.0000000001
 40
0.0
 40
0.0
 40
0.0
 40
0.0
 40
0.003659674
 40
0.0074348107
 40
0.0113331964
 40
0.0153141525
 40
0.0193389315
 40
0.0234150724
 40
0.0275494404
 40
0.0317035924
 40
0.0358297119
 40
0.0398799729
 40
0.0438271266
 40
0.0477552135
 40
0.0517595976
 40
0.0558409015
 40
0.0599728671
 40
0.0641203692
 40
0.068244426
 40
0.0722977345
 40
0.0762494742
 40
0.0801796385
 40
0.0841845306
 40
0.0882665696
 40
0.0923991208
 40
0.0965472673
 40
0.1006722052
 40
0.1047272367
 40
0.1086797924
 40
0.1126076659
 40
0.1166099642
 40
0.1206909535
 40
0.124822908
 40
0.1289709783
 40
0.133096589
 40
0.1371538637
 40
0.1411087993
 40
0.1450360195
 40
0.1490363628
 40
0.1531163595
 40
0.1572476976
 40
0.1613956609
 40
0.1655218501
 40
0.1695810872
 40
0.1735380077
 40
0.1774642101
 40
0.1814624612
 40
0.1855415857
 40
0.1896724151
 40
0.1938203279
 40
0.1979471517
 40
0.2020083004
 40
0.205967076
 40
0.2098920607
 40
0.2138880269
 40
0.2179662487
 40
0.2220965932
 40
0.2262444107
 40
0.2303716996
 40
0.2344347564
 40
0.2383960947
 40
0.2423207595
 40
0.2463146871
 40
0.2503918591
 40
0.2545216028
 40
0.2586693712
 40
0.2627973598
 40
0.2668622002
 40
0.2708250565
 40
0.2747480206
 40
0.2787392805
 40
0.282815545
 40
0.2869448881
 40
0.2910925488
 40
0.2952208851
 40
0.2992875458
 40
0.303253463
 40
0.3071768147
 40
0.3111661572
 40
0.3152412225
 40
0.3193699312
 40
0.3235175583
 40
0.3276465014
 40
0.3317148562
 40
0.3356827341
 40
0.3396049997
 40
0.343591763
 40
0.3476658009
 40
0.3517940699
 40
0.355941613
 40
0.3600709703
 40
0.3641409787
 40
0.3681114964
 40
0.3720336811
 40
0.3760182347
 40
0.380091109
 40
0.3842188412
 40
0.3883663271
 40
0.3924961522
 40
0.3965677342
 40
0.4005406509
 40
0.4044624687
 40
0.4084446362
 40
0.412516361
 40
0.416643593
 40
0.4207910053
 40
0.4249213138
 40
0.4289944307
 40
0.4329696038
 40
0.4368908518
 40
0.4408704433
 40
0.444940975
 40
0.4490677599
 40
0.4532151041
 40
0.4573457668
 40
0.4614203393
 40
0.4653983145
 40
0.4693199556
 40
0.4732974132
 40
0.4773666386
 40
0.4814928212
 40
0.4856400941
 40
0.4897713379
 40
0.4938474031
 40
0.4978272966
 40
0.5017478465
 40
0.5057222862
 40
0.5097902347
 40
0.5139160604
 40
0.5180632705
 40
0.5221947847
 40
0.5262721835
 40
0.5302551845
 40
0.5341768389
 40
0.5381494412
 40
0.5422159539
 40
0.5463411181
 40
0.5504882765
 40
0.5546203013
 40
0.5586990567
 40
0.5626842824
 40
0.5666055538
 40
0.5705754302
 40
0.5746405525
 40
0.5787652901
 40
0.5829123911
 40
0.5870447656
 40
0.5911247654
 40
0.5951126697
 40
0.5990345257
 40
0.603002212
 40
0.6070658581
 40
0.6111900399
 40
0.6153370899
 40
0.6194698669
 40
0.6235510696
 40
0.627541469
 40
0.6314637023
 40
0.6354290446
 40
0.6394911773
 40
0.6436148262
 40
0.6477618093
 40
0.6518950199
 40
0.6559774366
 40
0.6599701658
 40
0.6638925004
 40
0.6678552522
 40
0.6719157849
 40
0.676038954
 40
0.6801858976
 40
0.6843194438
 40
0.6884029387
 40
0.6923983724
 40
0.69632181
 40
0.7002826396
 40
0.704341535
 40
0.7084640421
 40
0.7126108993
 40
0.7167449668
 40
0.7208296972
 40
0.7248271768
 40
0.728750257
 40
0.7327080664
 40
0.7367651984
 40
0.7408873045
 40
0.7450341476
 40
0.7491685004
 40
0.7532541757
 40
0.7572544567
 40
0.7611792639
 40
0.7651355834
 40
0.7691909902
 40
0.7733123541
 40
0.7774591285
 40
0.7815939597
 40
0.7856807085
 40
0.7896831636
 40
0.7936083292
 40
0.7975621145
 40
0.8016156695
 40
0.8057365259
 40
0.809883275
 40
0.8140184703
 40
0.8181061558
 40
0.8221110441
 40
0.8260374626
 40
0.8299894032
 40
0.8340410961
 40
0.8381612812
 40
0.8423079648
 40
0.8464435444
 40
0.8505321239
 40
0.8545392536
 40
0.8584667368
 40
0.8624167012
 40
0.8664664758
 40
0.8705860452
 40
0.8747327189
 40
0.8788687928
 40
0.8829583949
 40
0.886967644
 40
0.890895836
 40
0.8948434215
 40
0.8988909927
 40
0.9030098544
 40
0.9071564824
 40
0.9112930078
 40
0.9153836469
 40
0.9193956254
 40
0.9233261619
 40
0.9272729422
 40
0.931318866
 40
0.9354368717
 40
0.9395827999
 40
0.9437186765
 40
0.9478086664
 40
0.9518203145
 40
0.9557487403
 40
0.9596909299
 40
0.9637340561
 40
0.9678534616
 40
0.9720040775
 40
0.9761439674
 40
0.9802356642
 40
0.9842604448
 40
0.9882148088
 40
0.9921384013
 40
0.9960683509
 40
1.0
 40
1.0
 40
1.0
 40
1.0
 10
2.6197504114
 20
9.4677335674
 30
0.0
 10
2.6697151894
 20
9.3125821564
 30
0.0
 10
2.7850778535
 20
9.001650406
 30
0.0
 10
3.0028960065
 20
8.5455374802
 30
0.0
 10
3.2705132351
 20
8.0997629063
 30
0.0
 10
3.5886693698
 20
7.6744704842
 30
0.0
 10
3.9535908081
 20
7.2777739025
 30
0.0
 10
4.3610277099
 20
6.9145626814
 30
0.0
 10
4.8068162643
 20
6.5897021627
 30
0.0
 10
5.2842395777
 20
6.3090003567
 30
0.0
 10
5.7835419485
 20
6.0781521159
 30
0.0
 10
6.2944593808
 20
5.900722233
 30
0.0
 10
6.8118498324
 20
5.776740217
 30
0.0
 10
7.3371442985
 20
5.7061713879
 30
0.0
 10
7.8728279715
 20
5.6886030346
 30
0.0
 10
8.4166781902
 20
5.7247136573
 30
0.0
 10
8.9606286171
 20
5.8152154481
 30
0.0
 10
9.4949127673
 20
5.9591492107
 30
0.0
 10
10.0091957139
 20
6.1536446656
 30
0.0
 10
10.493955095
 20
6.3940523423
 30
0.0
 10
10.9452502061
 20
6.676643726
 30
0.0
 10
11.363870737
 20
7.0022354121
 30
0.0
 10
11.7517919914
 20
7.3722921098
 30
0.0
 10
12.1070782176
 20
7.785737964
 30
0.0
 10
12.4236195202
 20
8.2373693106
 30
0.0
 10
12.6952602206
 20
8.7195433822
 30
0.0
 10
12.9168254515
 20
9.2229154624
 30
0.0
 10
13.0849347786
 20
9.7373978686
 30
0.0
 10
13.1994573618
 20
10.2574179902
 30
0.0
 10
13.2604098636
 20
10.784053476
 30
0.0
 10
13.2681220325
 20
11.3198539814
 30
0.0
 10
13.2220238086
 20
11.8628409317
 30
0.0
 10
13.1215218332
 20
12.4050439331
 30
0.0
 10
12.9677548669
 20
12.9366792121
 30
0.0
 10
12.7637386177
 20
13.4475519958
 30
0.0
 10
12.5142850701
 20
13.9281576536
 30
0.0
 10
12.2233513534
 20
14.374343971
 30
0.0
 10
11.8902863979
 20
14.7867963649
 30
0.0
 10
11.5134678609
 20
15.1675560454
 30
0.0
 10
11.0938297388
 20
15.5149616232
 30
0.0
 10
10.6365737969
 20
15.8230485047
 30
0.0
 10
10.1494855768
 20
16.085761585
 30
0.0
 10
9.641906559
 20
16.298120646
 30
0.0
 10
9.1240014247
 20
16.4568720292
 30
0.0
 10
8.6016635806
 20
16.5618797093
 30
0.0
 10
8.0740620773
 20
16.613186314
 30
0.0
 10
7.5385475425
 20
16.6110512431
 30
0.0
 10
6.9968123039
 20
16.5550054312
 30
0.0
 10
6.4566901132
 20
16.4445593421
 30
0.0
 10
5.9279814712
 20
16.281023775
 30
0.0
 10
5.4207488749
 20
16.067552047
 30
0.0
 10
4.9444639126
 20
15.8091081277
 30
0.0
 10
4.5035010176
 20
15.5098827907
 30
0.0
 10
4.0973016311
 20
15.1694133523
 30
0.0
 10
3.7237859753
 20
14.7859339362
 30
0.0
 10
3.3843489249
 20
14.3602315677
 30
0.0
 10
3.0848018837
 20
13.8974905987
 30
0.0
 10
2.8311021131
 20
13.4056498275
 30
0.0
 10
2.6280365901
 20
12.8940533283
 30
0.0
 10
2.4787158534
 20
12.3729173017
 30
0.0
 10
2.3832702392
 20
11.8484447975
 30
0.0
 10
2.3416225091
 20
11.3200580962
 30
0.0
 10
2.3535877476
 20
10.7850206852
 30
0.0
 10
2.4195443517
 20
10.2447330715
 30
0.0
 10
2.5398873656
 20
9.7068745429
 30
0.0
 10
2.7131325081
 20
9.1812706796
 30
0.0
 10
2.9359876659
 20
8.6778608038
 30
0.0
 10
3.2033430616
 20
8.2060618826
 30
0.0
 10
3.5107704886
 20
7.770464516
 30
0.0
 10
3.8585273587
 20
7.3706437146
 30
0.0
 10
4.2485143634
 20
7.0044924369
 30
0.0
 10
4.680106272
 20
6.6731366885
 30
0.0
 10
5.1481606303
 20
6.3822242701
 30
0.0
 10
5.6445810237
 20
6.1376183156
 30
0.0
 10
6.160010762
 20
5.9439203248
 30
0.0
 10
6.6841991218
 20
5.8040889066
 30
0.0
 10
7.2106375445
 20
5.7182403512
 30
0.0
 10
7.7396376231
 20
5.6862540158
 30
0.0
 10
8.2740093787
 20
5.7080213999
 30
0.0
 10
8.8126537736
 20
5.7838398965
 30
0.0
 10
9.3480660175
 20
5.9140206887
 30
0.0
 10
9.8703839988
 20
6.0969035538
 30
0.0
 10
10.3697868358
 20
6.329055811
 30
0.0
 10
10.8369611719
 20
6.605245615
 30
0.0
 10
11.2671201585
 20
6.9208281993
 30
0.0
 10
11.6605111601
 20
7.2758305134
 30
0.0
 10
12.0192138654
 20
7.6722340727
 30
0.0
 10
12.3423726262
 20
8.1095652161
 30
0.0
 10
12.6245397524
 20
8.5827660856
 30
0.0
 10
12.8599572924
 20
9.0836007142
 30
0.0
 10
13.0441994352
 20
9.6026862837
 30
0.0
 10
13.1744654716
 20
10.1297455494
 30
0.0
 10
13.2506645837
 20
10.6579719832
 30
0.0
 10
13.2729712186
 20
11.187407571
 30
0.0
 10
13.2414159102
 20
11.7209273834
 30
0.0
 10
13.1557693888
 20
12.2577376465
 30
0.0
 10
13.0157942383
 20
12.7905210641
 30
0.0
 10
12.8233289146
 20
13.3093732384
 30
0.0
 10
12.5819512197
 20
13.8045792701
 30
0.0
 10
12.2970093425
 20
14.2669470939
 30
0.0
 10
11.973363339
 20
14.6915105532
 30
0.0
 10
11.6112258429
 20
15.0783427315
 30
0.0
 10
11.2085436135
 20
15.4294843667
 30
0.0
 10
10.7656322853
 20
15.7443408637
 30
0.0
 10
10.2874489645
 20
16.0176676053
 30
0.0
 10
9.7823701788
 20
16.2438122582
 30
0.0
 10
9.2598143815
 20
16.4185203997
 30
0.0
 10
8.7300692233
 20
16.5391568797
 30
0.0
 10
8.2002292468
 20
16.6056664589
 30
0.0
 10
7.670530198
 20
16.6182858232
 30
0.0
 10
7.138045787
 20
16.5769669355
 30
0.0
 10
6.6032616791
 20
16.4815373153
 30
0.0
 10
6.073291141
 20
16.3318229456
 30
0.0
 10
5.558081213
 20
16.1298409131
 30
0.0
 10
5.0672540063
 20
15.87931863
 30
0.0
 10
4.609866318
 20
15.5857148573
 30
0.0
 10
4.1910473512
 20
15.2541035122
 30
0.0
 10
3.8108965889
 20
14.8849476508
 30
0.0
 10
3.4674237629
 20
14.4761340103
 30
0.0
 10
3.1609699364
 20
14.0278136783
 30
0.0
 10
2.8965716004
 20
13.544823368
 30
0.0
 10
2.679773317
 20
13.0356751243
 30
0.0
 10
2.5146640002
 20
12.5098330392
 30
0.0
 10
2.4037092019
 20
11.977583681
 30
0.0
 10
2.3469190186
 20
11.4463019388
 30
0.0
 10
2.3439851482
 20
10.9165115924
 30
0.0
 10
2.3950327377
 20
10.3852491092
 30
0.0
 10
2.5001882455
 20
9.8526871518
 30
0.0
 10
2.659573887
 20
9.3257152646
 30
0.0
 10
2.8709964596
 20
8.8143185875
 30
0.0
 10
3.130574745
 20
8.328041406
 30
0.0
 10
3.4327428188
 20
7.8757988661
 30
0.0
 10
3.7722116035
 20
7.4628693798
 30
0.0
 10
4.1482563416
 20
7.0895203749
 30
0.0
 10
4.5630420445
 20
6.7538183783
 30
0.0
 10
5.0165929085
 20
6.455856876
 30
0.0
 10
5.5042111562
 20
6.2004625516
 30
0.0
 10
6.0172473713
 20
5.993074217
 30
0.0
 10
6.5461793735
 20
5.8376188942
 30
0.0
 10
7.0807618803
 20
5.7363815597
 30
0.0
 10
7.6133851016
 20
5.6893235615
 30
0.0
 10
8.1432071154
 20
5.6960762988
 30
0.0
 10
8.6731473271
 20
5.7568410209
 30
0.0
 10
9.2033168046
 20
5.8716887304
 30
0.0
 10
9.7270951754
 20
6.0406926683
 30
0.0
 10
10.2344968845
 20
6.2614934511
 30
0.0
 10
10.7160429096
 20
6.5300527646
 30
0.0
 10
11.1629601241
 20
6.8406969797
 30
0.0
 10
11.5698395764
 20
7.1879230074
 30
0.0
 10
11.9362546163
 20
7.5707386646
 30
0.0
 10
12.2640759482
 20
7.991352375
 30
0.0
 10
12.5534460748
 20
8.4499702749
 30
0.0
 10
12.7997472326
 20
8.9420473613
 30
0.0
 10
12.997648549
 20
9.4588011721
 30
0.0
 10
13.1433802491
 20
9.990636788
 30
0.0
 10
13.2348407712
 20
10.5273572666
 30
0.0
 10
13.2721294743
 20
11.0611367869
 30
0.0
 10
13.2556845991
 20
11.590818138
 30
0.0
 10
13.1852306243
 20
12.1192627356
 30
0.0
 10
13.060741022
 20
12.6468568045
 30
0.0
 10
12.8821820424
 20
13.1672579642
 30
0.0
 10
12.6520755728
 20
13.6704898027
 30
0.0
 10
12.3746223457
 20
14.1471280949
 30
0.0
 10
12.0556000519
 20
14.5885483732
 30
0.0
 10
11.7007216586
 20
14.9892303034
 30
0.0
 10
11.3112549805
 20
15.3485918655
 30
0.0
 10
10.8849620928
 20
15.6684317033
 30
0.0
 10
10.4214507841
 20
15.9491177716
 30
0.0
 10
9.9250958446
 20
16.1862438146
 30
0.0
 10
9.4048003595
 20
16.3745915603
 30
0.0
 10
8.8702455416
 20
16.5105430688
 30
0.0
 10
8.3315781706
 20
16.5921798429
 30
0.0
 10
7.7968240498
 20
16.6196727155
 30
0.0
 10
7.2674550746
 20
16.5935394737
 30
0.0
 10
6.7406818937
 20
16.5134342676
 30
0.0
 10
6.2158496915
 20
16.3793650847
 30
0.0
 10
5.6990112034
 20
16.1913275196
 30
0.0
 10
5.2001195713
 20
15.951998774
 30
0.0
 10
4.7285549767
 20
15.6657462788
 30
0.0
 10
4.2927924013
 20
15.3384498733
 30
0.0
 10
3.8984467142
 20
14.9760295368
 30
0.0
 10
3.5462511574
 20
14.5800380398
 30
0.0
 10
3.2344863604
 20
14.1482219803
 30
0.0
 10
2.9625685542
 20
13.6799980744
 30
0.0
 10
2.7346902428
 20
13.1795531426
 30
0.0
 10
2.5559523698
 20
12.6558952607
 30
0.0
 10
2.4298263634
 20
12.1188054951
 30
0.0
 10
2.3580495411
 20
11.5783835197
 30
0.0
 10
2.3403688333
 20
11.0428409673
 30
0.0
 10
2.3761757042
 20
10.5139618945
 30
0.0
 10
2.465881837
 20
9.9890379364
 30
0.0
 10
2.6094567236
 20
9.4671490134
 30
0.0
 10
2.8068866673
 20
8.9540497392
 30
0.0
 10
3.0553443512
 20
8.4596640036
 30
0.0
 10
3.3502856379
 20
7.9933426376
 30
0.0
 10
3.6857410791
 20
7.5633907281
 30
0.0
 10
4.0556201977
 20
7.1754734198
 30
0.0
 10
4.458087054
 20
6.8304873959
 30
0.0
 10
4.8953542515
 20
6.5268452733
 30
0.0
 10
5.3681534412
 20
6.2637740599
 30
0.0
 10
5.8725061361
 20
6.0452307287
 30
0.0
 10
6.3993463409
 20
5.8761755259
 30
0.0
 10
6.9387875545
 20
5.7599357714
 30
0.0
 10
7.4807683323
 20
5.6980700689
 30
0.0
 10
8.0169117116
 20
5.6902318425
 30
0.0
 10
8.5451291405
 20
5.7357135354
 30
0.0
 10
9.0680341979
 20
5.8349875948
 30
0.0
 10
9.5868000265
 20
5.9880112456
 30
0.0
 10
10.0959759162
 20
6.1947612498
 30
0.0
 10
10.5856829442
 20
6.4522685516
 30
0.0
 10
11.0465883872
 20
6.7558046407
 30
0.0
 10
11.4705539853
 20
7.0993084621
 30
0.0
 10
11.8518890794
 20
7.4765289219
 30
0.0
 10
12.1895457604
 20
7.885348243
 30
0.0
 10
12.4849730667
 20
8.3279245007
 30
0.0
 10
12.7391161481
 20
8.8051329335
 30
0.0
 10
12.9482510823
 20
9.3132114405
 30
0.0
 10
13.1075638862
 20
9.8430567387
 30
0.0
 10
13.2138690292
 20
10.3846665468
 30
0.0
 10
13.2657847723
 20
10.9280111862
 30
0.0
 10
13.2637610702
 20
11.4645663794
 30
0.0
 10
13.2086135886
 20
11.9919421294
 30
0.0
 10
13.099816643
 20
12.5126441486
 30
0.0
 10
12.9374153912
 20
13.0280927603
 30
0.0
 10
12.7214314332
 20
13.5331546556
 30
0.0
 10
12.4549596756
 20
14.0180202796
 30
0.0
 10
12.1429149629
 20
14.4733672545
 30
0.0
 10
11.7914510157
 20
14.8912152242
 30
0.0
 10
11.4069708707
 20
15.2658654131
 30
0.0
 10
10.9918812334
 20
15.59612182
 30
0.0
 10
10.5441077314
 20
15.8832831182
 30
0.0
 10
10.0626529375
 20
16.1284424673
 30
0.0
 10
9.5510720643
 20
16.3281042384
 30
0.0
 10
9.0184922979
 20
16.4776102778
 30
0.0
 10
8.4750420392
 20
16.5739234438
 30
0.0
 10
7.930719292
 20
16.6158459921
 30
0.0
 10
7.3941581164
 20
16.603947806
 30
0.0
 10
6.8680033578
 20
16.5391612325
 30
0.0
 10
6.3498092772
 20
16.4208931855
 30
0.0
 10
5.8378348588
 20
16.2491515512
 30
0.0
 10
5.3368357371
 20
16.0238936713
 30
0.0
 10
4.8566627677
 20
15.7483467524
 30
0.0
 10
4.406835166
 20
15.4277523839
 30
0.0
 10
3.9949053095
 20
15.0682062592
 30
0.0
 10
3.6261751554
 20
14.6757333645
 30
0.0
 10
3.3032514031
 20
14.2541496841
 30
0.0
 10
3.027091761
 20
13.8055364619
 30
0.0
 10
2.7965107182
 20
13.3331317565
 30
0.0
 10
2.6734283648
 20
13.0046686888
 30
0.0
 10
2.619750379
 20
12.8379869211
 30
0.0
  0
SPLINE
  5
29A
100
AcDbEntity
  8
0
100
AcDbSpline
 62
7
  6
BYLAYER
 70
0
 71
3
 72
250
 73
246
 74
0
 42
0.0000001
 43
0.0000001
 44
0.0000000001
 40
0.0
 40
0.0
 40
0.0
 40
0.0
 40
0.0041161611
 40
0.0082276844
 40
0.0123351702
 40
0.0164429245
 40
0.0205553684
 40
0.0246731826
 40
0.0287943788
 40
0.0329156557
 40
0.0370337436
 40
0.0411467491
 40
0.0452555113
 40
0.0493645952
 40
0.0534781832
 40
0.0575967453
 40
0.0617182052
 40
0.0658392924
 40
0.0699568824
 40
0.0740693399
 40
0.0781778747
 40
0.0822873125
 40
0.0864014453
 40
0.0905204059
 40
0.0946419276
 40
0.0987626945
 40
0.1028796822
 40
0.1069915005
 40
0.1110997543
 40
0.1152095001
 40
0.1193241388
 40
0.1234434899
 40
0.1275651112
 40
0.1316856483
 40
0.1358021743
 40
0.1399135351
 40
0.1440217132
 40
0.148131899
 40
0.1522470916
 40
0.156366818
 40
0.1604884831
 40
0.1646087168
 40
0.1687247147
 40
0.1728355833
 40
0.1769437054
 40
0.1810543328
 40
0.1851700576
 40
0.1892901257
 40
0.1934117999
 40
0.1975317062
 40
0.201647174
 40
0.2057575826
 40
0.2098657203
 40
0.2139768195
 40
0.2180930697
 40
0.2222134507
 40
0.226335098
 40
0.2304546482
 40
0.2345695787
 40
0.2386795563
 40
0.2427877751
 40
0.2468993683
 40
0.2510161321
 40
0.2551367943
 40
0.2592583776
 40
0.2633775431
 40
0.2674919308
 40
0.2716015094
 40
0.2757098716
 40
0.2798219762
 40
0.2839392387
 40
0.2880601496
 40
0.2921816326
 40
0.2963003876
 40
0.3004142313
 40
0.3045234484
 40
0.3086320141
 40
0.3127446439
 40
0.3168623881
 40
0.3209835141
 40
0.3251048609
 40
0.3292231811
 40
0.3333364825
 40
0.3374453804
 40
0.3415542047
 40
0.3456673695
 40
0.349785576
 40
0.3539068826
 40
0.3580280576
 40
0.3621459209
 40
0.3662586854
 40
0.3703673116
 40
0.3744764436
 40
0.3785901497
 40
0.3827087967
 40
0.3868302486
 40
0.3909512173
 40
0.3950686035
 40
0.39918084
 40
0.4032892483
 40
0.4073987316
 40
0.4115129815
 40
0.4156320454
 40
0.4197536068
 40
0.4238743352
 40
0.4279912267
 40
0.4321029479
 40
0.436211197
 40
0.4403210702
 40
0.4444358634
 40
0.4485553186
 40
0.452676953
 40
0.4567974083
 40
0.4609137898
 40
0.4650250124
 40
0.4691331648
 40
0.4732434617
 40
0.4773587942
 40
0.4814786133
 40
0.4856002843
 40
0.4897204347
 40
0.4938362937
 40
0.4979470384
 40
0.5020551586
 40
0.5061659086
 40
0.5102817735
 40
0.5144019275
 40
0.5185235983
 40
0.5226434134
 40
0.5267587399
 40
0.5308690319
 40
0.534977185
 40
0.5390884131
 40
0.5432048005
 40
0.547325259
 40
0.5514468928
 40
0.5555663437
 40
0.5596811308
 40
0.5637909994
 40
0.56789925
 40
0.5720109769
 40
0.5761278741
 40
0.5802486054
 40
0.5843701657
 40
0.588489225
 40
0.5926034689
 40
0.596712948
 40
0.6008213584
 40
0.6049336008
 40
0.6090509925
 40
0.6131719637
 40
0.6172934141
 40
0.6214120563
 40
0.6255257562
 40
0.6296348846
 40
0.6337435136
 40
0.6378562841
 40
0.6419741526
 40
0.6460953298
 40
0.6502166345
 40
0.6543348359
 40
0.6584479946
 40
0.6625568157
 40
0.6666657169
 40
0.6707790245
 40
0.6748973497
 40
0.6790186982
 40
0.683139822
 40
0.6872575609
 40
0.6913701846
 40
0.6954787477
 40
0.6995879687
 40
0.7037018186
 40
0.7078205783
 40
0.7119420627
 40
0.716062971
 40
0.720180228
 40
0.7242923267
 40
0.7284006869
 40
0.7325102697
 40
0.7366246636
 40
0.7407438335
 40
0.7448654177
 40
0.748986077
 40
0.753102835
 40
0.7572144226
 40
0.7613226402
 40
0.7654326225
 40
0.7695475592
 40
0.7736671135
 40
0.7777887613
 40
0.7819091389
 40
0.7860253832
 40
0.7901364769
 40
0.7942446142
 40
0.7983550281
 40
0.8024705022
 40
0.8065904127
 40
0.8107120873
 40
0.8148321518
 40
0.8189478705
 40
0.823058492
 40
0.8271666131
 40
0.8312774852
 40
0.835393487
 40
0.8395137226
 40
0.8436353864
 40
0.847755109
 40
0.8518702972
 40
0.8559804816
 40
0.860088666
 40
0.8642000384
 40
0.8683165756
 40
0.8724371192
 40
0.8765587404
 40
0.8806780844
 40
0.8847927112
 40
0.8889024444
 40
0.8930106912
 40
0.8971225097
 40
0.9012395026
 40
0.9053602775
 40
0.9094818071
 40
0.9136007722
 40
0.9177149023
 40
0.9218243254
 40
0.9259328287
 40
0.9300452347
 40
0.9341627586
 40
0.9382837782
 40
0.9424051894
 40
0.9465237473
 40
0.9506374064
 40
0.9547466696
 40
0.9588557394
 40
0.9629691266
 40
0.9670875861
 40
0.9712091373
 40
0.9753304266
 40
0.9794480784
 40
0.9835600474
 40
0.9876669838
 40
0.9917734119
 40
0.9958840774
 40
1.0
 40
1.0
 40
1.0
 40
1.0
 10
4.6010028093
 20
6.740953028
 30
0.0
 10
4.7490422349
 20
6.632818662
 30
0.0
 10
5.0558161161
 20
6.431091016
 30
0.0
 10
5.5435003569
 20
6.1761997242
 30
0.0
 10
6.054511283
 20
5.9727073899
 30
0.0
 10
6.584267566
 20
5.8246125656
 30
0.0
 10
7.1268028193
 20
5.7316072655
 30
0.0
 10
7.6764693776
 20
5.6931465423
 30
0.0
 10
8.2276309599
 20
5.708775509
 30
0.0
 10
8.7746563338
 20
5.7780654195
 30
0.0
 10
9.3119061296
 20
5.9006343573
 30
0.0
 10
9.8337263175
 20
6.0761137527
 30
0.0
 10
10.3344221641
 20
6.3042417986
 30
0.0
 10
10.8080297518
 20
6.5843404923
 30
0.0
 10
11.2507430774
 20
6.9116837919
 30
0.0
 10
11.658977144
 20
7.2819066976
 30
0.0
 10
12.0291329945
 20
7.6906240358
 30
0.0
 10
12.357595338
 20
8.1334935986
 30
0.0
 10
12.6407094712
 20
8.6061980865
 30
0.0
 10
12.8748370007
 20
9.1044145811
 30
0.0
 10
13.0561114785
 20
9.623896145
 30
0.0
 10
13.1812473228
 20
10.159734924
 30
0.0
 10
13.2511538382
 20
10.705919595
 30
0.0
 10
13.2663833537
 20
11.2568586196
 30
0.0
 10
13.2275534087
 20
11.8069154692
 30
0.0
 10
13.1352249941
 20
12.3504740895
 30
0.0
 10
12.9899106142
 20
12.8818992535
 30
0.0
 10
12.7921691293
 20
13.3955808839
 30
0.0
 10
12.5422380973
 20
13.8857137483
 30
0.0
 10
12.2417616532
 20
14.3467055674
 30
0.0
 10
11.8957408903
 20
14.7751073734
 30
0.0
 10
11.5085337709
 20
15.1673862454
 30
0.0
 10
11.0846064611
 20
15.5200446431
 30
0.0
 10
10.6283637633
 20
15.8295545308
 30
0.0
 10
10.1441909474
 20
16.092331871
 30
0.0
 10
9.6364931422
 20
16.3048753198
 30
0.0
 10
9.1095862654
 20
16.4631874125
 30
0.0
 10
8.5687874136
 20
16.5650273866
 30
0.0
 10
8.0200147952
 20
16.6116077582
 30
0.0
 10
7.4688411494
 20
16.6035582846
 30
0.0
 10
6.9208887442
 20
16.5416248621
 30
0.0
 10
6.3817591765
 20
16.4264861097
 30
0.0
 10
5.8570855389
 20
16.2587632731
 30
0.0
 10
5.3524391259
 20
16.0391696562
 30
0.0
 10
4.8737681813
 20
15.7679437403
 30
0.0
 10
4.4261299055
 20
15.4478039395
 30
0.0
 10
4.0127630434
 20
15.0837852357
 30
0.0
 10
3.6371180101
 20
14.6803144513
 30
0.0
 10
3.3025952785
 20
14.2419274369
 30
0.0
 10
3.0126290803
 20
13.7731010526
 30
0.0
 10
2.7707211454
 20
13.2782951986
 30
0.0
 10
2.5802496279
 20
12.7619885751
 30
0.0
 10
2.4452593026
 20
12.2286331548
 30
0.0
 10
2.3668042989
 20
11.6838821951
 30
0.0
 10
2.3436017043
 20
11.1335146767
 30
0.0
 10
2.3748891856
 20
10.5831000745
 30
0.0
 10
2.4598096679
 20
10.0382386592
 30
0.0
 10
2.5975671588
 20
9.5045168746
 30
0.0
 10
2.7874247372
 20
8.9875588634
 30
0.0
 10
3.0285505795
 20
8.4929106847
 30
0.0
 10
3.3205593967
 20
8.0266204324
 30
0.0
 10
3.6596940356
 20
7.5931004143
 30
0.0
 10
4.0410237681
 20
7.1954941144
 30
0.0
 10
4.460015296
 20
6.837144159
 30
0.0
 10
4.9120744079
 20
6.5213587892
 30
0.0
 10
5.3926521648
 20
6.2514790014
 30
0.0
 10
5.8972120633
 20
6.0309100507
 30
0.0
 10
6.4212164866
 20
5.8629570424
 30
0.0
 10
6.9599996555
 20
5.7515214396
 30
0.0
 10
7.5076966491
 20
5.6965068885
 30
0.0
 10
8.0586615169
 20
5.6966870564
 30
0.0
 10
8.6073266371
 20
5.7511361603
 30
0.0
 10
9.1481170514
 20
5.858893585
 30
0.0
 10
9.6754608794
 20
6.0190479963
 30
0.0
 10
10.1837545689
 20
6.2307321435
 30
0.0
 10
10.6674404253
 20
6.4930508288
 30
0.0
 10
11.1204920793
 20
6.8052413549
 30
0.0
 10
11.5391517648
 20
7.162694564
 30
0.0
 10
11.9203028339
 20
7.5606188159
 30
0.0
 10
12.2607253492
 20
7.9943654385
 30
0.0
 10
12.5572021652
 20
8.4592861524
 30
0.0
 10
12.8064819921
 20
8.9507619207
 30
0.0
 10
13.0052786356
 20
9.4641778005
 30
0.0
 10
13.1502795088
 20
9.9949469155
 30
0.0
 10
13.2380334008
 20
10.5381184999
 30
0.0
 10
13.2695712266
 20
11.0877614543
 30
0.0
 10
13.2460449787
 20
11.6383263877
 30
0.0
 10
13.1685463607
 20
12.1842558491
 30
0.0
 10
13.0381397228
 20
12.7200016281
 30
0.0
 10
12.855846346
 20
13.2400047266
 30
0.0
 10
12.6226832171
 20
13.7386999186
 30
0.0
 10
12.339539554
 20
14.2104545577
 30
0.0
 10
12.0078528624
 20
14.6494774696
 30
0.0
 10
11.632768144
 20
15.0525525645
 30
0.0
 10
11.2189945869
 20
15.4165847987
 30
0.0
 10
10.7712802964
 20
15.7384763246
 30
0.0
 10
10.2943297184
 20
16.0151044326
 30
0.0
 10
9.7928290486
 20
16.2433020366
 30
0.0
 10
9.2714709567
 20
16.4199279797
 30
0.0
 10
8.7348971166
 20
16.5415699299
 30
0.0
 10
8.1883803726
 20
16.6056122359
 30
0.0
 10
7.6377883493
 20
16.6136593389
 30
0.0
 10
7.0886178607
 20
16.5668650583
 30
0.0
 10
6.5464047385
 20
16.4664650438
 30
0.0
 10
6.0166699569
 20
16.3136334159
 30
0.0
 10
5.5049605563
 20
16.1094968421
 30
0.0
 10
5.01678769
 20
15.8552319357
 30
0.0
 10
4.5579178324
 20
15.551692498
 30
0.0
 10
4.133660014
 20
15.2012415016
 30
0.0
 10
3.7468722334
 20
14.8092321267
 30
0.0
 10
3.4005917672
 20
14.3803795238
 30
0.0
 10
3.0978046811
 20
13.9195065437
 30
0.0
 10
2.8415347901
 20
13.4313777499
 30
0.0
 10
2.6348655249
 20
12.9207448468
 30
0.0
 10
2.4807881481
 20
12.3923704096
 30
0.0
 10
2.3828272946
 20
11.8509878734
 30
0.0
 10
2.3424852844
 20
11.3021567072
 30
0.0
 10
2.3579058683
 20
10.7516123539
 30
0.0
 10
2.4278529333
 20
10.2048257588
 30
0.0
 10
2.5509691949
 20
9.6673030585
 30
0.0
 10
2.7259663181
 20
9.1445376359
 30
0.0
 10
2.951610355
 20
8.6420617194
 30
0.0
 10
3.2265793713
 20
8.1653320567
 30
0.0
 10
3.5499899853
 20
7.7202535903
 30
0.0
 10
3.9184655991
 20
7.3114684562
 30
0.0
 10
4.3266640611
 20
6.9416414933
 30
0.0
 10
4.7698040759
 20
6.6137161394
 30
0.0
 10
5.243005562
 20
6.3305755452
 30
0.0
 10
5.7414421322
 20
6.0951425674
 30
0.0
 10
6.260296564
 20
5.9104095981
 30
0.0
 10
6.7947477136
 20
5.779242885
 30
0.0
 10
7.3399138998
 20
5.7051803651
 30
0.0
 10
7.8900427891
 20
5.6885050887
 30
0.0
 10
8.439543988
 20
5.727328568
 30
0.0
 10
8.9829635937
 20
5.8202774594
 30
0.0
 10
9.5148296531
 20
5.9658877069
 30
0.0
 10
10.0296763671
 20
6.1627558556
 30
0.0
 10
10.5219941801
 20
6.4095323277
 30
0.0
 10
10.9863600566
 20
6.7047857536
 30
0.0
 10
11.4167994777
 20
7.0474513878
 30
0.0
 10
11.809428327
 20
7.4332058355
 30
0.0
 10
12.1616521618
 20
7.8568298353
 30
0.0
 10
12.4706490506
 20
8.3134453321
 30
0.0
 10
12.73363327
 20
8.7981250309
 30
0.0
 10
12.9477820403
 20
9.3059810031
 30
0.0
 10
13.1102095771
 20
9.8321301839
 30
0.0
 10
13.2181195033
 20
10.3717014169
 30
0.0
 10
13.2681740196
 20
10.9196091984
 30
0.0
 10
13.2612365611
 20
11.4700303208
 30
0.0
 10
13.1991168668
 20
12.0174961791
 30
0.0
 10
13.0833525136
 20
12.5565730542
 30
0.0
 10
12.9155073492
 20
13.0818254414
 30
0.0
 10
12.6970974406
 20
13.5878141331
 30
0.0
 10
12.4296018701
 20
14.0690662001
 30
0.0
 10
12.1145084508
 20
14.5201460795
 30
0.0
 10
11.7532882803
 20
14.9351677028
 30
0.0
 10
11.3510078813
 20
15.3109775119
 30
0.0
 10
10.9127484562
 20
15.6449885973
 30
0.0
 10
10.4434887843
 20
15.9345141469
 30
0.0
 10
9.9482001106
 20
16.1768649754
 30
0.0
 10
9.4318301866
 20
16.3693142438
 30
0.0
 10
8.8993271262
 20
16.5091065363
 30
0.0
 10
8.3556126933
 20
16.5934304012
 30
0.0
 10
7.8060101457
 20
16.6194760128
 30
0.0
 10
7.2562940806
 20
16.5889990658
 30
0.0
 10
6.7118503808
 20
16.5037317017
 30
0.0
 10
6.1780836264
 20
16.3653733621
 30
0.0
 10
5.6603914762
 20
16.1755887626
 30
0.0
 10
5.1641889302
 20
15.9360011097
 30
0.0
 10
4.6948919776
 20
15.6482364211
 30
0.0
 10
4.2580217106
 20
15.3137772729
 30
0.0
 10
3.8591204324
 20
14.9347770868
 30
0.0
 10
3.5007738692
 20
14.5167327745
 30
0.0
 10
3.185551218
 20
14.0646529132
 30
0.0
 10
2.9160088059
 20
13.583598881
 30
0.0
 10
2.6947352086
 20
13.0785881845
 30
0.0
 10
2.5243669001
 20
12.5546260702
 30
0.0
 10
2.4075045621
 20
12.0167215776
 30
0.0
 10
2.347060476
 20
11.4698654942
 30
0.0
 10
2.3449333256
 20
10.9196067987
 30
0.0
 10
2.3988531816
 20
10.3715879401
 30
0.0
 10
2.5070792685
 20
9.8311457807
 30
0.0
 10
2.6677748138
 20
9.3036470692
 30
0.0
 10
2.8791680879
 20
8.7944505256
 30
0.0
 10
3.1395325416
 20
8.3089478849
 30
0.0
 10
3.4470898468
 20
7.8524833053
 30
0.0
 10
3.8003747157
 20
7.4307185919
 30
0.0
 10
4.1963471533
 20
7.0485868306
 30
0.0
 10
4.629374272
 20
6.7083226892
 30
0.0
 10
5.0944385893
 20
6.4124312418
 30
0.0
 10
5.5864189643
 20
6.1633513009
 30
0.0
 10
6.1002483734
 20
5.9635662321
 30
0.0
 10
6.6308654984
 20
5.8156218398
 30
0.0
 10
7.1732090681
 20
5.7219640188
 30
0.0
 10
7.7221790175
 20
5.6855996344
 30
0.0
 10
8.2720725447
 20
5.7072668993
 30
0.0
 10
8.8174062424
 20
5.7844949695
 30
0.0
 10
9.3528766439
 20
5.9154550139
 30
0.0
 10
9.8731600347
 20
6.0981949277
 30
0.0
 10
10.3729374089
 20
6.3308320077
 30
0.0
 10
10.8468440454
 20
6.6115339009
 30
0.0
 10
11.2896036326
 20
6.9383869839
 30
0.0
 10
11.6954260721
 20
7.3098669221
 30
0.0
 10
12.0601675311
 20
7.721999451
 30
0.0
 10
12.3817629824
 20
8.1692020464
 30
0.0
 10
12.6578125001
 20
8.646396431
 30
0.0
 10
12.8859844806
 20
9.1484173248
 30
0.0
 10
13.0639024895
 20
9.6701470733
 30
0.0
 10
13.1891196899
 20
10.2064691309
 30
0.0
 10
13.2593149485
 20
10.752278203
 30
0.0
 10
13.2715062235
 20
11.3023197847
 30
0.0
 10
13.2261875848
 20
11.8508444545
 30
0.0
 10
13.1258261255
 20
12.3925124701
 30
0.0
 10
12.9723908747
 20
12.9220521117
 30
0.0
 10
12.767935346
 20
13.4341851233
 30
0.0
 10
12.5144538368
 20
13.9236320328
 30
0.0
 10
12.2138926904
 20
14.3850645557
 30
0.0
 10
11.8682650224
 20
14.8132463208
 30
0.0
 10
11.4793064533
 20
15.2023555398
 30
0.0
 10
11.0518310218
 20
15.5491048365
 30
0.0
 10
10.5912850125
 20
15.8514737691
 30
0.0
 10
10.1028312998
 20
16.1071972466
 30
0.0
 10
9.5916709857
 20
16.3140461251
 30
0.0
 10
9.0629723765
 20
16.4697511012
 30
0.0
 10
8.5219061342
 20
16.5719830401
 30
0.0
 10
7.9736205259
 20
16.6184884885
 30
0.0
 10
7.4235531845
 20
16.6065473883
 30
0.0
 10
6.8773864483
 20
16.5377737296
 30
0.0
 10
6.3403526075
 20
16.4145315618
 30
0.0
 10
5.8176850533
 20
16.2389452513
 30
0.0
 10
5.3146164561
 20
16.0131549279
 30
0.0
 10
4.8363911407
 20
15.7392543615
 30
0.0
 10
4.3882897379
 20
15.4193073871
 30
0.0
 10
3.9755717448
 20
15.055369388
 30
0.0
 10
3.6039105115
 20
14.6495992354
 30
0.0
 10
3.2757971636
 20
14.2074644536
 30
0.0
 10
2.9932482845
 20
13.7343077314
 30
0.0
 10
2.7583657863
 20
13.2354044099
 30
0.0
 10
2.5732558267
 20
12.7160126411
 30
0.0
 10
2.4400619853
 20
12.1813677444
 30
0.0
 10
2.3609492794
 20
11.6366989661
 30
0.0
 10
2.3381688759
 20
11.0872091002
 30
0.0
 10
2.3738412753
 20
10.5384523615
 30
0.0
 10
2.4655813944
 20
9.995973791
 30
0.0
 10
2.5626473562
 20
9.6419307378
 30
0.0
 10
2.619749929
 20
9.4677351188
 30
0.0
  0
SPLINE
  5
29B
100
AcDbEntity
  8
0
100
AcDbSpline
 62
7
  6
BYLAYER
 70
0
 71
3
 72
27
 73
23
 74
0
 42
0.0000001
 43
0.0000001
 44
0.0000000001
 40
0.0
 40
0.0
 40
0.0
 40
0.0
 40
0.0031855432
 40
0.0544947906
 40
0.1070929329
 40
0.160628159
 40
0.2145263847
 40
0.2682939377
 40
0.3214649508
 40
0.373617496
 40
0.4246881186
 40
0.4759376995
 40
0.5284995228
 40
0.5820528885
 40
0.6360118243
 40
0.6898318096
 40
0.7430260052
 40
0.7953482115
 40
0.846752016
 40
0.8977640094
 40
0.9488742857
 40
1.0
 40
1.0
 40
1.0
 40
1.0
 10
4.5970293898
 20
15.5684250521
 30
0.0
 10
4.5882011455
 20
15.5620012041
 30
0.0
 10
4.437525222
 20
15.4516312309
 30
0.0
 10
4.1532372039
 20
15.2187156227
 30
0.0
 10
3.7712991122
 20
14.8365832865
 30
0.0
 10
3.4233223217
 20
14.411739825
 30
0.0
 10
3.116557455
 20
13.9514262602
 30
0.0
 10
2.857022851
 20
13.4643367423
 30
0.0
 10
2.6489471898
 20
12.9596098236
 30
0.0
 10
2.4944565558
 20
12.4456331132
 30
0.0
 10
2.3934815102
 20
11.9252100491
 30
0.0
 10
2.3458303372
 20
11.3958311703
 30
0.0
 10
2.3509575981
 20
10.8558434575
 30
0.0
 10
2.4103732928
 20
10.3097572857
 30
0.0
 10
2.52405226
 20
9.7679370677
 30
0.0
 10
2.6899522228
 20
9.2410531213
 30
0.0
 10
2.9046083426
 20
8.738178283
 30
0.0
 10
3.1639220331
 20
8.2662269171
 30
0.0
 10
3.4650793826
 20
7.8288331403
 30
0.0
 10
3.8064408964
 20
7.4275069451
 30
0.0
 10
4.1845703084
 20
7.06214838
 30
0.0
 10
4.4590223138
 20
6.8435322014
 30
0.0
 10
4.6010015345
 20
6.7409561325
 30
0.0
  0
SPLINE
  5
29C
100
AcDbEntity
  8
0
100
AcDbSpline
 62
7
  6
BYLAYER
 70
0
 71
3
 72
254
 73
250
 74
0
 42
0.0000001
 43
0.0000001
 44
0.0000000001
 40
0.0
 40
0.0
 40
0.0
 40
0.0
 40
0.0036679044
 40
0.0074475944
 40
0.0113459023
 40
0.0153247159
 40
0.0193481946
 40
0.0234235939
 40
0.0275568884
 40
0.0317097169
 40
0.0358345277
 40
0.0398835353
 40
0.043829484
 40
0.0477563908
 40
0.0517595898
 40
0.0558396855
 40
0.0599704147
 40
0.0641166972
 40
0.0682395987
 40
0.0722918054
 40
0.0762424592
 40
0.0801714511
 40
0.0841749978
 40
0.0882556251
 40
0.0923868438
 40
0.0965338001
 40
0.1006577145
 40
0.1047118129
 40
0.1086634067
 40
0.1125901159
 40
0.1165909153
 40
0.1206702894
 40
0.1248008086
 40
0.1289477117
 40
0.1330724283
 40
0.1371289392
 40
0.1410830357
 40
0.1450091027
 40
0.1490078026
 40
0.1530859833
 40
0.157215778
 40
0.161362592
 40
0.1654880141
 40
0.1695466582
 40
0.1735028636
 40
0.1774279272
 40
0.1814243972
 40
0.1855015048
 40
0.1896306762
 40
0.1937774522
 40
0.1979036346
 40
0.201964363
 40
0.2059225471
 40
0.2098464087
 40
0.2138404643
 40
0.2179164708
 40
0.2220450373
 40
0.2261917246
 40
0.2303184946
 40
0.2343813061
 40
0.2383421794
 40
0.2422657403
 40
0.2462576337
 40
0.250332392
 40
0.2544602312
 40
0.2586068709
 40
0.2627344612
 40
0.2667992336
 40
0.2707617522
 40
0.2746836323
 40
0.2786727416
 40
0.2827463967
 40
0.2868737038
 40
0.2910202311
 40
0.2951482858
 40
0.2992150569
 40
0.3031807656
 40
0.3071030555
 40
0.3110901378
 40
0.315162401
 40
0.3192889373
 40
0.3234354207
 40
0.3275641958
 40
0.3316328416
 40
0.3356006419
 40
0.339521868
 40
0.3435062679
 40
0.3475773143
 40
0.35170327
 40
0.3558496531
 40
0.3599789514
 40
0.3640494327
 40
0.3680200059
 40
0.3719411742
 40
0.3759232672
 40
0.3799929646
 40
0.3841182385
 40
0.3882645421
 40
0.3923944138
 40
0.3964666537
 40
0.4004397633
 40
0.4043605888
 40
0.4083402026
 40
0.4124085666
 40
0.4165331901
 40
0.4206793919
 40
0.4248098487
 40
0.4288838105
 40
0.4328593173
 40
0.4367795974
 40
0.4407565469
 40
0.4448235377
 40
0.4489475602
 40
0.4530936596
 40
0.4572245675
 40
0.4613001749
 40
0.4652786307
 40
0.4691993308
 40
0.4731740615
 40
0.4772395665
 40
0.4813628281
 40
0.4855088165
 40
0.4896403981
 40
0.4937176888
 40
0.4976982122
 40
0.5016178472
 40
0.5055894797
 40
0.5096535352
 40
0.5137762798
 40
0.5179221591
 40
0.5220540966
 40
0.5261329118
 40
0.530116698
 40
0.5340374666
 40
0.5380071855
 40
0.5420696349
 40
0.5461915542
 40
0.5503373302
 40
0.5544698594
 40
0.558550224
 40
0.5625363932
 40
0.5664568054
 40
0.5704237242
 40
0.5744846197
 40
0.5786059483
 40
0.582751609
 40
0.586884562
 40
0.5909663641
 40
0.5949553778
 40
0.5988764052
 40
0.6028410625
 40
0.6069003191
 40
0.6110209234
 40
0.6151664691
 40
0.6192998948
 40
0.6233830972
 40
0.6273747785
 40
0.631296212
 40
0.6352584531
 40
0.6393160373
 40
0.6434359393
 40
0.6475813488
 40
0.6517152713
 40
0.655799884
 40
0.659794075
 40
0.6637156441
 40
0.6676752252
 40
0.6717310523
 40
0.6758503017
 40
0.6799955961
 40
0.684129912
 40
0.6882158015
 40
0.6922128839
 40
0.6961355902
 40
0.7000931789
 40
0.7041472153
 40
0.7082656304
 40
0.7124107586
 40
0.7165456455
 40
0.7206329642
 40
0.7246322839
 40
0.7285546713
 40
0.7325091733
 40
0.736561299
 40
0.7406791409
 40
0.7448241683
 40
0.7489593829
 40
0.7530478412
 40
0.757050162
 40
0.7609743165
 40
0.7649272607
 40
0.7689775164
 40
0.7730944436
 40
0.7772393114
 40
0.7813750404
 40
0.7854647649
 40
0.7894694653
 40
0.7933940209
 40
0.7973443625
 40
0.8013926258
 40
0.8055088736
 40
0.8096536183
 40
0.8137897405
 40
0.8178805962
 40
0.821887946
 40
0.8258138028
 40
0.8297622292
 40
0.8338084889
 40
0.8379238915
 40
0.8420684687
 40
0.8462049995
 40
0.8502969438
 40
0.8543067592
 40
0.8582337301
 40
0.8621801053
 40
0.8662243065
 40
0.8703389199
 40
0.87448338
 40
0.8786204216
 40
0.8827135798
 40
0.8867257492
 40
0.8906534922
 40
0.8945974191
 40
0.8986392792
 40
0.9027530084
 40
0.9068973047
 40
0.9110347987
 40
0.9151291707
 40
0.9191442973
 40
0.9230744401
 40
0.9270174904
 40
0.9310575904
 40
0.9351703262
 40
0.9393138423
 40
0.9434507288
 40
0.9475446772
 40
0.9515597243
 40
0.9554877621
 40
0.9594261525
 40
0.9634634635
 40
0.967577004
 40
0.9717238602
 40
0.9758659087
 40
0.9799662992
 40
0.9839898336
 40
0.9879258969
 40
0.9918647712
 40
0.9958938607
 40
1.0
 40
1.0
 40
1.0
 40
1.0
 10
11.0113265753
 20
6.7411618143
 30
0.0
 10
10.8794128513
 20
6.6447935285
 30
0.0
 10
10.6028272619
 20
6.4607618697
 30
0.0
 10
10.1579514174
 20
6.2196308409
 30
0.0
 10
9.6792640948
 20
6.0164047775
 30
0.0
 10
9.1719940812
 20
5.8595415663
 30
0.0
 10
8.6437521124
 20
5.7532672671
 30
0.0
 10
8.1007656703
 20
5.699037384
 30
0.0
 10
7.5493073046
 20
5.6983505948
 30
0.0
 10
6.9982448609
 20
5.7519511619
 30
0.0
 10
6.4587957285
 20
5.8587086532
 30
0.0
 10
5.9413409981
 20
6.0154769852
 30
0.0
 10
5.4500534483
 20
6.2192605844
 30
0.0
 10
4.9837532407
 20
6.4708732988
 30
0.0
 10
4.5401851947
 20
6.7714420868
 30
0.0
 10
4.1215447478
 20
7.1202116145
 30
0.0
 10
3.7347716794
 20
7.5130199935
 30
0.0
 10
3.3871976314
 20
7.9433569993
 30
0.0
 10
3.0854926144
 20
8.4028332369
 30
0.0
 10
2.8346268612
 20
8.8820951191
 30
0.0
 10
2.6355984676
 20
9.3758081943
 30
0.0
 10
2.4882474437
 20
9.8850917599
 30
0.0
 10
2.3918398578
 20
10.4122938611
 30
0.0
 10
2.3473026799
 20
10.9554170332
 30
0.0
 10
2.3565201502
 20
11.5066793895
 30
0.0
 10
2.4199849817
 20
12.0562947813
 30
0.0
 10
2.5363980801
 20
12.5936658078
 30
0.0
 10
2.7025697704
 20
13.1086399396
 30
0.0
 10
2.915327071
 20
13.5966200262
 30
0.0
 10
3.1752786583
 20
14.0584786432
 30
0.0
 10
3.4836639408
 20
14.4964687698
 30
0.0
 10
3.8397847106
 20
14.9086776057
 30
0.0
 10
4.2394598295
 20
15.2883307767
 30
0.0
 10
4.6760397182
 20
15.6281912742
 30
0.0
 10
5.1411012167
 20
15.9217763652
 30
0.0
 10
5.6251600866
 20
16.164211211
 30
0.0
 10
6.1225545167
 20
16.3544519395
 30
0.0
 10
6.6341909194
 20
16.492672919
 30
0.0
 10
7.1625850466
 20
16.5795590435
 30
0.0
 10
7.7060311342
 20
16.6143356031
 30
0.0
 10
8.2568608076
 20
16.5952329379
 30
0.0
 10
8.8052458095
 20
16.5219143443
 30
0.0
 10
9.3406994346
 20
16.3958251863
 30
0.0
 10
9.853064183
 20
16.2202997102
 30
0.0
 10
10.3374610377
 20
15.9987015795
 30
0.0
 10
10.7945673894
 20
15.7306023793
 30
0.0
 10
11.2266689316
 20
15.4146391281
 30
0.0
 10
11.6321636486
 20
15.0514221865
 30
0.0
 10
12.0044658864
 20
14.6451166097
 30
0.0
 10
12.3364302196
 20
14.2025037027
 30
0.0
 10
12.6217512525
 20
13.7320374941
 30
0.0
 10
12.8556557258
 20
13.2433159188
 30
0.0
 10
13.0370479747
 20
12.7423386699
 30
0.0
 10
13.1661138004
 20
12.2284441499
 30
0.0
 10
13.2434740894
 20
11.6989771895
 30
0.0
 10
13.2684958826
 20
11.1553536564
 30
0.0
 10
13.2395213776
 20
10.6051121808
 30
0.0
 10
13.1563735416
 20
10.058131738
 30
0.0
 10
13.0206461097
 20
9.5247922451
 30
0.0
 10
12.8358165384
 20
9.0152263519
 30
0.0
 10
12.6054413985
 20
8.5345800152
 30
0.0
 10
12.329284757
 20
8.0823701232
 30
0.0
 10
12.0058640324
 20
7.6562921116
 30
0.0
 10
11.6356900815
 20
7.2576404429
 30
0.0
 10
11.2228945838
 20
6.8928037328
 30
0.0
 10
10.7743954434
 20
6.5688409907
 30
0.0
 10
10.2986824621
 20
6.2918858948
 30
0.0
 10
9.8054500523
 20
6.0665962892
 30
0.0
 10
9.3010357536
 20
5.8941129329
 30
0.0
 10
8.7850406793
 20
5.7742324652
 30
0.0
 10
8.2546848393
 20
5.706402673
 30
0.0
 10
7.7110818243
 20
5.6911228199
 30
0.0
 10
7.1616155154
 20
5.7299447033
 30
0.0
 10
6.6162200881
 20
5.8228865143
 30
0.0
 10
6.0851795903
 20
5.9682068249
 30
0.0
 10
5.5785831287
 20
6.1622874847
 30
0.0
 10
5.1018359765
 20
6.4013746117
 30
0.0
 10
4.654653614
 20
6.685495751
 30
0.0
 10
4.2347257061
 20
7.0162463752
 30
0.0
 10
3.8430386999
 20
7.3932289247
 30
0.0
 10
3.4857748799
 20
7.8123645674
 30
0.0
 10
3.169914208
 20
8.2665910499
 30
0.0
 10
2.9014203311
 20
8.7473800976
 30
0.0
 10
2.6848097753
 20
9.2449885202
 30
0.0
 10
2.5212648701
 20
9.7527690089
 30
0.0
 10
2.4105841505
 20
10.2708114209
 30
0.0
 10
2.3522969336
 20
10.8019440095
 30
0.0
 10
2.3467631195
 20
11.3453470985
 30
0.0
 10
2.3954238053
 20
11.8938462488
 30
0.0
 10
2.498140316
 20
12.4374740048
 30
0.0
 10
2.653023848
 20
12.9660274705
 30
0.0
 10
2.856315161
 20
13.4694711295
 30
0.0
 10
3.1040580669
 20
13.9421525122
 30
0.0
 10
3.396060276
 20
14.3841617118
 30
0.0
 10
3.7340259384
 20
14.7978065306
 30
0.0
 10
4.1176840173
 20
15.1824022886
 30
0.0
 10
4.5430231994
 20
15.5319768003
 30
0.0
 10
5.0028323475
 20
15.8396260451
 30
0.0
 10
5.488535443
 20
16.0995501857
 30
0.0
 10
5.9903555283
 20
16.3073852671
 30
0.0
 10
6.501345753
 20
16.461919964
 30
0.0
 10
7.0212813134
 20
16.5633630713
 30
0.0
 10
7.5530237844
 20
16.6120998849
 30
0.0
 10
8.0960465048
 20
16.607896836
 30
0.0
 10
8.6433980125
 20
16.5494167133
 30
0.0
 10
9.1850775661
 20
16.4369556271
 30
0.0
 10
9.7109552922
 20
16.2725513906
 30
0.0
 10
10.2110670887
 20
16.060101199
 30
0.0
 10
10.679526312
 20
15.8037662003
 30
0.0
 10
11.116227402
 20
15.5039711469
 30
0.0
 10
11.5234638393
 20
15.1589118127
 30
0.0
 10
11.9008468459
 20
14.7687209427
 30
0.0
 10
12.2426210896
 20
14.3373251958
 30
0.0
 10
12.5419584383
 20
13.8720844823
 30
0.0
 10
12.7932158778
 20
13.381632133
 30
0.0
 10
12.992190275
 20
12.8757657894
 30
0.0
 10
13.1376531833
 20
12.3617221157
 30
0.0
 10
13.2298293246
 20
11.8400489245
 30
0.0
 10
13.2690168726
 20
11.3078684976
 30
0.0
 10
13.2550968763
 20
10.7654139001
 30
0.0
 10
13.1868289265
 20
10.2193956906
 30
0.0
 10
13.064664901
 20
9.6798422405
 30
0.0
 10
12.8907921825
 20
9.1568199959
 30
0.0
 10
12.6692424731
 20
8.6602094737
 30
0.0
 10
12.404385487
 20
8.1961206301
 30
0.0
 10
12.0968929952
 20
7.7648574245
 30
0.0
 10
11.7448714413
 20
7.3641511521
 30
0.0
 10
11.3483025091
 20
6.99409857
 30
0.0
 10
10.9110082317
 20
6.6602294578
 30
0.0
 10
10.4404922589
 20
6.3692941238
 30
0.0
 10
9.9454556918
 20
6.1267874358
 30
0.0
 10
9.4357098235
 20
5.9367480201
 30
0.0
 10
8.9187748608
 20
5.8004097857
 30
0.0
 10
8.3955284915
 20
5.7175211266
 30
0.0
 10
7.8630881591
 20
5.6878701724
 30
0.0
 10
7.3213884838
 20
5.7114745013
 30
0.0
 10
6.7768843486
 20
5.7894868039
 30
0.0
 10
6.2396346402
 20
5.9213003197
 30
0.0
 10
5.7196525958
 20
6.1045742385
 30
0.0
 10
5.226695152
 20
6.3351570908
 30
0.0
 10
4.7670573712
 20
6.6084939041
 30
0.0
 10
4.3412726131
 20
6.9236567623
 30
0.0
 10
3.9471620108
 20
7.2825786602
 30
0.0
 10
3.5845503134
 20
7.6854055518
 30
0.0
 10
3.2587071675
 20
8.1284477077
 30
0.0
 10
2.9762807931
 20
8.6040877992
 30
0.0
 10
2.7426251357
 20
9.1035487376
 30
0.0
 10
2.5616130762
 20
9.6170062614
 30
0.0
 10
2.4344698023
 20
10.1366675482
 30
0.0
 10
2.3609060513
 20
10.661324868
 30
0.0
 10
2.3407946169
 20
11.1938546114
 30
0.0
 10
2.3740673082
 20
11.7346190989
 30
0.0
 10
2.4617974885
 20
12.2774286554
 30
0.0
 10
2.6032246028
 20
12.8121982158
 30
0.0
 10
2.7958502377
 20
13.328955161
 30
0.0
 10
3.0354052989
 20
13.8180746984
 30
0.0
 10
3.317150352
 20
14.2730979558
 30
0.0
 10
3.6398945976
 20
14.6932693803
 30
0.0
 10
4.0055989254
 20
15.0806685364
 30
0.0
 10
4.414542544
 20
15.4357277377
 30
0.0
 10
4.86318
 20
15.75343885
 30
0.0
 10
5.3437888364
 20
16.0272607625
 30
0.0
 10
5.8475073471
 20
16.251975891
 30
0.0
 10
6.3645062571
 20
16.4238808911
 30
0.0
 10
6.8867335102
 20
16.5417720782
 30
0.0
 10
7.4126457094
 20
16.6059843433
 30
0.0
 10
7.9450953927
 20
16.6165630149
 30
0.0
 10
8.4847392785
 20
16.5736487213
 30
0.0
 10
9.0256680302
 20
16.4762397863
 30
0.0
 10
9.5577826509
 20
16.325246648
 30
0.0
 10
10.0711386243
 20
16.1233281716
 30
0.0
 10
10.5562458963
 20
15.8748692726
 30
0.0
 10
11.0065002443
 20
15.5847937406
 30
0.0
 10
11.4209292626
 20
15.2545637237
 30
0.0
 10
11.8015049905
 20
14.8822042594
 30
0.0
 10
12.1489039991
 20
14.4672967466
 30
0.0
 10
12.4583832026
 20
14.0132280227
 30
0.0
 10
12.7235150803
 20
13.5278118631
 30
0.0
 10
12.9392127986
 20
13.0200028879
 30
0.0
 10
13.1019428244
 20
12.4996319089
 30
0.0
 10
13.2105348872
 20
11.9749987524
 30
0.0
 10
13.2653780787
 20
11.4479886795
 30
0.0
 10
13.2664406751
 20
10.9157895985
 30
0.0
 10
13.2139223012
 20
10.3774519778
 30
0.0
 10
13.1068849413
 20
9.8385897841
 30
0.0
 10
12.9463833794
 20
9.3093015555
 30
0.0
 10
12.7352400299
 20
8.7995164332
 30
0.0
 10
12.4779552908
 20
8.3185914617
 30
0.0
 10
12.1796381292
 20
7.8732587141
 30
0.0
 10
11.84203007
 20
7.4646998186
 30
0.0
 10
11.4631534693
 20
7.0910537008
 30
0.0
 10
11.0424406215
 20
6.7514114369
 30
0.0
 10
10.5831066647
 20
6.4502509102
 30
0.0
 10
10.0930496829
 20
6.1938851482
 30
0.0
 10
9.5813325048
 20
5.9872756598
 30
0.0
 10
9.057763433
 20
5.8337760437
 30
0.0
 10
8.5308351689
 20
5.7345085119
 30
0.0
 10
8.0027817991
 20
5.6890411852
 30
0.0
 10
7.4709090257
 20
5.6974899421
 30
0.0
 10
6.9340246989
 20
5.7595957387
 30
0.0
 10
6.3974187212
 20
5.8762265772
 30
0.0
 10
5.8711384516
 20
6.046192037
 30
0.0
 10
5.3651022364
 20
6.2665054576
 30
0.0
 10
4.8885408018
 20
6.5325486565
 30
0.0
 10
4.4482914025
 20
6.839029746
 30
0.0
 10
4.0457354236
 20
7.183924856
 30
0.0
 10
3.6791293756
 20
7.5691992136
 30
0.0
 10
3.3473497699
 20
7.9955730458
 30
0.0
 10
3.0546093441
 20
8.4600127636
 30
0.0
 10
2.8070997023
 20
8.9545514134
 30
0.0
 10
2.6096613219
 20
9.4700065266
 30
0.0
 10
2.4654685544
 20
9.996590919
 30
0.0
 10
2.3755812219
 20
10.5256405254
 30
0.0
 10
2.3395162231
 20
11.0545786224
 30
0.0
 10
2.3574672355
 20
11.5859658581
 30
0.0
 10
2.4291298265
 20
12.1212236002
 30
0.0
 10
2.5553082092
 20
12.6553914251
 30
0.0
 10
2.7346841913
 20
13.1784921413
 30
0.0
 10
2.9641033717
 20
13.6806093124
 30
0.0
 10
3.2388285475
 20
14.1526340846
 30
0.0
 10
3.5533868557
 20
14.5876439877
 30
0.0
 10
3.9054656527
 20
14.9840635905
 30
0.0
 10
4.2970004992
 20
15.3435142948
 30
0.0
 10
4.7288709173
 20
15.6673215316
 30
0.0
 10
5.1982416601
 20
15.9515427822
 30
0.0
 10
5.6971033953
 20
16.1901174275
 30
0.0
 10
6.2161486472
 20
16.3783209799
 30
0.0
 10
6.7456076829
 20
16.5131525655
 30
0.0
 10
7.2766624758
 20
16.5936242577
 30
0.0
 10
7.8063885922
 20
16.6202758863
 30
0.0
 10
8.3371816568
 20
16.5928468508
 30
0.0
 10
8.8706606297
 20
16.5116764928
 30
0.0
 10
9.4021837855
 20
16.3760264039
 30
0.0
 10
9.9218586807
 20
16.1873424266
 30
0.0
 10
10.4197663831
 20
15.9489577656
 30
0.0
 10
10.8869247587
 20
15.6657341465
 30
0.0
 10
11.3163643039
 20
15.3433193634
 30
0.0
 10
11.706360295
 20
14.9842939149
 30
0.0
 10
12.0584500625
 20
14.5867087023
 30
0.0
 10
12.3741787744
 20
14.1494626424
 30
0.0
 10
12.6498717903
 20
13.6751445907
 30
0.0
 10
12.8795709744
 20
13.1717949953
 30
0.0
 10
13.0586220659
 20
12.6489035474
 30
0.0
 10
13.1841631595
 20
12.1162962383
 30
0.0
 10
13.2552745665
 20
11.582992153
 30
0.0
 10
13.2725566753
 20
11.0524277986
 30
0.0
 10
13.2357521559
 20
10.5226052909
 30
0.0
 10
13.145298551
 20
9.9916509381
 30
0.0
 10
13.0492691836
 20
9.6415459526
 30
0.0
 10
12.9923022197
 20
9.4677612939
 30
0.0
  0
SPLINE
  5
29D
100
AcDbEntity
  8
0
100
AcDbSpline
 62
7
  6
BYLAYER
 70
0
 71
3
 72
232
 73
228
 74
0
 42
0.0000001
 43
0.0000001
 44
0.0000000001
 40
0.0
 40
0.0
 40
0.0
 40
0.0
 40
0.0016021141
 40
0.006059814
 40
0.0105174629
 40
0.0149750387
 40
0.0194325191
 40
0.023889889
 40
0.0283471345
 40
0.0328042507
 40
0.0372612323
 40
0.0417180855
 40
0.0461748045
 40
0.0506314151
 40
0.055087946
 40
0.0595444307
 40
0.064000885
 40
0.0684573915
 40
0.0729139826
 40
0.0773706673
 40
0.0818274781
 40
0.0862844159
 40
0.0907414944
 40
0.0951987052
 40
0.0996560489
 40
0.1041135061
 40
0.1085710638
 40
0.1130286975
 40
0.1174863879
 40
0.1219441075
 40
0.1264018367
 40
0.1308595494
 40
0.1353172234
 40
0.1397748359
 40
0.1442323612
 40
0.1486897827
 40
0.1531470835
 40
0.1576042562
 40
0.1620612942
 40
0.1665182028
 40
0.170974977
 40
0.1754316385
 40
0.1798882059
 40
0.1843447098
 40
0.1888011613
 40
0.1932576391
 40
0.1977141859
 40
0.2021708222
 40
0.2066275814
 40
0.2110844631
 40
0.2155414833
 40
0.2199986349
 40
0.2244559227
 40
0.2289133288
 40
0.2333708454
 40
0.2378284492
 40
0.2422861196
 40
0.2467438295
 40
0.251201559
 40
0.2556592806
 40
0.2601169733
 40
0.2645746147
 40
0.2690321802
 40
0.2734896519
 40
0.277947008
 40
0.2824042391
 40
0.2868613354
 40
0.2913182993
 40
0.2957751261
 40
0.3002318355
 40
0.3046884438
 40
0.3091449792
 40
0.313601445
 40
0.3180579106
 40
0.3225144202
 40
0.3269710061
 40
0.3314277123
 40
0.3358845377
 40
0.3403414982
 40
0.3447985916
 40
0.3492558247
 40
0.3537131776
 40
0.3581706473
 40
0.3626282128
 40
0.3670858566
 40
0.371543552
 40
0.3760012774
 40
0.3804590048
 40
0.3849167128
 40
0.3893743773
 40
0.3938319763
 40
0.3982894913
 40
0.4027468986
 40
0.4072041872
 40
0.4116613437
 40
0.416118367
 40
0.4205752489
 40
0.4250320061
 40
0.4294886522
 40
0.4339452152
 40
0.438401706
 40
0.4428581821
 40
0.4473146661
 40
0.4517712089
 40
0.4562278673
 40
0.4606846345
 40
0.4651415319
 40
0.4695985667
 40
0.4740557455
 40
0.4785130469
 40
0.4829704697
 40
0.4874279938
 40
0.4918856068
 40
0.4963432826
 40
0.5008009993
 40
0.5052587298
 40
0.5097164521
 40
0.51417414
 40
0.5186317704
 40
0.5230893241
 40
0.5275467791
 40
0.5320041229
 40
0.5364613386
 40
0.5409184237
 40
0.5453753678
 40
0.5498321824
 40
0.5542888695
 40
0.5587454576
 40
0.5632019742
 40
0.567658466
 40
0.5721149335
 40
0.5765714468
 40
0.5810280633
 40
0.5854847735
 40
0.5899416099
 40
0.594398583
 40
0.5988557012
 40
0.6033129479
 40
0.6077703228
 40
0.6122278047
 40
0.6166853831
 40
0.6211430327
 40
0.6256007349
 40
0.6300584627
 40
0.6345161941
 40
0.6389739031
 40
0.6434315643
 40
0.6478891566
 40
0.6523466582
 40
0.6568040548
 40
0.6612613279
 40
0.6657184741
 40
0.6701754832
 40
0.6746323629
 40
0.6790891042
 40
0.6835457321
 40
0.6880022767
 40
0.6924587778
 40
0.6969152359
 40
0.701371729
 40
0.7058283038
 40
0.7102849602
 40
0.7147417398
 40
0.7191986452
 40
0.7236556903
 40
0.7281128672
 40
0.732570178
 40
0.7370276015
 40
0.7414851267
 40
0.7459427292
 40
0.7504003929
 40
0.7548580902
 40
0.7593158003
 40
0.7637734982
 40
0.7682311596
 40
0.7726887623
 40
0.7771462811
 40
0.7816037002
 40
0.7860610016
 40
0.7905181794
 40
0.7949752236
 40
0.7994321417
 40
0.8038889225
 40
0.8083455876
 40
0.8128021551
 40
0.8172586611
 40
0.8217151162
 40
0.8261715942
 40
0.8306281403
 40
0.8350847708
 40
0.8395415302
 40
0.8439984132
 40
0.8484554397
 40
0.8529126061
 40
0.8573699184
 40
0.8618273572
 40
0.8662849138
 40
0.8707425643
 40
0.8752002908
 40
0.8796580645
 40
0.8841158653
 40
0.8885736662
 40
0.8930314443
 40
0.8974891765
 40
0.9019468341
 40
0.9064043983
 40
0.9108618475
 40
0.9153191707
 40
0.9197763548
 40
0.9242334036
 40
0.9286903073
 40
0.9331470832
 40
0.9376037357
 40
0.9420602957
 40
0.9465167759
 40
0.9509732379
 40
0.9554297177
 40
0.9598862477
 40
0.9643428993
 40
0.9687996669
 40
0.9732565012
 40
0.9777134064
 40
0.9821705478
 40
0.9866278957
 40
0.9910852594
 40
0.9955426613
 40
1.0
 40
1.0
 40
1.0
 40
1.0
 10
12.9925040569
 20
9.4676957359
 30
0.0
 10
12.9981593706
 20
9.4851070761
 30
0.0
 10
13.0192263944
 20
9.551068577
 30
0.0
 10
13.0536596647
 20
9.66622094
 30
0.0
 10
13.0934194708
 20
9.8137798645
 30
0.0
 10
13.1291208946
 20
9.9623703748
 30
0.0
 10
13.1607292717
 20
10.1118818937
 30
0.0
 10
13.1882098111
 20
10.2622031609
 30
0.0
 10
13.2115293874
 20
10.4132217984
 30
0.0
 10
13.2306538491
 20
10.5648245192
 30
0.0
 10
13.2455475401
 20
10.7168968786
 30
0.0
 10
13.2561747918
 20
10.8693225139
 30
0.0
 10
13.2624989888
 20
11.0219832777
 30
0.0
 10
13.2644858498
 20
11.1747586283
 30
0.0
 10
13.2621096755
 20
11.3275259811
 30
0.0
 10
13.2553428144
 20
11.4801604361
 30
0.0
 10
13.2441492579
 20
11.6325344146
 30
0.0
 10
13.2285051647
 20
11.7845171428
 30
0.0
 10
13.2084577292
 20
11.9359842234
 30
0.0
 10
13.184052399
 20
12.08681369
 30
0.0
 10
13.1553459156
 20
12.2368876345
 30
0.0
 10
13.1223929056
 20
12.3860909839
 30
0.0
 10
13.0852474163
 20
12.5343106591
 30
0.0
 10
13.0439633142
 20
12.6814358787
 30
0.0
 10
12.9985951011
 20
12.8273577538
 30
0.0
 10
12.9491965692
 20
12.9719690062
 30
0.0
 10
12.8958207326
 20
13.1151633569
 30
0.0
 10
12.8385208072
 20
13.2568358593
 30
0.0
 10
12.7773522574
 20
13.3968834303
 30
0.0
 10
12.7123697982
 20
13.5352037262
 30
0.0
 10
12.6436289536
 20
13.6716954213
 30
0.0
 10
12.5711842062
 20
13.8062572455
 30
0.0
 10
12.4950884579
 20
13.9387871131
 30
0.0
 10
12.4153947062
 20
14.0691826614
 30
0.0
 10
12.3321557484
 20
14.1973408334
 30
0.0
 10
12.2454254585
 20
14.3231583173
 30
0.0
 10
12.1552614573
 20
14.4465335058
 30
0.0
 10
12.061721086
 20
14.5673635161
 30
0.0
 10
11.9648618369
 20
14.6855441637
 30
0.0
 10
11.8647420203
 20
14.800969812
 30
0.0
 10
11.7614199335
 20
14.9135325586
 30
0.0
 10
11.6549563061
 20
15.0231236669
 30
0.0
 10
11.5454165472
 20
15.129636097
 30
0.0
 10
11.4328676214
 20
15.2329606318
 30
0.0
 10
11.3173770169
 20
15.3329854146
 30
0.0
 10
11.1990169752
 20
15.4295986985
 30
0.0
 10
11.0778955814
 20
15.5227297878
 30
0.0
 10
10.9541309639
 20
15.6123233182
 30
0.0
 10
10.8278449776
 20
15.6983326463
 30
0.0
 10
10.6991575203
 20
15.7807131303
 30
0.0
 10
10.5681887338
 20
15.8594244247
 30
0.0
 10
10.4350566059
 20
15.9344275529
 30
0.0
 10
10.2998784807
 20
16.005686132
 30
0.0
 10
10.1627696446
 20
16.073164252
 30
0.0
 10
10.0238435921
 20
16.1368253906
 30
0.0
 10
9.8832127421
 20
16.1966337419
 30
0.0
 10
9.740988861
 20
16.2525541387
 30
0.0
 10
9.5972831525
 20
16.3045522625
 30
0.0
 10
9.4522076915
 20
16.3525980831
 30
0.0
 10
9.3058734447
 20
16.3966606604
 30
0.0
 10
9.1583906586
 20
16.4367074545
 30
0.0
 10
9.0098695393
 20
16.472705575
 30
0.0
 10
8.8604203146
 20
16.5046206374
 30
0.0
 10
8.7101540252
 20
16.532418446
 30
0.0
 10
8.559182824
 20
16.5560667292
 30
0.0
 10
8.4076198291
 20
16.5755329987
 30
0.0
 10
8.2555794651
 20
16.5907869622
 30
0.0
 10
8.1031774559
 20
16.6017975712
 30
0.0
 10
7.9505309103
 20
16.6085325867
 30
0.0
 10
7.7977589497
 20
16.6109601408
 30
0.0
 10
7.6449826919
 20
16.6090507334
 30
0.0
 10
7.4923259129
 20
16.6027743466
 30
0.0
 10
7.3399150133
 20
16.5920957408
 30
0.0
 10
7.1878795277
 20
16.5769857303
 30
0.0
 10
7.0363478806
 20
16.5574499001
 30
0.0
 10
6.8854439298
 20
16.5335286694
 30
0.0
 10
6.73528689
 20
16.5052782117
 30
0.0
 10
6.5859933567
 20
16.4727530121
 30
0.0
 10
6.4376782761
 20
16.4360057089
 30
0.0
 10
6.2904540364
 20
16.3950900077
 30
0.0
 10
6.1444292079
 20
16.3500665677
 30
0.0
 10
5.9997104405
 20
16.3009942721
 30
0.0
 10
5.8564034395
 20
16.2479299309
 30
0.0
 10
5.7146124902
 20
16.1909297339
 30
0.0
 10
5.5744414043
 20
16.1300485225
 30
0.0
 10
5.435993046
 20
16.0653411877
 30
0.0
 10
5.2993684147
 20
15.9968651497
 30
0.0
 10
5.1646681045
 20
15.9246770934
 30
0.0
 10
5.0319919558
 20
15.8488344221
 30
0.0
 10
4.9014399332
 20
15.7693938791
 30
0.0
 10
4.7731127711
 20
15.6864112646
 30
0.0
 10
4.6471117709
 20
15.5999424709
 30
0.0
 10
4.5235391476
 20
15.5100432709
 30
0.0
 10
4.4024978077
 20
15.4167703229
 30
0.0
 10
4.2840893788
 20
15.3201835876
 30
0.0
 10
4.1684168628
 20
15.220343413
 30
0.0
 10
4.0555846714
 20
15.1173105873
 30
0.0
 10
3.9456982405
 20
15.0111475392
 30
0.0
 10
3.8388612569
 20
14.9019209983
 30
0.0
 10
3.7351796365
 20
14.7896985823
 30
0.0
 10
3.6347664175
 20
14.6745445147
 30
0.0
 10
3.5377330467
 20
14.5565291453
 30
0.0
 10
3.4441837828
 20
14.4357322867
 30
0.0
 10
3.3541972549
 20
14.3122563145
 30
0.0
 10
3.2678071118
 20
14.186234625
 30
0.0
 10
3.1850515263
 20
14.0577924552
 30
0.0
 10
3.1059781898
 20
13.9270463627
 30
0.0
 10
3.030631552
 20
13.7941126298
 30
0.0
 10
2.959045825
 20
13.6591114984
 30
0.0
 10
2.8912549131
 20
13.5221607696
 30
0.0
 10
2.8272916208
 20
13.3833769307
 30
0.0
 10
2.7671881759
 20
13.2428747145
 30
0.0
 10
2.7109766437
 20
13.1007676926
 30
0.0
 10
2.6586888491
 20
12.9571683455
 30
0.0
 10
2.6103565722
 20
12.812188452
 30
0.0
 10
2.5660113337
 20
12.66593926
 30
0.0
 10
2.5256817893
 20
12.5185325313
 30
0.0
 10
2.4893971713
 20
12.3700795233
 30
0.0
 10
2.4571876477
 20
12.2206913029
 30
0.0
 10
2.4290836655
 20
12.0704792243
 30
0.0
 10
2.4051154635
 20
11.919555212
 30
0.0
 10
2.3853136491
 20
11.768032015
 30
0.0
 10
2.3697083139
 20
11.6160233952
 30
0.0
 10
2.3583298588
 20
11.4636444651
 30
0.0
 10
2.3512081953
 20
11.3110117199
 30
0.0
 10
2.3483730557
 20
11.1582435479
 30
0.0
 10
2.34985043
 20
11.0054600437
 30
0.0
 10
2.355666402
 20
10.8527832604
 30
0.0
 10
2.3658459775
 20
10.7003371801
 30
0.0
 10
2.3804132436
 20
10.5482486677
 30
0.0
 10
2.3994011619
 20
10.3966481272
 30
0.0
 10
2.4228255781
 20
10.2456681533
 30
0.0
 10
2.450612354
 20
10.0954276234
 30
0.0
 10
2.4826974935
 20
9.9460425377
 30
0.0
 10
2.5190273912
 20
9.7976286989
 30
0.0
 10
2.5595479147
 20
9.6502992578
 30
0.0
 10
2.6042010839
 20
9.5041646211
 30
0.0
 10
2.6529293481
 20
9.3593332392
 30
0.0
 10
2.7056719153
 20
9.2159107865
 30
0.0
 10
2.7623689983
 20
9.0740012204
 30
0.0
 10
2.8229611635
 20
8.9337072815
 30
0.0
 10
2.8873896652
 20
8.7951305786
 30
0.0
 10
2.9555958251
 20
8.6583718462
 30
0.0
 10
3.027521515
 20
8.5235312193
 30
0.0
 10
3.103108022
 20
8.390708052
 30
0.0
 10
3.1822971253
 20
8.2600016332
 30
0.0
 10
3.2650308472
 20
8.1315114065
 30
0.0
 10
3.3512512057
 20
8.0053371249
 30
0.0
 10
3.4408984256
 20
7.8815777869
 30
0.0
 10
3.5339127368
 20
7.7603331775
 30
0.0
 10
3.630234234
 20
7.6417039674
 30
0.0
 10
3.7298023685
 20
7.5257919034
 30
0.0
 10
3.8325553774
 20
7.4126993435
 30
0.0
 10
3.9384302953
 20
7.3025300841
 30
0.0
 10
4.047362673
 20
7.19538881
 30
0.0
 10
4.15928612
 20
7.091381298
 30
0.0
 10
4.2741264433
 20
6.9906075474
 30
0.0
 10
4.3918085762
 20
6.8931700304
 30
0.0
 10
4.5122640243
 20
6.7991826385
 30
0.0
 10
4.635420074
 20
6.7087613362
 30
0.0
 10
4.7611539212
 20
6.6219570126
 30
0.0
 10
4.8893421248
 20
6.5388144922
 30
0.0
 10
5.0198588528
 20
6.4593706703
 30
0.0
 10
5.1525811807
 20
6.3836607473
 30
0.0
 10
5.2873901275
 20
6.3117227469
 30
0.0
 10
5.4241681787
 20
6.2435931649
 30
0.0
 10
5.5627971915
 20
6.1793037616
 30
0.0
 10
5.7031608468
 20
6.118885738
 30
0.0
 10
5.8451440625
 20
6.0623699425
 30
0.0
 10
5.988633001
 20
6.0097867395
 30
0.0
 10
6.1335136548
 20
5.9611633769
 30
0.0
 10
6.2796731624
 20
5.9165272109
 30
0.0
 10
6.4269994434
 20
5.8759062358
 30
0.0
 10
6.5753808703
 20
5.8393286325
 30
0.0
 10
6.7247059156
 20
5.8068227513
 30
0.0
 10
6.8748629006
 20
5.7784172724
 30
0.0
 10
7.0257396748
 20
5.7541403517
 30
0.0
 10
7.1772234616
 20
5.7340204682
 30
0.0
 10
7.329200439
 20
5.71808344
 30
0.0
 10
7.4815559019
 20
5.7063556255
 30
0.0
 10
7.6341741555
 20
5.6988645366
 30
0.0
 10
7.7869377606
 20
5.6956379269
 30
0.0
 10
7.9397276565
 20
5.6967047989
 30
0.0
 10
8.0924224619
 20
5.7020938003
 30
0.0
 10
8.2448992057
 20
5.7118253103
 30
0.0
 10
8.3970325546
 20
5.725920028
 30
0.0
 10
8.5486948489
 20
5.7444019712
 30
0.0
 10
8.6997547037
 20
5.7672966336
 30
0.0
 10
8.8500847855
 20
5.7945854694
 30
0.0
 10
8.9995631447
 20
5.8262227565
 30
0.0
 10
9.1480739675
 20
5.8621433554
 30
0.0
 10
9.2955050124
 20
5.9022822119
 30
0.0
 10
9.4417454159
 20
5.9465780964
 30
0.0
 10
9.5866868435
 20
5.9949701083
 30
0.0
 10
9.730223296
 20
6.047395876
 30
0.0
 10
9.8722506032
 20
6.1037937764
 30
0.0
 10
10.0126657059
 20
6.1641030828
 30
0.0
 10
10.1513668
 20
6.2282636891
 30
0.0
 10
10.2882539335
 20
6.2962137622
 30
0.0
 10
10.4232280004
 20
6.3678921984
 30
0.0
 10
10.5561914892
 20
6.4432363693
 30
0.0
 10
10.6870473246
 20
6.5221843854
 30
0.0
 10
10.8156978809
 20
6.604675807
 30
0.0
 10
10.9420453008
 20
6.6906504636
 30
0.0
 10
11.0659906362
 20
6.7800492624
 30
0.0
 10
11.1874342164
 20
6.8728128691
 30
0.0
 10
11.3062786077
 20
6.9688779564
 30
0.0
 10
11.4224255185
 20
7.0681810228
 30
0.0
 10
11.5357758366
 20
7.1706581445
 30
0.0
 10
11.6462292191
 20
7.2762446129
 30
0.0
 10
11.7536832931
 20
7.3848757484
 30
0.0
 10
11.858034128
 20
7.4964853401
 30
0.0
 10
11.9591782811
 20
7.6110040927
 30
0.0
 10
12.0570106909
 20
7.7283606611
 30
0.0
 10
12.1514272144
 20
7.8484801831
 30
0.0
 10
12.2423226499
 20
7.9712849659
 30
0.0
 10
12.3296027113
 20
8.0966858727
 30
0.0
 10
12.4132015726
 20
8.2245725564
 30
0.0
 10
12.4930842573
 20
8.3548161791
 30
0.0
 10
12.569216942
 20
8.4872905124
 30
0.0
 10
12.6415451256
 20
8.6218831332
 30
0.0
 10
12.7100158329
 20
8.7584828041
 30
0.0
 10
12.7746633707
 20
8.8969379232
 30
0.0
 10
12.8355244568
 20
9.0371044525
 30
0.0
 10
12.8924341544
 20
9.1789268244
 30
0.0
 10
12.9452223565
 20
9.3223327243
 30
0.0
 10
12.9777444335
 20
9.4188792707
 30
0.0
 10
12.9933563398
 20
9.4673582311
 30
0.0
  0
SPLINE
  5
29E
100
AcDbEntity
  8
0
100
AcDbSpline
 62
7
  6
BYLAYER
 70
0
 71
3
 72
14
 73
10
 74
0
 42
0.0000001
 43
0.0000001
 44
0.0000000001
 40
0.0
 40
0.0
 40
0.0
 40
0.0
 40
0.1547706598
 40
0.3107805205
 40
0.4665236886
 40
0.6207368297
 40
0.7749632063
 40
0.9292545312
 40
1.0
 40
1.0
 40
1.0
 40
1.0
 10
7.8060546315
 20
5.1543086506
 30
0.0
 10
7.4179667118
 20
5.1557858066
 30
0.0
 10
6.6370627426
 20
5.2363101531
 30
0.0
 10
5.5106813502
 20
5.5755876639
 30
0.0
 10
4.4689282789
 20
6.1212164036
 30
0.0
 10
3.5599854302
 20
6.8608957382
 30
0.0
 10
2.818403834
 20
7.762793863
 30
0.0
 10
2.3602560383
 20
8.6024039013
 30
0.0
 10
2.1596483717
 20
9.1314033433
 30
0.0
 10
2.1040258345
 20
9.3001504508
 30
0.0
  0
SPLINE
  5
29F
100
AcDbEntity
  8
0
100
AcDbSpline
 62
7
  6
BYLAYER
 70
0
 71
3
 72
23
 73
19
 74
0
 42
0.0000001
 43
0.0000001
 44
0.0000000001
 40
0.0
 40
0.0
 40
0.0
 40
0.0
 40
0.0618189367
 40
0.1243572079
 40
0.1868245217
 40
0.24853632
 40
0.3101493759
 40
0.3718136291
 40
0.4342030899
 40
0.4971022184
 40
0.5604958163
 40
0.6238147405
 40
0.6866834243
 40
0.7493679099
 40
0.8118176308
 40
0.8746885185
 40
0.9375956393
 40
1.0
 40
1.0
 40
1.0
 40
1.0
 10
7.8060011512
 20
17.1520548431
 30
0.0
 10
8.1935459115
 20
17.1510188778
 30
0.0
 10
8.9748822691
 20
17.0705624107
 30
0.0
 10
10.1021540471
 20
16.7291162659
 30
0.0
 10
11.1450675354
 20
16.1814740076
 30
0.0
 10
12.0556543165
 20
15.4426242852
 30
0.0
 10
12.7966262164
 20
14.540758128
 30
0.0
 10
13.3552060251
 20
13.5119151318
 30
0.0
 10
13.7142789064
 20
12.3886640817
 30
0.0
 10
13.8462573642
 20
11.2048336079
 30
0.0
 10
13.7317994024
 20
10.0134004291
 30
0.0
 10
13.3875419152
 20
8.8682490118
 30
0.0
 10
12.8341547688
 20
7.8131228417
 30
0.0
 10
12.0862501423
 20
6.8916054826
 30
0.0
 10
11.1667828928
 20
6.1416823156
 30
0.0
 10
10.1189623384
 20
5.5833836517
 30
0.0
 10
8.9850158609
 20
5.233571964
 30
0.0
 10
8.1972452389
 20
5.1528643182
 30
0.0
 10
7.8060292038
 20
5.1532218112
 30
0.0
  0
SPLINE
  5
2A0
100
AcDbEntity
  8
0
100
AcDbSpline
 62
7
  6
BYLAYER
 70
0
 71
3
 72
14
 73
10
 74
0
 42
0.0000001
 43
0.0000001
 44
0.0000000001
 40
0.0
 40
0.0
 40
0.0
 40
0.0
 40
0.1539888765
 40
0.3106757619
 40
0.4673953576
 40
0.6218633864
 40
0.7761935257
 40
0.9307519245
 40
1.0
 40
1.0
 40
1.0
 40
1.0
 10
7.8060292038
 20
5.1532218112
 30
0.0
 10
7.419886527
 20
5.1535746682
 30
0.0
 10
6.6389480686
 20
5.2334330208
 30
0.0
 10
5.5111043842
 20
5.5762506167
 30
0.0
 10
4.4665524532
 20
6.1263626651
 30
0.0
 10
3.5530846189
 20
6.8656222598
 30
0.0
 10
2.8103751252
 20
7.7692207965
 30
0.0
 10
2.3576199092
 20
8.6087574451
 30
0.0
 10
2.15995526
 20
9.1354688261
 30
0.0
 10
2.1058090191
 20
9.3007352965
 30
0.0
  0
SPLINE
  5
2A1
100
AcDbEntity
  8
0
100
AcDbSpline
 62
7
  6
BYLAYER
 70
0
 71
3
 72
23
 73
19
 74
0
 42
0.0000001
 43
0.0000001
 44
0.0000000001
 40
0.0
 40
0.0
 40
0.0
 40
0.0
 40
0.0617814082
 40
0.1254233031
 40
0.1888839614
 40
0.2506508227
 40
0.312058627
 40
0.3748015036
 40
0.4382853529
 40
0.5010614475
 40
0.5634363115
 40
0.6262831507
 40
0.6891470745
 40
0.7508313615
 40
0.8127296143
 40
0.8753937513
 40
0.9384570314
 40
1.0
 40
1.0
 40
1.0
 40
1.0
 10
7.8060281318
 20
17.152490923
 30
0.0
 10
8.1933473098
 20
17.1528447555
 30
0.0
 10
8.9817673534
 20
17.0729740415
 30
0.0
 10
10.1205253486
 20
16.722846466
 30
0.0
 10
11.1712303813
 20
16.1610359719
 30
0.0
 10
12.083309568
 20
15.4159224926
 30
0.0
 10
12.8240484691
 20
14.5059603497
 30
0.0
 10
13.3785073022
 20
13.4602308404
 30
0.0
 10
13.7261313132
 20
12.3198111136
 30
0.0
 10
13.8459481431
 20
11.1352668301
 30
0.0
 10
13.7222573604
 20
9.9549955532
 30
0.0
 10
13.3686400149
 20
8.8223608471
 30
0.0
 10
12.8086193577
 20
7.7815527219
 30
0.0
 10
12.0640296797
 20
6.8707301219
 30
0.0
 10
11.1521199059
 20
6.1288249918
 30
0.0
 10
10.1049370734
 20
5.5769187664
 30
0.0
 10
8.9747071322
 20
5.2347956251
 30
0.0
 10
8.1918291471
 20
5.1546119561
 30
0.0
 10
7.8060060084
 20
5.1535806598
 30
0.0
  0
SPLINE
  5
2A2
100
AcDbEntity
  8
0
100
AcDbSpline
 62
7
  6
BYLAYER
 70
0
 71
3
 72
14
 73
10
 74
0
 42
0.0000001
 43
0.0000001
 44
0.0000000001
 40
0.0
 40
0.0
 40
0.0
 40
0.0
 40
0.1537537572
 40
0.3107150177
 40
0.4681913203
 40
0.6237272802
 40
0.7799453863
 40
0.9362179037
 40
1.0
 40
1.0
 40
1.0
 40
1.0
 10
7.806002316
 20
5.15358065
 30
0.0
 10
7.4204358176
 20
5.1525502913
 30
0.0
 10
6.6389254969
 20
5.2300891043
 30
0.0
 10
5.5095213821
 20
5.575951417
 30
0.0
 10
4.4623133369
 20
6.1322072537
 30
0.0
 10
3.541830923
 20
6.8773034475
 30
0.0
 10
2.7911999312
 20
7.7902413852
 30
0.0
 10
2.3470613282
 20
8.6295806817
 30
0.0
 10
2.1559497021
 20
9.1485908698
 30
0.0
 10
2.1064712522
 20
9.3009431309
 30
0.0
  0
SPLINE
  5
2A3
100
AcDbEntity
  8
0
100
AcDbSpline
 62
7
  6
BYLAYER
 70
0
 71
3
 72
78
 73
74
 74
0
 42
0.0000001
 43
0.0000001
 44
0.0000000001
 40
0.0
 40
0.0
 40
0.0
 40
0.0
 40
0.0141983652
 40
0.0282527746
 40
0.042256527
 40
0.0562716445
 40
0.0704828265
 40
0.0846172916
 40
0.0987265618
 40
0.1128165708
 40
0.1268387731
 40
0.1408531185
 40
0.1549125742
 40
0.1690098998
 40
0.1829877708
 40
0.1969444446
 40
0.2109034233
 40
0.2248635711
 40
0.2388598187
 40
0.2528917683
 40
0.2668821973
 40
0.2808448626
 40
0.2948793802
 40
0.3088903712
 40
0.322965237
 40
0.3371054685
 40
0.3512822417
 40
0.3654293861
 40
0.3795551305
 40
0.3936964318
 40
0.4078103079
 40
0.4219607843
 40
0.4362281852
 40
0.4504467737
 40
0.4645898111
 40
0.4786777207
 40
0.4927208318
 40
0.506686304
 40
0.5206961631
 40
0.5347162207
 40
0.548759846
 40
0.5628485864
 40
0.5769747875
 40
0.5910103296
 40
0.6050220997
 40
0.6191175589
 40
0.6332432094
 40
0.6473403236
 40
0.6614318805
 40
0.6755243492
 40
0.6895951203
 40
0.7036513992
 40
0.717740481
 40
0.731778351
 40
0.7457262103
 40
0.7596604538
 40
0.7736708982
 40
0.7878899661
 40
0.8020657679
 40
0.8162156131
 40
0.8303120176
 40
0.8443945203
 40
0.8583718532
 40
0.8724471591
 40
0.8867766793
 40
0.9010369236
 40
0.9152118373
 40
0.9291752599
 40
0.9430991983
 40
0.95738401
 40
0.9716312092
 40
0.9858399144
 40
1.0
 40
1.0
 40
1.0
 40
1.0
 10
12.8939870367
 20
9.1777982823
 30
0.0
 10
13.0295407189
 20
9.5264817412
 30
0.0
 10
13.2288609396
 20
10.2503344536
 30
0.0
 10
13.2966650691
 20
11.3689863102
 30
0.0
 10
13.1414686455
 20
12.4744243654
 30
0.0
 10
12.761801544
 20
13.5285847586
 30
0.0
 10
12.1757705605
 20
14.4876959786
 30
0.0
 10
11.4038706455
 20
15.3083323572
 30
0.0
 10
10.4836243634
 20
15.9521757197
 30
0.0
 10
9.4551784257
 20
16.3965680835
 30
0.0
 10
8.3600847085
 20
16.6197447994
 30
0.0
 10
7.2432660166
 20
16.6209049123
 30
0.0
 10
6.1479352841
 20
16.3922089983
 30
0.0
 10
5.121666046
 20
15.9490989514
 30
0.0
 10
4.2092023688
 20
15.3078992482
 30
0.0
 10
3.4472297591
 20
14.499018162
 30
0.0
 10
2.8621657648
 20
13.5544949164
 30
0.0
 10
2.4815086318
 20
12.5097652022
 30
0.0
 10
2.3151262299
 20
11.4083003193
 30
0.0
 10
2.3783236328
 20
10.2952218704
 30
0.0
 10
2.6617419387
 20
9.2181360428
 30
0.0
 10
3.1579090538
 20
8.2206961019
 30
0.0
 10
3.8451255291
 20
7.3434262967
 30
0.0
 10
4.6969316205
 20
6.6199402762
 30
0.0
 10
5.6811644949
 20
6.0848645722
 30
0.0
 10
6.7569341182
 20
5.7562275867
 30
0.0
 10
7.8794377363
 20
5.6575864902
 30
0.0
 10
8.9982979041
 20
5.7865941625
 30
0.0
 10
10.0659712956
 20
6.1427889133
 30
0.0
 10
11.0383025773
 20
6.7074480109
 30
0.0
 10
11.8763631449
 20
7.4584015078
 30
0.0
 10
12.5442911224
 20
8.3679252147
 30
0.0
 10
13.0160168051
 20
9.3964410036
 30
0.0
 10
13.2629219593
 20
10.5003688054
 30
0.0
 10
13.2828154396
 20
11.6264969788
 30
0.0
 10
13.0709950317
 20
12.7280581917
 30
0.0
 10
12.6441781752
 20
13.7600229828
 30
0.0
 10
12.0185156936
 20
14.6827633197
 30
0.0
 10
11.2196212678
 20
15.4591920437
 30
0.0
 10
10.2797869588
 20
16.0616130934
 30
0.0
 10
9.2344752975
 20
16.4590917321
 30
0.0
 10
8.1280798608
 20
16.6406932839
 30
0.0
 10
7.0080652248
 20
16.5901493295
 30
0.0
 10
5.9232678265
 20
16.3164922448
 30
0.0
 10
4.9171459893
 20
15.8285321075
 30
0.0
 10
4.0291477026
 20
15.1453014017
 30
0.0
 10
3.2954751196
 20
14.295139269
 30
0.0
 10
2.7528011647
 20
13.3123552185
 30
0.0
 10
2.4176773895
 20
12.2417463703
 30
0.0
 10
2.3106867237
 20
11.1256657099
 30
0.0
 10
2.4291656444
 20
10.0118847646
 30
0.0
 10
2.7726734539
 20
8.9456533071
 30
0.0
 10
3.3243302477
 20
7.9719788522
 30
0.0
 10
4.0591730761
 20
7.1314958549
 30
0.0
 10
4.9463862405
 20
6.4611211809
 30
0.0
 10
5.9481019221
 20
5.9797479782
 30
0.0
 10
7.0341951012
 20
5.7118183237
 30
0.0
 10
8.1584912569
 20
5.6667170247
 30
0.0
 10
9.2716335143
 20
5.8555090253
 30
0.0
 10
10.3199225814
 20
6.2651856348
 30
0.0
 10
11.2613091049
 20
6.877911207
 30
0.0
 10
12.0539309549
 20
7.6669595022
 30
0.0
 10
12.6730023843
 20
8.5977654061
 30
0.0
 10
13.0901761324
 20
9.6420019888
 30
0.0
 10
13.2899137196
 20
10.7565029906
 30
0.0
 10
13.2526654709
 20
11.8908415379
 30
0.0
 10
12.9881936609
 20
12.9842280303
 30
0.0
 10
12.5109247108
 20
13.9930419125
 30
0.0
 10
11.838362325
 20
14.8868680164
 30
0.0
 10
10.9936778401
 20
15.6326400791
 30
0.0
 10
10.0055285452
 20
16.1895069938
 30
0.0
 10
8.9290938084
 20
16.5346789315
 30
0.0
 10
8.1791319216
 20
16.6109082179
 30
0.0
 10
7.8060350381
 20
16.6107225548
 30
0.0
  0
SPLINE
  5
2A4
100
AcDbEntity
  8
0
100
AcDbSpline
 62
7
  6
BYLAYER
 70
0
 71
3
 72
73
 73
69
 74
0
 42
0.0000001
 43
0.0000001
 44
0.0000000001
 40
0.0
 40
0.0
 40
0.0
 40
0.0
 40
0.0152869815
 40
0.0304195783
 40
0.0454979568
 40
0.0605865649
 40
0.0758860278
 40
0.0911032899
 40
0.1062928376
 40
0.121462871
 40
0.1365629959
 40
0.1516540561
 40
0.1667921963
 40
0.1819718575
 40
0.1970234804
 40
0.2120580054
 40
0.2271021118
 40
0.2421384713
 40
0.2572067669
 40
0.2722940993
 40
0.2873205987
 40
0.3023018388
 40
0.3173682002
 40
0.3324296415
 40
0.3475571658
 40
0.3627226146
 40
0.3779507959
 40
0.3931859789
 40
0.4084073475
 40
0.4236151689
 40
0.4387568016
 40
0.4539487331
 40
0.4691351538
 40
0.4843409864
 40
0.4995654548
 40
0.5147730783
 40
0.5299968493
 40
0.5451896712
 40
0.5604190317
 40
0.5755723356
 40
0.5907449786
 40
0.6059308927
 40
0.6210327296
 40
0.6360948616
 40
0.6511192149
 40
0.6662157611
 40
0.6813252801
 40
0.696409958
 40
0.7115083787
 40
0.7266385974
 40
0.741812459
 40
0.7568839123
 40
0.772011572
 40
0.7871367384
 40
0.8023020559
 40
0.8174843097
 40
0.8327079364
 40
0.8479220963
 40
0.8630660375
 40
0.8784095325
 40
0.8936808629
 40
0.9089483095
 40
0.9240377191
 40
0.9391508928
 40
0.9544973386
 40
0.9697621889
 40
0.9849511968
 40
1.0
 40
1.0
 40
1.0
 40
1.0
 10
7.8059912007
 20
16.6107225328
 30
0.0
 10
8.1796683341
 20
16.6109114621
 30
0.0
 10
8.9257468167
 20
16.5349604952
 30
0.0
 10
9.9920407215
 20
16.194120039
 30
0.0
 10
10.9655883872
 20
15.650596885
 30
0.0
 10
11.8105116916
 20
14.916762257
 30
0.0
 10
12.4926375188
 20
14.0251856649
 30
0.0
 10
12.9790884129
 20
13.0105500306
 30
0.0
 10
13.2476290751
 20
11.9214247965
 30
0.0
 10
13.2917489605
 20
10.8032222516
 30
0.0
 10
13.105931244
 20
9.702364703
 30
0.0
 10
12.7055965814
 20
8.6610032873
 30
0.0
 10
12.098997153
 20
7.7221554193
 30
0.0
 10
11.3174596423
 20
6.9245948616
 30
0.0
 10
10.3921842787
 20
6.3038437832
 30
0.0
 10
9.3642573123
 20
5.8834158656
 30
0.0
 10
8.2732458274
 20
5.6764393771
 30
0.0
 10
7.1622977338
 20
5.6960886698
 30
0.0
 10
6.0760962287
 20
5.9355030939
 30
0.0
 10
5.062058116
 20
6.3921912459
 30
0.0
 10
4.1609717325
 20
7.0399138247
 30
0.0
 10
3.4093997947
 20
7.8559745817
 30
0.0
 10
2.8367507565
 20
8.8069714108
 30
0.0
 10
2.4644370021
 20
9.8568466379
 30
0.0
 10
2.3142152461
 20
10.962968077
 30
0.0
 10
2.3876419851
 20
12.0810424746
 30
0.0
 10
2.6910088527
 20
13.1625563244
 30
0.0
 10
3.2059623184
 20
14.1621879004
 30
0.0
 10
3.9149578293
 20
15.0346205481
 30
0.0
 10
4.7841936868
 20
15.7434449977
 30
0.0
 10
5.7781773649
 20
16.2618973609
 30
0.0
 10
6.8566224489
 20
16.5656028285
 30
0.0
 10
7.9757138
 20
16.6475634618
 30
0.0
 10
9.0884200962
 20
16.4966082813
 30
0.0
 10
10.1487720546
 20
16.1257406056
 30
0.0
 10
11.1106865834
 20
15.5443681744
 30
0.0
 10
11.9344728578
 20
14.7812362547
 30
0.0
 10
12.5865205227
 20
13.8660558521
 30
0.0
 10
13.0366190928
 20
12.8385351383
 30
0.0
 10
13.271461174
 20
11.7420328091
 30
0.0
 10
13.2755363996
 20
10.6217896607
 30
0.0
 10
13.0561864361
 20
9.5245384522
 30
0.0
 10
12.6173770429
 20
8.4981042783
 30
0.0
 10
11.9847628323
 20
7.5835305433
 30
0.0
 10
11.180746712
 20
6.8151344474
 30
0.0
 10
10.2371032551
 20
6.2247175642
 30
0.0
 10
9.1929747486
 20
5.8339957879
 30
0.0
 10
8.0910448361
 20
5.6654666116
 30
0.0
 10
6.9770673496
 20
5.7189485084
 30
0.0
 10
5.895431965
 20
6.0002329237
 30
0.0
 10
4.8928784485
 20
6.492265006
 30
0.0
 10
4.0109659777
 20
7.1775501339
 30
0.0
 10
3.2869141844
 20
8.0260877066
 30
0.0
 10
2.7462623039
 20
9.0046653369
 30
0.0
 10
2.4176458709
 20
10.0745810041
 30
0.0
 10
2.3088541179
 20
11.1910067205
 30
0.0
 10
2.4329533289
 20
12.3071773141
 30
0.0
 10
2.7784383381
 20
13.3745715548
 30
0.0
 10
3.3361781435
 20
14.3515940613
 30
0.0
 10
4.0821184292
 20
15.1956011434
 30
0.0
 10
4.986649374
 20
15.8721954726
 30
0.0
 10
6.0055280701
 20
16.3448169196
 30
0.0
 10
7.0943904061
 20
16.6034379004
 30
0.0
 10
8.215135209
 20
16.6331909498
 30
0.0
 10
9.323448845
 20
16.4367792885
 30
0.0
 10
10.3691647387
 20
16.0147342044
 30
0.0
 10
11.3009455481
 20
15.3941314032
 30
0.0
 10
11.8252800071
 20
14.8646183289
 30
0.0
 10
12.0558750103
 20
14.5780117497
 30
0.0
  0
SPLINE
  5
2A5
100
AcDbEntity
  8
0
100
AcDbSpline
 62
7
  6
BYLAYER
 70
0
 71
3
 72
23
 73
19
 74
0
 42
0.0000001
 43
0.0000001
 44
0.0000000001
 40
0.0
 40
0.0
 40
0.0
 40
0.0
 40
0.0614111408
 40
0.1237151524
 40
0.1864285919
 40
0.2491842877
 40
0.3125677314
 40
0.3753858671
 40
0.4382500011
 40
0.5010932572
 40
0.5633100559
 40
0.6248432198
 40
0.6872466413
 40
0.7505169416
 40
0.8130371581
 40
0.8751144908
 40
0.9371612183
 40
1.0
 40
1.0
 40
1.0
 40
1.0
 10
7.8059890755
 20
17.151375648
 30
0.0
 10
7.4208843308
 20
17.1517827481
 30
0.0
 10
6.6431019663
 20
17.076264249
 30
0.0
 10
5.5156251965
 20
16.7405639655
 30
0.0
 10
4.4700621253
 20
16.1819119594
 30
0.0
 10
3.5472378871
 20
15.4282966649
 30
0.0
 10
2.785803191
 20
14.510044781
 30
0.0
 10
2.2244866906
 20
13.456658603
 30
0.0
 10
1.8828108935
 20
12.3167369365
 30
0.0
 10
1.7723672889
 20
11.136020911
 30
0.0
 10
1.886830724
 20
9.9642044631
 30
0.0
 10
2.2282955797
 20
8.8398233005
 30
0.0
 10
2.7881921783
 20
7.7994153503
 30
0.0
 10
3.5420721695
 20
6.8816209614
 30
0.0
 10
4.4584718477
 20
6.1295228459
 30
0.0
 10
5.4968737487
 20
5.5726514071
 30
0.0
 10
6.6269843604
 20
5.2343303563
 30
0.0
 10
7.4120225449
 20
5.1564726208
 30
0.0
 10
7.8060798977
 20
5.1560347864
 30
0.0
  0
SPLINE
  5
2A6
100
AcDbEntity
  8
0
100
AcDbSpline
 62
7
  6
BYLAYER
 70
0
 71
3
 72
254
 73
250
 74
0
 42
0.0000001
 43
0.0000001
 44
0.0000000001
 40
0.0
 40
0.0
 40
0.0
 40
0.0
 40
0.0038531084
 40
0.0077373591
 40
0.0116519768
 40
0.0156122386
 40
0.0196352714
 40
0.0237206551
 40
0.0278570774
 40
0.0320068761
 40
0.0361264517
 40
0.0401698743
 40
0.0441116635
 40
0.0480380442
 40
0.0520455289
 40
0.0561309257
 40
0.0602636848
 40
0.0644082712
 40
0.0685264715
 40
0.0725730408
 40
0.0765195981
 40
0.0804480644
 40
0.0844556851
 40
0.0885414581
 40
0.0926747079
 40
0.0968200302
 40
0.1009393131
 40
0.1049878212
 40
0.108935356
 40
0.1128614752
 40
0.1168661657
 40
0.1209505968
 40
0.125083201
 40
0.1292285744
 40
0.1333487686
 40
0.1373997642
 40
0.1413498531
 40
0.1452752705
 40
0.1492776611
 40
0.1533607779
 40
0.1574926914
 40
0.1616380737
 40
0.1657590837
 40
0.1698122863
 40
0.1737645291
 40
0.1776888881
 40
0.1816888624
 40
0.1857707937
 40
0.1899021177
 40
0.1940475554
 40
0.1981694321
 40
0.2022247906
 40
0.2061790603
 40
0.2101021736
 40
0.2140995496
 40
0.2181802575
 40
0.2223110036
 40
0.226456446
 40
0.23057902
 40
0.2346365313
 40
0.2385935278
 40
0.2425162942
 40
0.246511335
 40
0.2505906802
 40
0.2547207249
 40
0.2588662078
 40
0.2629897094
 40
0.2670492513
 40
0.2710079336
 40
0.274928983
 40
0.2789210702
 40
0.2829991893
 40
0.2871287204
 40
0.2912741782
 40
0.2953982567
 40
0.2994598709
 40
0.3034217804
 40
0.3073432029
 40
0.3113330981
 40
0.3154097012
 40
0.3195384753
 40
0.3236839726
 40
0.3278088828
 40
0.331872446
 40
0.3358364866
 40
0.339756817
 40
0.34374387
 40
0.3478191262
 40
0.3519473261
 40
0.3560928047
 40
0.3602183528
 40
0.3642838289
 40
0.3682506803
 40
0.3721709265
 40
0.3761555177
 40
0.3802292929
 40
0.3843568127
 40
0.3885022907
 40
0.3926285247
 40
0.3966958348
 40
0.4006652576
 40
0.4045851387
 40
0.4085671048
 40
0.4126394163
 40
0.4167662836
 40
0.4209117353
 40
0.4250386673
 40
0.4291077762
 40
0.4330796298
 40
0.4369989452
 40
0.4409781067
 40
0.4450489138
 40
0.4491751733
 40
0.4533205954
 40
0.4574480907
 40
0.4615189216
 40
0.4654937537
 40
0.4694134691
 40
0.4733902791
 40
0.4774594728
 40
0.4815849611
 40
0.4857303405
 40
0.4898586216
 40
0.4939312163
 40
0.4979081485
 40
0.5018267824
 40
0.505800365
 40
0.509867976
 40
0.5139929296
 40
0.5181382664
 40
0.5222670177
 40
0.5263412207
 40
0.5303214461
 40
0.5342411961
 40
0.538212741
 40
0.5422786144
 40
0.546402721
 40
0.5505480167
 40
0.554677472
 40
0.5587533095
 40
0.5627359514
 40
0.5666553337
 40
0.5706239606
 40
0.5746881445
 40
0.5788116314
 40
0.5829568713
 40
0.5870868636
 40
0.5911642262
 40
0.5951497433
 40
0.5990697269
 40
0.6030359794
 40
0.6070983933
 40
0.6112211252
 40
0.6153663064
 40
0.6194968809
 40
0.6235757293
 40
0.6275639446
 40
0.6314843251
 40
0.6354480568
 40
0.6395086676
 40
0.643630661
 40
0.6477757583
 40
0.651906939
 40
0.6559872873
 40
0.6599780425
 40
0.6638985457
 40
0.6678595159
 40
0.6719182415
 40
0.676039544
 40
0.6801845754
 40
0.6843162567
 40
0.6883979715
 40
0.6923916488
 40
0.6963132794
 40
0.700272162
 40
0.7043289693
 40
0.7084493932
 40
0.712594303
 40
0.7167266625
 40
0.7208099027
 40
0.7248058517
 40
0.728727152
 40
0.7326828541
 40
0.7367376216
 40
0.7408574234
 40
0.7450022746
 40
0.7491350676
 40
0.7532195442
 40
0.757218529
 40
0.7611415865
 40
0.7650956426
 40
0.7691484132
 40
0.7732672477
 40
0.7774119769
 40
0.7815453878
 40
0.7856312298
 40
0.7896326315
 40
0.7935560812
 40
0.7975074509
 40
0.8015581029
 40
0.8056762012
 40
0.8098208424
 40
0.8139547479
 40
0.8180418201
 40
0.8220459078
 40
0.8259706484
 40
0.8299200237
 40
0.8339685502
 40
0.8380857451
 40
0.8422302496
 40
0.846364661
 40
0.8504529213
 40
0.8544595131
 40
0.8583853602
 40
0.8623326111
 40
0.8663789597
 40
0.8704953036
 40
0.8746397182
 40
0.878774736
 40
0.8828643127
 40
0.8868732981
 40
0.8907999039
 40
0.8947446314
 40
0.8987885209
 40
0.9029039181
 40
0.9070481961
 40
0.9111837643
 40
0.9152746653
 40
0.9192866582
 40
0.9232156589
 40
0.9271594389
 40
0.931201439
 40
0.9353157563
 40
0.9394592543
 40
0.9435942843
 40
0.9476848463
 40
0.9516968046
 40
0.9556237243
 40
0.9595627746
 40
0.9636018017
 40
0.9677170681
 40
0.9718645276
 40
0.9760042398
 40
0.980099142
 40
0.9841220103
 40
0.9880655528
 40
0.9919958475
 40
0.9959768769
 40
1.0
 40
1.0
 40
1.0
 40
1.0
 10
11.0114199809
 20
15.5644905366
 30
0.0
 10
10.8728474649
 20
15.6657277264
 30
0.0
 10
10.5850346126
 20
15.8563212468
 30
0.0
 10
10.1266942312
 20
16.1013263564
 30
0.0
 10
9.6422657628
 20
16.3027047112
 30
0.0
 10
9.1339326072
 20
16.4556317656
 30
0.0
 10
8.6053507383
 20
16.5580840231
 30
0.0
 10
8.0614298396
 20
16.6085412324
 30
0.0
 10
7.5095304245
 20
16.605321109
 30
0.0
 10
6.9590883429
 20
16.5478544984
 30
0.0
 10
6.4210086742
 20
16.4374281872
 30
0.0
 10
5.9053097848
 20
16.2772104558
 30
0.0
 10
5.4159149602
 20
16.0700850231
 30
0.0
 10
4.9514831605
 20
15.8150801906
 30
0.0
 10
4.5097053807
 20
15.5111780812
 30
0.0
 10
4.093111117
 20
15.1591619429
 30
0.0
 10
3.7088993149
 20
14.7634977732
 30
0.0
 10
3.3644333767
 20
14.3309174915
 30
0.0
 10
3.0662023124
 20
13.8698176402
 30
0.0
 10
2.8189575423
 20
13.3894005636
 30
0.0
 10
2.6235731742
 20
12.8947219202
 30
0.0
 10
2.4798875922
 20
12.3844188503
 30
0.0
 10
2.3870492708
 20
11.856185989
 30
0.0
 10
2.3461934191
 20
11.3122691966
 30
0.0
 10
2.3591722119
 20
10.7608353737
 30
0.0
 10
2.4263462094
 20
10.2118509754
 30
0.0
 10
2.5462856201
 20
9.6757975355
 30
0.0
 10
2.7157553641
 20
9.1625690705
 30
0.0
 10
2.9316891472
 20
8.6764817501
 30
0.0
 10
3.1948713605
 20
8.2164966683
 30
0.0
 10
3.5064279298
 20
7.7803023768
 30
0.0
 10
3.8656343729
 20
7.3701239273
 30
0.0
 10
4.2680209201
 20
6.9929797115
 30
0.0
 10
4.7067160506
 20
6.6561440454
 30
0.0
 10
5.1732825902
 20
6.3659317306
 30
0.0
 10
5.6583861819
 20
6.1270067666
 30
0.0
 10
6.1566339658
 20
5.940290538
 30
0.0
 10
6.6691714135
 20
5.8056226203
 30
0.0
 10
7.198479161
 20
5.7221923139
 30
0.0
 10
7.7426220556
 20
5.6909695748
 30
0.0
 10
8.2935652029
 20
5.713693354
 30
0.0
 10
8.8412949668
 20
5.790571815
 30
0.0
 10
9.3754257453
 20
5.9200330174
 30
0.0
 10
9.8860508738
 20
6.0987016205
 30
0.0
 10
10.3685641206
 20
6.323314508
 30
0.0
 10
10.8237956173
 20
6.5944819777
 30
0.0
 10
11.2541002309
 20
6.9134540246
 30
0.0
 10
11.6575869404
 20
7.2795976833
 30
0.0
 10
12.0274386875
 20
7.688474259
 30
0.0
 10
12.3564673738
 20
8.1330803857
 30
0.0
 10
12.6385220924
 20
8.6049402204
 30
0.0
 10
12.8690318791
 20
9.0946029
 30
0.0
 10
13.0470221061
 20
9.596328163
 30
0.0
 10
13.1726515231
 20
10.1110111838
 30
0.0
 10
13.2466719565
 20
10.6412797056
 30
0.0
 10
13.2682692529
 20
11.1855063083
 30
0.0
 10
13.2358146192
 20
11.7358052996
 30
0.0
 10
13.1492561563
 20
12.2821093656
 30
0.0
 10
13.0103103742
 20
12.814124705
 30
0.0
 10
12.8224918503
 20
13.3219611859
 30
0.0
 10
12.589261884
 20
13.8007382634
 30
0.0
 10
12.3101982809
 20
14.2510793926
 30
0.0
 10
11.9839287207
 20
14.675366367
 30
0.0
 10
11.6109847308
 20
15.072037719
 30
0.0
 10
11.1957565112
 20
15.4344856708
 30
0.0
 10
10.7453831447
 20
15.7556046706
 30
0.0
 10
10.2683842728
 20
16.0294024687
 30
0.0
 10
9.7743107777
 20
16.2514148652
 30
0.0
 10
9.2692492373
 20
16.4206207496
 30
0.0
 10
8.7525727586
 20
16.5371856261
 30
0.0
 10
8.2215210776
 20
16.6017945728
 30
0.0
 10
7.6774034762
 20
16.6137813926
 30
0.0
 10
7.1279318475
 20
16.5716211893
 30
0.0
 10
6.5832298443
 20
16.4754177748
 30
0.0
 10
6.0535099615
 20
16.3270318755
 30
0.0
 10
5.5486277913
 20
16.1301151747
 30
0.0
 10
5.0737302704
 20
15.8883309948
 30
0.0
 10
4.6284037672
 20
15.6014630003
 30
0.0
 10
4.2102548884
 20
15.2680213183
 30
0.0
 10
3.8205158874
 20
14.8884236189
 30
0.0
 10
3.4655761559
 20
14.4669918324
 30
0.0
 10
3.15246452
 20
14.0110071189
 30
0.0
 10
2.8870158889
 20
13.5290354068
 30
0.0
 10
2.6735624084
 20
13.0306807412
 30
0.0
 10
2.5131687099
 20
12.5223477183
 30
0.0
 10
2.4056797506
 20
12.0037250538
 30
0.0
 10
2.3504922447
 20
11.4719970012
 30
0.0
 10
2.3481181936
 20
10.9281640651
 30
0.0
 10
2.39997442
 20
10.3797090824
 30
0.0
 10
2.5058036224
 20
9.836788007
 30
0.0
 10
2.6636010494
 20
9.3095464648
 30
0.0
 10
2.8695770721
 20
8.8077964917
 30
0.0
 10
3.1198618484
 20
8.3369394019
 30
0.0
 10
3.414452473
 20
7.8967663474
 30
0.0
 10
3.7549535996
 20
7.4848828881
 30
0.0
 10
4.1410735039
 20
7.1021987588
 30
0.0
 10
4.5685736582
 20
6.754881062
 30
0.0
 10
5.0300277938
 20
6.449883655
 30
0.0
 10
5.5168145329
 20
6.1928899999
 30
0.0
 10
6.0192906539
 20
5.9880892888
 30
0.0
 10
6.5307442047
 20
5.8365774353
 30
0.0
 10
7.0511648834
 20
5.7381986944
 30
0.0
 10
7.5834084429
 20
5.6924379859
 30
0.0
 10
8.1267809538
 20
5.6996658186
 30
0.0
 10
8.6740421162
 20
5.7611979601
 30
0.0
 10
9.2150054087
 20
5.8766230952
 30
0.0
 10
9.7395844101
 20
6.0437905948
 30
0.0
 10
10.2380276661
 20
6.2587754986
 30
0.0
 10
10.7046927715
 20
6.517499348
 30
0.0
 10
11.1395840596
 20
6.8197260556
 30
0.0
 10
11.5450831861
 20
7.1671679978
 30
0.0
 10
11.9205960164
 20
7.5596700211
 30
0.0
 10
12.2601838728
 20
7.9930938047
 30
0.0
 10
12.5569689328
 20
8.4598691263
 30
0.0
 10
12.8054129412
 20
8.9513099859
 30
0.0
 10
13.0014778341
 20
9.4577462552
 30
0.0
 10
13.144048055
 20
9.9721688202
 30
0.0
 10
13.2332905788
 20
10.4942377011
 30
0.0
 10
13.2696281469
 20
11.0268312476
 30
0.0
 10
13.2528200127
 20
11.5695611936
 30
0.0
 10
13.1816441988
 20
12.1154468196
 30
0.0
 10
13.0566643884
 20
12.654278165
 30
0.0
 10
12.8801777938
 20
13.1760194421
 30
0.0
 10
12.6562417344
 20
13.6709913032
 30
0.0
 10
12.3891465461
 20
14.1333209818
 30
0.0
 10
12.0793773413
 20
14.5628069525
 30
0.0
 10
11.725123417
 20
14.9618059429
 30
0.0
 10
11.3263914319
 20
15.330034666
 30
0.0
 10
10.8871999065
 20
15.6617909274
 30
0.0
 10
10.4152567934
 20
15.9502759161
 30
0.0
 10
9.9193223747
 20
16.1900887239
 30
0.0
 10
9.4090875177
 20
16.3773458808
 30
0.0
 10
8.891852451
 20
16.5109233511
 30
0.0
 10
8.3682939662
 20
16.5910120555
 30
0.0
 10
7.8355228287
 20
16.6179413097
 30
0.0
 10
7.2936175903
 20
16.5915869891
 30
0.0
 10
6.7492849089
 20
16.510811675
 30
0.0
 10
6.2127594277
 20
16.3763303166
 30
0.0
 10
5.6940355137
 20
16.1905904849
 30
0.0
 10
5.2026813655
 20
15.9577674382
 30
0.0
 10
4.7447626124
 20
15.6823397834
 30
0.0
 10
4.320716693
 20
15.3650523283
 30
0.0
 10
3.9282782293
 20
15.0040454682
 30
0.0
 10
3.5674399818
 20
14.5992013636
 30
0.0
 10
3.2436333823
 20
14.1543910058
 30
0.0
 10
2.9635532079
 20
13.6774286231
 30
0.0
 10
2.7324695982
 20
13.1771562607
 30
0.0
 10
2.5541103285
 20
12.6632857142
 30
0.0
 10
2.4295942109
 20
12.1433974878
 30
0.0
 10
2.3586940468
 20
11.6185054747
 30
0.0
 10
2.3411740057
 20
11.0857212562
 30
0.0
 10
2.3770572473
 20
10.5448160365
 30
0.0
 10
2.4674050252
 20
10.0022133046
 30
0.0
 10
2.6113524442
 20
9.4681666955
 30
0.0
 10
2.8062973952
 20
8.9526407308
 30
0.0
 10
3.0479482857
 20
8.4650844763
 30
0.0
 10
3.3316393376
 20
8.0117353588
 30
0.0
 10
3.6563584203
 20
7.5932582778
 30
0.0
 10
4.0240033012
 20
7.2074902157
 30
0.0
 10
4.4348213882
 20
6.8541492214
 30
0.0
 10
4.8851005334
 20
6.5383951989
 30
0.0
 10
5.366929607
 20
6.2668132325
 30
0.0
 10
5.8713769949
 20
6.0445463965
 30
0.0
 10
6.3887173497
 20
5.8751628703
 30
0.0
 10
6.9111033429
 20
5.7597638017
 30
0.0
 10
7.4371787041
 20
5.6980762744
 30
0.0
 10
7.9698128875
 20
5.6899566726
 30
0.0
 10
8.5095384925
 20
5.7353408807
 30
0.0
 10
9.0502292318
 20
5.8352215946
 30
0.0
 10
9.5816256826
 20
5.9885880198
 30
0.0
 10
10.093782054
 20
6.1926807113
 30
0.0
 10
10.5773707222
 20
6.4430930923
 30
0.0
 10
11.0260004617
 20
6.7349724512
 30
0.0
 10
11.4387853606
 20
7.0670300084
 30
0.0
 10
11.8177766539
 20
7.4411885284
 30
0.0
 10
12.1635174285
 20
7.8578308801
 30
0.0
 10
12.4711221728
 20
8.3134173584
 30
0.0
 10
12.7341225026
 20
8.7999545524
 30
0.0
 10
12.9474977122
 20
9.3084141643
 30
0.0
 10
13.1078395193
 20
9.8290602676
 30
0.0
 10
13.2140758257
 20
10.3537896322
 30
0.0
 10
13.2665351667
 20
10.8808972785
 30
0.0
 10
13.2652727427
 20
11.413216608
 30
0.0
 10
13.2104261651
 20
11.9515820238
 30
0.0
 10
13.1010633095
 20
12.4901787816
 30
0.0
 10
12.9383350046
 20
13.0187570888
 30
0.0
 10
12.7251608339
 20
13.5273786207
 30
0.0
 10
12.4660624016
 20
14.0068350429
 30
0.0
 10
12.1660803017
 20
14.4505979003
 30
0.0
 10
11.8267890647
 20
14.8575685572
 30
0.0
 10
11.4462521029
 20
15.2296819928
 30
0.0
 10
11.0239412785
 20
15.5677301486
 30
0.0
 10
10.5632111681
 20
15.8671017565
 30
0.0
 10
10.0721295758
 20
16.1214464534
 30
0.0
 10
9.5598356702
 20
16.3258612129
 30
0.0
 10
9.0360524115
 20
16.4771077042
 30
0.0
 10
8.5090845865
 20
16.574156873
 30
0.0
 10
7.9809930195
 20
16.6173825787
 30
0.0
 10
7.4490584143
 20
16.6067440442
 30
0.0
 10
6.9121950388
 20
16.5424524978
 30
0.0
 10
6.375878025
 20
16.4236427804
 30
0.0
 10
5.8502961257
 20
16.2515966142
 30
0.0
 10
5.3453834858
 20
16.0293941731
 30
0.0
 10
4.8702359381
 20
15.7616747977
 30
0.0
 10
4.4314970154
 20
15.4536646602
 30
0.0
 10
4.0304678411
 20
15.1072276493
 30
0.0
 10
3.6653372892
 20
14.720428415
 30
0.0
 10
3.3350831519
 20
14.29259004
 30
0.0
 10
3.044042994
 20
13.8268729088
 30
0.0
 10
2.7984420186
 20
13.3314032869
 30
0.0
 10
2.6030690367
 20
12.8154415685
 30
0.0
 10
2.4609927901
 20
12.2886993187
 30
0.0
 10
2.3731852885
 20
11.7596615954
 30
0.0
 10
2.3392180149
 20
11.2307386372
 30
0.0
 10
2.3592220185
 20
10.6993416996
 30
0.0
 10
2.4329272274
 20
10.1641476912
 30
0.0
 10
2.5611377984
 20
9.630287851
 30
0.0
 10
2.7424491134
 20
9.1078705739
 30
0.0
 10
2.9736171379
 20
8.6068332273
 30
0.0
 10
3.2498832909
 20
8.1361633507
 30
0.0
 10
3.565837728
 20
7.7026001169
 30
0.0
 10
3.9193202258
 20
7.3076407491
 30
0.0
 10
4.3122476161
 20
6.9496031154
 30
0.0
 10
4.7454527704
 20
6.6272481416
 30
0.0
 10
5.215985459
 20
6.3446351824
 30
0.0
 10
5.7156878425
 20
6.107854665
 30
0.0
 10
6.2351742701
 20
5.9215854287
 30
0.0
 10
6.7647407944
 20
5.788732186
 30
0.0
 10
7.2957385338
 20
5.7102008801
 30
0.0
 10
7.8254021886
 20
5.6855019209
 30
0.0
 10
8.3561577806
 20
5.7148458325
 30
0.0
 10
8.8895341033
 20
5.7979148777
 30
0.0
 10
9.4207326017
 20
5.935449796
 30
0.0
 10
9.9397404779
 20
6.1259234751
 30
0.0
 10
10.4366143909
 20
6.3659174098
 30
0.0
 10
10.9024809483
 20
6.6505485937
 30
0.0
 10
11.3305438345
 20
6.9742304862
 30
0.0
 10
11.7191526226
 20
7.3345262348
 30
0.0
 10
12.0698950981
 20
7.7333733276
 30
0.0
 10
12.3842523128
 20
8.1718309682
 30
0.0
 10
12.6584478101
 20
8.6472250494
 30
0.0
 10
12.886468684
 20
9.1513372993
 30
0.0
 10
13.0636817562
 20
9.6745146734
 30
0.0
 10
13.1873929072
 20
10.2071599734
 30
0.0
 10
13.2567687655
 20
10.7407547243
 30
0.0
 10
13.272185722
 20
11.2713037294
 30
0.0
 10
13.2337124613
 20
11.7988032173
 30
0.0
 10
13.1429303056
 20
12.3233597936
 30
0.0
 10
13.0481132057
 20
12.6677024245
 30
0.0
 10
12.992297523
 20
12.8379736228
 30
0.0
  0
SPLINE
  5
2A7
100
AcDbEntity
  8
0
100
AcDbSpline
 62
7
  6
BYLAYER
 70
0
 71
3
 72
254
 73
250
 74
0
 42
0.0000001
 43
0.0000001
 44
0.0000000001
 40
0.0
 40
0.0
 40
0.0
 40
0.0
 40
0.0039048131
 40
0.0078181857
 40
0.0117367701
 40
0.0156909617
 40
0.0197130914
 40
0.0238005771
 40
0.0279371427
 40
0.0320853483
 40
0.0362027669
 40
0.0402440192
 40
0.0441841165
 40
0.0481097567
 40
0.0521176491
 40
0.0562036542
 40
0.0603361778
 40
0.0644795878
 40
0.0685958693
 40
0.0726403417
 40
0.0765852757
 40
0.0805129911
 40
0.0845208725
 40
0.0886071027
 40
0.0927400664
 40
0.0968842512
 40
0.1010017187
 40
0.1050482422
 40
0.1089942235
 40
0.1129195675
 40
0.1169243814
 40
0.1210091334
 40
0.1251414094
 40
0.1292856912
 40
0.1334041819
 40
0.1374533129
 40
0.1414019209
 40
0.145326541
 40
0.1493289186
 40
0.153412214
 40
0.1575437494
 40
0.1616880803
 40
0.1658074968
 40
0.169858956
 40
0.1738097921
 40
0.1777333364
 40
0.1817331679
 40
0.185815136
 40
0.1899460272
 40
0.1940904493
 40
0.1982108403
 40
0.2022645775
 40
0.2062175164
 40
0.2101398013
 40
0.2141369097
 40
0.2182175114
 40
0.2223477653
 40
0.2264922236
 40
0.230613418
 40
0.2346694313
 40
0.2386251734
 40
0.2425471004
 40
0.2465417546
 40
0.2506208517
 40
0.2547503402
 40
0.2588948659
 40
0.2630170916
 40
0.2670752602
 40
0.271032767
 40
0.2749529697
 40
0.278944556
 40
0.2830222843
 40
0.2871511901
 40
0.2912957132
 40
0.2954186177
 40
0.2994789852
 40
0.3034397997
 40
0.3073603706
 40
0.3113496555
 40
0.3154257256
 40
0.3195538006
 40
0.3236983811
 40
0.3278222167
 40
0.3318846612
 40
0.33584769
 40
0.339767167
 40
0.3437535051
 40
0.3478280861
 40
0.3519555085
 40
0.3561000838
 40
0.3602246539
 40
0.3642891409
 40
0.3682550658
 40
0.3721744591
 40
0.3761582358
 40
0.3802311945
 40
0.3843578541
 40
0.3885024375
 40
0.3926277874
 40
0.3966942391
 40
0.4006628232
 40
0.4045818544
 40
0.408562911
 40
0.4126342658
 40
0.416760186
 40
0.4209047472
 40
0.4250308857
 40
0.4290992682
 40
0.4330703739
 40
0.4369888446
 40
0.440967006
 40
0.4450367173
 40
0.4491619389
 40
0.4533064699
 40
0.4574332592
 40
0.461503497
 40
0.4654776751
 40
0.4693965532
 40
0.4733722766
 40
0.4774402366
 40
0.4815645921
 40
0.4857090753
 40
0.4898367342
 40
0.4939088702
 40
0.4978852453
 40
0.5018030516
 40
0.5057754654
 40
0.5098417064
 40
0.5139654288
 40
0.5181098593
 40
0.5222380686
 40
0.5263119481
 40
0.5302917169
 40
0.5342106514
 40
0.5381809489
 40
0.5422453177
 40
0.5463680912
 40
0.5505124661
 40
0.5546414556
 40
0.5587171055
 40
0.5626993943
 40
0.5666179747
 40
0.5705852796
 40
0.5746478267
 40
0.5787698758
 40
0.5829141756
 40
0.5870437739
 40
0.5911210853
 40
0.5951063572
 40
0.5990255553
 40
0.6029904144
 40
0.6070510606
 40
0.6111722467
 40
0.6153164637
 40
0.6194467123
 40
0.6235256472
 40
0.6275137291
 40
0.6314333419
 40
0.6353956113
 40
0.6394543255
 40
0.6435746625
 40
0.647718767
 40
0.6518496854
 40
0.6559302579
 40
0.6599209959
 40
0.6638407527
 40
0.6678001951
 40
0.6718568968
 40
0.6759764289
 40
0.6801204342
 40
0.6842519126
 40
0.68833399
 40
0.6923277708
 40
0.6962486779
 40
0.7002059693
 40
0.7042606275
 40
0.7083791656
 40
0.7125230115
 40
0.7166552222
 40
0.7207389618
 40
0.7247351384
 40
0.7286557418
 40
0.7326097929
 40
0.7366622892
 40
0.7407800877
 40
0.7449238324
 40
0.7490565259
 40
0.7531416386
 40
0.7571409798
 40
0.7610633691
 40
0.7650157163
 40
0.7690660957
 40
0.7731828078
 40
0.7773263838
 40
0.7814597395
 40
0.7855463533
 40
0.7895482441
 40
0.7934710572
 40
0.797420662
 40
0.8014688055
 40
0.805584661
 40
0.8097280973
 40
0.813861987
 40
0.8179499667
 40
0.8219546822
 40
0.8258788216
 40
0.8298263774
 40
0.833872279
 40
0.8379871083
 40
0.842130352
 40
0.846264783
 40
0.8503540863
 40
0.8543614493
 40
0.8582867327
 40
0.8622321096
 40
0.8662757183
 40
0.8703895728
 40
0.8745326665
 40
0.8786677337
 40
0.8827584868
 40
0.8867683924
 40
0.8906944797
 40
0.8946372834
 40
0.8986783204
 40
0.9027911018
 40
0.9069339916
 40
0.9110696302
 40
0.9151618344
 40
0.9191748948
 40
0.9231034199
 40
0.9270452271
 40
0.9310842743
 40
0.9351958658
 40
0.9393379231
 40
0.9434730609
 40
0.9475650741
 40
0.9515782588
 40
0.9555047251
 40
0.9594417581
 40
0.9634777917
 40
0.9675900091
 40
0.9717353834
 40
0.9758757553
 40
0.9799743588
 40
0.9839963279
 40
0.987931079
 40
0.9918682497
 40
0.9958953007
 40
1.0
 40
1.0
 40
1.0
 40
1.0
 10
12.9922975809
 20
12.8379734464
 30
0.0
 10
13.0464717714
 20
12.6727097618
 30
0.0
 10
13.1395506558
 20
12.3365367838
 30
0.0
 10
13.2307466115
 20
11.8210334619
 30
0.0
 10
13.2715532291
 20
11.2967934781
 30
0.0
 10
13.2587776467
 20
10.7662478964
 30
0.0
 10
13.1918560504
 20
10.2322255407
 30
0.0
 10
13.0707215201
 20
9.6995086136
 30
0.0
 10
12.8960957401
 20
9.175924914
 30
0.0
 10
12.6704497404
 20
8.670758456
 30
0.0
 10
12.398386625
 20
8.1938791527
 30
0.0
 10
12.0859838495
 20
7.7537329603
 30
0.0
 10
11.7371436575
 20
7.3531081343
 30
0.0
 10
11.3504818477
 20
6.9910039537
 30
0.0
 10
10.9243406447
 20
6.665521721
 30
0.0
 10
10.4602799812
 20
6.3789023588
 30
0.0
 10
9.9648613672
 20
6.1366459335
 30
0.0
 10
9.4468130436
 20
5.9436622018
 30
0.0
 10
8.9161071654
 20
5.8034823188
 30
0.0
 10
8.382903586
 20
5.7177406131
 30
0.0
 10
7.8522031282
 20
5.685701493
 30
0.0
 10
7.3226076052
 20
5.7076473885
 30
0.0
 10
6.7916663207
 20
5.7834529009
 30
0.0
 10
6.2619360934
 20
5.9135313021
 30
0.0
 10
5.7418334864
 20
6.0970849011
 30
0.0
 10
5.2409728768
 20
6.3313361799
 30
0.0
 10
4.7688405748
 20
6.6116690643
 30
0.0
 10
4.3337816038
 20
6.9319625406
 30
0.0
 10
3.9389004073
 20
7.2880130831
 30
0.0
 10
3.5834290329
 20
7.6809320344
 30
0.0
 10
3.2655007699
 20
8.1124834322
 30
0.0
 10
2.9870690287
 20
8.5812646497
 30
0.0
 10
2.7534533747
 20
9.0807852654
 30
0.0
 10
2.5694385787
 20
9.6022205287
 30
0.0
 10
2.4383870392
 20
10.1356089876
 30
0.0
 10
2.3618174609
 20
10.6706818955
 30
0.0
 10
2.3389351495
 20
11.2020885257
 30
0.0
 10
2.3699569452
 20
11.7310098729
 30
0.0
 10
2.4548537596
 20
12.260053888
 30
0.0
 10
2.5939720088
 20
12.7870272174
 30
0.0
 10
2.7864550301
 20
13.303691503
 30
0.0
 10
3.0293740575
 20
13.8004389018
 30
0.0
 10
3.3180110909
 20
14.267908726
 30
0.0
 10
3.6461061029
 20
14.6977738505
 30
0.0
 10
4.0091685191
 20
15.0867041389
 30
0.0
 10
4.4080718854
 20
15.4353160941
 30
0.0
 10
4.8447165358
 20
15.7454784456
 30
0.0
 10
5.3178976635
 20
16.0155430274
 30
0.0
 10
5.8212347744
 20
16.2403790093
 30
0.0
 10
6.3458139544
 20
16.4153218277
 30
0.0
 10
6.8816838847
 20
16.5371677905
 30
0.0
 10
7.4184829383
 20
16.6045144799
 30
0.0
 10
7.9504987682
 20
16.6182127447
 30
0.0
 10
8.4786634969
 20
16.5781231454
 30
0.0
 10
9.005708938
 20
16.4841683334
 30
0.0
 10
9.5297984945
 20
16.336060902
 30
0.0
 10
10.0428872932
 20
16.1347082616
 30
0.0
 10
10.5353703395
 20
15.8831955936
 30
0.0
 10
10.9980103504
 20
15.5863460159
 30
0.0
 10
11.4225254673
 20
15.2505488501
 30
0.0
 10
11.8053748729
 20
14.8805778246
 30
0.0
 10
12.1470311513
 20
14.4758113197
 30
0.0
 10
12.4493479709
 20
14.0342191921
 30
0.0
 10
12.7109742904
 20
13.5568012391
 30
0.0
 10
12.9269700292
 20
13.0498093539
 30
0.0
 10
13.0927890405
 20
12.5222502704
 30
0.0
 10
13.2053833925
 20
11.9840706111
 30
0.0
 10
13.2634750774
 20
11.4457051598
 30
0.0
 10
13.2679767311
 20
10.9132248821
 30
0.0
 10
13.2188417098
 20
10.3859611287
 30
0.0
 10
13.1158819252
 20
9.8610756116
 30
0.0
 10
12.9588582135
 20
9.3400418114
 30
0.0
 10
12.7487153428
 20
8.8306900844
 30
0.0
 10
12.4886947201
 20
8.3426241819
 30
0.0
 10
12.1837269871
 20
7.8849669251
 30
0.0
 10
11.8403233966
 20
7.4659384341
 30
0.0
 10
11.4635418857
 20
7.0892819791
 30
0.0
 10
11.0530319455
 20
6.7546653111
 30
0.0
 10
10.6066428864
 20
6.4602644789
 30
0.0
 10
10.125158374
 20
6.2071384056
 30
0.0
 10
9.6146804891
 20
6.0000339891
 30
0.0
 10
9.0843155378
 20
5.8433821521
 30
0.0
 10
8.5440070016
 20
5.7400751275
 30
0.0
 10
8.0042105807
 20
5.691256813
 30
0.0
 10
7.4713283722
 20
5.6959591653
 30
0.0
 10
6.9450057344
 20
5.7541361399
 30
0.0
 10
6.4223768788
 20
5.8660778972
 30
0.0
 10
5.9045600708
 20
6.0319668359
 30
0.0
 10
5.3991176742
 20
6.2508337113
 30
0.0
 10
4.9156290888
 20
6.5192909569
 30
0.0
 10
4.4631152855
 20
6.832296719
 30
0.0
 10
4.049725748
 20
7.1832196278
 30
0.0
 10
3.6793939258
 20
7.5667170191
 30
0.0
 10
3.3519180455
 20
7.9828559367
 30
0.0
 10
3.0655142778
 20
8.4339014541
 30
0.0
 10
2.8209604856
 20
8.9192950989
 30
0.0
 10
2.6228114252
 20
9.4330996936
 30
0.0
 10
2.4753832863
 20
9.9661068711
 30
0.0
 10
2.3814149559
 20
10.508367062
 30
0.0
 10
2.3419099841
 20
11.049420326
 30
0.0
 10
2.355836955
 20
11.5825469931
 30
0.0
 10
2.423043306
 20
12.1077853035
 30
0.0
 10
2.5439230889
 20
12.6280108213
 30
0.0
 10
2.7186138752
 20
13.1424535392
 30
0.0
 10
2.9461324121
 20
13.6438292713
 30
0.0
 10
3.2229454656
 20
14.1225855134
 30
0.0
 10
3.5438965075
 20
14.5697976861
 30
0.0
 10
3.9022417278
 20
14.9774025261
 30
0.0
 10
4.2923558156
 20
15.3412891531
 30
0.0
 10
4.7140081605
 20
15.6615342101
 30
0.0
 10
5.1695667384
 20
15.9398695528
 30
0.0
 10
5.6587060524
 20
16.1757873975
 30
0.0
 10
6.175671061
 20
16.3649257052
 30
0.0
 10
6.7111535264
 20
16.5030838113
 30
0.0
 10
7.2551885599
 20
16.5876734865
 30
0.0
 10
7.7973263586
 20
16.6178357185
 30
0.0
 10
8.3305425216
 20
16.5946728913
 30
0.0
 10
8.8545542229
 20
16.518457749
 30
0.0
 10
9.3722280176
 20
16.3886937229
 30
0.0
 10
9.8831367844
 20
16.2052764186
 30
0.0
 10
10.3802880114
 20
15.9691913704
 30
0.0
 10
10.8541629152
 20
15.684113285
 30
0.0
 10
11.2959266638
 20
15.3553159372
 30
0.0
 10
11.6976125677
 20
14.989649147
 30
0.0
 10
12.0549429642
 20
14.5930207885
 30
0.0
 10
12.367873537
 20
14.1659755443
 30
0.0
 10
12.6380750055
 20
13.7060559842
 30
0.0
 10
12.865300237
 20
13.2133447235
 30
0.0
 10
13.0453815291
 20
12.6933942025
 30
0.0
 10
13.1742346712
 20
12.1556050895
 30
0.0
 10
13.2494179669
 20
11.6099677638
 30
0.0
 10
13.2702185447
 20
11.0669146009
 30
0.0
 10
13.2378182381
 20
10.5337660021
 30
0.0
 10
13.1526251963
 20
10.0111290078
 30
0.0
 10
13.0140432674
 20
9.4961584308
 30
0.0
 10
12.8219864772
 20
8.9889395765
 30
0.0
 10
12.5774299146
 20
8.4961628276
 30
0.0
 10
12.2841887267
 20
8.027314421
 30
0.0
 10
11.9476595927
 20
7.5911457592
 30
0.0
 10
11.5747724115
 20
7.1954938016
 30
0.0
 10
11.1716837624
 20
6.8447750998
 30
0.0
 10
10.7392726156
 20
6.5391798595
 30
0.0
 10
10.2750605466
 20
6.2771466244
 30
0.0
 10
9.7789162063
 20
6.0586752224
 30
0.0
 10
9.2561532315
 20
5.8877149207
 30
0.0
 10
8.7162266852
 20
5.768219436
 30
0.0
 10
8.1691601178
 20
5.7024875387
 30
0.0
 10
7.6253677631
 20
5.6910846438
 30
0.0
 10
7.0924519582
 20
5.7327399762
 30
0.0
 10
6.5713407818
 20
5.8268974573
 30
0.0
 10
6.0592223097
 20
5.9742485106
 30
0.0
 10
5.5558479887
 20
6.1748760958
 30
0.0
 10
5.0676004839
 20
6.4278257716
 30
0.0
 10
4.6039283171
 20
6.7291452661
 30
0.0
 10
4.1735079024
 20
7.0733082839
 30
0.0
 10
3.7840387698
 20
7.4533091531
 30
0.0
 10
3.4400571471
 20
7.8627498731
 30
0.0
 10
3.1418886391
 20
8.3004117726
 30
0.0
 10
2.8880880291
 20
8.7687794788
 30
0.0
 10
2.6784259935
 20
9.2681986248
 30
0.0
 10
2.5166359804
 20
9.7936046754
 30
0.0
 10
2.4065388516
 20
10.3354991201
 30
0.0
 10
2.3502912988
 20
10.8838181457
 30
0.0
 10
2.3483096841
 20
11.4281745909
 30
0.0
 10
2.3992267445
 20
11.960700253
 30
0.0
 10
2.5023273449
 20
12.4801433255
 30
0.0
 10
2.6583901522
 20
12.9892649439
 30
0.0
 10
2.8675084954
 20
13.4886391375
 30
0.0
 10
3.1287595554
 20
13.9722016525
 30
0.0
 10
3.4380621459
 20
14.4305530181
 30
0.0
 10
3.7897551129
 20
14.8550832651
 30
0.0
 10
4.176759462
 20
15.2382327598
 30
0.0
 10
4.5924412581
 20
15.5753622225
 30
0.0
 10
5.0352345093
 20
15.8660194861
 30
0.0
 10
5.5076131686
 20
16.1115291636
 30
0.0
 10
6.0101390868
 20
16.3123333014
 30
0.0
 10
6.5380100333
 20
16.464913059
 30
0.0
 10
7.0817002439
 20
16.5655823791
 30
0.0
 10
7.6310987673
 20
16.6123245802
 30
0.0
 10
8.1758493434
 20
16.6048718881
 30
0.0
 10
8.707831409
 20
16.5446954522
 30
0.0
 10
9.2254658315
 20
16.4326810985
 30
0.0
 10
9.7314473082
 20
16.267973396
 30
0.0
 10
10.2266682641
 20
16.0504544882
 30
0.0
 10
10.7053937328
 20
15.7810042164
 30
0.0
 10
11.1582859619
 20
15.4638221908
 30
0.0
 10
11.5767926294
 20
15.1047097998
 30
0.0
 10
11.953492854
 20
14.7108194409
 30
0.0
 10
12.2836601609
 20
14.2890169512
 30
0.0
 10
12.5667261561
 20
13.8412222832
 30
0.0
 10
12.803894919
 20
13.3649857654
 30
0.0
 10
12.9958045025
 20
12.8595232734
 30
0.0
 10
13.1391468976
 20
12.3293634552
 30
0.0
 10
13.2303694297
 20
11.7840515165
 30
0.0
 10
13.2675955343
 20
11.233759189
 30
0.0
 10
13.2507085092
 20
10.6887851574
 30
0.0
 10
13.1812800091
 20
10.1574466211
 30
0.0
 10
13.060359016
 20
9.6416607322
 30
0.0
 10
12.8870320694
 20
9.1388762148
 30
0.0
 10
12.6611705368
 20
8.6479312833
 30
0.0
 10
12.3836094411
 20
8.1742032097
 30
0.0
 10
12.0586422168
 20
7.7269222168
 30
0.0
 10
11.6922111402
 20
7.3145849575
 30
0.0
 10
11.291545873
 20
6.9444782415
 30
0.0
 10
10.8637354247
 20
6.6213955825
 30
0.0
 10
10.4110546258
 20
6.3460114112
 30
0.0
 10
9.9310965304
 20
6.1172434436
 30
0.0
 10
9.422856433
 20
5.9342784728
 30
0.0
 10
8.8905814928
 20
5.8002165973
 30
0.0
 10
8.3438191142
 20
5.7184755206
 30
0.0
 10
7.7928114892
 20
5.6907917175
 30
0.0
 10
7.2478000728
 20
5.7171306373
 30
0.0
 10
6.717274563
 20
5.7958132527
 30
0.0
 10
6.2034822503
 20
5.9256205883
 30
0.0
 10
5.7040294206
 20
6.107511226
 30
0.0
 10
5.2175036977
 20
6.3416364097
 30
0.0
 10
4.7489223404
 20
6.627212321
 30
0.0
 10
4.3073924373
 20
6.9598653981
 30
0.0
 10
3.901360222
 20
7.3335078396
 30
0.0
 10
3.537981049
 20
7.7408309133
 30
0.0
 10
3.2220976926
 20
8.1745299487
 30
0.0
 10
2.9544833662
 20
8.6319698745
 30
0.0
 10
2.7341754787
 20
9.115494814
 30
0.0
 10
2.5602028886
 20
9.6263334428
 30
0.0
 10
2.4354578643
 20
10.1605362841
 30
0.0
 10
2.3632225804
 20
10.7085820621
 30
0.0
 10
2.3450961744
 20
11.2601539253
 30
0.0
 10
2.3808969127
 20
11.8050638472
 30
0.0
 10
2.4688347114
 20
12.3346681906
 30
0.0
 10
2.6075132712
 20
12.846385266
 30
0.0
 10
2.7979135145
 20
13.3424239508
 30
0.0
 10
3.0402124741
 20
13.8244123642
 30
0.0
 10
3.3336711557
 20
14.2876831603
 30
0.0
 10
3.6738408499
 20
14.7232660708
 30
0.0
 10
4.0544778028
 20
15.1227664136
 30
0.0
 10
4.468191571
 20
15.479167991
 30
0.0
 10
4.9074789409
 20
15.7876127484
 30
0.0
 10
5.3693771229
 20
16.0472639046
 30
0.0
 10
5.8562171965
 20
16.2589887118
 30
0.0
 10
6.3695181091
 20
16.4239109202
 30
0.0
 10
6.9056728748
 20
16.5393295055
 30
0.0
 10
7.4551857201
 20
16.6020660408
 30
0.0
 10
8.0075953734
 20
16.6106336328
 30
0.0
 10
8.5526954692
 20
16.5653524505
 30
0.0
 10
9.0816505056
 20
16.4681319992
 30
0.0
 10
9.591370028
 20
16.3206010677
 30
0.0
 10
10.0836581862
 20
16.1219100262
 30
0.0
 10
10.5604560877
 20
15.871894325
 30
0.0
 10
10.8636196067
 20
15.6724605149
 30
0.0
 10
11.0112442581
 20
15.5646189095
 30
0.0
  0
SPLINE
  5
2A8
100
AcDbEntity
  8
0
100
AcDbSpline
 62
7
  6
BYLAYER
 70
0
 71
3
 72
11
 73
7
 74
0
 42
0.0000001
 43
0.0000001
 44
0.0000000001
 40
0.0
 40
0.0
 40
0.0
 40
0.0
 40
0.2527931248
 40
0.4984313446
 40
0.7472837574
 40
1.0
 40
1.0
 40
1.0
 40
1.0
 10
11.3298806266
 20
6.3027148818
 30
0.0
 10
11.0735177875
 20
6.115928508
 30
0.0
 10
10.5377025066
 20
5.7876110293
 30
0.0
 10
9.6695788501
 20
5.4237199896
 30
0.0
 10
8.7538484997
 20
5.2046756818
 30
0.0
 10
8.1232077281
 20
5.1570344646
 30
0.0
 10
7.8061128821
 20
5.158065343
 30
0.0
  0
SPLINE
  5
2A9
100
AcDbEntity
  8
0
100
AcDbSpline
 62
7
  6
BYLAYER
 70
0
 71
3
 72
14
 73
10
 74
0
 42
0.0000001
 43
0.0000001
 44
0.0000000001
 40
0.0
 40
0.0
 40
0.0
 40
0.0
 40
0.1428321153
 40
0.2821514056
 40
0.4226959834
 40
0.5672422069
 40
0.713239033
 40
0.8574440279
 40
1.0
 40
1.0
 40
1.0
 40
1.0
 10
13.5077141389
 20
9.3002789098
 30
0.0
 10
13.3974543912
 20
8.9593738553
 30
0.0
 10
13.1185373394
 20
8.3041486921
 30
0.0
 10
12.5372037829
 20
7.4109601895
 30
0.0
 10
11.7984545928
 20
6.636018996
 30
0.0
 10
10.9205945985
 20
5.99498814
 30
0.0
 10
9.9353292345
 20
5.5140519426
 30
0.0
 10
8.8850954712
 20
5.2174055489
 30
0.0
 10
8.1636971232
 20
5.1529501963
 30
0.0
 10
7.8060998947
 20
5.1543084785
 30
0.0
  0
SPLINE
  5
2AA
100
AcDbEntity
  8
0
100
AcDbSpline
 62
7
  6
BYLAYER
 70
0
 71
3
 72
11
 73
7
 74
0
 42
0.0000001
 43
0.0000001
 44
0.0000000001
 40
0.0
 40
0.0
 40
0.0
 40
0.0
 40
0.2533758839
 40
0.4983988314
 40
0.7465582928
 40
1.0
 40
1.0
 40
1.0
 40
1.0
 10
11.331968311
 20
16.0016601967
 30
0.0
 10
11.0749193742
 20
16.1891026902
 30
0.0
 10
10.5386490594
 20
16.5173929687
 30
0.0
 10
9.6710422429
 20
16.8817354819
 30
0.0
 10
8.7553804801
 20
17.1005336362
 30
0.0
 10
8.124318581
 20
17.1486908572
 30
0.0
 10
7.8061042797
 20
17.1476555231
 30
0.0
  0
SPLINE
  5
2AB
100
AcDbEntity
  8
0
100
AcDbSpline
 62
7
  6
BYLAYER
 70
0
 71
3
 72
11
 73
7
 74
0
 42
0.0000001
 43
0.0000001
 44
0.0000000001
 40
0.0
 40
0.0
 40
0.0
 40
0.0
 40
0.2497621053
 40
0.4995171833
 40
0.7498079829
 40
1.0
 40
1.0
 40
1.0
 40
1.0
 10
4.2827509884
 20
6.3035447905
 30
0.0
 10
4.5360463159
 20
6.1190262388
 30
0.0
 10
5.0721590164
 20
5.7888465138
 30
0.0
 10
5.9430399463
 20
5.4228557793
 30
0.0
 10
6.8627989418
 20
5.2040636245
 30
0.0
 10
7.4920459854
 20
5.1574905162
 30
0.0
 10
7.8059614587
 20
5.1585436217
 30
0.0
  0
SPLINE
  5
2AC
100
AcDbEntity
  8
0
100
AcDbSpline
 62
7
  6
BYLAYER
 70
0
 71
3
 72
235
 73
231
 74
0
 42
0.0000001
 43
0.0000001
 44
0.0000000001
 40
0.0
 40
0.0
 40
0.0
 40
0.0
 40
0.0039646192
 40
0.0080543317
 40
0.0122775639
 40
0.0165902466
 40
0.0209504042
 40
0.0253662037
 40
0.0298450821
 40
0.0343453928
 40
0.0388153352
 40
0.0432030978
 40
0.0474791615
 40
0.0517345696
 40
0.0560726328
 40
0.0604940255
 40
0.0649703012
 40
0.0694634082
 40
0.0739311161
 40
0.0783221802
 40
0.0826032121
 40
0.0868608707
 40
0.0911994841
 40
0.0956216731
 40
0.1000985831
 40
0.1045923881
 40
0.1090610505
 40
0.1134539812
 40
0.1177358971
 40
0.121991074
 40
0.1263268775
 40
0.1307479293
 40
0.1352241931
 40
0.1397179155
 40
0.1441873067
 40
0.1485826676
 40
0.1528671617
 40
0.1571216308
 40
0.1614553165
 40
0.1658752929
 40
0.1703508889
 40
0.1748444954
 40
0.1793145133
 40
0.1837120001
 40
0.1879986446
 40
0.1922520111
 40
0.1965834301
 40
0.2010024617
 40
0.2054775066
 40
0.2099710584
 40
0.2144417638
 40
0.2188413215
 40
0.2231299755
 40
0.227382023
 40
0.2317109668
 40
0.2361290204
 40
0.24060354
 40
0.2450969886
 40
0.2495681978
 40
0.2539698226
 40
0.2582612529
 40
0.2625129538
 40
0.266839689
 40
0.2712566054
 40
0.2757304742
 40
0.2802238696
 40
0.2846958368
 40
0.2890993939
 40
0.2933924686
 40
0.2976423271
 40
0.3019661724
 40
0.3063821056
 40
0.3108555403
 40
0.315348819
 40
0.319821163
 40
0.324226692
 40
0.3285230827
 40
0.3327733611
 40
0.3370951292
 40
0.3415097633
 40
0.3459825108
 40
0.350475753
 40
0.3549487544
 40
0.3593561187
 40
0.3636546334
 40
0.3679037352
 40
0.3722227093
 40
0.3766362304
 40
0.3811085015
 40
0.3856016527
 40
0.3900751028
 40
0.3944842585
 40
0.398785633
 40
0.4030346472
 40
0.4073512274
 40
0.4117634878
 40
0.4162351774
 40
0.4207282668
 40
0.4252022236
 40
0.429613084
 40
0.4339170575
 40
0.4381656741
 40
0.4424796693
 40
0.4468906846
 40
0.4513618323
 40
0.4558548419
 40
0.4603293225
 40
0.4647418457
 40
0.4690482636
 40
0.4732962629
 40
0.4776074675
 40
0.4820171902
 40
0.4864878535
 40
0.4909807894
 40
0.4954556536
 40
0.4998697537
 40
0.5041792072
 40
0.5084276325
 40
0.5127365253
 40
0.5171448329
 40
0.5216148438
 40
0.5261077023
 40
0.530583196
 40
0.5349989132
 40
0.5393104449
 40
0.543557688
 40
0.5478633114
 40
0.5522702357
 40
0.55673986
 40
0.5612326505
 40
0.5657084372
 40
0.5701255991
 40
0.5744404972
 40
0.5786889368
 40
0.5829925698
 40
0.5873979386
 40
0.5918668462
 40
0.5963595807
 40
0.6008359206
 40
0.6052545521
 40
0.6095718603
 40
0.613819885
 40
0.618120565
 40
0.6225244275
 40
0.626992873
 40
0.6314855453
 40
0.635962264
 40
0.6403822437
 40
0.6447024537
 40
0.6489511116
 40
0.653249419
 40
0.6576516823
 40
0.6621195257
 40
0.6666121428
 40
0.6710892975
 40
0.6755105802
 40
0.6798334933
 40
0.68408256
 40
0.688378328
 40
0.6927789519
 40
0.6972462179
 40
0.7017387625
 40
0.706216387
 40
0.7106389849
 40
0.7149644219
 40
0.7192135984
 40
0.72350656
 40
0.7279054506
 40
0.7323721968
 40
0.7368646986
 40
0.7413426866
 40
0.7457664527
 40
0.7500948194
 40
0.7543451909
 40
0.7586360702
 40
0.763033187
 40
0.767499216
 40
0.7719916243
 40
0.776470177
 40
0.7808952815
 40
0.7852258647
 40
0.7894758489
 40
0.7937634563
 40
0.7981586626
 40
0.8026242574
 40
0.8071166504
 40
0.8115955121
 40
0.8160216402
 40
0.8203552583
 40
0.8246071134
 40
0.8288931068
 40
0.8332864443
 40
0.8377512349
 40
0.8422435534
 40
0.8467229335
 40
0.8511502245
 40
0.8554861979
 40
0.8597384412
 40
0.8640216892
 40
0.8684130206
 40
0.8728772614
 40
0.8773695525
 40
0.8818493271
 40
0.8862776329
 40
0.8906162421
 40
0.8948698428
 40
0.8991510924
 40
0.9035404064
 40
0.90800392
 40
0.9124961402
 40
0.9169763311
 40
0.9214056054
 40
0.9257466428
 40
0.9300013969
 40
0.9342805057
 40
0.9386677416
 40
0.9431305881
 40
0.9476227976
 40
0.952103524
 40
0.956533906
 40
0.9608772395
 40
0.9651327615
 40
0.969409293
 40
0.973794142
 40
0.9782562219
 40
0.9827483818
 40
0.9872295973
 40
0.9916611028
 40
0.9960073931
 40
1.0
 40
1.0
 40
1.0
 40
1.0
 10
7.8060282826
 20
5.6996903092
 30
0.0
 10
7.9690256125
 20
5.6992652578
 30
0.0
 10
8.3003878892
 20
5.7128985209
 30
0.0
 10
8.8014861649
 20
5.7791092499
 30
0.0
 10
9.3081412247
 20
5.8958764953
 30
0.0
 10
9.8109339949
 20
6.0670384308
 30
0.0
 10
10.3009817771
 20
6.2915134078
 30
0.0
 10
10.7723210919
 20
6.5667705416
 30
0.0
 10
11.2190380192
 20
6.8903532764
 30
0.0
 10
11.6335331763
 20
7.2576682343
 30
0.0
 10
12.0073757675
 20
7.661197001
 30
0.0
 10
12.3340037314
 20
8.0922795233
 30
0.0
 10
12.6118000277
 20
8.5460345524
 30
0.0
 10
12.8412398413
 20
9.0238123327
 30
0.0
 10
13.0234836511
 20
9.5278488869
 30
0.0
 10
13.1571993207
 20
10.0562400022
 30
0.0
 10
13.2392168785
 20
10.6015342087
 30
0.0
 10
13.2674305661
 20
11.1541466152
 30
0.0
 10
13.2413765156
 20
11.7033611576
 30
0.0
 10
13.162534066
 20
12.2386847686
 30
0.0
 10
13.0332315006
 20
12.7552174454
 30
0.0
 10
12.8529362166
 20
13.253962573
 30
0.0
 10
12.6208655966
 20
13.7372513987
 30
0.0
 10
12.3374446588
 20
14.2029104518
 30
0.0
 10
12.0057343235
 20
14.643520852
 30
0.0
 10
11.6311010882
 20
15.050866455
 30
0.0
 10
11.2208331845
 20
15.4171379959
 30
0.0
 10
10.7834799556
 20
15.7360032281
 30
0.0
 10
10.3243008342
 20
16.0056156858
 30
0.0
 10
9.8422760609
 20
16.2263242285
 30
0.0
 10
9.3350826684
 20
16.3992303537
 30
0.0
 10
8.8044262377
 20
16.5231804857
 30
0.0
 10
8.257703711
 20
16.5951473195
 30
0.0
 10
7.7045719091
 20
16.6131905298
 30
0.0
 10
7.1556585412
 20
16.5770278692
 30
0.0
 10
6.6214900296
 20
16.4882987157
 30
0.0
 10
6.1072381813
 20
16.3494834175
 30
0.0
 10
5.6120499317
 20
16.1601745737
 30
0.0
 10
5.1334826423
 20
15.9194600149
 30
0.0
 10
4.6734050132
 20
15.6277146267
 30
0.0
 10
4.2390971477
 20
15.2880424243
 30
0.0
 10
3.8387236587
 20
14.9059767704
 30
0.0
 10
3.4799076891
 20
14.4888629697
 30
0.0
 10
3.1688847082
 20
14.045362771
 30
0.0
 10
2.9076052443
 20
13.5810391
 30
0.0
 10
2.6957719784
 20
13.095114846
 30
0.0
 10
2.5323195037
 20
12.5851504658
 30
0.0
 10
2.4182168891
 20
12.0526105121
 30
0.0
 10
2.3563504739
 20
11.5047940554
 30
0.0
 10
2.348502134
 20
10.951426988
 30
0.0
 10
2.3947823673
 20
10.4030537408
 30
0.0
 10
2.4933970388
 20
9.8702162774
 30
0.0
 10
2.6417122609
 20
9.3583699475
 30
0.0
 10
2.8399954701
 20
8.8668405504
 30
0.0
 10
3.0892834261
 20
8.3931044133
 30
0.0
 10
3.3892586638
 20
7.938731349
 30
0.0
 10
3.7367863909
 20
7.5108503875
 30
0.0
 10
4.1261572536
 20
7.1175804456
 30
0.0
 10
4.5499637658
 20
6.7663616848
 30
0.0
 10
4.999450954
 20
6.46330938
 30
0.0
 10
5.4687596468
 20
6.2104643338
 30
0.0
 10
5.9584154232
 20
6.0075745629
 30
0.0
 10
6.4709637189
 20
5.8536185714
 30
0.0
 10
7.0051895012
 20
5.7493890196
 30
0.0
 10
7.5539114043
 20
5.6976346476
 30
0.0
 10
8.1073260749
 20
5.6999800904
 30
0.0
 10
8.6549633377
 20
5.7563657794
 30
0.0
 10
9.1862881198
 20
5.8648420297
 30
0.0
 10
9.695566114
 20
6.0226159405
 30
0.0
 10
10.1832810561
 20
6.2298009983
 30
0.0
 10
10.6520242085
 20
6.4875537549
 30
0.0
 10
11.1005314658
 20
6.7956275357
 30
0.0
 10
11.521842341
 20
7.1508768396
 30
0.0
 10
11.9078787317
 20
7.5474133239
 30
0.0
 10
12.2513729769
 20
7.9777601882
 30
0.0
 10
12.5463436276
 20
8.433082677
 30
0.0
 10
12.790668832
 20
8.9072267221
 30
0.0
 10
12.9845596158
 20
9.4004513885
 30
0.0
 10
13.1289875152
 20
9.9153956363
 30
0.0
 10
13.2233300687
 20
10.4511061157
 30
0.0
 10
13.2649722155
 20
11.0005415034
 30
0.0
 10
13.2524453622
 20
11.553809334
 30
0.0
 10
13.185979365
 20
12.1005086377
 30
0.0
 10
13.0676720196
 20
12.6301651603
 30
0.0
 10
12.9004615435
 20
13.1367910298
 30
0.0
 10
12.6843987435
 20
13.6206298339
 30
0.0
 10
12.4182417473
 20
14.0842717971
 30
0.0
 10
12.1021766234
 20
14.526756777
 30
0.0
 10
11.7393302543
 20
14.941340745
 30
0.0
 10
11.3357562083
 20
15.3200025088
 30
0.0
 10
10.8990104258
 20
15.6556334231
 30
0.0
 10
10.4380016791
 20
15.942394015
 30
0.0
 10
9.9591752939
 20
16.1780945807
 30
0.0
 10
9.4625452432
 20
16.3629140033
 30
0.0
 10
8.9453866081
 20
16.4977697697
 30
0.0
 10
8.4083834664
 20
16.5821985397
 30
0.0
 10
7.8584216188
 20
16.6137133478
 30
0.0
 10
7.3054888246
 20
16.5910020434
 30
0.0
 10
6.7599301032
 20
16.5144652512
 30
0.0
 10
6.2321403062
 20
16.3863488975
 30
0.0
 10
5.728344366
 20
16.2097405429
 30
0.0
 10
5.2485384811
 20
15.9848649957
 30
0.0
 10
4.7901473072
 20
15.7104001322
 30
0.0
 10
4.3538338775
 20
15.3864623984
 30
0.0
 10
3.9461179523
 20
15.0161456093
 30
0.0
 10
3.5749637107
 20
14.6056696519
 30
0.0
 10
3.2473278098
 20
14.1626773198
 30
0.0
 10
2.9688954826
 20
13.6961384424
 30
0.0
 10
2.741911597
 20
13.2127832579
 30
0.0
 10
2.566223901
 20
12.712909111
 30
0.0
 10
2.4409738055
 20
12.1937180907
 30
0.0
 10
2.3664754304
 20
11.6556187946
 30
0.0
 10
2.3450923962
 20
11.1053225712
 30
0.0
 10
2.3779801428
 20
10.5529129348
 30
0.0
 10
2.4645670846
 20
10.0086928904
 30
0.0
 10
2.6024603351
 20
9.482962811
 30
0.0
 10
2.7884193236
 20
8.9821687819
 30
0.0
 10
3.0220344021
 20
8.5065485071
 30
0.0
 10
3.3047003745
 20
8.053556094
 30
0.0
 10
3.6363789426
 20
7.6235626046
 30
0.0
 10
4.0140264777
 20
7.2228526558
 30
0.0
 10
4.431260905
 20
6.8593298073
 30
0.0
 10
4.8803448812
 20
6.5398074113
 30
0.0
 10
5.3522571971
 20
6.2698090689
 30
0.0
 10
5.8399870394
 20
6.0516233465
 30
0.0
 10
6.3429409963
 20
5.8851188887
 30
0.0
 10
6.863976227
 20
5.7694989337
 30
0.0
 10
7.4029675957
 20
5.7049371082
 30
0.0
 10
7.953400519
 20
5.6936786324
 30
0.0
 10
8.5051008252
 20
5.7367232237
 30
0.0
 10
9.0477919969
 20
5.8333289689
 30
0.0
 10
9.571275264
 20
5.9809572902
 30
0.0
 10
10.0688961467
 20
6.1762090955
 30
0.0
 10
10.5401763458
 20
6.4184777416
 30
0.0
 10
10.9876237297
 20
6.7092247995
 30
0.0
 10
11.4111568623
 20
7.0485021697
 30
0.0
 10
11.804733599
 20
7.4333335256
 30
0.0
 10
12.1605085047
 20
7.857173466
 30
0.0
 10
12.4718042449
 20
8.3121793747
 30
0.0
 10
12.7332817139
 20
8.789313507
 30
0.0
 10
12.9426261194
 20
9.281326581
 30
0.0
 10
13.099927853
 20
9.7873039805
 30
0.0
 10
13.2058976627
 20
10.3100844141
 30
0.0
 10
13.2605023413
 20
10.849795453
 30
0.0
 10
13.2616264243
 20
11.400163378
 30
0.0
 10
13.2084281139
 20
11.9509622697
 30
0.0
 10
13.1018188976
 20
12.4919291345
 30
0.0
 10
12.9444836727
 20
13.0129669879
 30
0.0
 10
12.7399847294
 20
13.5072310665
 30
0.0
 10
12.4891338454
 20
13.9740090021
 30
0.0
 10
12.1904087656
 20
14.4157623819
 30
0.0
 10
11.8436574786
 20
14.8326904312
 30
0.0
 10
11.4517755739
 20
15.2189969101
 30
0.0
 10
11.0214683416
 20
15.5668979264
 30
0.0
 10
10.5606961688
 20
15.8698432192
 30
0.0
 10
10.0785075046
 20
16.122683058
 30
0.0
 10
9.5823758478
 20
16.3230936292
 30
0.0
 10
9.0735371925
 20
16.4711341262
 30
0.0
 10
8.5491850299
 20
16.5674267402
 30
0.0
 10
8.0089438426
 20
16.6120655903
 30
0.0
 10
7.4588351667
 20
16.6030586747
 30
0.0
 10
6.9091264426
 20
16.5397215711
 30
0.0
 10
6.3700787387
 20
16.4231371692
 30
0.0
 10
5.8516798136
 20
16.2561352731
 30
0.0
 10
5.3609452176
 20
16.0424433599
 30
0.0
 10
4.8988202593
 20
15.7830873366
 30
0.0
 10
4.462902769
 20
15.4764946227
 30
0.0
 10
4.0527216032
 20
15.1224059077
 30
0.0
 10
3.6738192471
 20
14.7236202582
 30
0.0
 10
3.3339097778
 20
14.2869924792
 30
0.0
 10
3.0394257192
 20
13.8206119476
 30
0.0
 10
2.7953271956
 20
13.3335359748
 30
0.0
 10
2.6039318433
 20
12.833450341
 30
0.0
 10
2.4652020583
 20
12.321914904
 30
0.0
 10
2.3786048055
 20
11.7961699599
 30
0.0
 10
2.3439301402
 20
11.2555952116
 30
0.0
 10
2.3630526508
 20
10.7059457946
 30
0.0
 10
2.4365018558
 20
10.1575150123
 30
0.0
 10
2.5630227159
 20
9.6205735583
 30
0.0
 10
2.7396420843
 20
9.1049985871
 30
0.0
 10
2.9624648167
 20
8.6179595274
 30
0.0
 10
3.2302407272
 20
8.160633565
 30
0.0
 10
3.5445816125
 20
7.7306891407
 30
0.0
 10
3.9058618139
 20
7.3273908148
 30
0.0
 10
4.3113949818
 20
6.9560196962
 30
0.0
 10
4.7541902027
 20
6.6242107202
 30
0.0
 10
5.2260178587
 20
6.3382879261
 30
0.0
 10
5.717809451
 20
6.10302457
 30
0.0
 10
6.2216770524
 20
5.9207175006
 30
0.0
 10
6.7357358792
 20
5.7913392703
 30
0.0
 10
7.2626889563
 20
5.7144444812
 30
0.0
 10
7.8034019026
 20
5.6897197991
 30
0.0
 10
8.3523975199
 20
5.7189304714
 30
0.0
 10
8.8993639367
 20
5.8024542095
 30
0.0
 10
9.4340037684
 20
5.9388588463
 30
0.0
 10
9.9465737489
 20
6.1250335116
 30
0.0
 10
10.4298039476
 20
6.3569364437
 30
0.0
 10
10.8822742333
 20
6.6330986531
 30
0.0
 10
11.3061780296
 20
6.9551339214
 30
0.0
 10
11.7024765868
 20
7.3234992221
 30
0.0
 10
12.0661771774
 20
7.7356335593
 30
0.0
 10
12.3897607798
 20
8.1844474573
 30
0.0
 10
12.6670078284
 20
8.661566492
 30
0.0
 10
12.8933268474
 20
9.1579032969
 30
0.0
 10
13.0664588279
 20
9.6653838116
 30
0.0
 10
13.186431298
 20
10.1818030609
 30
0.0
 10
13.2536025751
 20
10.7097927004
 30
0.0
 10
13.2683758609
 20
11.2504552351
 30
0.0
 10
13.2290888934
 20
11.7985995484
 30
0.0
 10
13.1355126588
 20
12.3439127353
 30
0.0
 10
12.9892602688
 20
12.8760576582
 30
0.0
 10
12.793581269
 20
13.3854214048
 30
0.0
 10
12.5526622922
 20
13.8646601455
 30
0.0
 10
12.2681936401
 20
14.3121228318
 30
0.0
 10
11.9385706394
 20
14.7298544639
 30
0.0
 10
11.5632529565
 20
15.1190243945
 30
0.0
 10
11.1446678084
 20
15.474928408
 30
0.0
 10
10.6899853313
 20
15.7901750644
 30
0.0
 10
10.2077338782
 20
16.0586438699
 30
0.0
 10
9.7070252586
 20
16.275921373
 30
0.0
 10
9.1961055833
 20
16.439801361
 30
0.0
 10
8.6774999266
 20
16.5503210282
 30
0.0
 10
8.1486627686
 20
16.6077547276
 30
0.0
 10
7.6082572575
 20
16.6125843099
 30
0.0
 10
7.0611721372
 20
16.5632440381
 30
0.0
 10
6.5176932295
 20
16.4596460249
 30
0.0
 10
5.9882054138
 20
16.3035837933
 30
0.0
 10
5.4822000619
 20
16.0984438143
 30
0.0
 10
5.016750847
 20
15.8536433221
 30
0.0
 10
4.7298116203
 20
15.6650436829
 30
0.0
 10
4.5970293898
 20
15.5684250521
 30
0.0
  0
SPLINE
  5
2AD
100
AcDbEntity
  8
0
100
AcDbSpline
 62
7
  6
BYLAYER
 70
0
 71
3
 72
209
 73
205
 74
0
 42
0.0000001
 43
0.0000001
 44
0.0000000001
 40
0.0
 40
0.0
 40
0.0
 40
0.0
 40
0.0049532625
 40
0.0099061568
 40
0.014858675
 40
0.0198107803
 40
0.0247628547
 40
0.0297149155
 40
0.0346668262
 40
0.039618587
 40
0.0445702948
 40
0.049521961
 40
0.0544736293
 40
0.0594253585
 40
0.0643771851
 40
0.0693291579
 40
0.0742812687
 40
0.0792335384
 40
0.0841859615
 40
0.0891385469
 40
0.0940912735
 40
0.0990441347
 40
0.103997106
 40
0.1089501659
 40
0.1139032825
 40
0.1188564333
 40
0.1238095864
 40
0.1287627165
 40
0.1337157987
 40
0.1386688035
 40
0.1436217103
 40
0.148574492
 40
0.1535271359
 40
0.1584796253
 40
0.1634319622
 40
0.1683841363
 40
0.1733361662
 40
0.1782880615
 40
0.1832398577
 40
0.1881915578
 40
0.1931432235
 40
0.1980949032
 40
0.2030466397
 40
0.2079984973
 40
0.2129504756
 40
0.2179025964
 40
0.2228548619
 40
0.2278072853
 40
0.2327598458
 40
0.2377125423
 40
0.2426653542
 40
0.2476182656
 40
0.2525712477
 40
0.2575242783
 40
0.2624773269
 40
0.267430368
 40
0.2723833751
 40
0.2773363223
 40
0.2822891892
 40
0.2872419479
 40
0.2921945852
 40
0.2971470822
 40
0.3020994364
 40
0.3070516343
 40
0.3120036898
 40
0.3169556093
 40
0.3219074244
 40
0.3268591487
 40
0.3318108386
 40
0.3367625103
 40
0.3417142191
 40
0.3466660437
 40
0.3516179804
 40
0.3565700543
 40
0.3615222768
 40
0.3664746624
 40
0.3714271903
 40
0.3763798592
 40
0.3813326486
 40
0.3862855468
 40
0.3912385264
 40
0.3961915649
 40
0.4011446333
 40
0.4060977061
 40
0.4110507547
 40
0.4160037514
 40
0.4209566737
 40
0.4259094958
 40
0.4308622028
 40
0.4358147735
 40
0.440767204
 40
0.4457194793
 40
0.4506716087
 40
0.4556235871
 40
0.4605754393
 40
0.4655271959
 40
0.470478911
 40
0.4754305777
 40
0.480382262
 40
0.4853340453
 40
0.4902859216
 40
0.4952379286
 40
0.5001900809
 40
0.5051423937
 40
0.5100948541
 40
0.5150474633
 40
0.5200002
 40
0.5249530529
 40
0.529905996
 40
0.5348590095
 40
0.5398120647
 40
0.5447651375
 40
0.5497182004
 40
0.5546712234
 40
0.5596241818
 40
0.5645770496
 40
0.5695298089
 40
0.5744824378
 40
0.5794349306
 40
0.5843872733
 40
0.5893394733
 40
0.5942915162
 40
0.59924342
 40
0.6041952143
 40
0.6091469451
 40
0.6140986118
 40
0.6190502839
 40
0.6240020306
 40
0.6289538548
 40
0.6339058087
 40
0.6388578974
 40
0.6438101376
 40
0.6487625278
 40
0.653715074
 40
0.6586677562
 40
0.6636205622
 40
0.6685734672
 40
0.6735264535
 40
0.6784794914
 40
0.6834325576
 40
0.6883856259
 40
0.693338668
 40
0.698291659
 40
0.7032445695
 40
0.7081973786
 40
0.7131500641
 40
0.7181026162
 40
0.7230550212
 40
0.728007285
 40
0.7329593936
 40
0.7379113626
 40
0.7428632055
 40
0.7478149578
 40
0.7527666333
 40
0.757718297
 40
0.7626700059
 40
0.7676217835
 40
0.7725736891
 40
0.7775257195
 40
0.7824778939
 40
0.7874302163
 40
0.7923826968
 40
0.7973353191
 40
0.8022880739
 40
0.8072409394
 40
0.8121938967
 40
0.8171469157
 40
0.822099974
 40
0.8270530437
 40
0.8320060992
 40
0.8369591173
 40
0.8419120666
 40
0.8468649251
 40
0.8518176683
 40
0.856770282
 40
0.8617227502
 40
0.866675075
 40
0.8716272463
 40
0.8765792793
 40
0.8815311773
 40
0.8864829702
 40
0.8914346725
 40
0.8963863381
 40
0.9013380157
 40
0.906289748
 40
0.9112416004
 40
0.9161935731
 40
0.9211456854
 40
0.9260979427
 40
0.9310503581
 40
0.9360029165
 40
0.9409556137
 40
0.9459084321
 40
0.950861353
 40
0.9558143481
 40
0.9607673947
 40
0.9657204629
 40
0.9706735272
 40
0.9756265635
 40
0.9805795432
 40
0.9855324451
 40
0.9904852415
 40
0.9954379157
 40
1.0
 40
1.0
 40
1.0
 40
1.0
 10
12.9933457579
 20
12.8383424199
 30
0.0
 10
12.977731452
 20
12.8868273705
 30
0.0
 10
12.9457935423
 20
12.9835831008
 30
0.0
 10
12.8922249307
 20
13.1267153869
 30
0.0
 10
12.8354117753
 20
13.2685611339
 30
0.0
 10
12.7746837859
 20
13.4087768077
 30
0.0
 10
12.7100459186
 20
13.5472261104
 30
0.0
 10
12.6415273008
 20
13.6837948093
 30
0.0
 10
12.5692058833
 20
13.8183845456
 30
0.0
 10
12.4930972941
 20
13.9508660589
 30
0.0
 10
12.4132220017
 20
14.0811086381
 30
0.0
 10
12.3296240153
 20
14.2089927805
 30
0.0
 10
12.242348905
 20
14.3343968273
 30
0.0
 10
12.151458611
 20
14.4572079501
 30
0.0
 10
12.0570437138
 20
14.5773341756
 30
0.0
 10
11.9592105194
 20
14.6946978952
 30
0.0
 10
11.8580642968
 20
14.8092243889
 30
0.0
 10
11.7537101032
 20
14.9208416303
 30
0.0
 10
11.6462513494
 20
15.0294797206
 30
0.0
 10
11.5357923159
 20
15.1350722415
 30
0.0
 10
11.422435737
 20
15.2375543353
 30
0.0
 10
11.3062822857
 20
15.336861095
 30
0.0
 10
11.187431409
 20
15.4329284273
 30
0.0
 10
11.0659818002
 20
15.5256928038
 30
0.0
 10
10.9420312258
 20
15.6150909514
 30
0.0
 10
10.8156796102
 20
15.7010636754
 30
0.0
 10
10.6870260733
 20
15.7835520814
 30
0.0
 10
10.5561686055
 20
15.8624962116
 30
0.0
 10
10.4232049458
 20
15.9378358489
 30
0.0
 10
10.2882322509
 20
16.009509332
 30
0.0
 10
10.1513480575
 20
16.0774542895
 30
0.0
 10
10.0126514248
 20
16.1416099104
 30
0.0
 10
9.8722421563
 20
16.2019146904
 30
0.0
 10
9.7302217979
 20
16.2583087963
 30
0.0
 10
9.5866930879
 20
16.3107317709
 30
0.0
 10
9.4417598114
 20
16.3591221562
 30
0.0
 10
9.295527548
 20
16.403417726
 30
0.0
 10
9.1481041581
 20
16.4435576055
 30
0.0
 10
8.9996000545
 20
16.4794805369
 30
0.0
 10
8.850127032
 20
16.5111213428
 30
0.0
 10
8.6998003012
 20
16.5384147935
 30
0.0
 10
8.5487413365
 20
16.5613147292
 30
0.0
 10
8.397077331
 20
16.5798020198
 30
0.0
 10
8.2449400299
 20
16.5939017321
 30
0.0
 10
8.0924575893
 20
16.6036374287
 30
0.0
 10
7.9397558857
 20
16.6090296083
 30
0.0
 10
7.7869584247
 20
16.6100985191
 30
0.0
 10
7.6341870315
 20
16.6068727729
 30
0.0
 10
7.4815611206
 20
16.599381361
 30
0.0
 10
7.3291984661
 20
16.5876521338
 30
0.0
 10
7.1772150995
 20
16.5717127269
 30
0.0
 10
7.0257260396
 20
16.5515896913
 30
0.0
 10
6.874845359
 20
16.5273090528
 30
0.0
 10
6.7246859896
 20
16.4988995646
 30
0.0
 10
6.575360137
 20
16.4663896516
 30
0.0
 10
6.4269794658
 20
16.4298082541
 30
0.0
 10
6.2796554249
 20
16.3891839684
 30
0.0
 10
6.133499521
 20
16.344545187
 30
0.0
 10
5.9886236735
 20
16.2959200989
 30
0.0
 10
5.8451405531
 20
16.2433362184
 30
0.0
 10
5.7031639098
 20
16.1868209181
 30
0.0
 10
5.562807257
 20
16.1264046339
 30
0.0
 10
5.42418529
 20
16.0621182414
 30
0.0
 10
5.2874139603
 20
15.993992831
 30
0.0
 10
5.1526109989
 20
15.9220599967
 30
0.0
 10
5.019893515
 20
15.8463559299
 30
0.0
 10
4.8893801176
 20
15.7669183141
 30
0.0
 10
4.7611934813
 20
15.6837819332
 30
0.0
 10
4.6354592092
 20
15.5969832497
 30
0.0
 10
4.5123006944
 20
15.5065665639
 30
0.0
 10
4.3918409171
 20
15.4125823033
 30
0.0
 10
4.2741529435
 20
15.3151461552
 30
0.0
 10
4.1593058329
 20
15.2143718861
 30
0.0
 10
4.0473751927
 20
15.1103621357
 30
0.0
 10
3.9384357864
 20
15.0032171954
 30
0.0
 10
3.8325544308
 20
14.8930431735
 30
0.0
 10
3.7297958897
 20
14.779945024
 30
0.0
 10
3.6302233122
 20
14.6640268717
 30
0.0
 10
3.5338985962
 20
14.5453913953
 30
0.0
 10
3.4408823656
 20
14.4241406637
 30
0.0
 10
3.3512345614
 20
14.3003756486
 30
0.0
 10
3.2650149117
 20
14.1741964444
 30
0.0
 10
3.1822830963
 20
14.0457023118
 30
0.0
 10
3.1030969277
 20
13.9149932221
 30
0.0
 10
3.0275141649
 20
13.7821687708
 30
0.0
 10
2.9555927874
 20
13.6473283453
 30
0.0
 10
2.8873912367
 20
13.5105713404
 30
0.0
 10
2.8229673854
 20
13.3719978529
 30
0.0
 10
2.7623796411
 20
13.2317085144
 30
0.0
 10
2.7056864852
 20
13.0898047743
 30
0.0
 10
2.6529470836
 20
12.9463891672
 30
0.0
 10
2.6042210225
 20
12.8015653802
 30
0.0
 10
2.5595688934
 20
12.6554387479
 30
0.0
 10
2.5190481443
 20
12.5081172731
 30
0.0
 10
2.4827166665
 20
12.3597108125
 30
0.0
 10
2.450628649
 20
12.2103318915
 30
0.0
 10
2.4228378389
 20
12.0600958063
 30
0.0
 10
2.3994085742
 20
11.909118209
 30
0.0
 10
2.3804153799
 20
11.7575178002
 30
0.0
 10
2.3658428725
 20
11.6054271311
 30
0.0
 10
2.3556585599
 20
11.4529767659
 30
0.0
 10
2.3498386532
 20
11.3002939741
 30
0.0
 10
2.3483584042
 20
11.1475032575
 30
0.0
 10
2.3511918489
 20
10.9947272185
 30
0.0
 10
2.3583130681
 20
10.8420864571
 30
0.0
 10
2.3696922615
 20
10.6896997989
 30
0.0
 10
2.3852994188
 20
10.5376840976
 30
0.0
 10
2.405103951
 20
10.3861547665
 30
0.0
 10
2.4290755568
 20
10.2352258084
 30
0.0
 10
2.4571834018
 20
10.0850101576
 30
0.0
 10
2.4893970201
 20
9.9356198595
 30
0.0
 10
2.5256857056
 20
9.787166328
 30
0.0
 10
2.5660190336
 20
9.6397606373
 30
0.0
 10
2.6103675096
 20
9.4935140056
 30
0.0
 10
2.6587022314
 20
9.3485380763
 30
0.0
 10
2.7109914858
 20
9.2049438985
 30
0.0
 10
2.7672033387
 20
9.0628429674
 30
0.0
 10
2.8273059037
 20
8.92234746
 30
0.0
 10
2.8912670893
 20
8.7835706206
 30
0.0
 10
2.9590546918
 20
8.6466268505
 30
0.0
 10
3.030635955
 20
8.511632292
 30
0.0
 10
3.1059771436
 20
8.3787044301
 30
0.0
 10
3.1850443058
 20
8.2479630938
 30
0.0
 10
3.2677934226
 20
8.1195240988
 30
0.0
 10
3.3541772573
 20
7.9935036106
 30
0.0
 10
3.4441582043
 20
7.8700267563
 30
0.0
 10
3.5377031123
 20
7.7492269338
 30
0.0
 10
3.6347337214
 20
7.6312068408
 30
0.0
 10
3.735145992
 20
7.5160467822
 30
0.0
 10
3.8388283773
 20
7.4038176293
 30
0.0
 10
3.9456677711
 20
7.29458407
 30
0.0
 10
4.0555580533
 20
7.188414147
 30
0.0
 10
4.1683952469
 20
7.0853750211
 30
0.0
 10
4.2840735715
 20
6.9855294476
 30
0.0
 10
4.4024882934
 20
6.8889384772
 30
0.0
 10
4.5235360228
 20
6.7956625919
 30
0.0
 10
4.6471147715
 20
6.7057618095
 30
0.0
 10
4.7731213214
 20
6.6192927623
 30
0.0
 10
4.9014532122
 20
6.5363111316
 30
0.0
 10
5.0320089333
 20
6.4568726785
 30
0.0
 10
5.1646875682
 20
6.3810330498
 30
0.0
 10
5.2993889855
 20
6.3088487992
 30
0.0
 10
5.43601322
 20
6.2403771095
 30
0.0
 10
5.5744596085
 20
6.1756744077
 30
0.0
 10
5.714627177
 20
6.1147978058
 30
0.0
 10
5.8564132069
 20
6.057801914
 30
0.0
 10
5.9997141146
 20
6.0047412845
 30
0.0
 10
6.1444258966
 20
5.9556718756
 30
0.0
 10
6.2904431297
 20
5.9106502912
 30
0.0
 10
6.4376594702
 20
5.8697353078
 30
0.0
 10
6.5859667236
 20
5.8329874883
 30
0.0
 10
6.7352529946
 20
5.8004604887
 30
0.0
 10
6.8854039041
 20
5.7722069256
 30
0.0
 10
7.0363034611
 20
5.7482815003
 30
0.0
 10
7.1878330701
 20
5.7287406271
 30
0.0
 10
7.3398690765
 20
5.7136252276
 30
0.0
 10
7.4922828753
 20
5.7029415246
 30
0.0
 10
7.6449443987
 20
5.6966606421
 30
0.0
 10
7.7977268348
 20
5.694747629
 30
0.0
 10
7.9505060173
 20
5.697172641
 30
0.0
 10
8.1031603776
 20
5.7039062931
 30
0.0
 10
8.2555703513
 20
5.7149167383
 30
0.0
 10
8.4076184105
 20
5.7301717287
 30
0.0
 10
8.5591884313
 20
5.7496400852
 30
0.0
 10
8.7101656338
 20
5.7732913481
 30
0.0
 10
8.8604366261
 20
5.8010927788
 30
0.0
 10
9.0098890934
 20
5.8330118402
 30
0.0
 10
9.1584119241
 20
5.8690140838
 30
0.0
 10
9.3058948926
 20
5.9090648839
 30
0.0
 10
9.4522278328
 20
5.9531311181
 30
0.0
 10
9.5973005541
 20
6.0011800175
 30
0.0
 10
9.7410021693
 20
6.0531804105
 30
0.0
 10
9.8832207591
 20
6.1091020556
 30
0.0
 10
10.0238453722
 20
6.1689104765
 30
0.0
 10
10.1627646036
 20
6.2325703995
 30
0.0
 10
10.2998664109
 20
6.3000460391
 30
0.0
 10
10.4350376817
 20
6.371300937
 30
0.0
 10
10.5681634725
 20
6.4462993291
 30
0.0
 10
10.6991267726
 20
6.52500501
 30
0.0
 10
10.8278099037
 20
6.6073792659
 30
0.0
 10
10.9540930529
 20
6.6933820739
 30
0.0
 10
11.0778566124
 20
6.7829692616
 30
0.0
 10
11.1989791039
 20
6.8760947469
 30
0.0
 10
11.3173424438
 20
6.9727037999
 30
0.0
 10
11.4328381323
 20
7.072726217
 30
0.0
 10
11.5453933667
 20
7.1760502502
 30
0.0
 10
11.6549400091
 20
7.2825639484
 30
0.0
 10
11.7614106123
 20
7.3921578934
 30
0.0
 10
11.8647393485
 20
7.5047247835
 30
0.0
 10
11.9648651642
 20
7.6201555995
 30
0.0
 10
12.0617294959
 20
7.7383421734
 30
0.0
 10
12.1552738407
 20
7.8591785525
 30
0.0
 10
12.2454405362
 20
7.9825602104
 30
0.0
 10
12.3321721631
 20
8.1083838718
 30
0.0
 10
12.4154111011
 20
8.2365475762
 30
0.0
 10
12.4951035765
 20
8.3669477211
 30
0.0
 10
12.5711969704
 20
8.4994810453
 30
0.0
 10
12.6436384855
 20
8.6340450467
 30
0.0
 10
12.7123754356
 20
8.7705375301
 30
0.0
 10
12.7773535552
 20
8.9088571415
 30
0.0
 10
12.8385175525
 20
9.0489025081
 30
0.0
 10
12.8958129736
 20
9.1905712926
 30
0.0
 10
12.9477821166
 20
9.3299976828
 30
0.0
 10
12.9795148673
 20
9.4225663833
 30
0.0
 10
12.9941608309
 20
9.4671377318
 30
0.0
  0
ENDSEC
  0
SECTION
  2
OBJECTS
  0
DICTIONARY
  5
C
100
AcDbDictionary
280
0
281
1
  3
ACAD_GROUP
350
D
  3
ACAD_MLINESTYLE
350
17
  3
ACAD_LAYOUT
350
1A
  3
ACAD_PLOTSETTINGS
350
19
  3
ACAD_PLOTSTYLENAME
350
E
  0
DICTIONARY
  5
D
102
{ACAD_REACTORS
330
C
102
}
100
AcDbDictionary
280
0
281
1
  0
ACDBDICTIONARYWDFLT
  5
E
102
{ACAD_REACTORS
330
C
102
}
100
AcDbDictionary
281
1
  3
Normal
350
F
100
AcDbDictionaryWithDefault
340
F
  0
DICTIONARY
  5
17
102
{ACAD_REACTORS
330
C
102
}
100
AcDbDictionary
280
0
281
1
  3
Standard
350
18
  0
DICTIONARY
  5
19
102
{ACAD_REACTORS
330
C
102
}
100
AcDbDictionary
281
1
  0
DICTIONARY
  5
1A
102
{ACAD_REACTORS
330
C
102
}
100
AcDbDictionary
281
1
  3
Model
350
2AE
  3
Layout1
350
2AF
  0
ACDBPLACEHOLDER
  5
F
102
{ACAD_REACTORS
330
E
102
}
  0
MLINESTYLE
  5
18
102
{ACAD_REACTORS
330
17
102
}
100
AcDbMlineStyle
  2
STANDARD
 70
0
  3

 62
256
 51
90.0
 52
90.0
 71
2
 49
0.5
 62
256
  6
BYLAYER
 49
-0.5
 62
256
  6
BYLAYER
  0
LAYOUT
  5
2AE
102
{ACAD_REACTORS
330
1A
102
}
100
AcDbPlotSettings
  1

  2
none_device
  4

  6

 40
0.0
 41
0.0
 42
0.0
 43
0.0
 44
210.0
 45
297.0
 46
0.0
 47
0.0
 48
0.0
 49
0.0
140
0.0
141
0.0
142
1.0
143
1.0
 70
1024
 72
1
 73
0
 74
0
  7

 75
0
147
1.0
148
0.0
149
0.0
100
AcDbLayout
  1
Model
 70
0
 71
0
 10
0.0
 20
0.0
 11
210.0
 21
297.0
 12
0.0
 22
0.0
 32
0.0
 14
0.0
 24
0.0
 34
0.0
 15
0.0
 25
0.0
 35
0.0
146
0.0
 13
0.0
 23
0.0
 33
0.0
 16
1.0
 26
0.0
 36
0.0
 17
0.0
 27
1.0
 37
0.0
 76
0
330
210
345
0
346
0
  0
LAYOUT
  5
2AF
102
{ACAD_REACTORS
330
1A
102
}
100
AcDbPlotSettings
  1

  2
none_device
  4

  6

 40
0.0
 41
0.0
 42
0.0
 43
0.0
 44
210.0
 45
297.0
 46
0.0
 47
0.0
 48
0.0
 49
0.0
140
0.0
141
0.0
142
1.0
143
1.0
 70
0
 72
1
 73
0
 74
0
  7

 75
0
147
1.0
148
0.0
149
0.0
100
AcDbLayout
  1
Layout1
 70
0
 71
1
 10
0.0
 20
0.0
 11
210.0
 21
297.0
 12
0.0
 22
0.0
 32
0.0
 14
0.0
 24
0.0
 34
0.0
 15
0.0
 25
0.0
 35
0.0
146
0.0
 13
0.0
 23
0.0
 33
0.0
 16
1.0
 26
0.0
 36
0.0
 17
0.0
 27
1.0
 37
0.0
 76
0
330
211
345
0
346
0
  0
ENDSEC
  0
EOF
