999
DXF file: C:\Users\sesa63760\Dev\_Creo\CAD\MCADUE0001366_3D-CAD\drw0001_3.dxf
999
Pro/ENGINEER 2019471 by Parametric Technology Corporation
  0
SECTION
  2
HEADER
  9
$ACADVER
  1
AC1024
  9
$DWGCODEPAGE
  3
ANSI_1252
  9
$EXTMAX
 10
758.4377693787
 20
1072.647702407
 30
0.0
  9
$EXTMIN
 10
0.0
 20
0.0
 30
0.0
  9
$LIMMIN
 10
0.0
 20
0.0
  9
$LIMMAX
 10
758.4377693787
 20
1072.647702407
  9
$VIEWCTR
 10
379.2188846893
 20
536.3238512035
  9
$VIEWSIZE
 40
1072.647702407
  9
$CLAYER
  8
0
  9
$LTSCALE
 40
69.9207391199
  9
$CELTYPE
  6
BYLAYER
  9
$DIMSCALE
 40
1.0
  9
$DIMASZ
 40
9.029021064
  9
$DIMEXO
 40
1.0
  9
$DIMDLI
 40
48.308874301
  9
$DIMEXE
 40
1.0
  9
$DIMCEN
 40
11.4415754923
  9
$DIMLFAC
 40
1.0
  9
$DIMBLK
  1
_FILLED
  9
$DIMALT
 70
0
  9
$DIMALTF
 40
0.0393700787
  9
$DIMTXT
 40
12.6406294896
  9
$DIMTOL
 70
1
  9
$DIMLIM
 70
0
  9
$DIMTFAC
 40
1.0
  9
$DIMTP
 40
0.01
  9
$DIMTM
 40
0.01
  9
$DIMGAP
 40
0.625
  9
$DIMDSEP
 70
46
  9
$AUNITS
 70
0
  9
$PDMODE
 70
3
  9
$PDSIZE
 40
0.3125
  9
$HANDSEED
  5
29A
  9
$TILEMODE
 70
1
  9
$MEASUREMENT
 70
1
  9
$INSUNITS
 70
4
  0
ENDSEC
  0
SECTION
  2
CLASSES
  0
CLASS
  1
ACDBDICTIONARYWDFLT
  2
AcDbDictionaryWithDefault
  3
AutoCAD 2000
 90
0
 91
1
280
0
281
0
  0
CLASS
  1
ACDBPLACEHOLDER
  2
AcDbPlaceHolder
  3
AutoCAD 2000
 90
0
 91
1
280
0
281
0
  0
CLASS
  1
LAYOUT
  2
AcDbLayout
  3
AutoCAD 2000
 90
0
 91
0
280
0
281
0
  0
ENDSEC
  0
SECTION
  2
TABLES
  0
TABLE
  2
VPORT
  5
8
100
AcDbSymbolTable
 70
2
  0
VPORT
  5
1F4
100
AcDbSymbolTableRecord
100
AcDbViewportTableRecord
  2
*ACTIVE
 70
0
 10
0.0
 20
0.0
 11
1.0
 21
1.0
 12
379.2188846893
 22
536.3238512035
 13
0.0
 23
0.0
 14
1.0
 24
1.0
 15
0.0
 25
0.0
 16
0.0
 26
0.0
 36
1.0
 17
0.0
 27
0.0
 37
0.0
 40
1072.647702407
 41
0.7070707071
 42
50.0
 43
0.0
 44
0.0
 50
0.0
 51
0.0
 71
0
 72
100
 73
1
 74
1
 75
0
 76
0
 77
0
 78
0
  0
ENDTAB
  0
TABLE
  2
LTYPE
  5
5
100
AcDbSymbolTable
 70
6
  0
LTYPE
  5
14
100
AcDbSymbolTableRecord
100
AcDbLinetypeTableRecord
  2
BYBLOCK
 70
0
  3

 72
65
 73
0
 40
0.0
  0
LTYPE
  5
15
100
AcDbSymbolTableRecord
100
AcDbLinetypeTableRecord
  2
BYLAYER
 70
0
  3

 72
65
 73
0
 40
0.0
  0
LTYPE
  5
16
100
AcDbSymbolTableRecord
100
AcDbLinetypeTableRecord
  2
CONTINUOUS
 70
64
  3
Solid line
 72
65
 73
0
 40
0.0
  0
LTYPE
  5
1F5
100
AcDbSymbolTableRecord
100
AcDbLinetypeTableRecord
  2
CENTER
 70
64
  3
____ _ ____ _ ____ _ ____ _ ____ _ ____ _ ____
 72
65
 73
4
 40
0.6
 49
0.375
 74
0
 49
-0.075
 74
0
 49
0.075
 74
0
 49
-0.075
 74
0
  0
LTYPE
  5
1F6
100
AcDbSymbolTableRecord
100
AcDbLinetypeTableRecord
  2
HIDDEN
 70
64
  3
- - - - - - - - - - - - - - - - - - - -
 72
65
 73
2
 40
0.2
 49
0.1
 74
0
 49
-0.1
 74
0
  0
LTYPE
  5
1F7
100
AcDbSymbolTableRecord
100
AcDbLinetypeTableRecord
  2
PHANTOM
 70
64
  3
_____ _ _ _____ _ _ _____ _ _ _____
 72
65
 73
6
 40
0.8
 49
0.45
 74
0
 49
-0.05
 74
0
 49
0.1
 74
0
 49
-0.05
 74
0
 49
0.1
 74
0
 49
-0.05
 74
0
  0
LTYPE
  5
1F8
100
AcDbSymbolTableRecord
100
AcDbLinetypeTableRecord
  2
DOT
 70
64
  3
. . . . . . . . . . . . . . . . . . . .
 72
65
 73
2
 40
0.2
 49
0.1
 74
0
 49
-0.1
 74
0
  0
LTYPE
  5
1F9
100
AcDbSymbolTableRecord
100
AcDbLinetypeTableRecord
  2
DASHED
 70
64
  3
- - - - - - - - - - - - - - - - - - - -
 72
65
 73
2
 40
0.2
 49
0.1
 74
0
 49
-0.1
 74
0
  0
ENDTAB
  0
TABLE
  2
LAYER
  5
2
100
AcDbSymbolTable
 70
36
  0
LAYER
  5
10
100
AcDbSymbolTableRecord
100
AcDbLayerTableRecord
  2
0
 70
0
 62
7
  6
CONTINUOUS
370
-3
390
F
  0
LAYER
  5
1FA
100
AcDbSymbolTableRecord
100
AcDbLayerTableRecord
  2
DEFAULT_1
 70
0
 62
7
  6
CENTER
370
-3
390
F
  0
LAYER
  5
1FB
100
AcDbSymbolTableRecord
100
AcDbLayerTableRecord
  2
DEFAULT_2
 70
0
 62
8
  6
HIDDEN
370
-3
390
F
  0
LAYER
  5
1FC
100
AcDbSymbolTableRecord
100
AcDbLayerTableRecord
  2
DEFAULT_3
 70
0
 62
7
  6
PHANTOM
370
-3
390
F
  0
LAYER
  5
1FD
100
AcDbSymbolTableRecord
100
AcDbLayerTableRecord
  2
00_COMPONENTS
 70
0
 62
7
  6
CONTINUOUS
370
-3
390
F
  0
LAYER
  5
1FE
100
AcDbSymbolTableRecord
100
AcDbLayerTableRecord
  2
01_1_DEFAULT_DATUMS
 70
0
 62
7
  6
CONTINUOUS
370
-3
390
F
  0
LAYER
  5
1FF
100
AcDbSymbolTableRecord
100
AcDbLayerTableRecord
  2
01_PLANES
 70
0
 62
7
  6
CONTINUOUS
370
-3
390
F
  0
LAYER
  5
200
100
AcDbSymbolTableRecord
100
AcDbLayerTableRecord
  2
02_COORD_SYS
 70
0
 62
7
  6
CONTINUOUS
370
-3
390
F
  0
LAYER
  5
201
100
AcDbSymbolTableRecord
100
AcDbLayerTableRecord
  2
03_AXES
 70
0
 62
7
  6
CONTINUOUS
370
-3
390
F
  0
LAYER
  5
202
100
AcDbSymbolTableRecord
100
AcDbLayerTableRecord
  2
04_POINTS
 70
0
 62
7
  6
CONTINUOUS
370
-3
390
F
  0
LAYER
  5
203
100
AcDbSymbolTableRecord
100
AcDbLayerTableRecord
  2
05_CURVES
 70
0
 62
7
  6
CONTINUOUS
370
-3
390
F
  0
LAYER
  5
204
100
AcDbSymbolTableRecord
100
AcDbLayerTableRecord
  2
06_SURFS
 70
0
 62
7
  6
CONTINUOUS
370
-3
390
F
  0
LAYER
  5
205
100
AcDbSymbolTableRecord
100
AcDbLayerTableRecord
  2
07_COSMETICS
 70
0
 62
7
  6
CONTINUOUS
370
-3
390
F
  0
LAYER
  5
206
100
AcDbSymbolTableRecord
100
AcDbLayerTableRecord
  2
10_NOTES
 70
0
 62
7
  6
CONTINUOUS
370
-3
390
F
  0
LAYER
  5
207
100
AcDbSymbolTableRecord
100
AcDbLayerTableRecord
  2
11_NOTES_PUB
 70
0
 62
7
  6
CONTINUOUS
370
-3
390
F
  0
LAYER
  5
208
100
AcDbSymbolTableRecord
100
AcDbLayerTableRecord
  2
13_REF_GTOL
 70
0
 62
7
  6
CONTINUOUS
370
-3
390
F
  0
LAYER
  5
209
100
AcDbSymbolTableRecord
100
AcDbLayerTableRecord
  2
16_MISC
 70
0
 62
7
  6
CONTINUOUS
370
-3
390
F
  0
LAYER
  5
20A
100
AcDbSymbolTableRecord
100
AcDbLayerTableRecord
  2
17_NO_PRINT
 70
0
 62
7
  6
CONTINUOUS
370
-3
390
F
  0
LAYER
  5
20B
100
AcDbSymbolTableRecord
100
AcDbLayerTableRecord
  2
18_DATUM_CAMS_JOINTS
 70
0
 62
7
  6
CONTINUOUS
370
-3
390
F
  0
LAYER
  5
20C
100
AcDbSymbolTableRecord
100
AcDbLayerTableRecord
  2
19_DATUM_FUNCTIONAL
 70
0
 62
7
  6
CONTINUOUS
370
-3
390
F
  0
LAYER
  5
20D
100
AcDbSymbolTableRecord
100
AcDbLayerTableRecord
  2
20_DATUM_KINEMATIC_SCHEME
 70
0
 62
7
  6
CONTINUOUS
370
-3
390
F
  0
ENDTAB
  0
TABLE
  2
STYLE
  5
3
100
AcDbSymbolTable
 70
1
  0
STYLE
  5
11
100
AcDbSymbolTableRecord
100
AcDbTextStyleTableRecord
  2
STANDARD
 70
0
 40
0.0
 41
0.8
 50
0.0
 71
0
 42
0.2
  3
txt
  4

  0
STYLE
  5
20E
100
AcDbSymbolTableRecord
100
AcDbTextStyleTableRecord
  2
TEXTSTYLE_1
 70
0
 40
0.0
 41
0.8
 50
0.0
 71
0
 42
0.2
  3
gdt
  4

  0
ENDTAB
  0
TABLE
  2
VIEW
  5
6
100
AcDbSymbolTable
 70
0
  0
ENDTAB
  0
TABLE
  2
UCS
  5
7
100
AcDbSymbolTable
 70
0
  0
ENDTAB
  0
TABLE
  2
APPID
  5
9
100
AcDbSymbolTable
 70
1
  0
APPID
  5
20F
100
AcDbSymbolTableRecord
100
AcDbRegAppTableRecord
  2
ACAD
 70
0
  0
ENDTAB
  0
TABLE
  2
BLOCK_RECORD
  5
1
100
AcDbSymbolTable
 70
0
  0
BLOCK_RECORD
  5
210
100
AcDbSymbolTableRecord
100
AcDbBlockTableRecord
  2
*Model_Space
  0
BLOCK_RECORD
  5
211
100
AcDbSymbolTableRecord
100
AcDbBlockTableRecord
  2
*Paper_Space
  0
BLOCK_RECORD
  5
212
100
AcDbSymbolTableRecord
100
AcDbBlockTableRecord
  2
_FILLED
  0
ENDTAB
  0
TABLE
  2
DIMSTYLE
  5
A
100
AcDbSymbolTable
 70
1
100
AcDbDimStyleTable
 71
0
  0
DIMSTYLE
105
213
100
AcDbSymbolTableRecord
100
AcDbDimStyleTableRecord
  2
STANDARD
 70
0
  3

  4

 40
1.0
 41
9.029021064
 42
1.0
 43
0.38
 44
1.0
 45
0.0
 46
0.0
 47
0.01
 48
0.01
140
12.6406294896
141
0.09
142
0.0
143
25.4
144
1.0
145
0.0
146
1.0
147
0.625
 71
1
 72
0
 73
0
 74
0
 75
0
 76
0
 77
1
 78
8
 79
2
170
0
171
1
172
0
173
0
174
0
175
0
176
0
177
0
178
0
270
2
179
2
271
2
272
2
273
2
274
2
275
0
280
0
281
0
282
0
283
1
284
8
285
0
286
0
287
3
288
0
340
11
278
46
341
212
342
212
343
212
344
212
  0
ENDTAB
  0
ENDSEC
  0
SECTION
  2
BLOCKS
  0
BLOCK
  5
20
100
AcDbEntity
  8
0
100
AcDbBlockBegin
  2
*Model_Space
 70
0
 10
0.0
 20
0.0
 30
0.0
  3
*Model_Space
  1

  0
ENDBLK
  5
21
100
AcDbEntity
  8
0
100
AcDbBlockEnd
  0
BLOCK
  5
1C
100
AcDbEntity
  8
0
100
AcDbBlockBegin
  2
*Paper_Space
 70
0
 10
0.0
 20
0.0
 30
0.0
  3
*Paper_Space
  1

  0
ENDBLK
  5
1D
100
AcDbEntity
  8
0
100
AcDbBlockEnd
  0
BLOCK
  5
214
100
AcDbEntity
  8
0
100
AcDbBlockBegin
  2
_FILLED
 70
64
 10
0.0
 20
0.0
  3
_FILLED
  1

  0
SOLID
  5
215
100
AcDbEntity
  8
0
  6
BYBLOCK
 62
0
100
AcDbTrace
 10
0.0
 20
0.0
 11
-1.0
 21
0.25
 12
-1.0
 22
-0.25
 13
-1.0
 23
-0.25
  0
ENDBLK
  5
216
100
AcDbEntity
  8
0
  6
BYBLOCK
 62
0
100
AcDbBlockEnd
  0
ENDSEC
  0
SECTION
  2
ENTITIES
  0
LINE
  5
217
100
AcDbEntity
  8
0
100
AcDbLine
 62
7
  6
CONTINUOUS
 10
89.7221669651
 20
412.3291212401
 11
89.7221669651
 21
638.3291212401
  0
LINE
  5
218
100
AcDbEntity
  8
0
100
AcDbLine
 62
7
  6
CONTINUOUS
 10
90.7221669651
 20
412.3291212401
 11
90.7221669651
 21
638.3291212401
  0
LINE
  5
219
100
AcDbEntity
  8
0
100
AcDbLine
 62
7
  6
CONTINUOUS
 10
92.2221669651
 20
659.8291212401
 11
92.2221669651
 21
645.8291212401
  0
LINE
  5
21A
100
AcDbEntity
  8
0
100
AcDbLine
 62
7
  6
CONTINUOUS
 10
93.7221669651
 20
659.8291212401
 11
93.7221669651
 21
645.8291212401
  0
LINE
  5
21B
100
AcDbEntity
  8
0
100
AcDbLine
 62
7
  6
CONTINUOUS
 10
95.5221669651
 20
640.3291212401
 11
95.5221669651
 21
640.5291212401
  0
LINE
  5
21C
100
AcDbEntity
  8
0
100
AcDbLine
 62
7
  6
CONTINUOUS
 10
106.5221669651
 20
640.3291212401
 11
106.5221669651
 21
640.5291212401
  0
LINE
  5
21D
100
AcDbEntity
  8
0
100
AcDbLine
 62
7
  6
CONTINUOUS
 10
110.0221669651
 20
641.3291212401
 11
110.0221669651
 21
645.8291212401
  0
LINE
  5
21E
100
AcDbEntity
  8
0
100
AcDbLine
 62
7
  6
CONTINUOUS
 10
111.0221669651
 20
641.3291212401
 11
111.0221669651
 21
645.8291212401
  0
LINE
  5
21F
100
AcDbEntity
  8
0
100
AcDbLine
 62
7
  6
CONTINUOUS
 10
121.7221669651
 20
667.5607980671
 11
121.7221669651
 21
667.4528506844
  0
LINE
  5
220
100
AcDbEntity
  8
0
100
AcDbLine
 62
7
  6
CONTINUOUS
 10
121.9221669651
 20
667.485830165
 11
121.9221669651
 21
667.5694366885
  0
LINE
  5
221
100
AcDbEntity
  8
0
100
AcDbLine
 62
7
  6
CONTINUOUS
 10
118.2612326815
 20
664.1980868266
 11
118.1959669651
 21
662.3291212401
  0
LINE
  5
222
100
AcDbEntity
  8
0
100
AcDbLine
 62
7
  6
CONTINUOUS
 10
146.0831012486
 20
664.1980868266
 11
146.1483669651
 21
662.3291212401
  0
LINE
  5
223
100
AcDbEntity
  8
0
100
AcDbLine
 62
7
  6
CONTINUOUS
 10
142.4221669651
 20
667.4858331119
 11
142.4221669651
 21
667.5694366884
  0
LINE
  5
224
100
AcDbEntity
  8
0
100
AcDbLine
 62
7
  6
CONTINUOUS
 10
142.6221669651
 20
667.4528506844
 11
142.6221669651
 21
667.5607980671
  0
LINE
  5
225
100
AcDbEntity
  8
0
100
AcDbLine
 62
7
  6
CONTINUOUS
 10
95.5221669651
 20
640.5291212401
 11
96.9916102672
 21
641.3779781192
  0
LINE
  5
226
100
AcDbEntity
  8
0
100
AcDbLine
 62
7
  6
CONTINUOUS
 10
91.7221669651
 20
410.3291212401
 11
687.7221669651
 21
410.3291212401
  0
LINE
  5
227
100
AcDbEntity
  8
0
100
AcDbLine
 62
7
  6
CONTINUOUS
 10
689.7221669651
 20
412.3291212401
 11
89.7221669651
 21
412.3291212401
  0
LINE
  5
228
100
AcDbEntity
  8
0
100
AcDbLine
 62
7
  6
CONTINUOUS
 10
106.5221669651
 20
640.5291212401
 11
105.0527236629
 21
641.3779781192
  0
LINE
  5
229
100
AcDbEntity
  8
0
100
AcDbLine
 62
7
  6
CONTINUOUS
 10
674.8655118893
 20
642.6188291657
 11
673.3539462884
 21
641.8291212401
  0
LINE
  5
22A
100
AcDbEntity
  8
0
100
AcDbLine
 62
7
  6
CONTINUOUS
 10
674.8655118893
 20
642.6188291657
 11
675.7221669651
 21
642.8291212401
  0
LINE
  5
22B
100
AcDbEntity
  8
0
100
AcDbLine
 62
7
  6
CONTINUOUS
 10
89.7221669651
 20
638.3291212401
 11
689.7221669651
 21
638.3291212401
  0
LINE
  5
22C
100
AcDbEntity
  8
0
100
AcDbLine
 62
7
  6
CONTINUOUS
 10
687.7221669651
 20
640.3291212401
 11
91.7221669651
 21
640.3291212401
  0
LINE
  5
22D
100
AcDbEntity
  8
0
100
AcDbLine
 62
7
  6
CONTINUOUS
 10
95.5221669651
 20
640.5291212401
 11
106.5221669651
 21
640.5291212401
  0
LINE
  5
22E
100
AcDbEntity
  8
0
100
AcDbLine
 62
7
  6
CONTINUOUS
 10
669.4221669651
 20
641.3291212401
 11
110.0221669651
 21
641.3291212401
  0
LINE
  5
22F
100
AcDbEntity
  8
0
100
AcDbLine
 62
7
  6
CONTINUOUS
 10
96.9916102672
 20
641.3779781192
 11
105.0527236629
 21
641.3779781192
  0
LINE
  5
230
100
AcDbEntity
  8
0
100
AcDbLine
 62
7
  6
CONTINUOUS
 10
97.7419240733
 20
641.5791212401
 11
104.3024098568
 21
641.5791212401
  0
LINE
  5
231
100
AcDbEntity
  8
0
100
AcDbLine
 62
7
  6
CONTINUOUS
 10
674.4539125847
 20
641.8291212401
 11
672.2221669651
 21
641.8291212401
  0
LINE
  5
232
100
AcDbEntity
  8
0
100
AcDbLine
 62
7
  6
CONTINUOUS
 10
676.9904213454
 20
641.8291212401
 11
686.2221669651
 21
641.8291212401
  0
LINE
  5
233
100
AcDbEntity
  8
0
100
AcDbLine
 62
7
  6
CONTINUOUS
 10
683.1987380786
 20
642.5291212401
 11
676.7505303522
 21
642.5291212401
  0
LINE
  5
234
100
AcDbEntity
  8
0
100
AcDbLine
 62
7
  6
CONTINUOUS
 10
674.6938035779
 20
642.5291212401
 11
673.6455958516
 21
642.5291212401
  0
LINE
  5
235
100
AcDbEntity
  8
0
100
AcDbLine
 62
7
  6
CONTINUOUS
 10
674.8655118893
 20
642.6188291657
 11
676.5788220409
 21
642.6188291657
  0
LINE
  5
236
100
AcDbEntity
  8
0
100
AcDbLine
 62
7
  6
CONTINUOUS
 10
673.8973257409
 20
642.8291212401
 11
682.9470081892
 21
642.8291212401
  0
LINE
  5
237
100
AcDbEntity
  8
0
100
AcDbLine
 62
7
  6
CONTINUOUS
 10
92.2221669651
 20
645.8291212401
 11
687.2221669651
 21
645.8291212401
  0
LINE
  5
238
100
AcDbEntity
  8
0
100
AcDbLine
 62
7
  6
CONTINUOUS
 10
92.2221669651
 20
659.8291212401
 11
687.2221669651
 21
659.8291212401
  0
LINE
  5
239
100
AcDbEntity
  8
0
100
AcDbLine
 62
7
  6
CONTINUOUS
 10
684.7221669651
 20
662.3291212401
 11
94.7221669651
 21
662.3291212401
  0
LINE
  5
23A
100
AcDbEntity
  8
0
100
AcDbLine
 62
7
  6
CONTINUOUS
 10
122.0212194985
 20
663.0616621699
 11
142.3231147122
 21
663.0616621699
  0
LINE
  5
23B
100
AcDbEntity
  8
0
100
AcDbLine
 62
7
  6
CONTINUOUS
 10
142.2536304208
 20
663.710203177
 11
122.0907081212
 21
663.710203177
  0
LINE
  5
23C
100
AcDbEntity
  8
0
100
AcDbLine
 62
7
  6
CONTINUOUS
 10
118.2612326869
 20
664.1980869821
 11
119.4469142941
 21
664.1980869821
  0
LINE
  5
23D
100
AcDbEntity
  8
0
100
AcDbLine
 62
7
  6
CONTINUOUS
 10
144.897419636
 20
664.1980869821
 11
146.0831012432
 21
664.1980869821
  0
LINE
  5
23E
100
AcDbEntity
  8
0
100
AcDbLine
 62
7
  6
CONTINUOUS
 10
141.6721669651
 20
667.5701962401
 11
142.3674393046
 21
667.5701962401
  0
LINE
  5
23F
100
AcDbEntity
  8
0
100
AcDbLine
 62
7
  6
CONTINUOUS
 10
121.9768946255
 20
667.5701962401
 11
141.6652463553
 21
667.5701962401
  0
LINE
  5
240
100
AcDbEntity
  8
0
100
AcDbLine
 62
7
  6
CONTINUOUS
 10
673.8973257409
 20
642.8291212401
 11
673.6455958516
 21
642.5291212401
  0
LINE
  5
241
100
AcDbEntity
  8
0
100
AcDbLine
 62
7
  6
CONTINUOUS
 10
676.5788220409
 20
642.6188291657
 11
675.7221669651
 21
642.8291212401
  0
LINE
  5
242
100
AcDbEntity
  8
0
100
AcDbLine
 62
7
  6
CONTINUOUS
 10
676.5788220409
 20
642.6188291657
 11
678.0903876417
 21
641.8291212401
  0
LINE
  5
243
100
AcDbEntity
  8
0
100
AcDbLine
 62
7
  6
CONTINUOUS
 10
673.6455958516
 20
642.5291212401
 11
673.5392360262
 21
641.9259246964
  0
LINE
  5
244
100
AcDbEntity
  8
0
100
AcDbLine
 62
7
  6
CONTINUOUS
 10
668.4221669651
 20
641.3291212401
 11
668.4221669651
 21
645.8291212401
  0
LINE
  5
245
100
AcDbEntity
  8
0
100
AcDbLine
 62
7
  6
CONTINUOUS
 10
669.4221669651
 20
641.3291212401
 11
669.4221669651
 21
645.8291212401
  0
LINE
  5
246
100
AcDbEntity
  8
0
100
AcDbLine
 62
7
  6
CONTINUOUS
 10
669.7221669651
 20
642.8291212401
 11
669.7221669651
 21
645.8291212401
  0
LINE
  5
247
100
AcDbEntity
  8
0
100
AcDbLine
 62
7
  6
CONTINUOUS
 10
671.2221669651
 20
642.8291212401
 11
671.2221669651
 21
645.8291212401
  0
LINE
  5
248
100
AcDbEntity
  8
0
100
AcDbLine
 62
7
  6
CONTINUOUS
 10
681.2221669651
 20
641.8291212401
 11
681.2221669651
 21
640.3291212401
  0
LINE
  5
249
100
AcDbEntity
  8
0
100
AcDbLine
 62
7
  6
CONTINUOUS
 10
685.7221669651
 20
659.8291212401
 11
685.7221669651
 21
645.8291212401
  0
LINE
  5
24A
100
AcDbEntity
  8
0
100
AcDbLine
 62
7
  6
CONTINUOUS
 10
686.2221669651
 20
641.8291212401
 11
686.2221669651
 21
640.3291212401
  0
LINE
  5
24B
100
AcDbEntity
  8
0
100
AcDbLine
 62
7
  6
CONTINUOUS
 10
687.2221669651
 20
659.8291212401
 11
687.2221669651
 21
645.8291212401
  0
LINE
  5
24C
100
AcDbEntity
  8
0
100
AcDbLine
 62
7
  6
CONTINUOUS
 10
688.7221669651
 20
412.3291212401
 11
688.7221669651
 21
638.3291212401
  0
LINE
  5
24D
100
AcDbEntity
  8
0
100
AcDbLine
 62
7
  6
CONTINUOUS
 10
689.7221669651
 20
412.3291212401
 11
689.7221669651
 21
638.3291212401
  0
LINE
  5
24E
100
AcDbEntity
  8
0
100
AcDbLine
 62
7
  6
CONTINUOUS
 10
682.9470081892
 20
642.8291212401
 11
683.1987380786
 21
642.5291212401
  0
LINE
  5
24F
100
AcDbEntity
  8
0
100
AcDbLine
 62
7
  6
CONTINUOUS
 10
683.1987380786
 20
642.5291212401
 11
683.3221669651
 21
641.8291212401
  0
ARC
  5
250
100
AcDbEntity
  8
0
100
AcDbCircle
 62
7
  6
CONTINUOUS
 10
91.7221669651
 20
412.3291212401
 40
2.0
100
AcDbArc
 50
180.0
 51
270.0
  0
ARC
  5
251
100
AcDbEntity
  8
0
100
AcDbCircle
 62
7
  6
CONTINUOUS
 10
186.5419609797
 20
636.2914622405
 40
95.7576918692
100
AcDbArc
 50
165.4337927306
 51
165.7706256083
  0
ARC
  5
252
100
AcDbEntity
  8
0
100
AcDbCircle
 62
7
  6
CONTINUOUS
 10
123.5514135697
 20
659.1027797321
 40
8.539915605
100
AcDbArc
 50
100.5934705365
 51
101.0028420772
  0
ARC
  5
253
100
AcDbEntity
  8
0
100
AcDbCircle
 62
7
  6
CONTINUOUS
 10
140.795791406
 20
659.1176382249
 40
8.5247828036
100
AcDbArc
 50
78.9979049535
 51
79.4061677276
  0
ARC
  5
254
100
AcDbEntity
  8
0
100
AcDbCircle
 62
7
  6
CONTINUOUS
 10
122.7120708487
 20
663.9784037799
 40
3.5917924674
100
AcDbArc
 50
90.003605977
 51
97.8393154546
  0
ARC
  5
255
100
AcDbEntity
  8
0
100
AcDbCircle
 62
7
  6
CONTINUOUS
 10
141.6322733844
 20
663.9785423865
 40
3.5916538613
100
AcDbArc
 50
82.1605460239
 51
89.9962557483
  0
ARC
  5
256
100
AcDbEntity
  8
0
100
AcDbCircle
 62
7
  6
CONTINUOUS
 10
122.6790890724
 20
663.9846608777
 40
3.5855355533
100
AcDbArc
 50
89.9999713377
 51
94.1090594162
  0
ARC
  5
257
100
AcDbEntity
  8
0
100
AcDbCircle
 62
7
  6
CONTINUOUS
 10
141.6652448578
 20
663.9846608829
 40
3.5855355481
100
AcDbArc
 50
85.8909405796
 51
90.0000286647
  0
ARC
  5
258
100
AcDbEntity
  8
0
100
AcDbCircle
 62
7
  6
CONTINUOUS
 10
142.5911797295
 20
664.0761462401
 40
3.49405
100
AcDbArc
 50
2.0000025522
 51
90.0
  0
ARC
  5
259
100
AcDbEntity
  8
0
100
AcDbCircle
 62
7
  6
CONTINUOUS
 10
121.7531542006
 20
664.0761462401
 40
3.49405
100
AcDbArc
 50
90.0
 51
177.9999974478
  0
ARC
  5
25A
100
AcDbEntity
  8
0
100
AcDbCircle
 62
7
  6
CONTINUOUS
 10
121.9460242302
 20
664.5403225627
 40
3.029867193
100
AcDbArc
 50
90.5276711444
 51
92.254137776
  0
ARC
  5
25B
100
AcDbEntity
  8
0
100
AcDbCircle
 62
7
  6
CONTINUOUS
 10
142.3997136239
 20
664.601814254
 40
2.9683655802
100
AcDbArc
 50
87.7209533753
 51
89.5145832537
  0
ARC
  5
25C
100
AcDbEntity
  8
0
100
AcDbCircle
 62
7
  6
CONTINUOUS
 10
94.7221669651
 20
659.8291212401
 40
2.5
100
AcDbArc
 50
90.0
 51
180.0
  0
ARC
  5
25D
100
AcDbEntity
  8
0
100
AcDbCircle
 62
7
  6
CONTINUOUS
 10
91.7221669651
 20
638.3291212401
 40
2.0
100
AcDbArc
 50
90.0
 51
180.0
  0
ARC
  5
25E
100
AcDbEntity
  8
0
100
AcDbCircle
 62
7
  6
CONTINUOUS
 10
97.7419240733
 20
640.0791212401
 40
1.5
100
AcDbArc
 50
90.0
 51
120.0138417934
  0
ARC
  5
25F
100
AcDbEntity
  8
0
100
AcDbCircle
 62
7
  6
CONTINUOUS
 10
104.3024098568
 20
640.0791212401
 40
1.5
100
AcDbArc
 50
59.9861582066
 51
90.0
  0
ARC
  5
260
100
AcDbEntity
  8
0
100
AcDbCircle
 62
7
  6
CONTINUOUS
 10
687.7221669651
 20
412.3291212401
 40
2.0
100
AcDbArc
 50
270.0
 51
360.0
  0
ARC
  5
261
100
AcDbEntity
  8
0
100
AcDbCircle
 62
7
  6
CONTINUOUS
 10
592.9011523902
 20
636.2911501227
 40
95.7589517018
100
AcDbArc
 50
14.2293759012
 51
14.5662001913
  0
ARC
  5
262
100
AcDbEntity
  8
0
100
AcDbCircle
 62
7
  6
CONTINUOUS
 10
672.2221669651
 20
642.8291212401
 40
2.5
100
AcDbArc
 50
180.0
 51
234.2913958261
  0
ARC
  5
263
100
AcDbEntity
  8
0
100
AcDbCircle
 62
7
  6
CONTINUOUS
 10
684.7221669651
 20
659.8291212401
 40
2.5
100
AcDbArc
 50
0.0
 51
90.0
  0
ARC
  5
264
100
AcDbEntity
  8
0
100
AcDbCircle
 62
7
  6
CONTINUOUS
 10
687.7221669651
 20
638.3291212401
 40
2.0
100
AcDbArc
 50
0.0
 51
90.0
  0
ARC
  5
265
100
AcDbEntity
  8
0
100
AcDbCircle
 62
7
  6
CONTINUOUS
 10
672.2221669651
 20
642.8291212401
 40
1.0
100
AcDbArc
 50
180.0
 51
270.0
  0
ARC
  5
266
100
AcDbEntity
  8
0
100
AcDbCircle
 62
7
  6
CONTINUOUS
 10
670.4221669651
 20
641.3291212401
 40
1.0
100
AcDbArc
 50
180.0
 51
270.0
  0
SPLINE
  5
267
100
AcDbEntity
  8
0
100
AcDbSpline
 62
7
  6
CONTINUOUS
 70
0
 71
3
 72
9
 73
5
 74
0
 42
0.0000001
 43
0.0000001
 44
0.0000000001
 40
0.0
 40
0.0
 40
0.0
 40
0.0
 40
0.5000925473
 40
1.0
 40
1.0
 40
1.0
 40
1.0
 10
676.9904213454
 20
641.8291212401
 30
0.0
 10
676.7840041808
 20
641.8868735697
 30
0.0
 10
676.3655975681
 20
641.9841659669
 30
0.0
 10
675.936431697
 20
642.0214958129
 30
0.0
 10
675.7221669668
 20
642.0214958129
 30
0.0
  0
SPLINE
  5
268
100
AcDbEntity
  8
0
100
AcDbSpline
 62
7
  6
CONTINUOUS
 70
0
 71
3
 72
9
 73
5
 74
0
 42
0.0000001
 43
0.0000001
 44
0.0000000001
 40
0.0
 40
0.0
 40
0.0
 40
0.0
 40
0.5000841073
 40
1.0
 40
1.0
 40
1.0
 40
1.0
 10
674.4539125847
 20
641.8291212401
 30
0.0
 10
674.6603263105
 20
641.8868726076
 30
0.0
 10
675.0787321131
 20
641.9841694054
 30
0.0
 10
675.5078985728
 20
642.0214958129
 30
0.0
 10
675.7221669668
 20
642.0214958129
 30
0.0
  0
SPLINE
  5
269
100
AcDbEntity
  8
0
100
AcDbSpline
 62
7
  6
CONTINUOUS
 70
0
 71
3
 72
13
 73
9
 74
0
 42
0.0000001
 43
0.0000001
 44
0.0000000001
 40
0.0
 40
0.0
 40
0.0
 40
0.0
 40
0.018227825
 40
0.0678779295
 40
0.1503980268
 40
0.2649287125
 40
0.5820398047
 40
1.0
 40
1.0
 40
1.0
 40
1.0
 10
121.7221669651
 20
667.4528506844
 30
0.0
 10
121.7221669651
 20
667.4516185489
 30
0.0
 10
121.728870274
 20
667.4510253454
 30
0.0
 10
121.7371066767
 20
667.4517210281
 30
0.0
 10
121.7547147899
 20
667.453896487
 30
0.0
 10
121.7883517474
 20
667.4596901766
 30
0.0
 10
121.845193625
 20
667.4706531447
 30
0.0
 10
121.8937704179
 20
667.4803269095
 30
0.0
 10
121.9215050269
 20
667.4857121953
 30
0.0
  0
SPLINE
  5
26A
100
AcDbEntity
  8
0
100
AcDbSpline
 62
7
  6
CONTINUOUS
 70
0
 71
3
 72
9
 73
5
 74
0
 42
0.0000001
 43
0.0000001
 44
0.0000000001
 40
0.0
 40
0.0
 40
0.0
 40
0.0
 40
0.2362658076
 40
1.0
 40
1.0
 40
1.0
 40
1.0
 10
121.9814411769
 20
667.4971436286
 30
0.0
 10
122.0003273014
 20
667.5006709504
 30
0.0
 10
122.0803219772
 20
667.515277775
 30
0.0
 10
122.1606427526
 20
667.5281523134
 30
0.0
 10
122.2221669651
 20
667.5366291953
 30
0.0
  0
SPLINE
  5
26B
100
AcDbEntity
  8
0
100
AcDbSpline
 62
7
  6
CONTINUOUS
 70
0
 71
3
 72
9
 73
5
 74
0
 42
0.0000001
 43
0.0000001
 44
0.0000000001
 40
0.0
 40
0.0
 40
0.0
 40
0.0
 40
0.2593948262
 40
1.0
 40
1.0
 40
1.0
 40
1.0
 10
142.1221669651
 20
667.5366291953
 30
0.0
 10
142.1430756424
 20
667.5337483719
 30
0.0
 10
142.2235969133
 20
667.5220294812
 30
0.0
 10
142.3037982239
 20
667.5081815205
 30
0.0
 10
142.3630346984
 20
667.4971173442
 30
0.0
  0
SPLINE
  5
26C
100
AcDbEntity
  8
0
100
AcDbSpline
 62
7
  6
CONTINUOUS
 70
0
 71
3
 72
13
 73
9
 74
0
 42
0.0000001
 43
0.0000001
 44
0.0000000001
 40
0.0
 40
0.0
 40
0.0
 40
0.0
 40
0.4179732979
 40
0.7350845999
 40
0.8496134638
 40
0.9321378091
 40
0.9817787642
 40
1.0
 40
1.0
 40
1.0
 40
1.0
 10
142.422702633
 20
667.4857372747
 30
0.0
 10
142.4504558192
 20
667.4803486084
 30
0.0
 10
142.4990641144
 20
667.4706668742
 30
0.0
 10
142.5559426344
 20
667.4596951672
 30
0.0
 10
142.589601493
 20
667.4538991311
 30
0.0
 10
142.607220008
 20
667.4517208681
 30
0.0
 10
142.6154614191
 20
667.4510238288
 30
0.0
 10
142.6221669651
 20
667.4516182098
 30
0.0
 10
142.6221669651
 20
667.4528506844
 30
0.0
  0
SPLINE
  5
26D
100
AcDbEntity
  8
0
100
AcDbSpline
 62
7
  6
CONTINUOUS
 70
0
 71
3
 72
11
 73
7
 74
0
 42
0.0000001
 43
0.0000001
 44
0.0000000001
 40
0.0
 40
0.0
 40
0.0
 40
0.0
 40
0.4327673342
 40
0.7464135956
 40
0.9363241022
 40
1.0
 40
1.0
 40
1.0
 40
1.0
 10
142.3674393046
 20
667.5701962401
 30
0.0
 10
142.3753353399
 20
667.5701962401
 30
0.0
 10
142.3884472739
 20
667.5696672809
 30
0.0
 10
142.4070869663
 20
667.5708791
 30
0.0
 10
142.4147296714
 20
667.5681512936
 30
0.0
 10
142.4221669651
 20
667.5705984829
 30
0.0
 10
142.4221669651
 20
667.5694366874
 30
0.0
  0
SPLINE
  5
26E
100
AcDbEntity
  8
0
100
AcDbSpline
 62
7
  6
CONTINUOUS
 70
0
 71
3
 72
11
 73
7
 74
0
 42
0.0000001
 43
0.0000001
 44
0.0000000001
 40
0.0
 40
0.0
 40
0.0
 40
0.0
 40
0.0636766527
 40
0.2535877773
 40
0.5672334699
 40
1.0
 40
1.0
 40
1.0
 40
1.0
 10
121.9221669651
 20
667.5694366877
 30
0.0
 10
121.9221673475
 20
667.5705984969
 30
0.0
 10
121.9296037599
 20
667.5681512234
 30
0.0
 10
121.9372473646
 20
667.5708792564
 30
0.0
 10
121.9558865257
 20
667.5696674084
 30
0.0
 10
121.9689986047
 20
667.5701962401
 30
0.0
 10
121.9768946255
 20
667.5701962401
 30
0.0
  0
SPLINE
  5
26F
100
AcDbEntity
  8
0
100
AcDbSpline
 62
7
  6
CONTINUOUS
 70
0
 71
3
 72
13
 73
9
 74
0
 42
0.0000001
 43
0.0000001
 44
0.0000000001
 40
0.0
 40
0.0
 40
0.0
 40
0.0
 40
0.0166174673
 40
0.0653857505
 40
0.1458889357
 40
0.2576438852
 40
0.5720039474
 40
1.0
 40
1.0
 40
1.0
 40
1.0
 10
142.6221669651
 20
667.5607980671
 30
0.0
 10
142.6221669651
 20
667.5613779267
 30
0.0
 10
142.6185798567
 20
667.5607938859
 30
0.0
 10
142.6147826074
 20
667.5622151194
 30
0.0
 10
142.605699202
 20
667.562488712
 30
0.0
 10
142.5884999102
 20
667.5641834832
 30
0.0
 10
142.5584420995
 20
667.5659103356
 30
0.0
 10
142.5326775664
 20
667.56723447
 30
0.0
 10
142.5177547748
 20
667.5678318709
 30
0.0
  0
SPLINE
  5
270
100
AcDbEntity
  8
0
100
AcDbSpline
 62
7
  6
CONTINUOUS
 70
0
 71
3
 72
13
 73
9
 74
0
 42
0.0000001
 43
0.0000001
 44
0.0000000001
 40
0.0
 40
0.0
 40
0.0
 40
0.0
 40
0.427957773
 40
0.7423198303
 40
0.8540829384
 40
0.9345985672
 40
0.9833781138
 40
1.0
 40
1.0
 40
1.0
 40
1.0
 10
121.8268535611
 20
667.5678452396
 30
0.0
 10
121.8118928797
 20
667.567247878
 30
0.0
 10
121.7860618934
 20
667.5659219045
 30
0.0
 10
121.7559261544
 20
667.5641910046
 30
0.0
 10
121.7386809259
 20
667.5624921777
 30
0.0
 10
121.7295723805
 20
667.5622184935
 30
0.0
 10
121.7257645435
 20
667.5607930305
 30
0.0
 10
121.7221669651
 20
667.5613796032
 30
0.0
 10
121.7221669651
 20
667.5607980671
 30
0.0
  0
SPLINE
  5
271
100
AcDbEntity
  8
0
100
AcDbSpline
 62
7
  6
CONTINUOUS
 70
0
 71
3
 72
9
 73
5
 74
0
 42
0.0000001
 43
0.0000001
 44
0.0000000001
 40
0.0
 40
0.0
 40
0.0
 40
0.0
 40
0.2568144868
 40
1.0
 40
1.0
 40
1.0
 40
1.0
 10
122.4221669651
 20
667.5609796883
 30
0.0
 10
122.4042012801
 20
667.5596889526
 30
0.0
 10
122.33428166
 20
667.5541616551
 30
0.0
 10
122.2645052491
 20
667.5468877886
 30
0.0
 10
122.2127498345
 20
667.5406982924
 30
0.0
  0
LINE
  5
272
100
AcDbEntity
  8
0
100
AcDbLine
 62
7
  6
CONTINUOUS
 10
122.1270865891
 20
667.5298160181
 11
122.0167780372
 21
667.5145289989
  0
SPLINE
  5
273
100
AcDbEntity
  8
0
100
AcDbSpline
 62
7
  6
CONTINUOUS
 70
0
 71
3
 72
11
 73
7
 74
0
 42
0.0000001
 43
0.0000001
 44
0.0000000001
 40
0.0
 40
0.0
 40
0.0
 40
0.0
 40
0.4293358957
 40
0.7438003539
 40
0.9346916906
 40
1.0
 40
1.0
 40
1.0
 40
1.0
 10
122.0167780372
 20
667.5145289989
 30
0.0
 10
122.003265163
 20
667.512646057
 30
0.0
 10
121.9806744309
 20
667.5098182631
 30
0.0
 10
121.9486387986
 20
667.5049460361
 30
0.0
 10
121.9350385229
 20
667.505502911
 30
0.0
 10
121.9221669651
 20
667.5033425685
 30
0.0
 10
121.9221669651
 20
667.5054179353
 30
0.0
  0
SPLINE
  5
274
100
AcDbEntity
  8
0
100
AcDbSpline
 62
7
  6
CONTINUOUS
 70
0
 71
3
 72
14
 73
10
 74
0
 42
0.0000001
 43
0.0000001
 44
0.0000000001
 40
0.0
 40
0.0
 40
0.0
 40
0.0
 40
0.0538635253
 40
0.119874919
 40
0.205345764
 40
0.3141198074
 40
0.4482361251
 40
0.6081106117
 40
1.0
 40
1.0
 40
1.0
 40
1.0
 10
144.8974175363
 20
664.1980879699
 30
0.0
 10
144.8595788801
 20
664.1980877177
 30
0.0
 10
144.7749407375
 20
664.1740942253
 30
0.0
 10
144.6626287195
 20
664.0797200107
 30
0.0
 10
144.5552424512
 20
663.9304061997
 30
0.0
 10
144.4529564777
 20
663.7228327393
 30
0.0
 10
144.3579167904
 20
663.4558390487
 30
0.0
 10
144.2376107243
 20
662.9888095391
 30
0.0
 10
144.1842253097
 20
662.6033578196
 30
0.0
 10
144.160075183
 20
662.3291202564
 30
0.0
  0
SPLINE
  5
275
100
AcDbEntity
  8
0
100
AcDbSpline
 62
7
  6
CONTINUOUS
 70
0
 71
3
 72
11
 73
7
 74
0
 42
0.0000001
 43
0.0000001
 44
0.0000000001
 40
0.0
 40
0.0
 40
0.0
 40
0.0
 40
0.2785965066
 40
0.5333692626
 40
0.7694206799
 40
1.0
 40
1.0
 40
1.0
 40
1.0
 10
143.0771497535
 20
662.3291211498
 30
0.0
 10
143.0488971716
 20
662.430292202
 30
0.0
 10
142.9804076658
 20
662.6208266515
 30
0.0
 10
142.8161987534
 20
662.8653846688
 30
0.0
 10
142.5886108333
 20
663.0272782886
 30
0.0
 10
142.4100523788
 20
663.0616387362
 30
0.0
 10
142.3231148991
 20
663.0616484397
 30
0.0
  0
SPLINE
  5
276
100
AcDbEntity
  8
0
100
AcDbSpline
 62
7
  6
CONTINUOUS
 70
0
 71
3
 72
11
 73
7
 74
0
 42
0.0000001
 43
0.0000001
 44
0.0000000001
 40
0.0
 40
0.0
 40
0.0
 40
0.0
 40
0.2305793014
 40
0.4666306797
 40
0.7214034016
 40
1.0
 40
1.0
 40
1.0
 40
1.0
 10
122.0212193116
 20
663.0616484422
 30
0.0
 10
121.9342818175
 20
663.0616387826
 30
0.0
 10
121.7557233266
 20
663.0272783905
 30
0.0
 10
121.5281353165
 20
662.8653848377
 30
0.0
 10
121.3639263116
 20
662.6208267789
 30
0.0
 10
121.2954367744
 20
662.4302922616
 30
0.0
 10
121.2671841833
 20
662.3291211491
 30
0.0
  0
SPLINE
  5
277
100
AcDbEntity
  8
0
100
AcDbSpline
 62
7
  6
CONTINUOUS
 70
0
 71
3
 72
14
 73
10
 74
0
 42
0.0000001
 43
0.0000001
 44
0.0000000001
 40
0.0
 40
0.0
 40
0.0
 40
0.0
 40
0.3918893887
 40
0.5517638759
 40
0.685880194
 40
0.7946542378
 40
0.8801250826
 40
0.9461364757
 40
1.0
 40
1.0
 40
1.0
 40
1.0
 10
120.1842587472
 20
662.3291202565
 30
0.0
 10
120.1601086204
 20
662.6033578202
 30
0.0
 10
120.1067232056
 20
662.9888095407
 30
0.0
 10
119.9864171388
 20
663.4558390515
 30
0.0
 10
119.8913774509
 20
663.7228327431
 30
0.0
 10
119.7890914762
 20
663.9304062036
 30
0.0
 10
119.6817052076
 20
664.0797200142
 30
0.0
 10
119.5693931895
 20
664.1740942269
 30
0.0
 10
119.4847550491
 20
664.1980877202
 30
0.0
 10
119.4469163936
 20
664.1980879741
 30
0.0
  0
SPLINE
  5
278
100
AcDbEntity
  8
0
100
AcDbSpline
 62
7
  6
CONTINUOUS
 70
0
 71
3
 72
11
 73
7
 74
0
 42
0.0000001
 43
0.0000001
 44
0.0000000001
 40
0.0
 40
0.0
 40
0.0
 40
0.0
 40
0.2388127479
 40
0.4974430277
 40
0.7576735278
 40
1.0
 40
1.0
 40
1.0
 40
1.0
 10
122.8838026828
 20
667.5702223047
 30
0.0
 10
122.4626546208
 20
667.5702218491
 30
0.0
 10
121.5770134246
 20
667.402757302
 30
0.0
 10
120.4277328608
 20
666.6536448373
 30
0.0
 10
119.6552928915
 20
665.513400978
 30
0.0
 10
119.4615959056
 20
664.6251792663
 30
0.0
 10
119.4469168343
 20
664.1980869089
 30
0.0
  0
SPLINE
  5
279
100
AcDbEntity
  8
0
100
AcDbSpline
 62
7
  6
CONTINUOUS
 70
0
 71
3
 72
13
 73
9
 74
0
 42
0.0000001
 43
0.0000001
 44
0.0000000001
 40
0.0
 40
0.0
 40
0.0
 40
0.0
 40
0.3776821569
 40
0.6748278582
 40
0.7892953741
 40
0.8805556661
 40
0.9496600485
 40
1.0
 40
1.0
 40
1.0
 40
1.0
 10
122.0907206106
 20
663.710203177
 30
0.0
 10
122.1125709411
 20
664.2039027902
 30
0.0
 10
122.1599031314
 20
665.0854998725
 30
0.0
 10
122.258701629
 20
666.1148283729
 30
0.0
 10
122.3761479793
 20
666.7626031345
 30
0.0
 10
122.4717679739
 20
667.1103268604
 30
0.0
 10
122.5819077162
 20
667.3637548033
 30
0.0
 10
122.6845263057
 20
667.4886223826
 30
0.0
 10
122.7394204421
 20
667.5250259342
 30
0.0
  0
SPLINE
  5
27A
100
AcDbEntity
  8
0
100
AcDbSpline
 62
7
  6
CONTINUOUS
 70
0
 71
3
 72
9
 73
5
 74
0
 42
0.0000001
 43
0.0000001
 44
0.0000000001
 40
0.0
 40
0.0
 40
0.0
 40
0.0
 40
0.2611434554
 40
1.0
 40
1.0
 40
1.0
 40
1.0
 10
122.7394204421
 20
667.5250259342
 30
0.0
 10
122.7504860322
 20
667.532364182
 30
0.0
 10
122.7945037734
 20
667.5578902892
 30
0.0
 10
122.8462354725
 20
667.5701934408
 30
0.0
 10
122.883802224
 20
667.5701962401
 30
0.0
  0
SPLINE
  5
27B
100
AcDbEntity
  8
0
100
AcDbSpline
 62
7
  6
CONTINUOUS
 70
0
 71
3
 72
9
 73
5
 74
0
 42
0.0000001
 43
0.0000001
 44
0.0000000001
 40
0.0
 40
0.0
 40
0.0
 40
0.0
 40
0.2537226866
 40
1.0
 40
1.0
 40
1.0
 40
1.0
 10
122.0211455587
 20
663.0616621678
 30
0.0
 10
122.022040809
 20
663.116862307
 30
0.0
 10
122.0305921054
 20
663.3342866957
 30
0.0
 10
122.0578148289
 20
663.5511819645
 30
0.0
 10
122.0906999276
 20
663.7101993371
 30
0.0
  0
SPLINE
  5
27C
100
AcDbEntity
  8
0
100
AcDbSpline
 62
7
  6
CONTINUOUS
 70
0
 71
3
 72
11
 73
7
 74
0
 42
0.0000001
 43
0.0000001
 44
0.0000000001
 40
0.0
 40
0.0
 40
0.0
 40
0.0
 40
0.2443612379
 40
0.4902888979
 40
0.7414953073
 40
1.0
 40
1.0
 40
1.0
 40
1.0
 10
122.0907297816
 20
663.7102846137
 30
0.0
 10
121.9166144736
 20
663.6914835877
 30
0.0
 10
121.5688510073
 20
663.5997417038
 30
0.0
 10
121.1295724313
 20
663.2831103193
 30
0.0
 10
120.7989011816
 20
662.8456095193
 30
0.0
 10
120.6587056128
 20
662.5050166718
 30
0.0
 10
120.6005363093
 20
662.3291219126
 30
0.0
  0
SPLINE
  5
27D
100
AcDbEntity
  8
0
100
AcDbSpline
 62
7
  6
CONTINUOUS
 70
0
 71
3
 72
11
 73
7
 74
0
 42
0.0000001
 43
0.0000001
 44
0.0000000001
 40
0.0
 40
0.0
 40
0.0
 40
0.0
 40
0.2584971882
 40
0.5096985468
 40
0.7556265506
 40
1.0
 40
1.0
 40
1.0
 40
1.0
 10
143.7438007338
 20
662.329121733
 30
0.0
 10
143.6856577027
 20
662.5050178008
 30
0.0
 10
143.5454351296
 20
662.845586378
 30
0.0
 10
143.2147863368
 20
663.2830929649
 30
0.0
 10
142.7755051421
 20
663.5996843496
 30
0.0
 10
142.4277520743
 20
663.6915517995
 30
0.0
 10
142.2536220367
 20
663.7102834799
 30
0.0
  0
SPLINE
  5
27E
100
AcDbEntity
  8
0
100
AcDbSpline
 62
7
  6
CONTINUOUS
 70
0
 71
3
 72
9
 73
5
 74
0
 42
0.0000001
 43
0.0000001
 44
0.0000000001
 40
0.0
 40
0.0
 40
0.0
 40
0.0
 40
0.2436105755
 40
1.0
 40
1.0
 40
1.0
 40
1.0
 10
142.2536394386
 20
663.7101993369
 30
0.0
 10
142.2643744349
 20
663.6582888573
 30
0.0
 10
142.3026639243
 20
663.4440353576
 30
0.0
 10
142.3205230434
 20
663.2262283521
 30
0.0
 10
142.323191413
 20
663.0616621679
 30
0.0
  0
SPLINE
  5
27F
100
AcDbEntity
  8
0
100
AcDbSpline
 62
7
  6
CONTINUOUS
 70
0
 71
3
 72
11
 73
7
 74
0
 42
0.0000001
 43
0.0000001
 44
0.0000000001
 40
0.0
 40
0.0
 40
0.0
 40
0.0
 40
0.2423264728
 40
0.5025569719
 40
0.761187251
 40
1.0
 40
1.0
 40
1.0
 40
1.0
 10
144.8974172637
 20
664.1980869089
 30
0.0
 10
144.8827382028
 20
664.6251792638
 30
0.0
 10
144.6890412402
 20
665.5134009722
 30
0.0
 10
143.9166012967
 20
666.6536448339
 30
0.0
 10
142.7673207464
 20
667.4027572986
 30
0.0
 10
141.8816795568
 20
667.5702218428
 30
0.0
 10
141.4605314966
 20
667.5702222988
 30
0.0
  0
SPLINE
  5
280
100
AcDbEntity
  8
0
100
AcDbSpline
 62
7
  6
CONTINUOUS
 70
0
 71
3
 72
9
 73
5
 74
0
 42
0.0000001
 43
0.0000001
 44
0.0000000001
 40
0.0
 40
0.0
 40
0.0
 40
0.0
 40
0.7385443749
 40
1.0
 40
1.0
 40
1.0
 40
1.0
 10
141.4605317062
 20
667.5701962401
 30
0.0
 10
141.498495699
 20
667.5701934316
 30
0.0
 10
141.5508074157
 20
667.5576036035
 30
0.0
 10
141.5951756125
 20
667.5315683614
 30
0.0
 10
141.6063361331
 20
667.5240802777
 30
0.0
  0
SPLINE
  5
281
100
AcDbEntity
  8
0
100
AcDbSpline
 62
7
  6
CONTINUOUS
 70
0
 71
3
 72
13
 73
9
 74
0
 42
0.0000001
 43
0.0000001
 44
0.0000000001
 40
0.0
 40
0.0
 40
0.0
 40
0.0
 40
0.0504414623
 40
0.1196586336
 40
0.2110023522
 40
0.3255122867
 40
0.6225963461
 40
1.0
 40
1.0
 40
1.0
 40
1.0
 10
141.6063361331
 20
667.5240802777
 30
0.0
 10
141.6611201921
 20
667.4873232451
 30
0.0
 10
141.7633968428
 20
667.3619823112
 30
0.0
 10
141.8732924584
 20
667.1081650992
 30
0.0
 10
141.9686971947
 20
666.7602246668
 30
0.0
 10
142.0858793127
 20
666.1126065018
 30
0.0
 10
142.1845093434
 20
665.0841048889
 30
0.0
 10
142.2317905218
 20
664.2033276232
 30
0.0
 10
142.2536153768
 20
663.710203177
 30
0.0
  0
SPLINE
  5
282
100
AcDbEntity
  8
0
100
AcDbSpline
 62
7
  6
CONTINUOUS
 70
0
 71
3
 72
11
 73
7
 74
0
 42
0.0000001
 43
0.0000001
 44
0.0000000001
 40
0.0
 40
0.0
 40
0.0
 40
0.0
 40
0.0653070959
 40
0.256195532
 40
0.5706594723
 40
1.0
 40
1.0
 40
1.0
 40
1.0
 10
142.4221669651
 20
667.5054179353
 30
0.0
 10
142.4221669651
 20
667.5033429432
 30
0.0
 10
142.4092979754
 20
667.5055015072
 30
0.0
 10
142.3956996816
 20
667.5049451145
 30
0.0
 10
142.3636693877
 20
667.509816486
 30
0.0
 10
142.3410821602
 20
667.5126440537
 30
0.0
 10
142.3275713248
 20
667.5145266819
 30
0.0
  0
LINE
  5
283
100
AcDbEntity
  8
0
100
AcDbLine
 62
7
  6
CONTINUOUS
 10
142.3275713248
 20
667.5145266819
 11
142.2171540449
 21
667.5298278184
  0
SPLINE
  5
284
100
AcDbEntity
  8
0
100
AcDbSpline
 62
7
  6
CONTINUOUS
 70
0
 71
3
 72
9
 73
5
 74
0
 42
0.0000001
 43
0.0000001
 44
0.0000000001
 40
0.0
 40
0.0
 40
0.0
 40
0.0
 40
0.239818299
 40
1.0
 40
1.0
 40
1.0
 40
1.0
 10
142.1315740992
 20
667.5406993896
 30
0.0
 10
142.1148740827
 20
667.5426966538
 30
0.0
 10
142.045199404
 20
667.550693344
 30
0.0
 10
141.9753432469
 20
667.557159265
 30
0.0
 10
141.9221669651
 20
667.5609796883
 30
0.0
  0
SPLINE
  5
285
100
AcDbEntity
  8
0
100
AcDbSpline
 62
7
  6
CONTINUOUS
 70
0
 71
3
 72
9
 73
5
 74
0
 42
0.0000001
 43
0.0000001
 44
0.0000000001
 40
0.0
 40
0.0
 40
0.0
 40
0.0
 40
0.3271535046
 40
1.0
 40
1.0
 40
1.0
 40
1.0
 10
94.7221669651
 20
662.3291212601
 30
0.0
 10
94.5668910261
 20
662.3291212601
 30
0.0
 10
94.2705353291
 20
661.80663283
 30
0.0
 10
94.1525880939
 20
661.4072685499
 30
0.0
 10
94.0619897743
 20
661.101038004
 30
0.0
  0
SPLINE
  5
286
100
AcDbEntity
  8
0
100
AcDbSpline
 62
7
  6
CONTINUOUS
 70
0
 71
3
 72
8
 73
4
 74
0
 42
0.0000001
 43
0.0000001
 44
0.0000000001
 40
0.0
 40
0.0
 40
0.0
 40
0.0
 40
1.0
 40
1.0
 40
1.0
 40
1.0
 10
94.0619897743
 20
661.101038004
 30
0.0
 10
93.9907224226
 20
660.8601478846
 30
0.0
 10
93.9255664346
 20
660.6174578191
 30
0.0
 10
93.862144322
 20
660.3743843308
 30
0.0
  0
SPLINE
  5
287
100
AcDbEntity
  8
0
100
AcDbSpline
 62
7
  6
CONTINUOUS
 70
0
 71
3
 72
9
 73
5
 74
0
 42
0.0000001
 43
0.0000001
 44
0.0000000001
 40
0.0
 40
0.0
 40
0.0
 40
0.0
 40
0.2747053905
 40
1.0
 40
1.0
 40
1.0
 40
1.0
 10
685.5821913618
 20
660.3743776095
 30
0.0
 10
685.5527258893
 20
660.4873079312
 30
0.0
 10
685.4436259847
 20
660.8978217528
 30
0.0
 10
685.3265900282
 20
661.3069591281
 30
0.0
 10
685.222171302
 20
661.5968761659
 30
0.0
  0
SPLINE
  5
288
100
AcDbEntity
  8
0
100
AcDbSpline
 62
7
  6
CONTINUOUS
 70
0
 71
3
 72
9
 73
5
 74
0
 42
0.0000001
 43
0.0000001
 44
0.0000000001
 40
0.0
 40
0.0
 40
0.0
 40
0.0
 40
0.6551194342
 40
1.0
 40
1.0
 40
1.0
 40
1.0
 10
685.222171302
 20
661.5968761659
 30
0.0
 10
685.1547580497
 20
661.7840480566
 30
0.0
 10
685.0620835938
 20
662.0514521129
 30
0.0
 10
684.8268977627
 20
662.3291212601
 30
0.0
 10
684.7221669651
 20
662.3291212601
 30
0.0
  0
SPLINE
  5
289
100
AcDbEntity
  8
0
100
AcDbSpline
 62
7
  6
CONTINUOUS
 70
0
 71
3
 72
9
 73
5
 74
0
 42
0.0000001
 43
0.0000001
 44
0.0000000001
 40
0.0
 40
0.0
 40
0.0
 40
0.0
 40
0.2650905782
 40
1.0
 40
1.0
 40
1.0
 40
1.0
 10
111.0221669651
 20
641.3291212401
 30
0.0
 10
110.9115401958
 20
641.242235179
 30
0.0
 10
110.4950180607
 20
640.9158401841
 30
0.0
 10
110.0518450848
 20
640.6055980281
 30
0.0
 10
109.6888397991
 20
640.4630982608
 30
0.0
  0
SPLINE
  5
28A
100
AcDbEntity
  8
0
100
AcDbSpline
 62
7
  6
CONTINUOUS
 70
0
 71
3
 72
9
 73
5
 74
0
 42
0.0000001
 43
0.0000001
 44
0.0000000001
 40
0.0
 40
0.0
 40
0.0
 40
0.0
 40
0.2325245228
 40
1.0
 40
1.0
 40
1.0
 40
1.0
 10
670.4221669651
 20
640.3291212441
 30
0.0
 10
670.3082461007
 20
640.3291212441
 30
0.0
 10
669.8168709123
 20
640.3827461511
 30
0.0
 10
669.3723519347
 20
640.6339815178
 30
0.0
 10
669.0625628795
 20
640.8470871618
 30
0.0
  0
SPLINE
  5
28B
100
AcDbEntity
  8
0
100
AcDbSpline
 62
7
  6
CONTINUOUS
 70
0
 71
3
 72
8
 73
4
 74
0
 42
0.0000001
 43
0.0000001
 44
0.0000000001
 40
0.0
 40
0.0
 40
0.0
 40
0.0
 40
1.0
 40
1.0
 40
1.0
 40
1.0
 10
669.0625628795
 20
640.8470871618
 30
0.0
 10
668.8424374978
 20
640.9985126575
 30
0.0
 10
668.6322873403
 20
641.1640930839
 30
0.0
 10
668.4221669651
 20
641.3291212401
 30
0.0
  0
SPLINE
  5
28C
100
AcDbEntity
  8
0
100
AcDbSpline
 62
7
  6
CONTINUOUS
 70
0
 71
3
 72
8
 73
4
 74
0
 42
0.0000001
 43
0.0000001
 44
0.0000000001
 40
0.0
 40
0.0
 40
0.0
 40
0.0
 40
1.0
 40
1.0
 40
1.0
 40
1.0
 10
688.7221669651
 20
638.3291212401
 30
0.0
 10
688.6571906885
 20
638.5332502348
 30
0.0
 10
688.5922849596
 20
638.7374177273
 30
0.0
 10
688.5243658125
 20
638.9405865055
 30
0.0
  0
SPLINE
  5
28D
100
AcDbEntity
  8
0
100
AcDbSpline
 62
7
  6
CONTINUOUS
 70
0
 71
3
 72
9
 73
5
 74
0
 42
0.0000001
 43
0.0000001
 44
0.0000000001
 40
0.0
 40
0.0
 40
0.0
 40
0.0
 40
0.273008133
 40
1.0
 40
1.0
 40
1.0
 40
1.0
 10
688.5243658125
 20
638.9405865055
 30
0.0
 10
688.4992172506
 20
639.0158142259
 30
0.0
 10
688.4053591707
 20
639.2907037608
 30
0.0
 10
688.303873179
 20
639.5635490278
 30
0.0
 10
688.2165052733
 20
639.7558536221
 30
0.0
  0
SPLINE
  5
28E
100
AcDbEntity
  8
0
100
AcDbSpline
 62
7
  6
CONTINUOUS
 70
0
 71
3
 72
9
 73
5
 74
0
 42
0.0000001
 43
0.0000001
 44
0.0000000001
 40
0.0
 40
0.0
 40
0.0
 40
0.0
 40
0.6299307762
 40
1.0
 40
1.0
 40
1.0
 40
1.0
 10
688.2165052733
 20
639.7558536221
 30
0.0
 10
688.1487881764
 20
639.9049050245
 30
0.0
 10
688.0451330749
 20
640.1344566456
 30
0.0
 10
687.8183443894
 20
640.3291212555
 30
0.0
 10
687.7221669651
 20
640.3291212555
 30
0.0
  0
SPLINE
  5
28F
100
AcDbEntity
  8
0
100
AcDbSpline
 62
7
  6
CONTINUOUS
 70
0
 71
3
 72
9
 73
5
 74
0
 42
0.0000001
 43
0.0000001
 44
0.0000000001
 40
0.0
 40
0.0
 40
0.0
 40
0.0
 40
0.3578631692
 40
1.0
 40
1.0
 40
1.0
 40
1.0
 10
91.7221669651
 20
640.3291212555
 30
0.0
 10
91.6065464729
 20
640.3291212555
 30
0.0
 10
91.3424585373
 20
640.0552309053
 30
0.0
 10
91.2300326569
 20
639.7706471955
 30
0.0
 10
91.1517421184
 20
639.5785211253
 30
0.0
  0
SPLINE
  5
290
100
AcDbEntity
  8
0
100
AcDbSpline
 62
7
  6
CONTINUOUS
 70
0
 71
3
 72
9
 73
5
 74
0
 42
0.0000001
 43
0.0000001
 44
0.0000000001
 40
0.0
 40
0.0
 40
0.0
 40
0.0
 40
0.2329783003
 40
1.0
 40
1.0
 40
1.0
 40
1.0
 10
91.1517421184
 20
639.5785211253
 30
0.0
 10
91.1318491226
 20
639.529703437
 30
0.0
 10
91.0492072281
 20
639.3190458709
 30
0.0
 10
90.9749951572
 20
639.1051905221
 30
0.0
 10
90.919970236
 20
638.9405928425
 30
0.0
  0
SPLINE
  5
291
100
AcDbEntity
  8
0
100
AcDbSpline
 62
7
  6
CONTINUOUS
 70
0
 71
3
 72
8
 73
4
 74
0
 42
0.0000001
 43
0.0000001
 44
0.0000000001
 40
0.0
 40
0.0
 40
0.0
 40
0.0
 40
1.0
 40
1.0
 40
1.0
 40
1.0
 10
90.919970236
 20
638.9405928425
 30
0.0
 10
90.8520503174
 20
638.737421974
 30
0.0
 10
90.7871439171
 20
638.533252357
 30
0.0
 10
90.7221669651
 20
638.3291212401
 30
0.0
  0
SPLINE
  5
292
100
AcDbEntity
  8
0
100
AcDbSpline
 62
7
  6
CONTINUOUS
 70
0
 71
3
 72
8
 73
4
 74
0
 42
0.0000001
 43
0.0000001
 44
0.0000000001
 40
0.0
 40
0.0
 40
0.0
 40
0.0
 40
1.0
 40
1.0
 40
1.0
 40
1.0
 10
90.7221669651
 20
412.3291212401
 30
0.0
 10
90.7871432416
 20
412.1249922455
 30
0.0
 10
90.8520489705
 20
411.920824753
 30
0.0
 10
90.9199681176
 20
411.7176559748
 30
0.0
  0
SPLINE
  5
293
100
AcDbEntity
  8
0
100
AcDbSpline
 62
7
  6
CONTINUOUS
 70
0
 71
3
 72
9
 73
5
 74
0
 42
0.0000001
 43
0.0000001
 44
0.0000000001
 40
0.0
 40
0.0
 40
0.0
 40
0.0
 40
0.273008133
 40
1.0
 40
1.0
 40
1.0
 40
1.0
 10
90.9199681176
 20
411.7176559748
 30
0.0
 10
90.9451166796
 20
411.6424282543
 30
0.0
 10
91.0389747594
 20
411.3675387195
 30
0.0
 10
91.1404607511
 20
411.0946934524
 30
0.0
 10
91.2278286568
 20
410.9023888581
 30
0.0
  0
SPLINE
  5
294
100
AcDbEntity
  8
0
100
AcDbSpline
 62
7
  6
CONTINUOUS
 70
0
 71
3
 72
9
 73
5
 74
0
 42
0.0000001
 43
0.0000001
 44
0.0000000001
 40
0.0
 40
0.0
 40
0.0
 40
0.0
 40
0.6299307762
 40
1.0
 40
1.0
 40
1.0
 40
1.0
 10
91.2278286568
 20
410.9023888581
 30
0.0
 10
91.2955457537
 20
410.7533374557
 30
0.0
 10
91.3992008552
 20
410.5237858346
 30
0.0
 10
91.6259895407
 20
410.3291212248
 30
0.0
 10
91.7221669651
 20
410.3291212248
 30
0.0
  0
SPLINE
  5
295
100
AcDbEntity
  8
0
100
AcDbSpline
 62
7
  6
CONTINUOUS
 70
0
 71
3
 72
9
 73
5
 74
0
 42
0.0000001
 43
0.0000001
 44
0.0000000001
 40
0.0
 40
0.0
 40
0.0
 40
0.0
 40
0.3578631692
 40
1.0
 40
1.0
 40
1.0
 40
1.0
 10
687.7221669651
 20
410.3291212248
 30
0.0
 10
687.8377874573
 20
410.3291212248
 30
0.0
 10
688.1018753929
 20
410.6030115749
 30
0.0
 10
688.2143012732
 20
410.8875952848
 30
0.0
 10
688.2925918117
 20
411.0797213549
 30
0.0
  0
SPLINE
  5
296
100
AcDbEntity
  8
0
100
AcDbSpline
 62
7
  6
CONTINUOUS
 70
0
 71
3
 72
9
 73
5
 74
0
 42
0.0000001
 43
0.0000001
 44
0.0000000001
 40
0.0
 40
0.0
 40
0.0
 40
0.0
 40
0.2329783003
 40
1.0
 40
1.0
 40
1.0
 40
1.0
 10
688.2925918117
 20
411.0797213549
 30
0.0
 10
688.3124848076
 20
411.1285390433
 30
0.0
 10
688.3951267021
 20
411.3391966093
 30
0.0
 10
688.469338773
 20
411.5530519581
 30
0.0
 10
688.5243636941
 20
411.7176496378
 30
0.0
  0
SPLINE
  5
297
100
AcDbEntity
  8
0
100
AcDbSpline
 62
7
  6
CONTINUOUS
 70
0
 71
3
 72
8
 73
4
 74
0
 42
0.0000001
 43
0.0000001
 44
0.0000000001
 40
0.0
 40
0.0
 40
0.0
 40
0.0
 40
1.0
 40
1.0
 40
1.0
 40
1.0
 10
688.5243636941
 20
411.7176496378
 30
0.0
 10
688.5922836128
 20
411.9208205063
 30
0.0
 10
688.657190013
 20
412.1249901233
 30
0.0
 10
688.7221669651
 20
412.3291212401
 30
0.0
  0
ENDSEC
  0
SECTION
  2
OBJECTS
  0
DICTIONARY
  5
C
100
AcDbDictionary
280
0
281
1
  3
ACAD_GROUP
350
D
  3
ACAD_MLINESTYLE
350
17
  3
ACAD_LAYOUT
350
1A
  3
ACAD_PLOTSETTINGS
350
19
  3
ACAD_PLOTSTYLENAME
350
E
  0
DICTIONARY
  5
D
102
{ACAD_REACTORS
330
C
102
}
100
AcDbDictionary
280
0
281
1
  0
ACDBDICTIONARYWDFLT
  5
E
102
{ACAD_REACTORS
330
C
102
}
100
AcDbDictionary
281
1
  3
Normal
350
F
100
AcDbDictionaryWithDefault
340
F
  0
DICTIONARY
  5
17
102
{ACAD_REACTORS
330
C
102
}
100
AcDbDictionary
280
0
281
1
  3
Standard
350
18
  0
DICTIONARY
  5
19
102
{ACAD_REACTORS
330
C
102
}
100
AcDbDictionary
281
1
  0
DICTIONARY
  5
1A
102
{ACAD_REACTORS
330
C
102
}
100
AcDbDictionary
281
1
  3
Model
350
298
  3
Layout1
350
299
  0
ACDBPLACEHOLDER
  5
F
102
{ACAD_REACTORS
330
E
102
}
  0
MLINESTYLE
  5
18
102
{ACAD_REACTORS
330
17
102
}
100
AcDbMlineStyle
  2
STANDARD
 70
0
  3

 62
256
 51
90.0
 52
90.0
 71
2
 49
0.5
 62
256
  6
BYLAYER
 49
-0.5
 62
256
  6
BYLAYER
  0
LAYOUT
  5
298
102
{ACAD_REACTORS
330
1A
102
}
100
AcDbPlotSettings
  1

  2
none_device
  4

  6

 40
0.0
 41
0.0
 42
0.0
 43
0.0
 44
210.0
 45
297.0
 46
0.0
 47
0.0
 48
0.0
 49
0.0
140
0.0
141
0.0
142
1.0
143
1.0
 70
1024
 72
1
 73
0
 74
0
  7

 75
0
147
1.0
148
0.0
149
0.0
100
AcDbLayout
  1
Model
 70
0
 71
0
 10
0.0
 20
0.0
 11
210.0
 21
297.0
 12
0.0
 22
0.0
 32
0.0
 14
0.0
 24
0.0
 34
0.0
 15
0.0
 25
0.0
 35
0.0
146
0.0
 13
0.0
 23
0.0
 33
0.0
 16
1.0
 26
0.0
 36
0.0
 17
0.0
 27
1.0
 37
0.0
 76
0
330
210
345
0
346
0
  0
LAYOUT
  5
299
102
{ACAD_REACTORS
330
1A
102
}
100
AcDbPlotSettings
  1

  2
none_device
  4

  6

 40
0.0
 41
0.0
 42
0.0
 43
0.0
 44
210.0
 45
297.0
 46
0.0
 47
0.0
 48
0.0
 49
0.0
140
0.0
141
0.0
142
1.0
143
1.0
 70
0
 72
1
 73
0
 74
0
  7

 75
0
147
1.0
148
0.0
149
0.0
100
AcDbLayout
  1
Layout1
 70
0
 71
1
 10
0.0
 20
0.0
 11
210.0
 21
297.0
 12
0.0
 22
0.0
 32
0.0
 14
0.0
 24
0.0
 34
0.0
 15
0.0
 25
0.0
 35
0.0
146
0.0
 13
0.0
 23
0.0
 33
0.0
 16
1.0
 26
0.0
 36
0.0
 17
0.0
 27
1.0
 37
0.0
 76
0
330
211
345
0
346
0
  0
ENDSEC
  0
EOF
