  0
SECTION
  2
HEADER
  9
$ACADVER
  1
AC1006
  9
$EXTMIN
 10
-2.089689
 20
-3.595319
  9
$EXTMAX
 10
2.094000
 20
3.596000
  9
$LTSCALE
 40
0.000394
  9
$PDMODE
 70
    35
  9
$PDSIZE
 40
0.000315
  0
ENDSEC
  0
SECTION
  2
TABLES
  0
TABLE
  2
LTYPE
 70
     9
  0
LTYPE
  2
CONTINUOUS
 70
    64
  3
Solid line
 72
    65
 73
     0
 40
0.000000
  0
LTYPE
  2
DASHED
 70
    64
  3
__ __ __ __ __ __ __ __ __ __ __ __ __ __ __
 72
    65
 73
     2
 40
0.000003
 49
0.000002
 49
-0.000001
  0
LTYPE
  2
HIDDEN
 70
    64
  3
 _ _ _ _ _ _ _ _ _ _ _ _ _ _ _ _ _ _ _ _ _ _
 72
    65
 73
     2
 40
0.000001
 49
0.000001
 49
-0.000000
  0
LTYPE
  2
CENTER
 70
    64
  3
____ _ ____ _ ____ _ ____ _ ____ _ ____ _ ____
 72
    65
 73
     4
 40
0.000008
 49
0.000005
 49
-0.000001
 49
0.000001
 49
-0.000001
  0
LTYPE
  2
PHANTOM
 70
    64
  3
_____ _ _ _____ _ _ _____ _ _ _____ _ _ ____
 72
    65
 73
     6
 40
0.000010
 49
0.000005
 49
-0.000001
 49
0.000001
 49
-0.000001
 49
0.000001
 49
-0.000001
  0
LTYPE
  2
DOT
 70
    64
  3
...............................................
 72
    65
 73
     2
 40
0.000001
 49
0.000000
 49
-0.000001
  0
LTYPE
  2
DASHDOT
 70
    64
  3
__ . __ . __ . __ . __ . __ . __ . __ . __ . __
 72
    65
 73
     4
 40
0.000004
 49
0.000002
 49
-0.000001
 49
0.000000
 49
-0.000001
  0
LTYPE
  2
BORDER
 70
    64
  3
__ __ . __ __ . __ __ . __ __ . __ __ . __ __
 72
    65
 73
     6
 40
0.000007
 49
0.000002
 49
-0.000001
 49
0.000002
 49
-0.000001
 49
0.000000
 49
-0.000001
  0
LTYPE
  2
DIVIDE
 70
    64
  3
__ . . __ . . __ . . __ . . __ . . __ . . __
 72
    65
 73
     6
 40
0.000005
 49
0.000002
 49
-0.000001
 49
0.000000
 49
-0.000001
 49
0.000000
 49
-0.000001
  0
LTYPE
  2
DOTDOT
 70
    64
  3
 . .  . .  . .  . .  . .  . . 
 72
    65
 73
     5
 40
0.000002
 49
-0.000001
 49
0.000000
 49
-0.000001
 49
0.000000
 49
-0.000001
  0
ENDTAB
  0
TABLE
  2
STYLE
 70
     0
  0
ENDTAB
  0
TABLE
  2
LAYER
 70
     3
  0
LAYER
  2
FOREGROUND
 70
    64
 62
     7
  6
CONTINUOUS
  0
LAYER
  2
BACKGROUND
 70
    65
 62
    -7
  6
CONTINUOUS
  0
LAYER
  2
PLAN_1
 70
    64
 62
     7
  6
CONTINUOUS
  0
ENDTAB
  0
ENDSEC
  0
SECTION
  2
ENTITIES
  0
POLYLINE
  8
PLAN_1
  6
CONTINUOUS
 66
     1
 40
0.003000
 41
0.003000
  0
VERTEX
  8
PLAN_1
  6
CONTINUOUS
 10
0.178413
 20
-3.560713
  0
VERTEX
  8
PLAN_1
  6
CONTINUOUS
 10
0.021551
 20
-3.560713
  0
VERTEX
  8
PLAN_1
  6
CONTINUOUS
 10
0.021551
 20
-3.538240
  0
VERTEX
  8
PLAN_1
  6
CONTINUOUS
 10
0.143803
 20
-3.385425
  0
VERTEX
  8
PLAN_1
  6
CONTINUOUS
 10
0.030539
 20
-3.385425
  0
VERTEX
  8
PLAN_1
  6
CONTINUOUS
 10
0.030539
 20
-3.361154
  0
VERTEX
  8
PLAN_1
  6
CONTINUOUS
 10
0.178413
 20
-3.361154
  0
VERTEX
  8
PLAN_1
  6
CONTINUOUS
 10
0.178413
 20
-3.384524
  0
VERTEX
  8
PLAN_1
  6
CONTINUOUS
 10
0.055709
 20
-3.536890
  0
VERTEX
  8
PLAN_1
  6
CONTINUOUS
 10
0.178413
 20
-3.536890
  0
VERTEX
  8
PLAN_1
  6
CONTINUOUS
 10
0.178413
 20
-3.560713
  0
SEQEND
  8
0
  0
POLYLINE
  8
PLAN_1
  6
CONTINUOUS
 66
     1
 40
0.003000
 41
0.003000
  0
VERTEX
  8
PLAN_1
  6
CONTINUOUS
 10
0.345610
 20
-3.421382
  0
VERTEX
  8
PLAN_1
  6
CONTINUOUS
 10
0.344264
 20
-3.415087
  0
VERTEX
  8
PLAN_1
  6
CONTINUOUS
 10
0.342016
 20
-3.409693
  0
VERTEX
  8
PLAN_1
  6
CONTINUOUS
 10
0.339319
 20
-3.404299
  0
VERTEX
  8
PLAN_1
  6
CONTINUOUS
 10
0.336622
 20
-3.400256
  0
VERTEX
  8
PLAN_1
  6
CONTINUOUS
 10
0.333476
 20
-3.396209
  0
VERTEX
  8
PLAN_1
  6
CONTINUOUS
 10
0.329878
 20
-3.393063
  0
VERTEX
  8
PLAN_1
  6
CONTINUOUS
 10
0.326283
 20
-3.389917
  0
VERTEX
  8
PLAN_1
  6
CONTINUOUS
 10
0.322240
 20
-3.387669
  0
VERTEX
  8
PLAN_1
  6
CONTINUOUS
 10
0.318193
 20
-3.385425
  0
VERTEX
  8
PLAN_1
  6
CONTINUOUS
 10
0.314150
 20
-3.383626
  0
VERTEX
  8
PLAN_1
  6
CONTINUOUS
 10
0.310102
 20
-3.382728
  0
VERTEX
  8
PLAN_1
  6
CONTINUOUS
 10
0.305610
 20
-3.381378
  0
VERTEX
  8
PLAN_1
  6
CONTINUOUS
 10
0.297520
 20
-3.380480
  0
VERTEX
  8
PLAN_1
  6
CONTINUOUS
 10
0.289878
 20
-3.380031
  0
VERTEX
  8
PLAN_1
  6
CONTINUOUS
 10
0.283134
 20
-3.380480
  0
VERTEX
  8
PLAN_1
  6
CONTINUOUS
 10
0.276843
 20
-3.381378
  0
VERTEX
  8
PLAN_1
  6
CONTINUOUS
 10
0.270551
 20
-3.382728
  0
VERTEX
  8
PLAN_1
  6
CONTINUOUS
 10
0.264709
 20
-3.384972
  0
VERTEX
  8
PLAN_1
  6
CONTINUOUS
 10
0.258866
 20
-3.387669
  0
VERTEX
  8
PLAN_1
  6
CONTINUOUS
 10
0.253472
 20
-3.391268
  0
VERTEX
  8
PLAN_1
  6
CONTINUOUS
 10
0.248528
 20
-3.395311
  0
VERTEX
  8
PLAN_1
  6
CONTINUOUS
 10
0.244031
 20
-3.399807
  0
VERTEX
  8
PLAN_1
  6
CONTINUOUS
 10
0.239539
 20
-3.405201
  0
VERTEX
  8
PLAN_1
  6
CONTINUOUS
 10
0.235941
 20
-3.411043
  0
VERTEX
  8
PLAN_1
  6
CONTINUOUS
 10
0.232795
 20
-3.417335
  0
VERTEX
  8
PLAN_1
  6
CONTINUOUS
 10
0.229650
 20
-3.424528
  0
VERTEX
  8
PLAN_1
  6
CONTINUOUS
 10
0.227854
 20
-3.432165
  0
VERTEX
  8
PLAN_1
  6
CONTINUOUS
 10
0.226055
 20
-3.440709
  0
VERTEX
  8
PLAN_1
  6
CONTINUOUS
 10
0.225157
 20
-3.449697
  0
VERTEX
  8
PLAN_1
  6
CONTINUOUS
 10
0.224705
 20
-3.459134
  0
VERTEX
  8
PLAN_1
  6
CONTINUOUS
 10
0.225157
 20
-3.467673
  0
VERTEX
  8
PLAN_1
  6
CONTINUOUS
 10
0.225606
 20
-3.476213
  0
VERTEX
  8
PLAN_1
  6
CONTINUOUS
 10
0.226504
 20
-3.484303
  0
VERTEX
  8
PLAN_1
  6
CONTINUOUS
 10
0.228303
 20
-3.491945
  0
VERTEX
  8
PLAN_1
  6
CONTINUOUS
 10
0.230098
 20
-3.499138
  0
VERTEX
  8
PLAN_1
  6
CONTINUOUS
 10
0.232795
 20
-3.505878
  0
VERTEX
  8
PLAN_1
  6
CONTINUOUS
 10
0.235492
 20
-3.512169
  0
VERTEX
  8
PLAN_1
  6
CONTINUOUS
 10
0.239091
 20
-3.518012
  0
VERTEX
  8
PLAN_1
  6
CONTINUOUS
 10
0.243583
 20
-3.523406
  0
VERTEX
  8
PLAN_1
  6
CONTINUOUS
 10
0.248079
 20
-3.528350
  0
VERTEX
  8
PLAN_1
  6
CONTINUOUS
 10
0.250776
 20
-3.530150
  0
VERTEX
  8
PLAN_1
  6
CONTINUOUS
 10
0.253472
 20
-3.532398
  0
VERTEX
  8
PLAN_1
  6
CONTINUOUS
 10
0.256618
 20
-3.534193
  0
VERTEX
  8
PLAN_1
  6
CONTINUOUS
 10
0.259764
 20
-3.535543
  0
VERTEX
  8
PLAN_1
  6
CONTINUOUS
 10
0.262909
 20
-3.537339
  0
VERTEX
  8
PLAN_1
  6
CONTINUOUS
 10
0.266504
 20
-3.538240
  0
VERTEX
  8
PLAN_1
  6
CONTINUOUS
 10
0.270102
 20
-3.539587
  0
VERTEX
  8
PLAN_1
  6
CONTINUOUS
 10
0.273697
 20
-3.540488
  0
VERTEX
  8
PLAN_1
  6
CONTINUOUS
 10
0.281787
 20
-3.541835
  0
VERTEX
  8
PLAN_1
  6
CONTINUOUS
 10
0.290776
 20
-3.541835
  0
VERTEX
  8
PLAN_1
  6
CONTINUOUS
 10
0.294374
 20
-3.541835
  0
VERTEX
  8
PLAN_1
  6
CONTINUOUS
 10
0.297969
 20
-3.541386
  0
VERTEX
  8
PLAN_1
  6
CONTINUOUS
 10
0.301563
 20
-3.540937
  0
VERTEX
  8
PLAN_1
  6
CONTINUOUS
 10
0.305610
 20
-3.540035
  0
VERTEX
  8
PLAN_1
  6
CONTINUOUS
 10
0.310102
 20
-3.538689
  0
VERTEX
  8
PLAN_1
  6
CONTINUOUS
 10
0.314150
 20
-3.536890
  0
VERTEX
  8
PLAN_1
  6
CONTINUOUS
 10
0.318193
 20
-3.534642
  0
VERTEX
  8
PLAN_1
  6
CONTINUOUS
 10
0.322240
 20
-3.531945
  0
VERTEX
  8
PLAN_1
  6
CONTINUOUS
 10
0.326283
 20
-3.528799
  0
VERTEX
  8
PLAN_1
  6
CONTINUOUS
 10
0.330327
 20
-3.525205
  0
VERTEX
  8
PLAN_1
  6
CONTINUOUS
 10
0.333925
 20
-3.520709
  0
VERTEX
  8
PLAN_1
  6
CONTINUOUS
 10
0.337520
 20
-3.515315
  0
VERTEX
  8
PLAN_1
  6
CONTINUOUS
 10
0.340665
 20
-3.509472
  0
VERTEX
  8
PLAN_1
  6
CONTINUOUS
 10
0.343362
 20
-3.503181
  0
VERTEX
  8
PLAN_1
  6
CONTINUOUS
 10
0.345610
 20
-3.495539
  0
VERTEX
  8
PLAN_1
  6
CONTINUOUS
 10
0.347858
 20
-3.487449
  0
VERTEX
  8
PLAN_1
  6
CONTINUOUS
 10
0.373925
 20
-3.487449
  0
VERTEX
  8
PLAN_1
  6
CONTINUOUS
 10
0.372579
 20
-3.494193
  0
VERTEX
  8
PLAN_1
  6
CONTINUOUS
 10
0.371228
 20
-3.500484
  0
VERTEX
  8
PLAN_1
  6
CONTINUOUS
 10
0.369433
 20
-3.506776
  0
VERTEX
  8
PLAN_1
  6
CONTINUOUS
 10
0.367634
 20
-3.512169
  0
VERTEX
  8
PLAN_1
  6
CONTINUOUS
 10
0.365386
 20
-3.517563
  0
VERTEX
  8
PLAN_1
  6
CONTINUOUS
 10
0.362689
 20
-3.522508
  0
VERTEX
  8
PLAN_1
  6
CONTINUOUS
 10
0.360441
 20
-3.527004
  0
VERTEX
  8
PLAN_1
  6
CONTINUOUS
 10
0.357744
 20
-3.531496
  0
VERTEX
  8
PLAN_1
  6
CONTINUOUS
 10
0.354598
 20
-3.535094
  0
VERTEX
  8
PLAN_1
  6
CONTINUOUS
 10
0.351453
 20
-3.538689
  0
VERTEX
  8
PLAN_1
  6
CONTINUOUS
 10
0.348307
 20
-3.542283
  0
VERTEX
  8
PLAN_1
  6
CONTINUOUS
 10
0.345161
 20
-3.545429
  0
VERTEX
  8
PLAN_1
  6
CONTINUOUS
 10
0.342016
 20
-3.548126
  0
VERTEX
  8
PLAN_1
  6
CONTINUOUS
 10
0.338417
 20
-3.550374
  0
VERTEX
  8
PLAN_1
  6
CONTINUOUS
 10
0.335272
 20
-3.552622
  0
VERTEX
  8
PLAN_1
  6
CONTINUOUS
 10
0.331677
 20
-3.554870
  0
VERTEX
  8
PLAN_1
  6
CONTINUOUS
 10
0.324937
 20
-3.558465
  0
VERTEX
  8
PLAN_1
  6
CONTINUOUS
 10
0.317744
 20
-3.560713
  0
VERTEX
  8
PLAN_1
  6
CONTINUOUS
 10
0.311453
 20
-3.562961
  0
VERTEX
  8
PLAN_1
  6
CONTINUOUS
 10
0.305157
 20
-3.564307
  0
VERTEX
  8
PLAN_1
  6
CONTINUOUS
 10
0.294374
 20
-3.565657
  0
VERTEX
  8
PLAN_1
  6
CONTINUOUS
 10
0.286732
 20
-3.566106
  0
VERTEX
  8
PLAN_1
  6
CONTINUOUS
 10
0.278193
 20
-3.565657
  0
VERTEX
  8
PLAN_1
  6
CONTINUOUS
 10
0.269654
 20
-3.564307
  0
VERTEX
  8
PLAN_1
  6
CONTINUOUS
 10
0.261563
 20
-3.562508
  0
VERTEX
  8
PLAN_1
  6
CONTINUOUS
 10
0.253472
 20
-3.560264
  0
VERTEX
  8
PLAN_1
  6
CONTINUOUS
 10
0.245831
 20
-3.556665
  0
VERTEX
  8
PLAN_1
  6
CONTINUOUS
 10
0.238189
 20
-3.552622
  0
VERTEX
  8
PLAN_1
  6
CONTINUOUS
 10
0.235043
 20
-3.550374
  0
VERTEX
  8
PLAN_1
  6
CONTINUOUS
 10
0.231449
 20
-3.547677
  0
VERTEX
  8
PLAN_1
  6
CONTINUOUS
 10
0.227854
 20
-3.544531
  0
VERTEX
  8
PLAN_1
  6
CONTINUOUS
 10
0.224705
 20
-3.541835
  0
VERTEX
  8
PLAN_1
  6
CONTINUOUS
 10
0.221559
 20
-3.538240
  0
VERTEX
  8
PLAN_1
  6
CONTINUOUS
 10
0.218862
 20
-3.534642
  0
VERTEX
  8
PLAN_1
  6
CONTINUOUS
 10
0.216165
 20
-3.531047
  0
VERTEX
  8
PLAN_1
  6
CONTINUOUS
 10
0.213469
 20
-3.527004
  0
VERTEX
  8
PLAN_1
  6
CONTINUOUS
 10
0.210772
 20
-3.522957
  0
VERTEX
  8
PLAN_1
  6
CONTINUOUS
 10
0.208528
 20
-3.518465
  0
VERTEX
  8
PLAN_1
  6
CONTINUOUS
 10
0.206728
 20
-3.513520
  0
VERTEX
  8
PLAN_1
  6
CONTINUOUS
 10
0.204480
 20
-3.508575
  0
VERTEX
  8
PLAN_1
  6
CONTINUOUS
 10
0.202681
 20
-3.503630
  0
VERTEX
  8
PLAN_1
  6
CONTINUOUS
 10
0.201335
 20
-3.498236
  0
VERTEX
  8
PLAN_1
  6
CONTINUOUS
 10
0.199984
 20
-3.492394
  0
VERTEX
  8
PLAN_1
  6
CONTINUOUS
 10
0.199087
 20
-3.486551
  0
VERTEX
  8
PLAN_1
  6
CONTINUOUS
 10
0.198189
 20
-3.480260
  0
VERTEX
  8
PLAN_1
  6
CONTINUOUS
 10
0.197287
 20
-3.473516
  0
VERTEX
  8
PLAN_1
  6
CONTINUOUS
 10
0.197287
 20
-3.466776
  0
VERTEX
  8
PLAN_1
  6
CONTINUOUS
 10
0.196839
 20
-3.460035
  0
VERTEX
  8
PLAN_1
  6
CONTINUOUS
 10
0.197287
 20
-3.448795
  0
VERTEX
  8
PLAN_1
  6
CONTINUOUS
 10
0.198638
 20
-3.438012
  0
VERTEX
  8
PLAN_1
  6
CONTINUOUS
 10
0.200437
 20
-3.427673
  0
VERTEX
  8
PLAN_1
  6
CONTINUOUS
 10
0.203134
 20
-3.417783
  0
VERTEX
  8
PLAN_1
  6
CONTINUOUS
 10
0.204929
 20
-3.413291
  0
VERTEX
  8
PLAN_1
  6
CONTINUOUS
 10
0.206728
 20
-3.408795
  0
VERTEX
  8
PLAN_1
  6
CONTINUOUS
 10
0.208976
 20
-3.404299
  0
VERTEX
  8
PLAN_1
  6
CONTINUOUS
 10
0.211224
 20
-3.400256
  0
VERTEX
  8
PLAN_1
  6
CONTINUOUS
 10
0.213469
 20
-3.396209
  0
VERTEX
  8
PLAN_1
  6
CONTINUOUS
 10
0.216165
 20
-3.392165
  0
VERTEX
  8
PLAN_1
  6
CONTINUOUS
 10
0.218862
 20
-3.388571
  0
VERTEX
  8
PLAN_1
  6
CONTINUOUS
 10
0.221559
 20
-3.384972
  0
VERTEX
  8
PLAN_1
  6
CONTINUOUS
 10
0.224705
 20
-3.381827
  0
VERTEX
  8
PLAN_1
  6
CONTINUOUS
 10
0.227854
 20
-3.378681
  0
VERTEX
  8
PLAN_1
  6
CONTINUOUS
 10
0.231449
 20
-3.375535
  0
VERTEX
  8
PLAN_1
  6
CONTINUOUS
 10
0.235043
 20
-3.372839
  0
VERTEX
  8
PLAN_1
  6
CONTINUOUS
 10
0.238638
 20
-3.370142
  0
VERTEX
  8
PLAN_1
  6
CONTINUOUS
 10
0.242685
 20
-3.367894
  0
VERTEX
  8
PLAN_1
  6
CONTINUOUS
 10
0.246728
 20
-3.365646
  0
VERTEX
  8
PLAN_1
  6
CONTINUOUS
 10
0.250776
 20
-3.363850
  0
VERTEX
  8
PLAN_1
  6
CONTINUOUS
 10
0.255268
 20
-3.362051
  0
VERTEX
  8
PLAN_1
  6
CONTINUOUS
 10
0.259764
 20
-3.360256
  0
VERTEX
  8
PLAN_1
  6
CONTINUOUS
 10
0.264709
 20
-3.358906
  0
VERTEX
  8
PLAN_1
  6
CONTINUOUS
 10
0.269201
 20
-3.358008
  0
VERTEX
  8
PLAN_1
  6
CONTINUOUS
 10
0.274146
 20
-3.357106
  0
VERTEX
  8
PLAN_1
  6
CONTINUOUS
 10
0.279539
 20
-3.356657
  0
VERTEX
  8
PLAN_1
  6
CONTINUOUS
 10
0.284484
 20
-3.356209
  0
VERTEX
  8
PLAN_1
  6
CONTINUOUS
 10
0.289878
 20
-3.356209
  0
VERTEX
  8
PLAN_1
  6
CONTINUOUS
 10
0.299315
 20
-3.356657
  0
VERTEX
  8
PLAN_1
  6
CONTINUOUS
 10
0.307854
 20
-3.357559
  0
VERTEX
  8
PLAN_1
  6
CONTINUOUS
 10
0.316394
 20
-3.359354
  0
VERTEX
  8
PLAN_1
  6
CONTINUOUS
 10
0.324035
 20
-3.361602
  0
VERTEX
  8
PLAN_1
  6
CONTINUOUS
 10
0.330780
 20
-3.364299
  0
VERTEX
  8
PLAN_1
  6
CONTINUOUS
 10
0.337520
 20
-3.367894
  0
VERTEX
  8
PLAN_1
  6
CONTINUOUS
 10
0.343362
 20
-3.371941
  0
VERTEX
  8
PLAN_1
  6
CONTINUOUS
 10
0.348756
 20
-3.375984
  0
VERTEX
  8
PLAN_1
  6
CONTINUOUS
 10
0.353701
 20
-3.380929
  0
VERTEX
  8
PLAN_1
  6
CONTINUOUS
 10
0.357744
 20
-3.385874
  0
VERTEX
  8
PLAN_1
  6
CONTINUOUS
 10
0.361343
 20
-3.391268
  0
VERTEX
  8
PLAN_1
  6
CONTINUOUS
 10
0.364488
 20
-3.397110
  0
VERTEX
  8
PLAN_1
  6
CONTINUOUS
 10
0.367185
 20
-3.402953
  0
VERTEX
  8
PLAN_1
  6
CONTINUOUS
 10
0.369433
 20
-3.408795
  0
VERTEX
  8
PLAN_1
  6
CONTINUOUS
 10
0.370780
 20
-3.415087
  0
VERTEX
  8
PLAN_1
  6
CONTINUOUS
 10
0.371677
 20
-3.421382
  0
VERTEX
  8
PLAN_1
  6
CONTINUOUS
 10
0.345610
 20
-3.421382
  0
SEQEND
  8
0
  0
POLYLINE
  8
PLAN_1
  6
CONTINUOUS
 66
     1
 40
0.003000
 41
0.003000
  0
VERTEX
  8
PLAN_1
  6
CONTINUOUS
 10
0.433256
 20
-3.560713
  0
VERTEX
  8
PLAN_1
  6
CONTINUOUS
 10
0.406287
 20
-3.560713
  0
VERTEX
  8
PLAN_1
  6
CONTINUOUS
 10
0.406287
 20
-3.361154
  0
VERTEX
  8
PLAN_1
  6
CONTINUOUS
 10
0.433256
 20
-3.361154
  0
VERTEX
  8
PLAN_1
  6
CONTINUOUS
 10
0.433256
 20
-3.457787
  0
VERTEX
  8
PLAN_1
  6
CONTINUOUS
 10
0.529890
 20
-3.361154
  0
VERTEX
  8
PLAN_1
  6
CONTINUOUS
 10
0.567193
 20
-3.361154
  0
VERTEX
  8
PLAN_1
  6
CONTINUOUS
 10
0.484043
 20
-3.442055
  0
VERTEX
  8
PLAN_1
  6
CONTINUOUS
 10
0.569441
 20
-3.560713
  0
VERTEX
  8
PLAN_1
  6
CONTINUOUS
 10
0.534382
 20
-3.560713
  0
VERTEX
  8
PLAN_1
  6
CONTINUOUS
 10
0.464717
 20
-3.460933
  0
VERTEX
  8
PLAN_1
  6
CONTINUOUS
 10
0.433256
 20
-3.490598
  0
VERTEX
  8
PLAN_1
  6
CONTINUOUS
 10
0.433256
 20
-3.560713
  0
SEQEND
  8
0
  0
POLYLINE
  8
PLAN_1
  6
CONTINUOUS
 66
     1
 40
0.003000
 41
0.003000
  0
VERTEX
  8
PLAN_1
  6
CONTINUOUS
 10
0.676409
 20
-3.560713
  0
VERTEX
  8
PLAN_1
  6
CONTINUOUS
 10
0.649445
 20
-3.560713
  0
VERTEX
  8
PLAN_1
  6
CONTINUOUS
 10
0.649445
 20
-3.480260
  0
VERTEX
  8
PLAN_1
  6
CONTINUOUS
 10
0.574386
 20
-3.361154
  0
VERTEX
  8
PLAN_1
  6
CONTINUOUS
 10
0.605846
 20
-3.361154
  0
VERTEX
  8
PLAN_1
  6
CONTINUOUS
 10
0.662929
 20
-3.456886
  0
VERTEX
  8
PLAN_1
  6
CONTINUOUS
 10
0.720008
 20
-3.361154
  0
VERTEX
  8
PLAN_1
  6
CONTINUOUS
 10
0.751921
 20
-3.361154
  0
VERTEX
  8
PLAN_1
  6
CONTINUOUS
 10
0.676409
 20
-3.480260
  0
VERTEX
  8
PLAN_1
  6
CONTINUOUS
 10
0.676409
 20
-3.560713
  0
SEQEND
  8
0
  0
POLYLINE
  8
PLAN_1
  6
CONTINUOUS
 66
     1
 40
0.003000
 41
0.003000
  0
VERTEX
  8
PLAN_1
  6
CONTINUOUS
 10
0.855295
 20
-3.560713
  0
VERTEX
  8
PLAN_1
  6
CONTINUOUS
 10
0.829228
 20
-3.560713
  0
VERTEX
  8
PLAN_1
  6
CONTINUOUS
 10
0.829228
 20
-3.422280
  0
VERTEX
  8
PLAN_1
  6
CONTINUOUS
 10
0.783831
 20
-3.422280
  0
VERTEX
  8
PLAN_1
  6
CONTINUOUS
 10
0.783831
 20
-3.402504
  0
VERTEX
  8
PLAN_1
  6
CONTINUOUS
 10
0.794618
 20
-3.401602
  0
VERTEX
  8
PLAN_1
  6
CONTINUOUS
 10
0.804055
 20
-3.400256
  0
VERTEX
  8
PLAN_1
  6
CONTINUOUS
 10
0.808551
 20
-3.399358
  0
VERTEX
  8
PLAN_1
  6
CONTINUOUS
 10
0.812146
 20
-3.398457
  0
VERTEX
  8
PLAN_1
  6
CONTINUOUS
 10
0.815744
 20
-3.397110
  0
VERTEX
  8
PLAN_1
  6
CONTINUOUS
 10
0.818890
 20
-3.395311
  0
VERTEX
  8
PLAN_1
  6
CONTINUOUS
 10
0.822035
 20
-3.393063
  0
VERTEX
  8
PLAN_1
  6
CONTINUOUS
 10
0.824732
 20
-3.390819
  0
VERTEX
  8
PLAN_1
  6
CONTINUOUS
 10
0.826980
 20
-3.387669
  0
VERTEX
  8
PLAN_1
  6
CONTINUOUS
 10
0.829228
 20
-3.384524
  0
VERTEX
  8
PLAN_1
  6
CONTINUOUS
 10
0.831024
 20
-3.380480
  0
VERTEX
  8
PLAN_1
  6
CONTINUOUS
 10
0.832823
 20
-3.375984
  0
VERTEX
  8
PLAN_1
  6
CONTINUOUS
 10
0.834618
 20
-3.371039
  0
VERTEX
  8
PLAN_1
  6
CONTINUOUS
 10
0.836417
 20
-3.365646
  0
VERTEX
  8
PLAN_1
  6
CONTINUOUS
 10
0.855295
 20
-3.365646
  0
VERTEX
  8
PLAN_1
  6
CONTINUOUS
 10
0.855295
 20
-3.560713
  0
SEQEND
  8
0
  0
POLYLINE
  8
PLAN_1
  6
CONTINUOUS
 66
     1
 40
0.003000
 41
0.003000
  0
VERTEX
  8
PLAN_1
  6
CONTINUOUS
 10
1.093957
 20
-3.406098
  0
VERTEX
  8
PLAN_1
  6
CONTINUOUS
 10
1.112835
 20
-3.406098
  0
VERTEX
  8
PLAN_1
  6
CONTINUOUS
 10
1.108787
 20
-3.420929
  0
VERTEX
  8
PLAN_1
  6
CONTINUOUS
 10
1.104295
 20
-3.435764
  0
VERTEX
  8
PLAN_1
  6
CONTINUOUS
 10
1.100248
 20
-3.450146
  0
VERTEX
  8
PLAN_1
  6
CONTINUOUS
 10
1.096205
 20
-3.463181
  0
VERTEX
  8
PLAN_1
  6
CONTINUOUS
 10
1.093059
 20
-3.475315
  0
VERTEX
  8
PLAN_1
  6
CONTINUOUS
 10
1.090362
 20
-3.484752
  0
VERTEX
  8
PLAN_1
  6
CONTINUOUS
 10
1.088563
 20
-3.492394
  0
VERTEX
  8
PLAN_1
  6
CONTINUOUS
 10
1.087665
 20
-3.496890
  0
VERTEX
  8
PLAN_1
  6
CONTINUOUS
 10
1.087665
 20
-3.498685
  0
VERTEX
  8
PLAN_1
  6
CONTINUOUS
 10
1.088114
 20
-3.500484
  0
VERTEX
  8
PLAN_1
  6
CONTINUOUS
 10
1.088563
 20
-3.501835
  0
VERTEX
  8
PLAN_1
  6
CONTINUOUS
 10
1.089012
 20
-3.502732
  0
VERTEX
  8
PLAN_1
  6
CONTINUOUS
 10
1.089913
 20
-3.503630
  0
VERTEX
  8
PLAN_1
  6
CONTINUOUS
 10
1.090811
 20
-3.504531
  0
VERTEX
  8
PLAN_1
  6
CONTINUOUS
 10
1.092157
 20
-3.504531
  0
VERTEX
  8
PLAN_1
  6
CONTINUOUS
 10
1.093508
 20
-3.504980
  0
VERTEX
  8
PLAN_1
  6
CONTINUOUS
 10
1.097102
 20
-3.504531
  0
VERTEX
  8
PLAN_1
  6
CONTINUOUS
 10
1.100701
 20
-3.503630
  0
VERTEX
  8
PLAN_1
  6
CONTINUOUS
 10
1.104295
 20
-3.501835
  0
VERTEX
  8
PLAN_1
  6
CONTINUOUS
 10
1.107890
 20
-3.499587
  0
VERTEX
  8
PLAN_1
  6
CONTINUOUS
 10
1.111035
 20
-3.496890
  0
VERTEX
  8
PLAN_1
  6
CONTINUOUS
 10
1.114181
 20
-3.493744
  0
VERTEX
  8
PLAN_1
  6
CONTINUOUS
 10
1.117331
 20
-3.490146
  0
VERTEX
  8
PLAN_1
  6
CONTINUOUS
 10
1.120476
 20
-3.486102
  0
VERTEX
  8
PLAN_1
  6
CONTINUOUS
 10
1.123173
 20
-3.481606
  0
VERTEX
  8
PLAN_1
  6
CONTINUOUS
 10
1.125417
 20
-3.477114
  0
VERTEX
  8
PLAN_1
  6
CONTINUOUS
 10
1.127665
 20
-3.472169
  0
VERTEX
  8
PLAN_1
  6
CONTINUOUS
 10
1.129465
 20
-3.466776
  0
VERTEX
  8
PLAN_1
  6
CONTINUOUS
 10
1.130811
 20
-3.461382
  0
VERTEX
  8
PLAN_1
  6
CONTINUOUS
 10
1.132161
 20
-3.455988
  0
VERTEX
  8
PLAN_1
  6
CONTINUOUS
 10
1.132610
 20
-3.450594
  0
VERTEX
  8
PLAN_1
  6
CONTINUOUS
 10
1.133059
 20
-3.444752
  0
VERTEX
  8
PLAN_1
  6
CONTINUOUS
 10
1.132610
 20
-3.436661
  0
VERTEX
  8
PLAN_1
  6
CONTINUOUS
 10
1.131264
 20
-3.429020
  0
VERTEX
  8
PLAN_1
  6
CONTINUOUS
 10
1.129465
 20
-3.421831
  0
VERTEX
  8
PLAN_1
  6
CONTINUOUS
 10
1.126768
 20
-3.415087
  0
VERTEX
  8
PLAN_1
  6
CONTINUOUS
 10
1.123622
 20
-3.408795
  0
VERTEX
  8
PLAN_1
  6
CONTINUOUS
 10
1.119575
 20
-3.402504
  0
VERTEX
  8
PLAN_1
  6
CONTINUOUS
 10
1.115083
 20
-3.397110
  0
VERTEX
  8
PLAN_1
  6
CONTINUOUS
 10
1.110138
 20
-3.392614
  0
VERTEX
  8
PLAN_1
  6
CONTINUOUS
 10
1.104295
 20
-3.388122
  0
VERTEX
  8
PLAN_1
  6
CONTINUOUS
 10
1.098453
 20
-3.384075
  0
VERTEX
  8
PLAN_1
  6
CONTINUOUS
 10
1.092157
 20
-3.380929
  0
VERTEX
  8
PLAN_1
  6
CONTINUOUS
 10
1.085417
 20
-3.378232
  0
VERTEX
  8
PLAN_1
  6
CONTINUOUS
 10
1.078224
 20
-3.375984
  0
VERTEX
  8
PLAN_1
  6
CONTINUOUS
 10
1.071035
 20
-3.374638
  0
VERTEX
  8
PLAN_1
  6
CONTINUOUS
 10
1.063394
 20
-3.373736
  0
VERTEX
  8
PLAN_1
  6
CONTINUOUS
 10
1.055303
 20
-3.373287
  0
VERTEX
  8
PLAN_1
  6
CONTINUOUS
 10
1.050811
 20
-3.373287
  0
VERTEX
  8
PLAN_1
  6
CONTINUOUS
 10
1.046315
 20
-3.373736
  0
VERTEX
  8
PLAN_1
  6
CONTINUOUS
 10
1.041819
 20
-3.374189
  0
VERTEX
  8
PLAN_1
  6
CONTINUOUS
 10
1.037776
 20
-3.375087
  0
VERTEX
  8
PLAN_1
  6
CONTINUOUS
 10
1.029236
 20
-3.377335
  0
VERTEX
  8
PLAN_1
  6
CONTINUOUS
 10
1.021594
 20
-3.380480
  0
VERTEX
  8
PLAN_1
  6
CONTINUOUS
 10
1.013953
 20
-3.384075
  0
VERTEX
  8
PLAN_1
  6
CONTINUOUS
 10
1.007213
 20
-3.388571
  0
VERTEX
  8
PLAN_1
  6
CONTINUOUS
 10
1.000469
 20
-3.393516
  0
VERTEX
  8
PLAN_1
  6
CONTINUOUS
 10
0.994626
 20
-3.399358
  0
VERTEX
  8
PLAN_1
  6
CONTINUOUS
 10
0.989681
 20
-3.405650
  0
VERTEX
  8
PLAN_1
  6
CONTINUOUS
 10
0.984740
 20
-3.412390
  0
VERTEX
  8
PLAN_1
  6
CONTINUOUS
 10
0.980693
 20
-3.419583
  0
VERTEX
  8
PLAN_1
  6
CONTINUOUS
 10
0.977547
 20
-3.427673
  0
VERTEX
  8
PLAN_1
  6
CONTINUOUS
 10
0.974850
 20
-3.435764
  0
VERTEX
  8
PLAN_1
  6
CONTINUOUS
 10
0.972602
 20
-3.444303
  0
VERTEX
  8
PLAN_1
  6
CONTINUOUS
 10
0.971705
 20
-3.452843
  0
VERTEX
  8
PLAN_1
  6
CONTINUOUS
 10
0.971256
 20
-3.462280
  0
VERTEX
  8
PLAN_1
  6
CONTINUOUS
 10
0.971705
 20
-3.471272
  0
VERTEX
  8
PLAN_1
  6
CONTINUOUS
 10
0.973051
 20
-3.479811
  0
VERTEX
  8
PLAN_1
  6
CONTINUOUS
 10
0.974850
 20
-3.488350
  0
VERTEX
  8
PLAN_1
  6
CONTINUOUS
 10
0.977996
 20
-3.496441
  0
VERTEX
  8
PLAN_1
  6
CONTINUOUS
 10
0.981594
 20
-3.504079
  0
VERTEX
  8
PLAN_1
  6
CONTINUOUS
 10
0.985638
 20
-3.511272
  0
VERTEX
  8
PLAN_1
  6
CONTINUOUS
 10
0.990583
 20
-3.517563
  0
VERTEX
  8
PLAN_1
  6
CONTINUOUS
 10
0.995976
 20
-3.523858
  0
VERTEX
  8
PLAN_1
  6
CONTINUOUS
 10
1.002268
 20
-3.529248
  0
VERTEX
  8
PLAN_1
  6
CONTINUOUS
 10
1.009008
 20
-3.534193
  0
VERTEX
  8
PLAN_1
  6
CONTINUOUS
 10
1.015752
 20
-3.538689
  0
VERTEX
  8
PLAN_1
  6
CONTINUOUS
 10
1.023394
 20
-3.542283
  0
VERTEX
  8
PLAN_1
  6
CONTINUOUS
 10
1.031484
 20
-3.544980
  0
VERTEX
  8
PLAN_1
  6
CONTINUOUS
 10
1.040024
 20
-3.546780
  0
VERTEX
  8
PLAN_1
  6
CONTINUOUS
 10
1.048563
 20
-3.548126
  0
VERTEX
  8
PLAN_1
  6
CONTINUOUS
 10
1.057551
 20
-3.548575
  0
VERTEX
  8
PLAN_1
  6
CONTINUOUS
 10
1.062496
 20
-3.548575
  0
VERTEX
  8
PLAN_1
  6
CONTINUOUS
 10
1.066988
 20
-3.548126
  0
VERTEX
  8
PLAN_1
  6
CONTINUOUS
 10
1.071933
 20
-3.547228
  0
VERTEX
  8
PLAN_1
  6
CONTINUOUS
 10
1.076878
 20
-3.546331
  0
VERTEX
  8
PLAN_1
  6
CONTINUOUS
 10
1.081374
 20
-3.545429
  0
VERTEX
  8
PLAN_1
  6
CONTINUOUS
 10
1.085866
 20
-3.543634
  0
VERTEX
  8
PLAN_1
  6
CONTINUOUS
 10
1.090362
 20
-3.542283
  0
VERTEX
  8
PLAN_1
  6
CONTINUOUS
 10
1.094854
 20
-3.540035
  0
VERTEX
  8
PLAN_1
  6
CONTINUOUS
 10
1.099350
 20
-3.537791
  0
VERTEX
  8
PLAN_1
  6
CONTINUOUS
 10
1.103394
 20
-3.535543
  0
VERTEX
  8
PLAN_1
  6
CONTINUOUS
 10
1.107441
 20
-3.532846
  0
VERTEX
  8
PLAN_1
  6
CONTINUOUS
 10
1.111484
 20
-3.530150
  0
VERTEX
  8
PLAN_1
  6
CONTINUOUS
 10
1.115083
 20
-3.527004
  0
VERTEX
  8
PLAN_1
  6
CONTINUOUS
 10
1.118677
 20
-3.523858
  0
VERTEX
  8
PLAN_1
  6
CONTINUOUS
 10
1.121823
 20
-3.520709
  0
VERTEX
  8
PLAN_1
  6
CONTINUOUS
 10
1.124969
 20
-3.517114
  0
VERTEX
  8
PLAN_1
  6
CONTINUOUS
 10
1.143398
 20
-3.517114
  0
VERTEX
  8
PLAN_1
  6
CONTINUOUS
 10
1.139803
 20
-3.522508
  0
VERTEX
  8
PLAN_1
  6
CONTINUOUS
 10
1.136205
 20
-3.527902
  0
VERTEX
  8
PLAN_1
  6
CONTINUOUS
 10
1.131713
 20
-3.532846
  0
VERTEX
  8
PLAN_1
  6
CONTINUOUS
 10
1.127217
 20
-3.537339
  0
VERTEX
  8
PLAN_1
  6
CONTINUOUS
 10
1.122720
 20
-3.541835
  0
VERTEX
  8
PLAN_1
  6
CONTINUOUS
 10
1.117331
 20
-3.545878
  0
VERTEX
  8
PLAN_1
  6
CONTINUOUS
 10
1.112386
 20
-3.549476
  0
VERTEX
  8
PLAN_1
  6
CONTINUOUS
 10
1.106992
 20
-3.552622
  0
VERTEX
  8
PLAN_1
  6
CONTINUOUS
 10
1.101150
 20
-3.555768
  0
VERTEX
  8
PLAN_1
  6
CONTINUOUS
 10
1.095307
 20
-3.558465
  0
VERTEX
  8
PLAN_1
  6
CONTINUOUS
 10
1.089012
 20
-3.560713
  0
VERTEX
  8
PLAN_1
  6
CONTINUOUS
 10
1.082720
 20
-3.562508
  0
VERTEX
  8
PLAN_1
  6
CONTINUOUS
 10
1.076429
 20
-3.563858
  0
VERTEX
  8
PLAN_1
  6
CONTINUOUS
 10
1.070134
 20
-3.565205
  0
VERTEX
  8
PLAN_1
  6
CONTINUOUS
 10
1.063394
 20
-3.565657
  0
VERTEX
  8
PLAN_1
  6
CONTINUOUS
 10
1.057102
 20
-3.566106
  0
VERTEX
  8
PLAN_1
  6
CONTINUOUS
 10
1.051260
 20
-3.565657
  0
VERTEX
  8
PLAN_1
  6
CONTINUOUS
 10
1.045866
 20
-3.565205
  0
VERTEX
  8
PLAN_1
  6
CONTINUOUS
 10
1.040472
 20
-3.564756
  0
VERTEX
  8
PLAN_1
  6
CONTINUOUS
 10
1.035079
 20
-3.563858
  0
VERTEX
  8
PLAN_1
  6
CONTINUOUS
 10
1.030134
 20
-3.562508
  0
VERTEX
  8
PLAN_1
  6
CONTINUOUS
 10
1.025189
 20
-3.561161
  0
VERTEX
  8
PLAN_1
  6
CONTINUOUS
 10
1.020244
 20
-3.559815
  0
VERTEX
  8
PLAN_1
  6
CONTINUOUS
 10
1.015303
 20
-3.557567
  0
VERTEX
  8
PLAN_1
  6
CONTINUOUS
 10
1.010358
 20
-3.555768
  0
VERTEX
  8
PLAN_1
  6
CONTINUOUS
 10
1.005862
 20
-3.553520
  0
VERTEX
  8
PLAN_1
  6
CONTINUOUS
 10
1.001370
 20
-3.550823
  0
VERTEX
  8
PLAN_1
  6
CONTINUOUS
 10
0.997323
 20
-3.548126
  0
VERTEX
  8
PLAN_1
  6
CONTINUOUS
 10
0.993280
 20
-3.545429
  0
VERTEX
  8
PLAN_1
  6
CONTINUOUS
 10
0.989232
 20
-3.542283
  0
VERTEX
  8
PLAN_1
  6
CONTINUOUS
 10
0.985189
 20
-3.538689
  0
VERTEX
  8
PLAN_1
  6
CONTINUOUS
 10
0.981594
 20
-3.535543
  0
VERTEX
  8
PLAN_1
  6
CONTINUOUS
 10
0.977996
 20
-3.531496
  0
VERTEX
  8
PLAN_1
  6
CONTINUOUS
 10
0.974850
 20
-3.527902
  0
VERTEX
  8
PLAN_1
  6
CONTINUOUS
 10
0.971705
 20
-3.523858
  0
VERTEX
  8
PLAN_1
  6
CONTINUOUS
 10
0.968559
 20
-3.519811
  0
VERTEX
  8
PLAN_1
  6
CONTINUOUS
 10
0.965862
 20
-3.515315
  0
VERTEX
  8
PLAN_1
  6
CONTINUOUS
 10
0.963614
 20
-3.511272
  0
VERTEX
  8
PLAN_1
  6
CONTINUOUS
 10
0.961366
 20
-3.506327
  0
VERTEX
  8
PLAN_1
  6
CONTINUOUS
 10
0.959118
 20
-3.501835
  0
VERTEX
  8
PLAN_1
  6
CONTINUOUS
 10
0.957323
 20
-3.496890
  0
VERTEX
  8
PLAN_1
  6
CONTINUOUS
 10
0.955524
 20
-3.491945
  0
VERTEX
  8
PLAN_1
  6
CONTINUOUS
 10
0.954177
 20
-3.487000
  0
VERTEX
  8
PLAN_1
  6
CONTINUOUS
 10
0.952827
 20
-3.482055
  0
VERTEX
  8
PLAN_1
  6
CONTINUOUS
 10
0.951929
 20
-3.476665
  0
VERTEX
  8
PLAN_1
  6
CONTINUOUS
 10
0.951480
 20
-3.471272
  0
VERTEX
  8
PLAN_1
  6
CONTINUOUS
 10
0.951031
 20
-3.465878
  0
VERTEX
  8
PLAN_1
  6
CONTINUOUS
 10
0.951031
 20
-3.460484
  0
VERTEX
  8
PLAN_1
  6
CONTINUOUS
 10
0.951031
 20
-3.455091
  0
VERTEX
  8
PLAN_1
  6
CONTINUOUS
 10
0.951480
 20
-3.449697
  0
VERTEX
  8
PLAN_1
  6
CONTINUOUS
 10
0.951929
 20
-3.444303
  0
VERTEX
  8
PLAN_1
  6
CONTINUOUS
 10
0.952827
 20
-3.439358
  0
VERTEX
  8
PLAN_1
  6
CONTINUOUS
 10
0.954177
 20
-3.434413
  0
VERTEX
  8
PLAN_1
  6
CONTINUOUS
 10
0.955524
 20
-3.429469
  0
VERTEX
  8
PLAN_1
  6
CONTINUOUS
 10
0.957323
 20
-3.424528
  0
VERTEX
  8
PLAN_1
  6
CONTINUOUS
 10
0.959118
 20
-3.419583
  0
VERTEX
  8
PLAN_1
  6
CONTINUOUS
 10
0.961366
 20
-3.415087
  0
VERTEX
  8
PLAN_1
  6
CONTINUOUS
 10
0.963614
 20
-3.410594
  0
VERTEX
  8
PLAN_1
  6
CONTINUOUS
 10
0.966311
 20
-3.406098
  0
VERTEX
  8
PLAN_1
  6
CONTINUOUS
 10
0.969008
 20
-3.402055
  0
VERTEX
  8
PLAN_1
  6
CONTINUOUS
 10
0.971705
 20
-3.398008
  0
VERTEX
  8
PLAN_1
  6
CONTINUOUS
 10
0.974850
 20
-3.393965
  0
VERTEX
  8
PLAN_1
  6
CONTINUOUS
 10
0.978445
 20
-3.389917
  0
VERTEX
  8
PLAN_1
  6
CONTINUOUS
 10
0.981594
 20
-3.386323
  0
VERTEX
  8
PLAN_1
  6
CONTINUOUS
 10
0.985189
 20
-3.383177
  0
VERTEX
  8
PLAN_1
  6
CONTINUOUS
 10
0.989232
 20
-3.379579
  0
VERTEX
  8
PLAN_1
  6
CONTINUOUS
 10
0.993280
 20
-3.376886
  0
VERTEX
  8
PLAN_1
  6
CONTINUOUS
 10
0.997323
 20
-3.373736
  0
VERTEX
  8
PLAN_1
  6
CONTINUOUS
 10
1.001370
 20
-3.371039
  0
VERTEX
  8
PLAN_1
  6
CONTINUOUS
 10
1.005862
 20
-3.368795
  0
VERTEX
  8
PLAN_1
  6
CONTINUOUS
 10
1.010358
 20
-3.366098
  0
VERTEX
  8
PLAN_1
  6
CONTINUOUS
 10
1.014854
 20
-3.364299
  0
VERTEX
  8
PLAN_1
  6
CONTINUOUS
 10
1.019795
 20
-3.362500
  0
VERTEX
  8
PLAN_1
  6
CONTINUOUS
 10
1.024740
 20
-3.360705
  0
VERTEX
  8
PLAN_1
  6
CONTINUOUS
 10
1.029685
 20
-3.359354
  0
VERTEX
  8
PLAN_1
  6
CONTINUOUS
 10
1.034630
 20
-3.358008
  0
VERTEX
  8
PLAN_1
  6
CONTINUOUS
 10
1.039571
 20
-3.357106
  0
VERTEX
  8
PLAN_1
  6
CONTINUOUS
 10
1.044965
 20
-3.356657
  0
VERTEX
  8
PLAN_1
  6
CONTINUOUS
 10
1.050358
 20
-3.356209
  0
VERTEX
  8
PLAN_1
  6
CONTINUOUS
 10
1.055303
 20
-3.356209
  0
VERTEX
  8
PLAN_1
  6
CONTINUOUS
 10
1.065193
 20
-3.356657
  0
VERTEX
  8
PLAN_1
  6
CONTINUOUS
 10
1.074181
 20
-3.357559
  0
VERTEX
  8
PLAN_1
  6
CONTINUOUS
 10
1.083618
 20
-3.359803
  0
VERTEX
  8
PLAN_1
  6
CONTINUOUS
 10
1.092157
 20
-3.362500
  0
VERTEX
  8
PLAN_1
  6
CONTINUOUS
 10
1.100248
 20
-3.366098
  0
VERTEX
  8
PLAN_1
  6
CONTINUOUS
 10
1.108339
 20
-3.370142
  0
VERTEX
  8
PLAN_1
  6
CONTINUOUS
 10
1.115531
 20
-3.375087
  0
VERTEX
  8
PLAN_1
  6
CONTINUOUS
 10
1.122720
 20
-3.380480
  0
VERTEX
  8
PLAN_1
  6
CONTINUOUS
 10
1.128567
 20
-3.386323
  0
VERTEX
  8
PLAN_1
  6
CONTINUOUS
 10
1.134409
 20
-3.393063
  0
VERTEX
  8
PLAN_1
  6
CONTINUOUS
 10
1.136654
 20
-3.396661
  0
VERTEX
  8
PLAN_1
  6
CONTINUOUS
 10
1.139350
 20
-3.400256
  0
VERTEX
  8
PLAN_1
  6
CONTINUOUS
 10
1.141150
 20
-3.403850
  0
VERTEX
  8
PLAN_1
  6
CONTINUOUS
 10
1.143398
 20
-3.407898
  0
VERTEX
  8
PLAN_1
  6
CONTINUOUS
 10
1.145197
 20
-3.411941
  0
VERTEX
  8
PLAN_1
  6
CONTINUOUS
 10
1.146543
 20
-3.415988
  0
VERTEX
  8
PLAN_1
  6
CONTINUOUS
 10
1.147894
 20
-3.420031
  0
VERTEX
  8
PLAN_1
  6
CONTINUOUS
 10
1.148791
 20
-3.424528
  0
VERTEX
  8
PLAN_1
  6
CONTINUOUS
 10
1.149689
 20
-3.429020
  0
VERTEX
  8
PLAN_1
  6
CONTINUOUS
 10
1.150591
 20
-3.433516
  0
VERTEX
  8
PLAN_1
  6
CONTINUOUS
 10
1.151039
 20
-3.438012
  0
VERTEX
  8
PLAN_1
  6
CONTINUOUS
 10
1.151039
 20
-3.442504
  0
VERTEX
  8
PLAN_1
  6
CONTINUOUS
 10
1.151039
 20
-3.447449
  0
VERTEX
  8
PLAN_1
  6
CONTINUOUS
 10
1.150591
 20
-3.451945
  0
VERTEX
  8
PLAN_1
  6
CONTINUOUS
 10
1.150138
 20
-3.456437
  0
VERTEX
  8
PLAN_1
  6
CONTINUOUS
 10
1.149240
 20
-3.460484
  0
VERTEX
  8
PLAN_1
  6
CONTINUOUS
 10
1.146992
 20
-3.468575
  0
VERTEX
  8
PLAN_1
  6
CONTINUOUS
 10
1.144295
 20
-3.476213
  0
VERTEX
  8
PLAN_1
  6
CONTINUOUS
 10
1.140701
 20
-3.483406
  0
VERTEX
  8
PLAN_1
  6
CONTINUOUS
 10
1.136654
 20
-3.490146
  0
VERTEX
  8
PLAN_1
  6
CONTINUOUS
 10
1.132161
 20
-3.495988
  0
VERTEX
  8
PLAN_1
  6
CONTINUOUS
 10
1.127217
 20
-3.501835
  0
VERTEX
  8
PLAN_1
  6
CONTINUOUS
 10
1.121823
 20
-3.506327
  0
VERTEX
  8
PLAN_1
  6
CONTINUOUS
 10
1.116429
 20
-3.510823
  0
VERTEX
  8
PLAN_1
  6
CONTINUOUS
 10
1.111035
 20
-3.514417
  0
VERTEX
  8
PLAN_1
  6
CONTINUOUS
 10
1.105642
 20
-3.517563
  0
VERTEX
  8
PLAN_1
  6
CONTINUOUS
 10
1.099799
 20
-3.519811
  0
VERTEX
  8
PLAN_1
  6
CONTINUOUS
 10
1.094406
 20
-3.521610
  0
VERTEX
  8
PLAN_1
  6
CONTINUOUS
 10
1.089461
 20
-3.522508
  0
VERTEX
  8
PLAN_1
  6
CONTINUOUS
 10
1.084520
 20
-3.522957
  0
VERTEX
  8
PLAN_1
  6
CONTINUOUS
 10
1.081374
 20
-3.522508
  0
VERTEX
  8
PLAN_1
  6
CONTINUOUS
 10
1.077776
 20
-3.521610
  0
VERTEX
  8
PLAN_1
  6
CONTINUOUS
 10
1.075079
 20
-3.520709
  0
VERTEX
  8
PLAN_1
  6
CONTINUOUS
 10
1.072382
 20
-3.518465
  0
VERTEX
  8
PLAN_1
  6
CONTINUOUS
 10
1.070134
 20
-3.516217
  0
VERTEX
  8
PLAN_1
  6
CONTINUOUS
 10
1.068787
 20
-3.513071
  0
VERTEX
  8
PLAN_1
  6
CONTINUOUS
 10
1.067441
 20
-3.509472
  0
VERTEX
  8
PLAN_1
  6
CONTINUOUS
 10
1.066988
 20
-3.505429
  0
VERTEX
  8
PLAN_1
  6
CONTINUOUS
 10
1.066539
 20
-3.505878
  0
VERTEX
  8
PLAN_1
  6
CONTINUOUS
 10
1.062945
 20
-3.509024
  0
VERTEX
  8
PLAN_1
  6
CONTINUOUS
 10
1.059799
 20
-3.512169
  0
VERTEX
  8
PLAN_1
  6
CONTINUOUS
 10
1.055752
 20
-3.514866
  0
VERTEX
  8
PLAN_1
  6
CONTINUOUS
 10
1.051709
 20
-3.517563
  0
VERTEX
  8
PLAN_1
  6
CONTINUOUS
 10
1.047213
 20
-3.519811
  0
VERTEX
  8
PLAN_1
  6
CONTINUOUS
 10
1.042720
 20
-3.521610
  0
VERTEX
  8
PLAN_1
  6
CONTINUOUS
 10
1.037776
 20
-3.522508
  0
VERTEX
  8
PLAN_1
  6
CONTINUOUS
 10
1.032831
 20
-3.522957
  0
VERTEX
  8
PLAN_1
  6
CONTINUOUS
 10
1.028787
 20
-3.522508
  0
VERTEX
  8
PLAN_1
  6
CONTINUOUS
 10
1.024291
 20
-3.522059
  0
VERTEX
  8
PLAN_1
  6
CONTINUOUS
 10
1.020244
 20
-3.520709
  0
VERTEX
  8
PLAN_1
  6
CONTINUOUS
 10
1.016650
 20
-3.519362
  0
VERTEX
  8
PLAN_1
  6
CONTINUOUS
 10
1.013055
 20
-3.517563
  0
VERTEX
  8
PLAN_1
  6
CONTINUOUS
 10
1.009461
 20
-3.515315
  0
VERTEX
  8
PLAN_1
  6
CONTINUOUS
 10
1.006311
 20
-3.512618
  0
VERTEX
  8
PLAN_1
  6
CONTINUOUS
 10
1.003614
 20
-3.509925
  0
VERTEX
  8
PLAN_1
  6
CONTINUOUS
 10
1.000921
 20
-3.506776
  0
VERTEX
  8
PLAN_1
  6
CONTINUOUS
 10
0.998673
 20
-3.503181
  0
VERTEX
  8
PLAN_1
  6
CONTINUOUS
 10
0.996874
 20
-3.499587
  0
VERTEX
  8
PLAN_1
  6
CONTINUOUS
 10
0.995075
 20
-3.495539
  0
VERTEX
  8
PLAN_1
  6
CONTINUOUS
 10
0.994177
 20
-3.491496
  0
VERTEX
  8
PLAN_1
  6
CONTINUOUS
 10
0.992831
 20
-3.487449
  0
VERTEX
  8
PLAN_1
  6
CONTINUOUS
 10
0.992378
 20
-3.482957
  0
VERTEX
  8
PLAN_1
  6
CONTINUOUS
 10
0.992378
 20
-3.478461
  0
VERTEX
  8
PLAN_1
  6
CONTINUOUS
 10
0.992378
 20
-3.471272
  0
VERTEX
  8
PLAN_1
  6
CONTINUOUS
 10
0.993280
 20
-3.464528
  0
VERTEX
  8
PLAN_1
  6
CONTINUOUS
 10
0.995075
 20
-3.457339
  0
VERTEX
  8
PLAN_1
  6
CONTINUOUS
 10
0.996874
 20
-3.450594
  0
VERTEX
  8
PLAN_1
  6
CONTINUOUS
 10
0.999122
 20
-3.444303
  0
VERTEX
  8
PLAN_1
  6
CONTINUOUS
 10
1.002268
 20
-3.437559
  0
VERTEX
  8
PLAN_1
  6
CONTINUOUS
 10
1.005862
 20
-3.431717
  0
VERTEX
  8
PLAN_1
  6
CONTINUOUS
 10
1.009909
 20
-3.426323
  0
VERTEX
  8
PLAN_1
  6
CONTINUOUS
 10
1.014402
 20
-3.420929
  0
VERTEX
  8
PLAN_1
  6
CONTINUOUS
 10
1.018898
 20
-3.416437
  0
VERTEX
  8
PLAN_1
  6
CONTINUOUS
 10
1.024291
 20
-3.411941
  0
VERTEX
  8
PLAN_1
  6
CONTINUOUS
 10
1.030134
 20
-3.408795
  0
VERTEX
  8
PLAN_1
  6
CONTINUOUS
 10
1.035976
 20
-3.405650
  0
VERTEX
  8
PLAN_1
  6
CONTINUOUS
 10
1.042720
 20
-3.403850
  0
VERTEX
  8
PLAN_1
  6
CONTINUOUS
 10
1.049461
 20
-3.402504
  0
VERTEX
  8
PLAN_1
  6
CONTINUOUS
 10
1.056201
 20
-3.402055
  0
VERTEX
  8
PLAN_1
  6
CONTINUOUS
 10
1.061146
 20
-3.402055
  0
VERTEX
  8
PLAN_1
  6
CONTINUOUS
 10
1.066091
 20
-3.402953
  0
VERTEX
  8
PLAN_1
  6
CONTINUOUS
 10
1.070587
 20
-3.404752
  0
VERTEX
  8
PLAN_1
  6
CONTINUOUS
 10
1.074630
 20
-3.406996
  0
VERTEX
  8
PLAN_1
  6
CONTINUOUS
 10
1.078677
 20
-3.409693
  0
VERTEX
  8
PLAN_1
  6
CONTINUOUS
 10
1.082272
 20
-3.413740
  0
VERTEX
  8
PLAN_1
  6
CONTINUOUS
 10
1.085417
 20
-3.418232
  0
VERTEX
  8
PLAN_1
  6
CONTINUOUS
 10
1.088114
 20
-3.423626
  0
VERTEX
  8
PLAN_1
  6
CONTINUOUS
 10
1.093957
 20
-3.406098
  0
SEQEND
  8
0
  0
POLYLINE
  8
PLAN_1
  6
CONTINUOUS
 66
     1
 40
0.003000
 41
0.003000
  0
VERTEX
  8
PLAN_1
  6
CONTINUOUS
 10
1.057102
 20
-3.421831
  0
VERTEX
  8
PLAN_1
  6
CONTINUOUS
 10
1.052157
 20
-3.422280
  0
VERTEX
  8
PLAN_1
  6
CONTINUOUS
 10
1.048114
 20
-3.423177
  0
VERTEX
  8
PLAN_1
  6
CONTINUOUS
 10
1.044067
 20
-3.424976
  0
VERTEX
  8
PLAN_1
  6
CONTINUOUS
 10
1.040024
 20
-3.427224
  0
VERTEX
  8
PLAN_1
  6
CONTINUOUS
 10
1.036425
 20
-3.429921
  0
VERTEX
  8
PLAN_1
  6
CONTINUOUS
 10
1.032831
 20
-3.433067
  0
VERTEX
  8
PLAN_1
  6
CONTINUOUS
 10
1.029685
 20
-3.436213
  0
VERTEX
  8
PLAN_1
  6
CONTINUOUS
 10
1.026539
 20
-3.440256
  0
VERTEX
  8
PLAN_1
  6
CONTINUOUS
 10
1.023843
 20
-3.444303
  0
VERTEX
  8
PLAN_1
  6
CONTINUOUS
 10
1.021594
 20
-3.448795
  0
VERTEX
  8
PLAN_1
  6
CONTINUOUS
 10
1.019795
 20
-3.453291
  0
VERTEX
  8
PLAN_1
  6
CONTINUOUS
 10
1.018000
 20
-3.457787
  0
VERTEX
  8
PLAN_1
  6
CONTINUOUS
 10
1.016650
 20
-3.462280
  0
VERTEX
  8
PLAN_1
  6
CONTINUOUS
 10
1.015752
 20
-3.467224
  0
VERTEX
  8
PLAN_1
  6
CONTINUOUS
 10
1.015303
 20
-3.471720
  0
VERTEX
  8
PLAN_1
  6
CONTINUOUS
 10
1.014854
 20
-3.475764
  0
VERTEX
  8
PLAN_1
  6
CONTINUOUS
 10
1.015303
 20
-3.478909
  0
VERTEX
  8
PLAN_1
  6
CONTINUOUS
 10
1.015303
 20
-3.481606
  0
VERTEX
  8
PLAN_1
  6
CONTINUOUS
 10
1.015752
 20
-3.484303
  0
VERTEX
  8
PLAN_1
  6
CONTINUOUS
 10
1.016650
 20
-3.487000
  0
VERTEX
  8
PLAN_1
  6
CONTINUOUS
 10
1.017551
 20
-3.489248
  0
VERTEX
  8
PLAN_1
  6
CONTINUOUS
 10
1.018898
 20
-3.491496
  0
VERTEX
  8
PLAN_1
  6
CONTINUOUS
 10
1.019795
 20
-3.493295
  0
VERTEX
  8
PLAN_1
  6
CONTINUOUS
 10
1.021594
 20
-3.495539
  0
VERTEX
  8
PLAN_1
  6
CONTINUOUS
 10
1.022941
 20
-3.496890
  0
VERTEX
  8
PLAN_1
  6
CONTINUOUS
 10
1.024740
 20
-3.498685
  0
VERTEX
  8
PLAN_1
  6
CONTINUOUS
 10
1.026539
 20
-3.500035
  0
VERTEX
  8
PLAN_1
  6
CONTINUOUS
 10
1.028787
 20
-3.500933
  0
VERTEX
  8
PLAN_1
  6
CONTINUOUS
 10
1.031031
 20
-3.501835
  0
VERTEX
  8
PLAN_1
  6
CONTINUOUS
 10
1.033280
 20
-3.502283
  0
VERTEX
  8
PLAN_1
  6
CONTINUOUS
 10
1.035976
 20
-3.502732
  0
VERTEX
  8
PLAN_1
  6
CONTINUOUS
 10
1.038224
 20
-3.502732
  0
VERTEX
  8
PLAN_1
  6
CONTINUOUS
 10
1.042720
 20
-3.502732
  0
VERTEX
  8
PLAN_1
  6
CONTINUOUS
 10
1.046764
 20
-3.501382
  0
VERTEX
  8
PLAN_1
  6
CONTINUOUS
 10
1.050811
 20
-3.499587
  0
VERTEX
  8
PLAN_1
  6
CONTINUOUS
 10
1.054854
 20
-3.497339
  0
VERTEX
  8
PLAN_1
  6
CONTINUOUS
 10
1.058449
 20
-3.494642
  0
VERTEX
  8
PLAN_1
  6
CONTINUOUS
 10
1.061594
 20
-3.491047
  0
VERTEX
  8
PLAN_1
  6
CONTINUOUS
 10
1.064744
 20
-3.487449
  0
VERTEX
  8
PLAN_1
  6
CONTINUOUS
 10
1.067890
 20
-3.483406
  0
VERTEX
  8
PLAN_1
  6
CONTINUOUS
 10
1.070587
 20
-3.479358
  0
VERTEX
  8
PLAN_1
  6
CONTINUOUS
 10
1.072831
 20
-3.474866
  0
VERTEX
  8
PLAN_1
  6
CONTINUOUS
 10
1.074630
 20
-3.469921
  0
VERTEX
  8
PLAN_1
  6
CONTINUOUS
 10
1.076429
 20
-3.465425
  0
VERTEX
  8
PLAN_1
  6
CONTINUOUS
 10
1.077776
 20
-3.460933
  0
VERTEX
  8
PLAN_1
  6
CONTINUOUS
 10
1.078677
 20
-3.455988
  0
VERTEX
  8
PLAN_1
  6
CONTINUOUS
 10
1.079575
 20
-3.451492
  0
VERTEX
  8
PLAN_1
  6
CONTINUOUS
 10
1.079575
 20
-3.447449
  0
VERTEX
  8
PLAN_1
  6
CONTINUOUS
 10
1.079575
 20
-3.444752
  0
VERTEX
  8
PLAN_1
  6
CONTINUOUS
 10
1.079126
 20
-3.442504
  0
VERTEX
  8
PLAN_1
  6
CONTINUOUS
 10
1.078677
 20
-3.439807
  0
VERTEX
  8
PLAN_1
  6
CONTINUOUS
 10
1.077776
 20
-3.437559
  0
VERTEX
  8
PLAN_1
  6
CONTINUOUS
 10
1.075528
 20
-3.433516
  0
VERTEX
  8
PLAN_1
  6
CONTINUOUS
 10
1.072831
 20
-3.429469
  0
VERTEX
  8
PLAN_1
  6
CONTINUOUS
 10
1.069685
 20
-3.426323
  0
VERTEX
  8
PLAN_1
  6
CONTINUOUS
 10
1.065642
 20
-3.424079
  0
VERTEX
  8
PLAN_1
  6
CONTINUOUS
 10
1.063394
 20
-3.423177
  0
VERTEX
  8
PLAN_1
  6
CONTINUOUS
 10
1.061594
 20
-3.422280
  0
VERTEX
  8
PLAN_1
  6
CONTINUOUS
 10
1.059350
 20
-3.421831
  0
VERTEX
  8
PLAN_1
  6
CONTINUOUS
 10
1.057102
 20
-3.421831
  0
SEQEND
  8
0
  0
SOLID
  8
PLAN_1
 10
1.191937
 20
-3.595319
 11
1.191937
 21
-3.581386
 12
1.346102
 22
-3.595319
 13
1.346102
 23
-3.581386
  0
POLYLINE
  8
PLAN_1
  6
CONTINUOUS
 66
     1
 40
0.003000
 41
0.003000
  0
VERTEX
  8
PLAN_1
  6
CONTINUOUS
 10
1.191937
 20
-3.595319
  0
VERTEX
  8
PLAN_1
  6
CONTINUOUS
 10
1.191937
 20
-3.581386
  0
VERTEX
  8
PLAN_1
  6
CONTINUOUS
 10
1.346102
 20
-3.581386
  0
VERTEX
  8
PLAN_1
  6
CONTINUOUS
 10
1.346102
 20
-3.595319
  0
VERTEX
  8
PLAN_1
  6
CONTINUOUS
 10
1.191937
 20
-3.595319
  0
SEQEND
  8
0
  0
POLYLINE
  8
PLAN_1
  6
CONTINUOUS
 66
     1
 40
0.003000
 41
0.003000
  0
VERTEX
  8
PLAN_1
  6
CONTINUOUS
 10
1.396890
 20
-3.560713
  0
VERTEX
  8
PLAN_1
  6
CONTINUOUS
 10
1.370374
 20
-3.560713
  0
VERTEX
  8
PLAN_1
  6
CONTINUOUS
 10
1.370374
 20
-3.361154
  0
VERTEX
  8
PLAN_1
  6
CONTINUOUS
 10
1.507906
 20
-3.361154
  0
VERTEX
  8
PLAN_1
  6
CONTINUOUS
 10
1.507906
 20
-3.385425
  0
VERTEX
  8
PLAN_1
  6
CONTINUOUS
 10
1.396890
 20
-3.385425
  0
VERTEX
  8
PLAN_1
  6
CONTINUOUS
 10
1.396890
 20
-3.446098
  0
VERTEX
  8
PLAN_1
  6
CONTINUOUS
 10
1.494874
 20
-3.446098
  0
VERTEX
  8
PLAN_1
  6
CONTINUOUS
 10
1.494874
 20
-3.469921
  0
VERTEX
  8
PLAN_1
  6
CONTINUOUS
 10
1.396890
 20
-3.469921
  0
VERTEX
  8
PLAN_1
  6
CONTINUOUS
 10
1.396890
 20
-3.560713
  0
SEQEND
  8
0
  0
SOLID
  8
PLAN_1
 10
1.527232
 20
-3.560713
 11
1.498469
 21
-3.560713
 12
1.527232
 22
-3.531047
 13
1.498469
 23
-3.531047
  0
POLYLINE
  8
PLAN_1
  6
CONTINUOUS
 66
     1
 40
0.003000
 41
0.003000
  0
VERTEX
  8
PLAN_1
  6
CONTINUOUS
 10
1.527232
 20
-3.560713
  0
VERTEX
  8
PLAN_1
  6
CONTINUOUS
 10
1.498469
 20
-3.560713
  0
VERTEX
  8
PLAN_1
  6
CONTINUOUS
 10
1.498469
 20
-3.531047
  0
VERTEX
  8
PLAN_1
  6
CONTINUOUS
 10
1.527232
 20
-3.531047
  0
VERTEX
  8
PLAN_1
  6
CONTINUOUS
 10
1.527232
 20
-3.560713
  0
SEQEND
  8
0
  0
POLYLINE
  8
PLAN_1
  6
CONTINUOUS
 66
     1
 40
0.003000
 41
0.003000
  0
VERTEX
  8
PLAN_1
  6
CONTINUOUS
 10
1.722299
 20
-3.560713
  0
VERTEX
  8
PLAN_1
  6
CONTINUOUS
 10
1.575327
 20
-3.560713
  0
VERTEX
  8
PLAN_1
  6
CONTINUOUS
 10
1.575327
 20
-3.361154
  0
VERTEX
  8
PLAN_1
  6
CONTINUOUS
 10
1.720500
 20
-3.361154
  0
VERTEX
  8
PLAN_1
  6
CONTINUOUS
 10
1.720500
 20
-3.385425
  0
VERTEX
  8
PLAN_1
  6
CONTINUOUS
 10
1.602295
 20
-3.385425
  0
VERTEX
  8
PLAN_1
  6
CONTINUOUS
 10
1.602295
 20
-3.446098
  0
VERTEX
  8
PLAN_1
  6
CONTINUOUS
 10
1.711512
 20
-3.446098
  0
VERTEX
  8
PLAN_1
  6
CONTINUOUS
 10
1.711512
 20
-3.469921
  0
VERTEX
  8
PLAN_1
  6
CONTINUOUS
 10
1.602295
 20
-3.469921
  0
VERTEX
  8
PLAN_1
  6
CONTINUOUS
 10
1.602295
 20
-3.536890
  0
VERTEX
  8
PLAN_1
  6
CONTINUOUS
 10
1.722299
 20
-3.536890
  0
VERTEX
  8
PLAN_1
  6
CONTINUOUS
 10
1.722299
 20
-3.560713
  0
SEQEND
  8
0
  0
POLYLINE
  8
PLAN_1
  6
CONTINUOUS
 66
     1
 40
0.003000
 41
0.003000
  0
VERTEX
  8
PLAN_1
  6
CONTINUOUS
 10
1.787469
 20
-3.560713
  0
VERTEX
  8
PLAN_1
  6
CONTINUOUS
 10
1.760504
 20
-3.560713
  0
VERTEX
  8
PLAN_1
  6
CONTINUOUS
 10
1.760504
 20
-3.361154
  0
VERTEX
  8
PLAN_1
  6
CONTINUOUS
 10
1.850394
 20
-3.361154
  0
VERTEX
  8
PLAN_1
  6
CONTINUOUS
 10
1.857138
 20
-3.361602
  0
VERTEX
  8
PLAN_1
  6
CONTINUOUS
 10
1.863429
 20
-3.362500
  0
VERTEX
  8
PLAN_1
  6
CONTINUOUS
 10
1.869272
 20
-3.363850
  0
VERTEX
  8
PLAN_1
  6
CONTINUOUS
 10
1.875114
 20
-3.365646
  0
VERTEX
  8
PLAN_1
  6
CONTINUOUS
 10
1.880059
 20
-3.367894
  0
VERTEX
  8
PLAN_1
  6
CONTINUOUS
 10
1.885004
 20
-3.370591
  0
VERTEX
  8
PLAN_1
  6
CONTINUOUS
 10
1.889496
 20
-3.373736
  0
VERTEX
  8
PLAN_1
  6
CONTINUOUS
 10
1.893543
 20
-3.377335
  0
VERTEX
  8
PLAN_1
  6
CONTINUOUS
 10
1.897138
 20
-3.381378
  0
VERTEX
  8
PLAN_1
  6
CONTINUOUS
 10
1.900283
 20
-3.385425
  0
VERTEX
  8
PLAN_1
  6
CONTINUOUS
 10
1.902980
 20
-3.390366
  0
VERTEX
  8
PLAN_1
  6
CONTINUOUS
 10
1.905228
 20
-3.394862
  0
VERTEX
  8
PLAN_1
  6
CONTINUOUS
 10
1.907028
 20
-3.400256
  0
VERTEX
  8
PLAN_1
  6
CONTINUOUS
 10
1.908374
 20
-3.405650
  0
VERTEX
  8
PLAN_1
  6
CONTINUOUS
 10
1.909272
 20
-3.411492
  0
VERTEX
  8
PLAN_1
  6
CONTINUOUS
 10
1.909272
 20
-3.417335
  0
VERTEX
  8
PLAN_1
  6
CONTINUOUS
 10
1.909272
 20
-3.422728
  0
VERTEX
  8
PLAN_1
  6
CONTINUOUS
 10
1.908374
 20
-3.428122
  0
VERTEX
  8
PLAN_1
  6
CONTINUOUS
 10
1.907476
 20
-3.433067
  0
VERTEX
  8
PLAN_1
  6
CONTINUOUS
 10
1.906126
 20
-3.438461
  0
VERTEX
  8
PLAN_1
  6
CONTINUOUS
 10
1.904331
 20
-3.443406
  0
VERTEX
  8
PLAN_1
  6
CONTINUOUS
 10
1.902083
 20
-3.448346
  0
VERTEX
  8
PLAN_1
  6
CONTINUOUS
 10
1.899386
 20
-3.452843
  0
VERTEX
  8
PLAN_1
  6
CONTINUOUS
 10
1.895787
 20
-3.457339
  0
VERTEX
  8
PLAN_1
  6
CONTINUOUS
 10
1.892193
 20
-3.461382
  0
VERTEX
  8
PLAN_1
  6
CONTINUOUS
 10
1.888150
 20
-3.464976
  0
VERTEX
  8
PLAN_1
  6
CONTINUOUS
 10
1.883205
 20
-3.468575
  0
VERTEX
  8
PLAN_1
  6
CONTINUOUS
 10
1.877811
 20
-3.471272
  0
VERTEX
  8
PLAN_1
  6
CONTINUOUS
 10
1.871520
 20
-3.473516
  0
VERTEX
  8
PLAN_1
  6
CONTINUOUS
 10
1.865224
 20
-3.475315
  0
VERTEX
  8
PLAN_1
  6
CONTINUOUS
 10
1.858035
 20
-3.476213
  0
VERTEX
  8
PLAN_1
  6
CONTINUOUS
 10
1.850394
 20
-3.476665
  0
VERTEX
  8
PLAN_1
  6
CONTINUOUS
 10
1.787469
 20
-3.476665
  0
VERTEX
  8
PLAN_1
  6
CONTINUOUS
 10
1.787469
 20
-3.560713
  0
SEQEND
  8
0
  0
POLYLINE
  8
PLAN_1
  6
CONTINUOUS
 66
     1
 40
0.003000
 41
0.003000
  0
VERTEX
  8
PLAN_1
  6
CONTINUOUS
 10
1.787469
 20
-3.453291
  0
VERTEX
  8
PLAN_1
  6
CONTINUOUS
 10
1.840957
 20
-3.453291
  0
VERTEX
  8
PLAN_1
  6
CONTINUOUS
 10
1.845449
 20
-3.453291
  0
VERTEX
  8
PLAN_1
  6
CONTINUOUS
 10
1.849496
 20
-3.452843
  0
VERTEX
  8
PLAN_1
  6
CONTINUOUS
 10
1.853539
 20
-3.452394
  0
VERTEX
  8
PLAN_1
  6
CONTINUOUS
 10
1.857587
 20
-3.451492
  0
VERTEX
  8
PLAN_1
  6
CONTINUOUS
 10
1.861181
 20
-3.450594
  0
VERTEX
  8
PLAN_1
  6
CONTINUOUS
 10
1.864327
 20
-3.449248
  0
VERTEX
  8
PLAN_1
  6
CONTINUOUS
 10
1.867472
 20
-3.447449
  0
VERTEX
  8
PLAN_1
  6
CONTINUOUS
 10
1.870169
 20
-3.445650
  0
VERTEX
  8
PLAN_1
  6
CONTINUOUS
 10
1.872866
 20
-3.443406
  0
VERTEX
  8
PLAN_1
  6
CONTINUOUS
 10
1.875114
 20
-3.440709
  0
VERTEX
  8
PLAN_1
  6
CONTINUOUS
 10
1.876913
 20
-3.438012
  0
VERTEX
  8
PLAN_1
  6
CONTINUOUS
 10
1.878709
 20
-3.434862
  0
VERTEX
  8
PLAN_1
  6
CONTINUOUS
 10
1.880059
 20
-3.430819
  0
VERTEX
  8
PLAN_1
  6
CONTINUOUS
 10
1.880957
 20
-3.426776
  0
VERTEX
  8
PLAN_1
  6
CONTINUOUS
 10
1.881406
 20
-3.422728
  0
VERTEX
  8
PLAN_1
  6
CONTINUOUS
 10
1.881406
 20
-3.417783
  0
VERTEX
  8
PLAN_1
  6
CONTINUOUS
 10
1.881406
 20
-3.413291
  0
VERTEX
  8
PLAN_1
  6
CONTINUOUS
 10
1.880957
 20
-3.408795
  0
VERTEX
  8
PLAN_1
  6
CONTINUOUS
 10
1.879610
 20
-3.405201
  0
VERTEX
  8
PLAN_1
  6
CONTINUOUS
 10
1.878709
 20
-3.402055
  0
VERTEX
  8
PLAN_1
  6
CONTINUOUS
 10
1.876913
 20
-3.398906
  0
VERTEX
  8
PLAN_1
  6
CONTINUOUS
 10
1.875114
 20
-3.396209
  0
VERTEX
  8
PLAN_1
  6
CONTINUOUS
 10
1.872866
 20
-3.393516
  0
VERTEX
  8
PLAN_1
  6
CONTINUOUS
 10
1.870169
 20
-3.391717
  0
VERTEX
  8
PLAN_1
  6
CONTINUOUS
 10
1.867472
 20
-3.389917
  0
VERTEX
  8
PLAN_1
  6
CONTINUOUS
 10
1.864327
 20
-3.388122
  0
VERTEX
  8
PLAN_1
  6
CONTINUOUS
 10
1.861181
 20
-3.387220
  0
VERTEX
  8
PLAN_1
  6
CONTINUOUS
 10
1.857587
 20
-3.385874
  0
VERTEX
  8
PLAN_1
  6
CONTINUOUS
 10
1.853988
 20
-3.385425
  0
VERTEX
  8
PLAN_1
  6
CONTINUOUS
 10
1.850394
 20
-3.384972
  0
VERTEX
  8
PLAN_1
  6
CONTINUOUS
 10
1.846350
 20
-3.384524
  0
VERTEX
  8
PLAN_1
  6
CONTINUOUS
 10
1.842303
 20
-3.384524
  0
VERTEX
  8
PLAN_1
  6
CONTINUOUS
 10
1.787469
 20
-3.384524
  0
VERTEX
  8
PLAN_1
  6
CONTINUOUS
 10
1.787469
 20
-3.453291
  0
SEQEND
  8
0
  0
POLYLINE
  8
PLAN_1
  6
CONTINUOUS
 66
     1
 40
0.003000
 41
0.003000
  0
VERTEX
  8
PLAN_1
  6
CONTINUOUS
 10
2.062988
 20
-3.419583
  0
VERTEX
  8
PLAN_1
  6
CONTINUOUS
 10
2.062539
 20
-3.414189
  0
VERTEX
  8
PLAN_1
  6
CONTINUOUS
 10
2.061638
 20
-3.409244
  0
VERTEX
  8
PLAN_1
  6
CONTINUOUS
 10
2.059843
 20
-3.404299
  0
VERTEX
  8
PLAN_1
  6
CONTINUOUS
 10
2.058043
 20
-3.400256
  0
VERTEX
  8
PLAN_1
  6
CONTINUOUS
 10
2.055795
 20
-3.396661
  0
VERTEX
  8
PLAN_1
  6
CONTINUOUS
 10
2.052650
 20
-3.393063
  0
VERTEX
  8
PLAN_1
  6
CONTINUOUS
 10
2.049953
 20
-3.390366
  0
VERTEX
  8
PLAN_1
  6
CONTINUOUS
 10
2.046358
 20
-3.387669
  0
VERTEX
  8
PLAN_1
  6
CONTINUOUS
 10
2.042764
 20
-3.385874
  0
VERTEX
  8
PLAN_1
  6
CONTINUOUS
 10
2.038717
 20
-3.383626
  0
VERTEX
  8
PLAN_1
  6
CONTINUOUS
 10
2.035122
 20
-3.382276
  0
VERTEX
  8
PLAN_1
  6
CONTINUOUS
 10
2.030626
 20
-3.380929
  0
VERTEX
  8
PLAN_1
  6
CONTINUOUS
 10
2.026583
 20
-3.380031
  0
VERTEX
  8
PLAN_1
  6
CONTINUOUS
 10
2.022087
 20
-3.379579
  0
VERTEX
  8
PLAN_1
  6
CONTINUOUS
 10
2.018043
 20
-3.379130
  0
VERTEX
  8
PLAN_1
  6
CONTINUOUS
 10
2.013996
 20
-3.379130
  0
VERTEX
  8
PLAN_1
  6
CONTINUOUS
 10
2.006807
 20
-3.379579
  0
VERTEX
  8
PLAN_1
  6
CONTINUOUS
 10
1.999614
 20
-3.380480
  0
VERTEX
  8
PLAN_1
  6
CONTINUOUS
 10
1.995567
 20
-3.380929
  0
VERTEX
  8
PLAN_1
  6
CONTINUOUS
 10
1.991972
 20
-3.382276
  0
VERTEX
  8
PLAN_1
  6
CONTINUOUS
 10
1.988378
 20
-3.383626
  0
VERTEX
  8
PLAN_1
  6
CONTINUOUS
 10
1.984783
 20
-3.385425
  0
VERTEX
  8
PLAN_1
  6
CONTINUOUS
 10
1.981185
 20
-3.387220
  0
VERTEX
  8
PLAN_1
  6
CONTINUOUS
 10
1.978039
 20
-3.389917
  0
VERTEX
  8
PLAN_1
  6
CONTINUOUS
 10
1.975343
 20
-3.392614
  0
VERTEX
  8
PLAN_1
  6
CONTINUOUS
 10
1.973094
 20
-3.395760
  0
VERTEX
  8
PLAN_1
  6
CONTINUOUS
 10
1.970850
 20
-3.399807
  0
VERTEX
  8
PLAN_1
  6
CONTINUOUS
 10
1.969500
 20
-3.403850
  0
VERTEX
  8
PLAN_1
  6
CONTINUOUS
 10
1.968602
 20
-3.408795
  0
VERTEX
  8
PLAN_1
  6
CONTINUOUS
 10
1.968154
 20
-3.414189
  0
VERTEX
  8
PLAN_1
  6
CONTINUOUS
 10
1.968602
 20
-3.417335
  0
VERTEX
  8
PLAN_1
  6
CONTINUOUS
 10
1.968602
 20
-3.420031
  0
VERTEX
  8
PLAN_1
  6
CONTINUOUS
 10
1.969500
 20
-3.422280
  0
VERTEX
  8
PLAN_1
  6
CONTINUOUS
 10
1.970398
 20
-3.424976
  0
VERTEX
  8
PLAN_1
  6
CONTINUOUS
 10
1.971299
 20
-3.426776
  0
VERTEX
  8
PLAN_1
  6
CONTINUOUS
 10
1.972646
 20
-3.428571
  0
VERTEX
  8
PLAN_1
  6
CONTINUOUS
 10
1.973996
 20
-3.430370
  0
VERTEX
  8
PLAN_1
  6
CONTINUOUS
 10
1.975791
 20
-3.432165
  0
VERTEX
  8
PLAN_1
  6
CONTINUOUS
 10
1.979390
 20
-3.434413
  0
VERTEX
  8
PLAN_1
  6
CONTINUOUS
 10
1.983433
 20
-3.436661
  0
VERTEX
  8
PLAN_1
  6
CONTINUOUS
 10
1.987480
 20
-3.438012
  0
VERTEX
  8
PLAN_1
  6
CONTINUOUS
 10
1.991972
 20
-3.439358
  0
VERTEX
  8
PLAN_1
  6
CONTINUOUS
 10
2.048606
 20
-3.452394
  0
VERTEX
  8
PLAN_1
  6
CONTINUOUS
 10
2.053547
 20
-3.453740
  0
VERTEX
  8
PLAN_1
  6
CONTINUOUS
 10
2.058043
 20
-3.455091
  0
VERTEX
  8
PLAN_1
  6
CONTINUOUS
 10
2.062539
 20
-3.456886
  0
VERTEX
  8
PLAN_1
  6
CONTINUOUS
 10
2.066583
 20
-3.458685
  0
VERTEX
  8
PLAN_1
  6
CONTINUOUS
 10
2.070630
 20
-3.460933
  0
VERTEX
  8
PLAN_1
  6
CONTINUOUS
 10
2.074224
 20
-3.463630
  0
VERTEX
  8
PLAN_1
  6
CONTINUOUS
 10
2.077819
 20
-3.466327
  0
VERTEX
  8
PLAN_1
  6
CONTINUOUS
 10
2.080965
 20
-3.469472
  0
VERTEX
  8
PLAN_1
  6
CONTINUOUS
 10
2.084110
 20
-3.472618
  0
VERTEX
  8
PLAN_1
  6
CONTINUOUS
 10
2.086358
 20
-3.476665
  0
VERTEX
  8
PLAN_1
  6
CONTINUOUS
 10
2.088606
 20
-3.480709
  0
VERTEX
  8
PLAN_1
  6
CONTINUOUS
 10
2.090406
 20
-3.484752
  0
VERTEX
  8
PLAN_1
  6
CONTINUOUS
 10
2.092201
 20
-3.489697
  0
VERTEX
  8
PLAN_1
  6
CONTINUOUS
 10
2.093102
 20
-3.494642
  0
VERTEX
  8
PLAN_1
  6
CONTINUOUS
 10
2.093551
 20
-3.500035
  0
VERTEX
  8
PLAN_1
  6
CONTINUOUS
 10
2.094000
 20
-3.505878
  0
VERTEX
  8
PLAN_1
  6
CONTINUOUS
 10
2.094000
 20
-3.509925
  0
VERTEX
  8
PLAN_1
  6
CONTINUOUS
 10
2.093551
 20
-3.513969
  0
VERTEX
  8
PLAN_1
  6
CONTINUOUS
 10
2.093102
 20
-3.518012
  0
VERTEX
  8
PLAN_1
  6
CONTINUOUS
 10
2.092201
 20
-3.521610
  0
VERTEX
  8
PLAN_1
  6
CONTINUOUS
 10
2.090854
 20
-3.525205
  0
VERTEX
  8
PLAN_1
  6
CONTINUOUS
 10
2.089504
 20
-3.528799
  0
VERTEX
  8
PLAN_1
  6
CONTINUOUS
 10
2.088157
 20
-3.531945
  0
VERTEX
  8
PLAN_1
  6
CONTINUOUS
 10
2.086807
 20
-3.535094
  0
VERTEX
  8
PLAN_1
  6
CONTINUOUS
 10
2.084563
 20
-3.537791
  0
VERTEX
  8
PLAN_1
  6
CONTINUOUS
 10
2.082764
 20
-3.540488
  0
VERTEX
  8
PLAN_1
  6
CONTINUOUS
 10
2.080516
 20
-3.543185
  0
VERTEX
  8
PLAN_1
  6
CONTINUOUS
 10
2.078268
 20
-3.545429
  0
VERTEX
  8
PLAN_1
  6
CONTINUOUS
 10
2.073327
 20
-3.549925
  0
VERTEX
  8
PLAN_1
  6
CONTINUOUS
 10
2.067933
 20
-3.553520
  0
VERTEX
  8
PLAN_1
  6
CONTINUOUS
 10
2.062087
 20
-3.556665
  0
VERTEX
  8
PLAN_1
  6
CONTINUOUS
 10
2.055795
 20
-3.559362
  0
VERTEX
  8
PLAN_1
  6
CONTINUOUS
 10
2.049055
 20
-3.561610
  0
VERTEX
  8
PLAN_1
  6
CONTINUOUS
 10
2.042764
 20
-3.562961
  0
VERTEX
  8
PLAN_1
  6
CONTINUOUS
 10
2.036020
 20
-3.564307
  0
VERTEX
  8
PLAN_1
  6
CONTINUOUS
 10
2.029280
 20
-3.565205
  0
VERTEX
  8
PLAN_1
  6
CONTINUOUS
 10
2.022535
 20
-3.565657
  0
VERTEX
  8
PLAN_1
  6
CONTINUOUS
 10
2.015795
 20
-3.566106
  0
VERTEX
  8
PLAN_1
  6
CONTINUOUS
 10
2.009504
 20
-3.565657
  0
VERTEX
  8
PLAN_1
  6
CONTINUOUS
 10
2.003209
 20
-3.565205
  0
VERTEX
  8
PLAN_1
  6
CONTINUOUS
 10
1.997366
 20
-3.564756
  0
VERTEX
  8
PLAN_1
  6
CONTINUOUS
 10
1.992421
 20
-3.563858
  0
VERTEX
  8
PLAN_1
  6
CONTINUOUS
 10
1.987480
 20
-3.562961
  0
VERTEX
  8
PLAN_1
  6
CONTINUOUS
 10
1.982984
 20
-3.562059
  0
VERTEX
  8
PLAN_1
  6
CONTINUOUS
 10
1.978937
 20
-3.560713
  0
VERTEX
  8
PLAN_1
  6
CONTINUOUS
 10
1.975343
 20
-3.559362
  0
VERTEX
  8
PLAN_1
  6
CONTINUOUS
 10
1.969051
 20
-3.556217
  0
VERTEX
  8
PLAN_1
  6
CONTINUOUS
 10
1.963657
 20
-3.553071
  0
VERTEX
  8
PLAN_1
  6
CONTINUOUS
 10
1.959610
 20
-3.549925
  0
VERTEX
  8
PLAN_1
  6
CONTINUOUS
 10
1.955567
 20
-3.546780
  0
VERTEX
  8
PLAN_1
  6
CONTINUOUS
 10
1.952870
 20
-3.544083
  0
VERTEX
  8
PLAN_1
  6
CONTINUOUS
 10
1.950173
 20
-3.540937
  0
VERTEX
  8
PLAN_1
  6
CONTINUOUS
 10
1.947476
 20
-3.538240
  0
VERTEX
  8
PLAN_1
  6
CONTINUOUS
 10
1.945677
 20
-3.535094
  0
VERTEX
  8
PLAN_1
  6
CONTINUOUS
 10
1.942083
 20
-3.528799
  0
VERTEX
  8
PLAN_1
  6
CONTINUOUS
 10
1.939386
 20
-3.522957
  0
VERTEX
  8
PLAN_1
  6
CONTINUOUS
 10
1.937591
 20
-3.516217
  0
VERTEX
  8
PLAN_1
  6
CONTINUOUS
 10
1.936240
 20
-3.509925
  0
VERTEX
  8
PLAN_1
  6
CONTINUOUS
 10
1.935791
 20
-3.503181
  0
VERTEX
  8
PLAN_1
  6
CONTINUOUS
 10
1.935343
 20
-3.496441
  0
VERTEX
  8
PLAN_1
  6
CONTINUOUS
 10
1.960961
 20
-3.496441
  0
VERTEX
  8
PLAN_1
  6
CONTINUOUS
 10
1.960961
 20
-3.502732
  0
VERTEX
  8
PLAN_1
  6
CONTINUOUS
 10
1.962307
 20
-3.508575
  0
VERTEX
  8
PLAN_1
  6
CONTINUOUS
 10
1.963657
 20
-3.513969
  0
VERTEX
  8
PLAN_1
  6
CONTINUOUS
 10
1.965906
 20
-3.518913
  0
VERTEX
  8
PLAN_1
  6
CONTINUOUS
 10
1.968154
 20
-3.522957
  0
VERTEX
  8
PLAN_1
  6
CONTINUOUS
 10
1.971299
 20
-3.527004
  0
VERTEX
  8
PLAN_1
  6
CONTINUOUS
 10
1.974894
 20
-3.530150
  0
VERTEX
  8
PLAN_1
  6
CONTINUOUS
 10
1.978488
 20
-3.533295
  0
VERTEX
  8
PLAN_1
  6
CONTINUOUS
 10
1.982984
 20
-3.535543
  0
VERTEX
  8
PLAN_1
  6
CONTINUOUS
 10
1.987028
 20
-3.537791
  0
VERTEX
  8
PLAN_1
  6
CONTINUOUS
 10
1.991524
 20
-3.539138
  0
VERTEX
  8
PLAN_1
  6
CONTINUOUS
 10
1.996469
 20
-3.540488
  0
VERTEX
  8
PLAN_1
  6
CONTINUOUS
 10
2.000961
 20
-3.541835
  0
VERTEX
  8
PLAN_1
  6
CONTINUOUS
 10
2.005906
 20
-3.542283
  0
VERTEX
  8
PLAN_1
  6
CONTINUOUS
 10
2.010850
 20
-3.542732
  0
VERTEX
  8
PLAN_1
  6
CONTINUOUS
 10
2.015795
 20
-3.542732
  0
VERTEX
  8
PLAN_1
  6
CONTINUOUS
 10
2.023437
 20
-3.542732
  0
VERTEX
  8
PLAN_1
  6
CONTINUOUS
 10
2.031976
 20
-3.541835
  0
VERTEX
  8
PLAN_1
  6
CONTINUOUS
 10
2.036469
 20
-3.540937
  0
VERTEX
  8
PLAN_1
  6
CONTINUOUS
 10
2.040965
 20
-3.539587
  0
VERTEX
  8
PLAN_1
  6
CONTINUOUS
 10
2.045008
 20
-3.538240
  0
VERTEX
  8
PLAN_1
  6
CONTINUOUS
 10
2.049055
 20
-3.536890
  0
VERTEX
  8
PLAN_1
  6
CONTINUOUS
 10
2.053098
 20
-3.534642
  0
VERTEX
  8
PLAN_1
  6
CONTINUOUS
 10
2.056697
 20
-3.532398
  0
VERTEX
  8
PLAN_1
  6
CONTINUOUS
 10
2.059843
 20
-3.529701
  0
VERTEX
  8
PLAN_1
  6
CONTINUOUS
 10
2.062539
 20
-3.526555
  0
VERTEX
  8
PLAN_1
  6
CONTINUOUS
 10
2.064783
 20
-3.522957
  0
VERTEX
  8
PLAN_1
  6
CONTINUOUS
 10
2.066583
 20
-3.518913
  0
VERTEX
  8
PLAN_1
  6
CONTINUOUS
 10
2.067480
 20
-3.514417
  0
VERTEX
  8
PLAN_1
  6
CONTINUOUS
 10
2.067933
 20
-3.509472
  0
VERTEX
  8
PLAN_1
  6
CONTINUOUS
 10
2.067933
 20
-3.505429
  0
VERTEX
  8
PLAN_1
  6
CONTINUOUS
 10
2.067480
 20
-3.502283
  0
VERTEX
  8
PLAN_1
  6
CONTINUOUS
 10
2.066583
 20
-3.499138
  0
VERTEX
  8
PLAN_1
  6
CONTINUOUS
 10
2.065685
 20
-3.495988
  0
VERTEX
  8
PLAN_1
  6
CONTINUOUS
 10
2.064783
 20
-3.493295
  0
VERTEX
  8
PLAN_1
  6
CONTINUOUS
 10
2.062988
 20
-3.491047
  0
VERTEX
  8
PLAN_1
  6
CONTINUOUS
 10
2.061189
 20
-3.488799
  0
VERTEX
  8
PLAN_1
  6
CONTINUOUS
 10
2.058941
 20
-3.486551
  0
VERTEX
  8
PLAN_1
  6
CONTINUOUS
 10
2.056244
 20
-3.484752
  0
VERTEX
  8
PLAN_1
  6
CONTINUOUS
 10
2.053098
 20
-3.482957
  0
VERTEX
  8
PLAN_1
  6
CONTINUOUS
 10
2.049953
 20
-3.481606
  0
VERTEX
  8
PLAN_1
  6
CONTINUOUS
 10
2.045909
 20
-3.479811
  0
VERTEX
  8
PLAN_1
  6
CONTINUOUS
 10
2.036469
 20
-3.477114
  0
VERTEX
  8
PLAN_1
  6
CONTINUOUS
 10
2.025232
 20
-3.473969
  0
VERTEX
  8
PLAN_1
  6
CONTINUOUS
 10
1.984783
 20
-3.464528
  0
VERTEX
  8
PLAN_1
  6
CONTINUOUS
 10
1.978937
 20
-3.463181
  0
VERTEX
  8
PLAN_1
  6
CONTINUOUS
 10
1.972646
 20
-3.460933
  0
VERTEX
  8
PLAN_1
  6
CONTINUOUS
 10
1.969051
 20
-3.459134
  0
VERTEX
  8
PLAN_1
  6
CONTINUOUS
 10
1.965457
 20
-3.457787
  0
VERTEX
  8
PLAN_1
  6
CONTINUOUS
 10
1.961858
 20
-3.455539
  0
VERTEX
  8
PLAN_1
  6
CONTINUOUS
 10
1.958713
 20
-3.452843
  0
VERTEX
  8
PLAN_1
  6
CONTINUOUS
 10
1.955118
 20
-3.450146
  0
VERTEX
  8
PLAN_1
  6
CONTINUOUS
 10
1.951972
 20
-3.447000
  0
VERTEX
  8
PLAN_1
  6
CONTINUOUS
 10
1.949276
 20
-3.443406
  0
VERTEX
  8
PLAN_1
  6
CONTINUOUS
 10
1.947028
 20
-3.439358
  0
VERTEX
  8
PLAN_1
  6
CONTINUOUS
 10
1.944780
 20
-3.434862
  0
VERTEX
  8
PLAN_1
  6
CONTINUOUS
 10
1.943433
 20
-3.429469
  0
VERTEX
  8
PLAN_1
  6
CONTINUOUS
 10
1.942531
 20
-3.424079
  0
VERTEX
  8
PLAN_1
  6
CONTINUOUS
 10
1.942083
 20
-3.417783
  0
VERTEX
  8
PLAN_1
  6
CONTINUOUS
 10
1.942531
 20
-3.411941
  0
VERTEX
  8
PLAN_1
  6
CONTINUOUS
 10
1.942980
 20
-3.406098
  0
VERTEX
  8
PLAN_1
  6
CONTINUOUS
 10
1.944331
 20
-3.400256
  0
VERTEX
  8
PLAN_1
  6
CONTINUOUS
 10
1.946130
 20
-3.394862
  0
VERTEX
  8
PLAN_1
  6
CONTINUOUS
 10
1.948374
 20
-3.389469
  0
VERTEX
  8
PLAN_1
  6
CONTINUOUS
 10
1.951071
 20
-3.384524
  0
VERTEX
  8
PLAN_1
  6
CONTINUOUS
 10
1.954669
 20
-3.379579
  0
VERTEX
  8
PLAN_1
  6
CONTINUOUS
 10
1.958264
 20
-3.375087
  0
VERTEX
  8
PLAN_1
  6
CONTINUOUS
 10
1.962760
 20
-3.371039
  0
VERTEX
  8
PLAN_1
  6
CONTINUOUS
 10
1.967701
 20
-3.367445
  0
VERTEX
  8
PLAN_1
  6
CONTINUOUS
 10
1.973547
 20
-3.364299
  0
VERTEX
  8
PLAN_1
  6
CONTINUOUS
 10
1.979839
 20
-3.361154
  0
VERTEX
  8
PLAN_1
  6
CONTINUOUS
 10
1.986579
 20
-3.358906
  0
VERTEX
  8
PLAN_1
  6
CONTINUOUS
 10
1.993772
 20
-3.357559
  0
VERTEX
  8
PLAN_1
  6
CONTINUOUS
 10
2.001862
 20
-3.356209
  0
VERTEX
  8
PLAN_1
  6
CONTINUOUS
 10
2.010850
 20
-3.356209
  0
VERTEX
  8
PLAN_1
  6
CONTINUOUS
 10
2.017142
 20
-3.356209
  0
VERTEX
  8
PLAN_1
  6
CONTINUOUS
 10
2.022984
 20
-3.356657
  0
VERTEX
  8
PLAN_1
  6
CONTINUOUS
 10
2.028827
 20
-3.357106
  0
VERTEX
  8
PLAN_1
  6
CONTINUOUS
 10
2.034220
 20
-3.358008
  0
VERTEX
  8
PLAN_1
  6
CONTINUOUS
 10
2.039165
 20
-3.358906
  0
VERTEX
  8
PLAN_1
  6
CONTINUOUS
 10
2.043661
 20
-3.360256
  0
VERTEX
  8
PLAN_1
  6
CONTINUOUS
 10
2.048154
 20
-3.361602
  0
VERTEX
  8
PLAN_1
  6
CONTINUOUS
 10
2.052201
 20
-3.362949
  0
VERTEX
  8
PLAN_1
  6
CONTINUOUS
 10
2.055795
 20
-3.364748
  0
VERTEX
  8
PLAN_1
  6
CONTINUOUS
 10
2.059394
 20
-3.366547
  0
VERTEX
  8
PLAN_1
  6
CONTINUOUS
 10
2.062539
 20
-3.368343
  0
VERTEX
  8
PLAN_1
  6
CONTINUOUS
 10
2.065685
 20
-3.370591
  0
VERTEX
  8
PLAN_1
  6
CONTINUOUS
 10
2.071079
 20
-3.374638
  0
VERTEX
  8
PLAN_1
  6
CONTINUOUS
 10
2.075122
 20
-3.379579
  0
VERTEX
  8
PLAN_1
  6
CONTINUOUS
 10
2.078717
 20
-3.384524
  0
VERTEX
  8
PLAN_1
  6
CONTINUOUS
 10
2.081866
 20
-3.389917
  0
VERTEX
  8
PLAN_1
  6
CONTINUOUS
 10
2.084110
 20
-3.395311
  0
VERTEX
  8
PLAN_1
  6
CONTINUOUS
 10
2.085461
 20
-3.400256
  0
VERTEX
  8
PLAN_1
  6
CONTINUOUS
 10
2.086807
 20
-3.405650
  0
VERTEX
  8
PLAN_1
  6
CONTINUOUS
 10
2.087709
 20
-3.410594
  0
VERTEX
  8
PLAN_1
  6
CONTINUOUS
 10
2.088157
 20
-3.415535
  0
VERTEX
  8
PLAN_1
  6
CONTINUOUS
 10
2.088606
 20
-3.419583
  0
VERTEX
  8
PLAN_1
  6
CONTINUOUS
 10
2.062988
 20
-3.419583
  0
SEQEND
  8
0
  0
POLYLINE
  8
PLAN_1
 62
     5
  6
CONTINUOUS
 66
     1
 40
0.003000
 41
0.003000
  0
VERTEX
  8
PLAN_1
 62
     5
  6
CONTINUOUS
 10
-2.087752
 20
0.521260
  0
VERTEX
  8
PLAN_1
 62
     5
  6
CONTINUOUS
 10
-2.087752
 20
0.529350
  0
SEQEND
  8
0
  0
POLYLINE
  8
PLAN_1
 62
     5
  6
CONTINUOUS
 66
     1
 40
0.003000
 41
0.003000
  0
VERTEX
  8
PLAN_1
 62
     5
  6
CONTINUOUS
 10
-2.087752
 20
0.537890
  0
VERTEX
  8
PLAN_1
 62
     5
  6
CONTINUOUS
 10
-2.087752
 20
0.545980
  0
SEQEND
  8
0
  0
POLYLINE
  8
PLAN_1
 62
     5
  6
CONTINUOUS
 66
     1
 40
0.003000
 41
0.003000
  0
VERTEX
  8
PLAN_1
 62
     5
  6
CONTINUOUS
 10
-2.087752
 20
0.554520
  0
VERTEX
  8
PLAN_1
 62
     5
  6
CONTINUOUS
 10
-2.087752
 20
0.562610
  0
SEQEND
  8
0
  0
POLYLINE
  8
PLAN_1
 62
     5
  6
CONTINUOUS
 66
     1
 40
0.003000
 41
0.003000
  0
VERTEX
  8
PLAN_1
 62
     5
  6
CONTINUOUS
 10
-2.087752
 20
0.571150
  0
VERTEX
  8
PLAN_1
 62
     5
  6
CONTINUOUS
 10
-2.087752
 20
0.579240
  0
SEQEND
  8
0
  0
POLYLINE
  8
PLAN_1
 62
     5
  6
CONTINUOUS
 66
     1
 40
0.003000
 41
0.003000
  0
VERTEX
  8
PLAN_1
 62
     5
  6
CONTINUOUS
 10
-2.087752
 20
0.587780
  0
VERTEX
  8
PLAN_1
 62
     5
  6
CONTINUOUS
 10
-2.087752
 20
0.595870
  0
SEQEND
  8
0
  0
POLYLINE
  8
PLAN_1
 62
     5
  6
CONTINUOUS
 66
     1
 40
0.003000
 41
0.003000
  0
VERTEX
  8
PLAN_1
 62
     5
  6
CONTINUOUS
 10
-2.087752
 20
0.604409
  0
VERTEX
  8
PLAN_1
 62
     5
  6
CONTINUOUS
 10
-2.087752
 20
0.612500
  0
SEQEND
  8
0
  0
POLYLINE
  8
PLAN_1
 62
     5
  6
CONTINUOUS
 66
     1
 40
0.003000
 41
0.003000
  0
VERTEX
  8
PLAN_1
 62
     5
  6
CONTINUOUS
 10
-2.087752
 20
0.621039
  0
VERTEX
  8
PLAN_1
 62
     5
  6
CONTINUOUS
 10
-2.087752
 20
0.629130
  0
SEQEND
  8
0
  0
POLYLINE
  8
PLAN_1
 62
     5
  6
CONTINUOUS
 66
     1
 40
0.003000
 41
0.003000
  0
VERTEX
  8
PLAN_1
 62
     5
  6
CONTINUOUS
 10
-2.087752
 20
0.637669
  0
VERTEX
  8
PLAN_1
 62
     5
  6
CONTINUOUS
 10
-2.087752
 20
0.645760
  0
SEQEND
  8
0
  0
POLYLINE
  8
PLAN_1
 62
     5
  6
CONTINUOUS
 66
     1
 40
0.003000
 41
0.003000
  0
VERTEX
  8
PLAN_1
 62
     5
  6
CONTINUOUS
 10
-2.087752
 20
0.654299
  0
VERTEX
  8
PLAN_1
 62
     5
  6
CONTINUOUS
 10
-2.087752
 20
0.662839
  0
SEQEND
  8
0
  0
POLYLINE
  8
PLAN_1
 62
     5
  6
CONTINUOUS
 66
     1
 40
0.003000
 41
0.003000
  0
VERTEX
  8
PLAN_1
 62
     5
  6
CONTINUOUS
 10
-2.087752
 20
0.670929
  0
VERTEX
  8
PLAN_1
 62
     5
  6
CONTINUOUS
 10
-2.087752
 20
0.679469
  0
SEQEND
  8
0
  0
POLYLINE
  8
PLAN_1
 62
     5
  6
CONTINUOUS
 66
     1
 40
0.003000
 41
0.003000
  0
VERTEX
  8
PLAN_1
 62
     5
  6
CONTINUOUS
 10
-2.087752
 20
0.687559
  0
VERTEX
  8
PLAN_1
 62
     5
  6
CONTINUOUS
 10
-2.087752
 20
0.696098
  0
SEQEND
  8
0
  0
POLYLINE
  8
PLAN_1
 62
     5
  6
CONTINUOUS
 66
     1
 40
0.003000
 41
0.003000
  0
VERTEX
  8
PLAN_1
 62
     5
  6
CONTINUOUS
 10
-2.087752
 20
0.704189
  0
VERTEX
  8
PLAN_1
 62
     5
  6
CONTINUOUS
 10
-2.087752
 20
0.712728
  0
SEQEND
  8
0
  0
POLYLINE
  8
PLAN_1
 62
     5
  6
CONTINUOUS
 66
     1
 40
0.003000
 41
0.003000
  0
VERTEX
  8
PLAN_1
 62
     5
  6
CONTINUOUS
 10
-2.087752
 20
0.720819
  0
VERTEX
  8
PLAN_1
 62
     5
  6
CONTINUOUS
 10
-2.087752
 20
0.729358
  0
SEQEND
  8
0
  0
POLYLINE
  8
PLAN_1
 62
     5
  6
CONTINUOUS
 66
     1
 40
0.003000
 41
0.003000
  0
VERTEX
  8
PLAN_1
 62
     5
  6
CONTINUOUS
 10
-2.087752
 20
0.737449
  0
VERTEX
  8
PLAN_1
 62
     5
  6
CONTINUOUS
 10
-2.087752
 20
0.745988
  0
SEQEND
  8
0
  0
POLYLINE
  8
PLAN_1
 62
     5
  6
CONTINUOUS
 66
     1
 40
0.003000
 41
0.003000
  0
VERTEX
  8
PLAN_1
 62
     5
  6
CONTINUOUS
 10
-2.087752
 20
0.754079
  0
VERTEX
  8
PLAN_1
 62
     5
  6
CONTINUOUS
 10
-2.087752
 20
0.762618
  0
SEQEND
  8
0
  0
POLYLINE
  8
PLAN_1
 62
     5
  6
CONTINUOUS
 66
     1
 40
0.003000
 41
0.003000
  0
VERTEX
  8
PLAN_1
 62
     5
  6
CONTINUOUS
 10
-2.087752
 20
0.770709
  0
VERTEX
  8
PLAN_1
 62
     5
  6
CONTINUOUS
 10
-2.087752
 20
0.779248
  0
SEQEND
  8
0
  0
POLYLINE
  8
PLAN_1
 62
     5
  6
CONTINUOUS
 66
     1
 40
0.003000
 41
0.003000
  0
VERTEX
  8
PLAN_1
 62
     5
  6
CONTINUOUS
 10
-2.087752
 20
0.787339
  0
VERTEX
  8
PLAN_1
 62
     5
  6
CONTINUOUS
 10
-2.087752
 20
0.795878
  0
SEQEND
  8
0
  0
POLYLINE
  8
PLAN_1
 62
     5
  6
CONTINUOUS
 66
     1
 40
0.003000
 41
0.003000
  0
VERTEX
  8
PLAN_1
 62
     5
  6
CONTINUOUS
 10
-2.087752
 20
0.804421
  0
VERTEX
  8
PLAN_1
 62
     5
  6
CONTINUOUS
 10
-2.087752
 20
0.812508
  0
SEQEND
  8
0
  0
POLYLINE
  8
PLAN_1
 62
     5
  6
CONTINUOUS
 66
     1
 40
0.003000
 41
0.003000
  0
VERTEX
  8
PLAN_1
 62
     5
  6
CONTINUOUS
 10
-2.087752
 20
0.821051
  0
VERTEX
  8
PLAN_1
 62
     5
  6
CONTINUOUS
 10
-2.087752
 20
0.829138
  0
SEQEND
  8
0
  0
POLYLINE
  8
PLAN_1
 62
     5
  6
CONTINUOUS
 66
     1
 40
0.003000
 41
0.003000
  0
VERTEX
  8
PLAN_1
 62
     5
  6
CONTINUOUS
 10
-2.087752
 20
0.837681
  0
VERTEX
  8
PLAN_1
 62
     5
  6
CONTINUOUS
 10
-2.087752
 20
0.845768
  0
SEQEND
  8
0
  0
POLYLINE
  8
PLAN_1
 62
     5
  6
CONTINUOUS
 66
     1
 40
0.003000
 41
0.003000
  0
VERTEX
  8
PLAN_1
 62
     5
  6
CONTINUOUS
 10
-2.087752
 20
0.854311
  0
VERTEX
  8
PLAN_1
 62
     5
  6
CONTINUOUS
 10
-2.087752
 20
0.862398
  0
SEQEND
  8
0
  0
POLYLINE
  8
PLAN_1
 62
     5
  6
CONTINUOUS
 66
     1
 40
0.003000
 41
0.003000
  0
VERTEX
  8
PLAN_1
 62
     5
  6
CONTINUOUS
 10
-2.087752
 20
0.870941
  0
VERTEX
  8
PLAN_1
 62
     5
  6
CONTINUOUS
 10
-2.087752
 20
0.879028
  0
SEQEND
  8
0
  0
POLYLINE
  8
PLAN_1
 62
     5
  6
CONTINUOUS
 66
     1
 40
0.003000
 41
0.003000
  0
VERTEX
  8
PLAN_1
 62
     5
  6
CONTINUOUS
 10
-2.087752
 20
0.887571
  0
VERTEX
  8
PLAN_1
 62
     5
  6
CONTINUOUS
 10
-2.087752
 20
0.895657
  0
SEQEND
  8
0
  0
POLYLINE
  8
PLAN_1
 62
     5
  6
CONTINUOUS
 66
     1
 40
0.003000
 41
0.003000
  0
VERTEX
  8
PLAN_1
 62
     5
  6
CONTINUOUS
 10
-2.087752
 20
0.904201
  0
VERTEX
  8
PLAN_1
 62
     5
  6
CONTINUOUS
 10
-2.087752
 20
0.912287
  0
SEQEND
  8
0
  0
POLYLINE
  8
PLAN_1
 62
     5
  6
CONTINUOUS
 66
     1
 40
0.003000
 41
0.003000
  0
VERTEX
  8
PLAN_1
 62
     5
  6
CONTINUOUS
 10
-2.087752
 20
0.920831
  0
VERTEX
  8
PLAN_1
 62
     5
  6
CONTINUOUS
 10
-2.087752
 20
0.928917
  0
SEQEND
  8
0
  0
POLYLINE
  8
PLAN_1
 62
     5
  6
CONTINUOUS
 66
     1
 40
0.003000
 41
0.003000
  0
VERTEX
  8
PLAN_1
 62
     5
  6
CONTINUOUS
 10
-2.087752
 20
0.937461
  0
VERTEX
  8
PLAN_1
 62
     5
  6
CONTINUOUS
 10
-2.087752
 20
0.946000
  0
SEQEND
  8
0
  0
POLYLINE
  8
PLAN_1
 62
     5
  6
CONTINUOUS
 66
     1
 40
0.003000
 41
0.003000
  0
VERTEX
  8
PLAN_1
 62
     5
  6
CONTINUOUS
 10
-2.087752
 20
0.954091
  0
VERTEX
  8
PLAN_1
 62
     5
  6
CONTINUOUS
 10
-2.087752
 20
0.962630
  0
SEQEND
  8
0
  0
POLYLINE
  8
PLAN_1
 62
     5
  6
CONTINUOUS
 66
     1
 40
0.003000
 41
0.003000
  0
VERTEX
  8
PLAN_1
 62
     5
  6
CONTINUOUS
 10
-2.087752
 20
0.970720
  0
VERTEX
  8
PLAN_1
 62
     5
  6
CONTINUOUS
 10
-2.087752
 20
0.979260
  0
SEQEND
  8
0
  0
POLYLINE
  8
PLAN_1
 62
     5
  6
CONTINUOUS
 66
     1
 40
0.003000
 41
0.003000
  0
VERTEX
  8
PLAN_1
 62
     5
  6
CONTINUOUS
 10
-2.087752
 20
0.987350
  0
VERTEX
  8
PLAN_1
 62
     5
  6
CONTINUOUS
 10
-2.087752
 20
0.995890
  0
SEQEND
  8
0
  0
POLYLINE
  8
PLAN_1
 62
     5
  6
CONTINUOUS
 66
     1
 40
0.003000
 41
0.003000
  0
VERTEX
  8
PLAN_1
 62
     5
  6
CONTINUOUS
 10
-2.087752
 20
1.003980
  0
VERTEX
  8
PLAN_1
 62
     5
  6
CONTINUOUS
 10
-2.087752
 20
1.012520
  0
SEQEND
  8
0
  0
POLYLINE
  8
PLAN_1
 62
     5
  6
CONTINUOUS
 66
     1
 40
0.003000
 41
0.003000
  0
VERTEX
  8
PLAN_1
 62
     5
  6
CONTINUOUS
 10
-2.087752
 20
1.020610
  0
VERTEX
  8
PLAN_1
 62
     5
  6
CONTINUOUS
 10
-2.087752
 20
1.029150
  0
SEQEND
  8
0
  0
POLYLINE
  8
PLAN_1
 62
     5
  6
CONTINUOUS
 66
     1
 40
0.003000
 41
0.003000
  0
VERTEX
  8
PLAN_1
 62
     5
  6
CONTINUOUS
 10
-2.087752
 20
1.037240
  0
VERTEX
  8
PLAN_1
 62
     5
  6
CONTINUOUS
 10
-2.087752
 20
1.045780
  0
SEQEND
  8
0
  0
POLYLINE
  8
PLAN_1
 62
     5
  6
CONTINUOUS
 66
     1
 40
0.003000
 41
0.003000
  0
VERTEX
  8
PLAN_1
 62
     5
  6
CONTINUOUS
 10
-2.087752
 20
1.053870
  0
VERTEX
  8
PLAN_1
 62
     5
  6
CONTINUOUS
 10
-2.087752
 20
1.062409
  0
SEQEND
  8
0
  0
POLYLINE
  8
PLAN_1
 62
     5
  6
CONTINUOUS
 66
     1
 40
0.003000
 41
0.003000
  0
VERTEX
  8
PLAN_1
 62
     5
  6
CONTINUOUS
 10
-2.087752
 20
1.070500
  0
VERTEX
  8
PLAN_1
 62
     5
  6
CONTINUOUS
 10
-2.087752
 20
1.079039
  0
SEQEND
  8
0
  0
POLYLINE
  8
PLAN_1
 62
     5
  6
CONTINUOUS
 66
     1
 40
0.003000
 41
0.003000
  0
VERTEX
  8
PLAN_1
 62
     5
  6
CONTINUOUS
 10
-2.087752
 20
1.087579
  0
VERTEX
  8
PLAN_1
 62
     5
  6
CONTINUOUS
 10
-2.087752
 20
1.095669
  0
SEQEND
  8
0
  0
POLYLINE
  8
PLAN_1
 62
     5
  6
CONTINUOUS
 66
     1
 40
0.003000
 41
0.003000
  0
VERTEX
  8
PLAN_1
 62
     5
  6
CONTINUOUS
 10
-2.087752
 20
1.104209
  0
VERTEX
  8
PLAN_1
 62
     5
  6
CONTINUOUS
 10
-2.087752
 20
1.112299
  0
SEQEND
  8
0
  0
POLYLINE
  8
PLAN_1
 62
     5
  6
CONTINUOUS
 66
     1
 40
0.003000
 41
0.003000
  0
VERTEX
  8
PLAN_1
 62
     5
  6
CONTINUOUS
 10
-2.087752
 20
1.120839
  0
VERTEX
  8
PLAN_1
 62
     5
  6
CONTINUOUS
 10
-2.087752
 20
1.128929
  0
SEQEND
  8
0
  0
POLYLINE
  8
PLAN_1
 62
     5
  6
CONTINUOUS
 66
     1
 40
0.003000
 41
0.003000
  0
VERTEX
  8
PLAN_1
 62
     5
  6
CONTINUOUS
 10
-2.087752
 20
1.137469
  0
VERTEX
  8
PLAN_1
 62
     5
  6
CONTINUOUS
 10
-2.087752
 20
1.145559
  0
SEQEND
  8
0
  0
POLYLINE
  8
PLAN_1
 62
     5
  6
CONTINUOUS
 66
     1
 40
0.003000
 41
0.003000
  0
VERTEX
  8
PLAN_1
 62
     5
  6
CONTINUOUS
 10
-2.087752
 20
1.154098
  0
VERTEX
  8
PLAN_1
 62
     5
  6
CONTINUOUS
 10
-2.087752
 20
1.162189
  0
SEQEND
  8
0
  0
POLYLINE
  8
PLAN_1
 62
     5
  6
CONTINUOUS
 66
     1
 40
0.003000
 41
0.003000
  0
VERTEX
  8
PLAN_1
 62
     5
  6
CONTINUOUS
 10
-2.087752
 20
1.170728
  0
VERTEX
  8
PLAN_1
 62
     5
  6
CONTINUOUS
 10
-2.087752
 20
1.178819
  0
SEQEND
  8
0
  0
POLYLINE
  8
PLAN_1
 62
     5
  6
CONTINUOUS
 66
     1
 40
0.003000
 41
0.003000
  0
VERTEX
  8
PLAN_1
 62
     5
  6
CONTINUOUS
 10
-2.087752
 20
1.187358
  0
VERTEX
  8
PLAN_1
 62
     5
  6
CONTINUOUS
 10
-2.087752
 20
1.195449
  0
SEQEND
  8
0
  0
POLYLINE
  8
PLAN_1
 62
     5
  6
CONTINUOUS
 66
     1
 40
0.003000
 41
0.003000
  0
VERTEX
  8
PLAN_1
 62
     5
  6
CONTINUOUS
 10
-2.087752
 20
1.203988
  0
VERTEX
  8
PLAN_1
 62
     5
  6
CONTINUOUS
 10
-2.087752
 20
1.212079
  0
SEQEND
  8
0
  0
POLYLINE
  8
PLAN_1
 62
     5
  6
CONTINUOUS
 66
     1
 40
0.003000
 41
0.003000
  0
VERTEX
  8
PLAN_1
 62
     5
  6
CONTINUOUS
 10
-2.087752
 20
1.220618
  0
VERTEX
  8
PLAN_1
 62
     5
  6
CONTINUOUS
 10
-2.087752
 20
1.229157
  0
SEQEND
  8
0
  0
POLYLINE
  8
PLAN_1
 62
     5
  6
CONTINUOUS
 66
     1
 40
0.003000
 41
0.003000
  0
VERTEX
  8
PLAN_1
 62
     5
  6
CONTINUOUS
 10
-2.087752
 20
1.237248
  0
VERTEX
  8
PLAN_1
 62
     5
  6
CONTINUOUS
 10
-2.087752
 20
1.245787
  0
SEQEND
  8
0
  0
POLYLINE
  8
PLAN_1
 62
     5
  6
CONTINUOUS
 66
     1
 40
0.003000
 41
0.003000
  0
VERTEX
  8
PLAN_1
 62
     5
  6
CONTINUOUS
 10
-2.087752
 20
1.253878
  0
VERTEX
  8
PLAN_1
 62
     5
  6
CONTINUOUS
 10
-2.087752
 20
1.257921
  0
SEQEND
  8
0
  0
POLYLINE
  8
PLAN_1
 62
     5
  6
CONTINUOUS
 66
     1
 40
0.003000
 41
0.003000
  0
VERTEX
  8
PLAN_1
 62
     5
  6
CONTINUOUS
 10
-2.087752
 20
1.253878
  0
VERTEX
  8
PLAN_1
 62
     5
  6
CONTINUOUS
 10
-2.087752
 20
1.257921
  0
SEQEND
  8
0
  0
POLYLINE
  8
PLAN_1
 62
     5
  6
CONTINUOUS
 66
     1
 40
0.003000
 41
0.003000
  0
VERTEX
  8
PLAN_1
 62
     5
  6
CONTINUOUS
 10
-2.087752
 20
1.257921
  0
VERTEX
  8
PLAN_1
 62
     5
  6
CONTINUOUS
 10
-2.088201
 20
1.261969
  0
VERTEX
  8
PLAN_1
 62
     5
  6
CONTINUOUS
 10
-2.087752
 20
1.266012
  0
SEQEND
  8
0
  0
POLYLINE
  8
PLAN_1
 62
     5
  6
CONTINUOUS
 66
     1
 40
0.003000
 41
0.003000
  0
VERTEX
  8
PLAN_1
 62
     5
  6
CONTINUOUS
 10
-2.085957
 20
1.274102
  0
VERTEX
  8
PLAN_1
 62
     5
  6
CONTINUOUS
 10
-2.085055
 20
1.277248
  0
VERTEX
  8
PLAN_1
 62
     5
  6
CONTINUOUS
 10
-2.083260
 20
1.280394
  0
VERTEX
  8
PLAN_1
 62
     5
  6
CONTINUOUS
 10
-2.082358
 20
1.281744
  0
SEQEND
  8
0
  0
POLYLINE
  8
PLAN_1
 62
     5
  6
CONTINUOUS
 66
     1
 40
0.003000
 41
0.003000
  0
VERTEX
  8
PLAN_1
 62
     5
  6
CONTINUOUS
 10
-2.076965
 20
1.288035
  0
VERTEX
  8
PLAN_1
 62
     5
  6
CONTINUOUS
 10
-2.076067
 20
1.288933
  0
VERTEX
  8
PLAN_1
 62
     5
  6
CONTINUOUS
 10
-2.072921
 20
1.291181
  0
VERTEX
  8
PLAN_1
 62
     5
  6
CONTINUOUS
 10
-2.070224
 20
1.292980
  0
SEQEND
  8
0
  0
POLYLINE
  8
PLAN_1
 62
     5
  6
CONTINUOUS
 66
     1
 40
0.003000
 41
0.003000
  0
VERTEX
  8
PLAN_1
 62
     5
  6
CONTINUOUS
 10
-2.062583
 20
1.296126
  0
VERTEX
  8
PLAN_1
 62
     5
  6
CONTINUOUS
 10
-2.058988
 20
1.297024
  0
VERTEX
  8
PLAN_1
 62
     5
  6
CONTINUOUS
 10
-2.054941
 20
1.297472
  0
VERTEX
  8
PLAN_1
 62
     5
  6
CONTINUOUS
 10
-2.054492
 20
1.297472
  0
SEQEND
  8
0
  0
POLYLINE
  8
PLAN_1
 62
     5
  6
CONTINUOUS
 66
     1
 40
0.003000
 41
0.003000
  0
VERTEX
  8
PLAN_1
 62
     5
  6
CONTINUOUS
 10
-2.050898
 20
1.297925
  0
VERTEX
  8
PLAN_1
 62
     5
  6
CONTINUOUS
 10
-2.042807
 20
1.297925
  0
SEQEND
  8
0
  0
POLYLINE
  8
PLAN_1
 62
     5
  6
CONTINUOUS
 66
     1
 40
0.003000
 41
0.003000
  0
VERTEX
  8
PLAN_1
 62
     5
  6
CONTINUOUS
 10
-2.034268
 20
1.297925
  0
VERTEX
  8
PLAN_1
 62
     5
  6
CONTINUOUS
 10
-2.025728
 20
1.297925
  0
SEQEND
  8
0
  0
POLYLINE
  8
PLAN_1
 62
     5
  6
CONTINUOUS
 66
     1
 40
0.003000
 41
0.003000
  0
VERTEX
  8
PLAN_1
 62
     5
  6
CONTINUOUS
 10
-2.017638
 20
1.297925
  0
VERTEX
  8
PLAN_1
 62
     5
  6
CONTINUOUS
 10
-2.009098
 20
1.297925
  0
SEQEND
  8
0
  0
POLYLINE
  8
PLAN_1
 62
     5
  6
CONTINUOUS
 66
     1
 40
0.003000
 41
0.003000
  0
VERTEX
  8
PLAN_1
 62
     5
  6
CONTINUOUS
 10
-2.001008
 20
1.297925
  0
VERTEX
  8
PLAN_1
 62
     5
  6
CONTINUOUS
 10
-1.992469
 20
1.297925
  0
SEQEND
  8
0
  0
POLYLINE
  8
PLAN_1
 62
     5
  6
CONTINUOUS
 66
     1
 40
0.003000
 41
0.003000
  0
VERTEX
  8
PLAN_1
 62
     5
  6
CONTINUOUS
 10
-1.984378
 20
1.297925
  0
VERTEX
  8
PLAN_1
 62
     5
  6
CONTINUOUS
 10
-1.975839
 20
1.297925
  0
SEQEND
  8
0
  0
POLYLINE
  8
PLAN_1
 62
     5
  6
CONTINUOUS
 66
     1
 40
0.003000
 41
0.003000
  0
VERTEX
  8
PLAN_1
 62
     5
  6
CONTINUOUS
 10
-1.967748
 20
1.297925
  0
VERTEX
  8
PLAN_1
 62
     5
  6
CONTINUOUS
 10
-1.959209
 20
1.297925
  0
SEQEND
  8
0
  0
POLYLINE
  8
PLAN_1
 62
     5
  6
CONTINUOUS
 66
     1
 40
0.003000
 41
0.003000
  0
VERTEX
  8
PLAN_1
 62
     5
  6
CONTINUOUS
 10
-1.951118
 20
1.297925
  0
VERTEX
  8
PLAN_1
 62
     5
  6
CONTINUOUS
 10
-1.942579
 20
1.297925
  0
SEQEND
  8
0
  0
POLYLINE
  8
PLAN_1
 62
     5
  6
CONTINUOUS
 66
     1
 40
0.003000
 41
0.003000
  0
VERTEX
  8
PLAN_1
 62
     5
  6
CONTINUOUS
 10
-1.934488
 20
1.297925
  0
VERTEX
  8
PLAN_1
 62
     5
  6
CONTINUOUS
 10
-1.925949
 20
1.297925
  0
SEQEND
  8
0
  0
POLYLINE
  8
PLAN_1
 62
     5
  6
CONTINUOUS
 66
     1
 40
0.003000
 41
0.003000
  0
VERTEX
  8
PLAN_1
 62
     5
  6
CONTINUOUS
 10
-1.917858
 20
1.297925
  0
VERTEX
  8
PLAN_1
 62
     5
  6
CONTINUOUS
 10
-1.909319
 20
1.297925
  0
SEQEND
  8
0
  0
POLYLINE
  8
PLAN_1
 62
     5
  6
CONTINUOUS
 66
     1
 40
0.003000
 41
0.003000
  0
VERTEX
  8
PLAN_1
 62
     5
  6
CONTINUOUS
 10
-1.901228
 20
1.297925
  0
VERTEX
  8
PLAN_1
 62
     5
  6
CONTINUOUS
 10
-1.892689
 20
1.297925
  0
SEQEND
  8
0
  0
POLYLINE
  8
PLAN_1
 62
     5
  6
CONTINUOUS
 66
     1
 40
0.003000
 41
0.003000
  0
VERTEX
  8
PLAN_1
 62
     5
  6
CONTINUOUS
 10
-1.884150
 20
1.297925
  0
VERTEX
  8
PLAN_1
 62
     5
  6
CONTINUOUS
 10
-1.876059
 20
1.297925
  0
SEQEND
  8
0
  0
POLYLINE
  8
PLAN_1
 62
     5
  6
CONTINUOUS
 66
     1
 40
0.003000
 41
0.003000
  0
VERTEX
  8
PLAN_1
 62
     5
  6
CONTINUOUS
 10
-1.867520
 20
1.297925
  0
VERTEX
  8
PLAN_1
 62
     5
  6
CONTINUOUS
 10
-1.859429
 20
1.297925
  0
SEQEND
  8
0
  0
POLYLINE
  8
PLAN_1
 62
     5
  6
CONTINUOUS
 66
     1
 40
0.003000
 41
0.003000
  0
VERTEX
  8
PLAN_1
 62
     5
  6
CONTINUOUS
 10
-1.850890
 20
1.297925
  0
VERTEX
  8
PLAN_1
 62
     5
  6
CONTINUOUS
 10
-1.842799
 20
1.297925
  0
SEQEND
  8
0
  0
POLYLINE
  8
PLAN_1
 62
     5
  6
CONTINUOUS
 66
     1
 40
0.003000
 41
0.003000
  0
VERTEX
  8
PLAN_1
 62
     5
  6
CONTINUOUS
 10
-1.834260
 20
1.297925
  0
VERTEX
  8
PLAN_1
 62
     5
  6
CONTINUOUS
 10
-1.826169
 20
1.297925
  0
SEQEND
  8
0
  0
POLYLINE
  8
PLAN_1
 62
     5
  6
CONTINUOUS
 66
     1
 40
0.003000
 41
0.003000
  0
VERTEX
  8
PLAN_1
 62
     5
  6
CONTINUOUS
 10
-1.817630
 20
1.297925
  0
VERTEX
  8
PLAN_1
 62
     5
  6
CONTINUOUS
 10
-1.809539
 20
1.297925
  0
SEQEND
  8
0
  0
POLYLINE
  8
PLAN_1
 62
     5
  6
CONTINUOUS
 66
     1
 40
0.003000
 41
0.003000
  0
VERTEX
  8
PLAN_1
 62
     5
  6
CONTINUOUS
 10
-1.801000
 20
1.297925
  0
VERTEX
  8
PLAN_1
 62
     5
  6
CONTINUOUS
 10
-1.792909
 20
1.297925
  0
SEQEND
  8
0
  0
POLYLINE
  8
PLAN_1
 62
     5
  6
CONTINUOUS
 66
     1
 40
0.003000
 41
0.003000
  0
VERTEX
  8
PLAN_1
 62
     5
  6
CONTINUOUS
 10
-1.784370
 20
1.297925
  0
VERTEX
  8
PLAN_1
 62
     5
  6
CONTINUOUS
 10
-1.776280
 20
1.297925
  0
SEQEND
  8
0
  0
POLYLINE
  8
PLAN_1
 62
     5
  6
CONTINUOUS
 66
     1
 40
0.003000
 41
0.003000
  0
VERTEX
  8
PLAN_1
 62
     5
  6
CONTINUOUS
 10
-1.767740
 20
1.297925
  0
VERTEX
  8
PLAN_1
 62
     5
  6
CONTINUOUS
 10
-1.759201
 20
1.297925
  0
SEQEND
  8
0
  0
POLYLINE
  8
PLAN_1
 62
     5
  6
CONTINUOUS
 66
     1
 40
0.003000
 41
0.003000
  0
VERTEX
  8
PLAN_1
 62
     5
  6
CONTINUOUS
 10
-1.751110
 20
1.297925
  0
VERTEX
  8
PLAN_1
 62
     5
  6
CONTINUOUS
 10
-1.742571
 20
1.297925
  0
SEQEND
  8
0
  0
POLYLINE
  8
PLAN_1
 62
     5
  6
CONTINUOUS
 66
     1
 40
0.003000
 41
0.003000
  0
VERTEX
  8
PLAN_1
 62
     5
  6
CONTINUOUS
 10
-1.734480
 20
1.297925
  0
VERTEX
  8
PLAN_1
 62
     5
  6
CONTINUOUS
 10
-1.725941
 20
1.297925
  0
SEQEND
  8
0
  0
POLYLINE
  8
PLAN_1
 62
     5
  6
CONTINUOUS
 66
     1
 40
0.003000
 41
0.003000
  0
VERTEX
  8
PLAN_1
 62
     5
  6
CONTINUOUS
 10
-1.717850
 20
1.297925
  0
VERTEX
  8
PLAN_1
 62
     5
  6
CONTINUOUS
 10
-1.709311
 20
1.297925
  0
SEQEND
  8
0
  0
POLYLINE
  8
PLAN_1
 62
     5
  6
CONTINUOUS
 66
     1
 40
0.003000
 41
0.003000
  0
VERTEX
  8
PLAN_1
 62
     5
  6
CONTINUOUS
 10
-1.701220
 20
1.297925
  0
VERTEX
  8
PLAN_1
 62
     5
  6
CONTINUOUS
 10
-1.692681
 20
1.297925
  0
SEQEND
  8
0
  0
POLYLINE
  8
PLAN_1
 62
     5
  6
CONTINUOUS
 66
     1
 40
0.003000
 41
0.003000
  0
VERTEX
  8
PLAN_1
 62
     5
  6
CONTINUOUS
 10
-1.684591
 20
1.297925
  0
VERTEX
  8
PLAN_1
 62
     5
  6
CONTINUOUS
 10
-1.676051
 20
1.297925
  0
SEQEND
  8
0
  0
POLYLINE
  8
PLAN_1
 62
     5
  6
CONTINUOUS
 66
     1
 40
0.003000
 41
0.003000
  0
VERTEX
  8
PLAN_1
 62
     5
  6
CONTINUOUS
 10
-1.667961
 20
1.297925
  0
VERTEX
  8
PLAN_1
 62
     5
  6
CONTINUOUS
 10
-1.659421
 20
1.297925
  0
SEQEND
  8
0
  0
POLYLINE
  8
PLAN_1
 62
     5
  6
CONTINUOUS
 66
     1
 40
0.003000
 41
0.003000
  0
VERTEX
  8
PLAN_1
 62
     5
  6
CONTINUOUS
 10
-1.651331
 20
1.297925
  0
VERTEX
  8
PLAN_1
 62
     5
  6
CONTINUOUS
 10
-1.642791
 20
1.297925
  0
SEQEND
  8
0
  0
POLYLINE
  8
PLAN_1
 62
     5
  6
CONTINUOUS
 66
     1
 40
0.003000
 41
0.003000
  0
VERTEX
  8
PLAN_1
 62
     5
  6
CONTINUOUS
 10
-1.634701
 20
1.297925
  0
VERTEX
  8
PLAN_1
 62
     5
  6
CONTINUOUS
 10
-1.626161
 20
1.297925
  0
SEQEND
  8
0
  0
POLYLINE
  8
PLAN_1
 62
     5
  6
CONTINUOUS
 66
     1
 40
0.003000
 41
0.003000
  0
VERTEX
  8
PLAN_1
 62
     5
  6
CONTINUOUS
 10
-1.617622
 20
1.297925
  0
VERTEX
  8
PLAN_1
 62
     5
  6
CONTINUOUS
 10
-1.609531
 20
1.297925
  0
SEQEND
  8
0
  0
POLYLINE
  8
PLAN_1
 62
     5
  6
CONTINUOUS
 66
     1
 40
0.003000
 41
0.003000
  0
VERTEX
  8
PLAN_1
 62
     5
  6
CONTINUOUS
 10
-1.600992
 20
1.297925
  0
VERTEX
  8
PLAN_1
 62
     5
  6
CONTINUOUS
 10
-1.592902
 20
1.297925
  0
SEQEND
  8
0
  0
POLYLINE
  8
PLAN_1
 62
     5
  6
CONTINUOUS
 66
     1
 40
0.003000
 41
0.003000
  0
VERTEX
  8
PLAN_1
 62
     5
  6
CONTINUOUS
 10
-1.584362
 20
1.297925
  0
VERTEX
  8
PLAN_1
 62
     5
  6
CONTINUOUS
 10
-1.576272
 20
1.297925
  0
SEQEND
  8
0
  0
POLYLINE
  8
PLAN_1
 62
     5
  6
CONTINUOUS
 66
     1
 40
0.003000
 41
0.003000
  0
VERTEX
  8
PLAN_1
 62
     5
  6
CONTINUOUS
 10
-1.567732
 20
1.297925
  0
VERTEX
  8
PLAN_1
 62
     5
  6
CONTINUOUS
 10
-1.559642
 20
1.297925
  0
SEQEND
  8
0
  0
POLYLINE
  8
PLAN_1
 62
     5
  6
CONTINUOUS
 66
     1
 40
0.003000
 41
0.003000
  0
VERTEX
  8
PLAN_1
 62
     5
  6
CONTINUOUS
 10
-1.551102
 20
1.297925
  0
VERTEX
  8
PLAN_1
 62
     5
  6
CONTINUOUS
 10
-1.543012
 20
1.297925
  0
SEQEND
  8
0
  0
POLYLINE
  8
PLAN_1
 62
     5
  6
CONTINUOUS
 66
     1
 40
0.003000
 41
0.003000
  0
VERTEX
  8
PLAN_1
 62
     5
  6
CONTINUOUS
 10
-1.534472
 20
1.297925
  0
VERTEX
  8
PLAN_1
 62
     5
  6
CONTINUOUS
 10
-1.526382
 20
1.297925
  0
SEQEND
  8
0
  0
POLYLINE
  8
PLAN_1
 62
     5
  6
CONTINUOUS
 66
     1
 40
0.003000
 41
0.003000
  0
VERTEX
  8
PLAN_1
 62
     5
  6
CONTINUOUS
 10
-1.517843
 20
1.297925
  0
VERTEX
  8
PLAN_1
 62
     5
  6
CONTINUOUS
 10
-1.509752
 20
1.297925
  0
SEQEND
  8
0
  0
POLYLINE
  8
PLAN_1
 62
     5
  6
CONTINUOUS
 66
     1
 40
0.003000
 41
0.003000
  0
VERTEX
  8
PLAN_1
 62
     5
  6
CONTINUOUS
 10
-1.501213
 20
1.297925
  0
VERTEX
  8
PLAN_1
 62
     5
  6
CONTINUOUS
 10
-1.493122
 20
1.297925
  0
SEQEND
  8
0
  0
POLYLINE
  8
PLAN_1
 62
     5
  6
CONTINUOUS
 66
     1
 40
0.003000
 41
0.003000
  0
VERTEX
  8
PLAN_1
 62
     5
  6
CONTINUOUS
 10
-1.484583
 20
1.297925
  0
VERTEX
  8
PLAN_1
 62
     5
  6
CONTINUOUS
 10
-1.476039
 20
1.297925
  0
SEQEND
  8
0
  0
POLYLINE
  8
PLAN_1
 62
     5
  6
CONTINUOUS
 66
     1
 40
0.003000
 41
0.003000
  0
VERTEX
  8
PLAN_1
 62
     5
  6
CONTINUOUS
 10
-1.467953
 20
1.297925
  0
VERTEX
  8
PLAN_1
 62
     5
  6
CONTINUOUS
 10
-1.459409
 20
1.297925
  0
SEQEND
  8
0
  0
POLYLINE
  8
PLAN_1
 62
     5
  6
CONTINUOUS
 66
     1
 40
0.003000
 41
0.003000
  0
VERTEX
  8
PLAN_1
 62
     5
  6
CONTINUOUS
 10
-1.451323
 20
1.297925
  0
VERTEX
  8
PLAN_1
 62
     5
  6
CONTINUOUS
 10
-1.442780
 20
1.297925
  0
SEQEND
  8
0
  0
POLYLINE
  8
PLAN_1
 62
     5
  6
CONTINUOUS
 66
     1
 40
0.003000
 41
0.003000
  0
VERTEX
  8
PLAN_1
 62
     5
  6
CONTINUOUS
 10
-1.434689
 20
1.297925
  0
VERTEX
  8
PLAN_1
 62
     5
  6
CONTINUOUS
 10
-1.426150
 20
1.297925
  0
SEQEND
  8
0
  0
POLYLINE
  8
PLAN_1
 62
     5
  6
CONTINUOUS
 66
     1
 40
0.003000
 41
0.003000
  0
VERTEX
  8
PLAN_1
 62
     5
  6
CONTINUOUS
 10
-1.418059
 20
1.297925
  0
VERTEX
  8
PLAN_1
 62
     5
  6
CONTINUOUS
 10
-1.409520
 20
1.297925
  0
SEQEND
  8
0
  0
POLYLINE
  8
PLAN_1
 62
     5
  6
CONTINUOUS
 66
     1
 40
0.003000
 41
0.003000
  0
VERTEX
  8
PLAN_1
 62
     5
  6
CONTINUOUS
 10
-1.401429
 20
1.297925
  0
VERTEX
  8
PLAN_1
 62
     5
  6
CONTINUOUS
 10
-1.392890
 20
1.297925
  0
SEQEND
  8
0
  0
POLYLINE
  8
PLAN_1
 62
     5
  6
CONTINUOUS
 66
     1
 40
0.003000
 41
0.003000
  0
VERTEX
  8
PLAN_1
 62
     5
  6
CONTINUOUS
 10
-1.384799
 20
1.297925
  0
VERTEX
  8
PLAN_1
 62
     5
  6
CONTINUOUS
 10
-1.376260
 20
1.297925
  0
SEQEND
  8
0
  0
POLYLINE
  8
PLAN_1
 62
     5
  6
CONTINUOUS
 66
     1
 40
0.003000
 41
0.003000
  0
VERTEX
  8
PLAN_1
 62
     5
  6
CONTINUOUS
 10
-1.368169
 20
1.297925
  0
VERTEX
  8
PLAN_1
 62
     5
  6
CONTINUOUS
 10
-1.359630
 20
1.297925
  0
SEQEND
  8
0
  0
POLYLINE
  8
PLAN_1
 62
     5
  6
CONTINUOUS
 66
     1
 40
0.003000
 41
0.003000
  0
VERTEX
  8
PLAN_1
 62
     5
  6
CONTINUOUS
 10
-1.351539
 20
1.297925
  0
VERTEX
  8
PLAN_1
 62
     5
  6
CONTINUOUS
 10
-1.343000
 20
1.297925
  0
SEQEND
  8
0
  0
POLYLINE
  8
PLAN_1
 62
     5
  6
CONTINUOUS
 66
     1
 40
0.003000
 41
0.003000
  0
VERTEX
  8
PLAN_1
 62
     5
  6
CONTINUOUS
 10
-1.334461
 20
1.297925
  0
VERTEX
  8
PLAN_1
 62
     5
  6
CONTINUOUS
 10
-1.326370
 20
1.297925
  0
SEQEND
  8
0
  0
POLYLINE
  8
PLAN_1
 62
     5
  6
CONTINUOUS
 66
     1
 40
0.003000
 41
0.003000
  0
VERTEX
  8
PLAN_1
 62
     5
  6
CONTINUOUS
 10
-1.317831
 20
1.297925
  0
VERTEX
  8
PLAN_1
 62
     5
  6
CONTINUOUS
 10
-1.309740
 20
1.297925
  0
SEQEND
  8
0
  0
POLYLINE
  8
PLAN_1
 62
     5
  6
CONTINUOUS
 66
     1
 40
0.003000
 41
0.003000
  0
VERTEX
  8
PLAN_1
 62
     5
  6
CONTINUOUS
 10
-1.301201
 20
1.297925
  0
VERTEX
  8
PLAN_1
 62
     5
  6
CONTINUOUS
 10
-1.293110
 20
1.297925
  0
SEQEND
  8
0
  0
POLYLINE
  8
PLAN_1
 62
     5
  6
CONTINUOUS
 66
     1
 40
0.003000
 41
0.003000
  0
VERTEX
  8
PLAN_1
 62
     5
  6
CONTINUOUS
 10
-1.284571
 20
1.297925
  0
VERTEX
  8
PLAN_1
 62
     5
  6
CONTINUOUS
 10
-1.276480
 20
1.297925
  0
SEQEND
  8
0
  0
POLYLINE
  8
PLAN_1
 62
     5
  6
CONTINUOUS
 66
     1
 40
0.003000
 41
0.003000
  0
VERTEX
  8
PLAN_1
 62
     5
  6
CONTINUOUS
 10
-1.267941
 20
1.297925
  0
VERTEX
  8
PLAN_1
 62
     5
  6
CONTINUOUS
 10
-1.259850
 20
1.297925
  0
SEQEND
  8
0
  0
POLYLINE
  8
PLAN_1
 62
     5
  6
CONTINUOUS
 66
     1
 40
0.003000
 41
0.003000
  0
VERTEX
  8
PLAN_1
 62
     5
  6
CONTINUOUS
 10
-1.251311
 20
1.297925
  0
VERTEX
  8
PLAN_1
 62
     5
  6
CONTINUOUS
 10
-1.243220
 20
1.297925
  0
SEQEND
  8
0
  0
POLYLINE
  8
PLAN_1
 62
     5
  6
CONTINUOUS
 66
     1
 40
0.003000
 41
0.003000
  0
VERTEX
  8
PLAN_1
 62
     5
  6
CONTINUOUS
 10
-1.234681
 20
1.297925
  0
VERTEX
  8
PLAN_1
 62
     5
  6
CONTINUOUS
 10
-1.226591
 20
1.297925
  0
SEQEND
  8
0
  0
POLYLINE
  8
PLAN_1
 62
     5
  6
CONTINUOUS
 66
     1
 40
0.003000
 41
0.003000
  0
VERTEX
  8
PLAN_1
 62
     5
  6
CONTINUOUS
 10
-1.218051
 20
1.297925
  0
VERTEX
  8
PLAN_1
 62
     5
  6
CONTINUOUS
 10
-1.209961
 20
1.297925
  0
SEQEND
  8
0
  0
POLYLINE
  8
PLAN_1
 62
     5
  6
CONTINUOUS
 66
     1
 40
0.003000
 41
0.003000
  0
VERTEX
  8
PLAN_1
 62
     5
  6
CONTINUOUS
 10
-1.201421
 20
1.297925
  0
VERTEX
  8
PLAN_1
 62
     5
  6
CONTINUOUS
 10
-1.192882
 20
1.297925
  0
SEQEND
  8
0
  0
POLYLINE
  8
PLAN_1
 62
     5
  6
CONTINUOUS
 66
     1
 40
0.003000
 41
0.003000
  0
VERTEX
  8
PLAN_1
 62
     5
  6
CONTINUOUS
 10
-1.184791
 20
1.297925
  0
VERTEX
  8
PLAN_1
 62
     5
  6
CONTINUOUS
 10
-1.176252
 20
1.297925
  0
SEQEND
  8
0
  0
POLYLINE
  8
PLAN_1
 62
     5
  6
CONTINUOUS
 66
     1
 40
0.003000
 41
0.003000
  0
VERTEX
  8
PLAN_1
 62
     5
  6
CONTINUOUS
 10
-1.168161
 20
1.297925
  0
VERTEX
  8
PLAN_1
 62
     5
  6
CONTINUOUS
 10
-1.159622
 20
1.297925
  0
SEQEND
  8
0
  0
POLYLINE
  8
PLAN_1
 62
     5
  6
CONTINUOUS
 66
     1
 40
0.003000
 41
0.003000
  0
VERTEX
  8
PLAN_1
 62
     5
  6
CONTINUOUS
 10
-1.151531
 20
1.297925
  0
VERTEX
  8
PLAN_1
 62
     5
  6
CONTINUOUS
 10
-1.142992
 20
1.297925
  0
SEQEND
  8
0
  0
POLYLINE
  8
PLAN_1
 62
     5
  6
CONTINUOUS
 66
     1
 40
0.003000
 41
0.003000
  0
VERTEX
  8
PLAN_1
 62
     5
  6
CONTINUOUS
 10
-1.134902
 20
1.297925
  0
VERTEX
  8
PLAN_1
 62
     5
  6
CONTINUOUS
 10
-1.126362
 20
1.297925
  0
SEQEND
  8
0
  0
POLYLINE
  8
PLAN_1
 62
     5
  6
CONTINUOUS
 66
     1
 40
0.003000
 41
0.003000
  0
VERTEX
  8
PLAN_1
 62
     5
  6
CONTINUOUS
 10
-1.118272
 20
1.297925
  0
VERTEX
  8
PLAN_1
 62
     5
  6
CONTINUOUS
 10
-1.109732
 20
1.297925
  0
SEQEND
  8
0
  0
POLYLINE
  8
PLAN_1
 62
     5
  6
CONTINUOUS
 66
     1
 40
0.003000
 41
0.003000
  0
VERTEX
  8
PLAN_1
 62
     5
  6
CONTINUOUS
 10
-1.101642
 20
1.297925
  0
VERTEX
  8
PLAN_1
 62
     5
  6
CONTINUOUS
 10
-1.093102
 20
1.297925
  0
SEQEND
  8
0
  0
POLYLINE
  8
PLAN_1
 62
     5
  6
CONTINUOUS
 66
     1
 40
0.003000
 41
0.003000
  0
VERTEX
  8
PLAN_1
 62
     5
  6
CONTINUOUS
 10
-1.085012
 20
1.297925
  0
VERTEX
  8
PLAN_1
 62
     5
  6
CONTINUOUS
 10
-1.076472
 20
1.297925
  0
SEQEND
  8
0
  0
POLYLINE
  8
PLAN_1
 62
     5
  6
CONTINUOUS
 66
     1
 40
0.003000
 41
0.003000
  0
VERTEX
  8
PLAN_1
 62
     5
  6
CONTINUOUS
 10
-1.067933
 20
1.297925
  0
VERTEX
  8
PLAN_1
 62
     5
  6
CONTINUOUS
 10
-1.059843
 20
1.297925
  0
SEQEND
  8
0
  0
POLYLINE
  8
PLAN_1
 62
     5
  6
CONTINUOUS
 66
     1
 40
0.003000
 41
0.003000
  0
VERTEX
  8
PLAN_1
 62
     5
  6
CONTINUOUS
 10
-1.051303
 20
1.297925
  0
VERTEX
  8
PLAN_1
 62
     5
  6
CONTINUOUS
 10
-1.043213
 20
1.297925
  0
SEQEND
  8
0
  0
POLYLINE
  8
PLAN_1
 62
     5
  6
CONTINUOUS
 66
     1
 40
0.003000
 41
0.003000
  0
VERTEX
  8
PLAN_1
 62
     5
  6
CONTINUOUS
 10
-1.034673
 20
1.297925
  0
VERTEX
  8
PLAN_1
 62
     5
  6
CONTINUOUS
 10
-1.026583
 20
1.297925
  0
SEQEND
  8
0
  0
POLYLINE
  8
PLAN_1
 62
     5
  6
CONTINUOUS
 66
     1
 40
0.003000
 41
0.003000
  0
VERTEX
  8
PLAN_1
 62
     5
  6
CONTINUOUS
 10
-1.018043
 20
1.297925
  0
VERTEX
  8
PLAN_1
 62
     5
  6
CONTINUOUS
 10
-1.009953
 20
1.297925
  0
SEQEND
  8
0
  0
POLYLINE
  8
PLAN_1
 62
     5
  6
CONTINUOUS
 66
     1
 40
0.003000
 41
0.003000
  0
VERTEX
  8
PLAN_1
 62
     5
  6
CONTINUOUS
 10
-1.001413
 20
1.297925
  0
VERTEX
  8
PLAN_1
 62
     5
  6
CONTINUOUS
 10
-0.993323
 20
1.297925
  0
SEQEND
  8
0
  0
POLYLINE
  8
PLAN_1
 62
     5
  6
CONTINUOUS
 66
     1
 40
0.003000
 41
0.003000
  0
VERTEX
  8
PLAN_1
 62
     5
  6
CONTINUOUS
 10
-0.984783
 20
1.297925
  0
VERTEX
  8
PLAN_1
 62
     5
  6
CONTINUOUS
 10
-0.976693
 20
1.297925
  0
SEQEND
  8
0
  0
POLYLINE
  8
PLAN_1
 62
     5
  6
CONTINUOUS
 66
     1
 40
0.003000
 41
0.003000
  0
VERTEX
  8
PLAN_1
 62
     5
  6
CONTINUOUS
 10
-0.968154
 20
1.297925
  0
VERTEX
  8
PLAN_1
 62
     5
  6
CONTINUOUS
 10
-0.960063
 20
1.297925
  0
SEQEND
  8
0
  0
POLYLINE
  8
PLAN_1
 62
     5
  6
CONTINUOUS
 66
     1
 40
0.003000
 41
0.003000
  0
VERTEX
  8
PLAN_1
 62
     5
  6
CONTINUOUS
 10
-0.951524
 20
1.297925
  0
VERTEX
  8
PLAN_1
 62
     5
  6
CONTINUOUS
 10
-0.943433
 20
1.297925
  0
SEQEND
  8
0
  0
POLYLINE
  8
PLAN_1
 62
     5
  6
CONTINUOUS
 66
     1
 40
0.003000
 41
0.003000
  0
VERTEX
  8
PLAN_1
 62
     5
  6
CONTINUOUS
 10
-0.934894
 20
1.297925
  0
VERTEX
  8
PLAN_1
 62
     5
  6
CONTINUOUS
 10
-0.926354
 20
1.297925
  0
SEQEND
  8
0
  0
POLYLINE
  8
PLAN_1
 62
     5
  6
CONTINUOUS
 66
     1
 40
0.003000
 41
0.003000
  0
VERTEX
  8
PLAN_1
 62
     5
  6
CONTINUOUS
 10
-0.918264
 20
1.297925
  0
VERTEX
  8
PLAN_1
 62
     5
  6
CONTINUOUS
 10
-0.909724
 20
1.297925
  0
SEQEND
  8
0
  0
POLYLINE
  8
PLAN_1
 62
     5
  6
CONTINUOUS
 66
     1
 40
0.003000
 41
0.003000
  0
VERTEX
  8
PLAN_1
 62
     5
  6
CONTINUOUS
 10
-0.901634
 20
1.297925
  0
VERTEX
  8
PLAN_1
 62
     5
  6
CONTINUOUS
 10
-0.893094
 20
1.297925
  0
SEQEND
  8
0
  0
POLYLINE
  8
PLAN_1
 62
     5
  6
CONTINUOUS
 66
     1
 40
0.003000
 41
0.003000
  0
VERTEX
  8
PLAN_1
 62
     5
  6
CONTINUOUS
 10
-0.885004
 20
1.297925
  0
VERTEX
  8
PLAN_1
 62
     5
  6
CONTINUOUS
 10
-0.876465
 20
1.297925
  0
SEQEND
  8
0
  0
POLYLINE
  8
PLAN_1
 62
     5
  6
CONTINUOUS
 66
     1
 40
0.003000
 41
0.003000
  0
VERTEX
  8
PLAN_1
 62
     5
  6
CONTINUOUS
 10
-0.868374
 20
1.297925
  0
VERTEX
  8
PLAN_1
 62
     5
  6
CONTINUOUS
 10
-0.859835
 20
1.297925
  0
SEQEND
  8
0
  0
POLYLINE
  8
PLAN_1
 62
     5
  6
CONTINUOUS
 66
     1
 40
0.003000
 41
0.003000
  0
VERTEX
  8
PLAN_1
 62
     5
  6
CONTINUOUS
 10
-0.851744
 20
1.297925
  0
VERTEX
  8
PLAN_1
 62
     5
  6
CONTINUOUS
 10
-0.843205
 20
1.297925
  0
SEQEND
  8
0
  0
POLYLINE
  8
PLAN_1
 62
     5
  6
CONTINUOUS
 66
     1
 40
0.003000
 41
0.003000
  0
VERTEX
  8
PLAN_1
 62
     5
  6
CONTINUOUS
 10
-0.835114
 20
1.297925
  0
VERTEX
  8
PLAN_1
 62
     5
  6
CONTINUOUS
 10
-0.826575
 20
1.297925
  0
SEQEND
  8
0
  0
POLYLINE
  8
PLAN_1
 62
     5
  6
CONTINUOUS
 66
     1
 40
0.003000
 41
0.003000
  0
VERTEX
  8
PLAN_1
 62
     5
  6
CONTINUOUS
 10
-0.818484
 20
1.297925
  0
VERTEX
  8
PLAN_1
 62
     5
  6
CONTINUOUS
 10
-0.809945
 20
1.297925
  0
SEQEND
  8
0
  0
POLYLINE
  8
PLAN_1
 62
     5
  6
CONTINUOUS
 66
     1
 40
0.003000
 41
0.003000
  0
VERTEX
  8
PLAN_1
 62
     5
  6
CONTINUOUS
 10
-0.801854
 20
1.297925
  0
VERTEX
  8
PLAN_1
 62
     5
  6
CONTINUOUS
 10
-0.793315
 20
1.297925
  0
SEQEND
  8
0
  0
POLYLINE
  8
PLAN_1
 62
     5
  6
CONTINUOUS
 66
     1
 40
0.003000
 41
0.003000
  0
VERTEX
  8
PLAN_1
 62
     5
  6
CONTINUOUS
 10
-0.784776
 20
1.297925
  0
VERTEX
  8
PLAN_1
 62
     5
  6
CONTINUOUS
 10
-0.776685
 20
1.297925
  0
SEQEND
  8
0
  0
POLYLINE
  8
PLAN_1
 62
     5
  6
CONTINUOUS
 66
     1
 40
0.003000
 41
0.003000
  0
VERTEX
  8
PLAN_1
 62
     5
  6
CONTINUOUS
 10
-0.768146
 20
1.297925
  0
VERTEX
  8
PLAN_1
 62
     5
  6
CONTINUOUS
 10
-0.760055
 20
1.297925
  0
SEQEND
  8
0
  0
POLYLINE
  8
PLAN_1
 62
     5
  6
CONTINUOUS
 66
     1
 40
0.003000
 41
0.003000
  0
VERTEX
  8
PLAN_1
 62
     5
  6
CONTINUOUS
 10
-0.751516
 20
1.297925
  0
VERTEX
  8
PLAN_1
 62
     5
  6
CONTINUOUS
 10
-0.743425
 20
1.297925
  0
SEQEND
  8
0
  0
POLYLINE
  8
PLAN_1
 62
     5
  6
CONTINUOUS
 66
     1
 40
0.003000
 41
0.003000
  0
VERTEX
  8
PLAN_1
 62
     5
  6
CONTINUOUS
 10
-0.734886
 20
1.297925
  0
VERTEX
  8
PLAN_1
 62
     5
  6
CONTINUOUS
 10
-0.726795
 20
1.297925
  0
SEQEND
  8
0
  0
POLYLINE
  8
PLAN_1
 62
     5
  6
CONTINUOUS
 66
     1
 40
0.003000
 41
0.003000
  0
VERTEX
  8
PLAN_1
 62
     5
  6
CONTINUOUS
 10
-0.718256
 20
1.297925
  0
VERTEX
  8
PLAN_1
 62
     5
  6
CONTINUOUS
 10
-0.710165
 20
1.297925
  0
SEQEND
  8
0
  0
POLYLINE
  8
PLAN_1
 62
     5
  6
CONTINUOUS
 66
     1
 40
0.003000
 41
0.003000
  0
VERTEX
  8
PLAN_1
 62
     5
  6
CONTINUOUS
 10
-0.701626
 20
1.297925
  0
VERTEX
  8
PLAN_1
 62
     5
  6
CONTINUOUS
 10
-0.693535
 20
1.297925
  0
SEQEND
  8
0
  0
POLYLINE
  8
PLAN_1
 62
     5
  6
CONTINUOUS
 66
     1
 40
0.003000
 41
0.003000
  0
VERTEX
  8
PLAN_1
 62
     5
  6
CONTINUOUS
 10
-0.684996
 20
1.297925
  0
VERTEX
  8
PLAN_1
 62
     5
  6
CONTINUOUS
 10
-0.676906
 20
1.297925
  0
SEQEND
  8
0
  0
POLYLINE
  8
PLAN_1
 62
     5
  6
CONTINUOUS
 66
     1
 40
0.003000
 41
0.003000
  0
VERTEX
  8
PLAN_1
 62
     5
  6
CONTINUOUS
 10
-0.668366
 20
1.297925
  0
VERTEX
  8
PLAN_1
 62
     5
  6
CONTINUOUS
 10
-0.660276
 20
1.297925
  0
SEQEND
  8
0
  0
POLYLINE
  8
PLAN_1
 62
     5
  6
CONTINUOUS
 66
     1
 40
0.003000
 41
0.003000
  0
VERTEX
  8
PLAN_1
 62
     5
  6
CONTINUOUS
 10
-0.651736
 20
1.297925
  0
VERTEX
  8
PLAN_1
 62
     5
  6
CONTINUOUS
 10
-0.643197
 20
1.297925
  0
SEQEND
  8
0
  0
POLYLINE
  8
PLAN_1
 62
     5
  6
CONTINUOUS
 66
     1
 40
0.003000
 41
0.003000
  0
VERTEX
  8
PLAN_1
 62
     5
  6
CONTINUOUS
 10
-0.635106
 20
1.297925
  0
VERTEX
  8
PLAN_1
 62
     5
  6
CONTINUOUS
 10
-0.626567
 20
1.297925
  0
SEQEND
  8
0
  0
POLYLINE
  8
PLAN_1
 62
     5
  6
CONTINUOUS
 66
     1
 40
0.003000
 41
0.003000
  0
VERTEX
  8
PLAN_1
 62
     5
  6
CONTINUOUS
 10
-0.618476
 20
1.297925
  0
VERTEX
  8
PLAN_1
 62
     5
  6
CONTINUOUS
 10
-0.609937
 20
1.297925
  0
SEQEND
  8
0
  0
POLYLINE
  8
PLAN_1
 62
     5
  6
CONTINUOUS
 66
     1
 40
0.003000
 41
0.003000
  0
VERTEX
  8
PLAN_1
 62
     5
  6
CONTINUOUS
 10
-0.601846
 20
1.297925
  0
VERTEX
  8
PLAN_1
 62
     5
  6
CONTINUOUS
 10
-0.593307
 20
1.297925
  0
SEQEND
  8
0
  0
POLYLINE
  8
PLAN_1
 62
     5
  6
CONTINUOUS
 66
     1
 40
0.003000
 41
0.003000
  0
VERTEX
  8
PLAN_1
 62
     5
  6
CONTINUOUS
 10
-0.585217
 20
1.297925
  0
VERTEX
  8
PLAN_1
 62
     5
  6
CONTINUOUS
 10
-0.576677
 20
1.297925
  0
SEQEND
  8
0
  0
POLYLINE
  8
PLAN_1
 62
     5
  6
CONTINUOUS
 66
     1
 40
0.003000
 41
0.003000
  0
VERTEX
  8
PLAN_1
 62
     5
  6
CONTINUOUS
 10
-0.568587
 20
1.297925
  0
VERTEX
  8
PLAN_1
 62
     5
  6
CONTINUOUS
 10
-0.560047
 20
1.297925
  0
SEQEND
  8
0
  0
POLYLINE
  8
PLAN_1
 62
     5
  6
CONTINUOUS
 66
     1
 40
0.003000
 41
0.003000
  0
VERTEX
  8
PLAN_1
 62
     5
  6
CONTINUOUS
 10
-0.551957
 20
1.297925
  0
VERTEX
  8
PLAN_1
 62
     5
  6
CONTINUOUS
 10
-0.543417
 20
1.297925
  0
SEQEND
  8
0
  0
POLYLINE
  8
PLAN_1
 62
     5
  6
CONTINUOUS
 66
     1
 40
0.003000
 41
0.003000
  0
VERTEX
  8
PLAN_1
 62
     5
  6
CONTINUOUS
 10
-0.535327
 20
1.297925
  0
VERTEX
  8
PLAN_1
 62
     5
  6
CONTINUOUS
 10
-0.526787
 20
1.297925
  0
SEQEND
  8
0
  0
POLYLINE
  8
PLAN_1
 62
     5
  6
CONTINUOUS
 66
     1
 40
0.003000
 41
0.003000
  0
VERTEX
  8
PLAN_1
 62
     5
  6
CONTINUOUS
 10
-0.518697
 20
1.297925
  0
VERTEX
  8
PLAN_1
 62
     5
  6
CONTINUOUS
 10
-0.510157
 20
1.297925
  0
SEQEND
  8
0
  0
POLYLINE
  8
PLAN_1
 62
     5
  6
CONTINUOUS
 66
     1
 40
0.003000
 41
0.003000
  0
VERTEX
  8
PLAN_1
 62
     5
  6
CONTINUOUS
 10
-0.501618
 20
1.297925
  0
VERTEX
  8
PLAN_1
 62
     5
  6
CONTINUOUS
 10
-0.493528
 20
1.297925
  0
SEQEND
  8
0
  0
POLYLINE
  8
PLAN_1
 62
     5
  6
CONTINUOUS
 66
     1
 40
0.003000
 41
0.003000
  0
VERTEX
  8
PLAN_1
 62
     5
  6
CONTINUOUS
 10
-0.489031
 20
1.297925
  0
VERTEX
  8
PLAN_1
 62
     5
  6
CONTINUOUS
 10
-0.484988
 20
1.297472
  0
VERTEX
  8
PLAN_1
 62
     5
  6
CONTINUOUS
 10
-0.480941
 20
1.297024
  0
SEQEND
  8
0
  0
POLYLINE
  8
PLAN_1
 62
     5
  6
CONTINUOUS
 66
     1
 40
0.003000
 41
0.003000
  0
VERTEX
  8
PLAN_1
 62
     5
  6
CONTINUOUS
 10
-0.472850
 20
1.294327
  0
VERTEX
  8
PLAN_1
 62
     5
  6
CONTINUOUS
 10
-0.470154
 20
1.292980
  0
VERTEX
  8
PLAN_1
 62
     5
  6
CONTINUOUS
 10
-0.467008
 20
1.291181
  0
VERTEX
  8
PLAN_1
 62
     5
  6
CONTINUOUS
 10
-0.465661
 20
1.290283
  0
SEQEND
  8
0
  0
POLYLINE
  8
PLAN_1
 62
     5
  6
CONTINUOUS
 66
     1
 40
0.003000
 41
0.003000
  0
VERTEX
  8
PLAN_1
 62
     5
  6
CONTINUOUS
 10
-0.459370
 20
1.284441
  0
VERTEX
  8
PLAN_1
 62
     5
  6
CONTINUOUS
 10
-0.458020
 20
1.283539
  0
VERTEX
  8
PLAN_1
 62
     5
  6
CONTINUOUS
 10
-0.455772
 20
1.280394
  0
VERTEX
  8
PLAN_1
 62
     5
  6
CONTINUOUS
 10
-0.454425
 20
1.278146
  0
SEQEND
  8
0
  0
POLYLINE
  8
PLAN_1
 62
     5
  6
CONTINUOUS
 66
     1
 40
0.003000
 41
0.003000
  0
VERTEX
  8
PLAN_1
 62
     5
  6
CONTINUOUS
 10
-0.450378
 20
1.270508
  0
VERTEX
  8
PLAN_1
 62
     5
  6
CONTINUOUS
 10
-0.450378
 20
1.270059
  0
VERTEX
  8
PLAN_1
 62
     5
  6
CONTINUOUS
 10
-0.449031
 20
1.266012
  0
VERTEX
  8
PLAN_1
 62
     5
  6
CONTINUOUS
 10
-0.448130
 20
1.262417
  0
SEQEND
  8
0
  0
POLYLINE
  8
PLAN_1
 62
     5
  6
CONTINUOUS
 66
     1
 40
0.003000
 41
0.003000
  0
VERTEX
  8
PLAN_1
 62
     5
  6
CONTINUOUS
 10
-0.447681
 20
1.258370
  0
VERTEX
  8
PLAN_1
 62
     5
  6
CONTINUOUS
 10
-0.447681
 20
1.249831
  0
SEQEND
  8
0
  0
POLYLINE
  8
PLAN_1
 62
     5
  6
CONTINUOUS
 66
     1
 40
0.003000
 41
0.003000
  0
VERTEX
  8
PLAN_1
 62
     5
  6
CONTINUOUS
 10
-0.447681
 20
1.241291
  0
VERTEX
  8
PLAN_1
 62
     5
  6
CONTINUOUS
 10
-0.447681
 20
1.233201
  0
SEQEND
  8
0
  0
POLYLINE
  8
PLAN_1
 62
     5
  6
CONTINUOUS
 66
     1
 40
0.003000
 41
0.003000
  0
VERTEX
  8
PLAN_1
 62
     5
  6
CONTINUOUS
 10
-0.447681
 20
1.224661
  0
VERTEX
  8
PLAN_1
 62
     5
  6
CONTINUOUS
 10
-0.447681
 20
1.216571
  0
SEQEND
  8
0
  0
POLYLINE
  8
PLAN_1
 62
     5
  6
CONTINUOUS
 66
     1
 40
0.003000
 41
0.003000
  0
VERTEX
  8
PLAN_1
 62
     5
  6
CONTINUOUS
 10
-0.447681
 20
1.208031
  0
VERTEX
  8
PLAN_1
 62
     5
  6
CONTINUOUS
 10
-0.447681
 20
1.199941
  0
SEQEND
  8
0
  0
POLYLINE
  8
PLAN_1
 62
     5
  6
CONTINUOUS
 66
     1
 40
0.003000
 41
0.003000
  0
VERTEX
  8
PLAN_1
 62
     5
  6
CONTINUOUS
 10
-0.447681
 20
1.191402
  0
VERTEX
  8
PLAN_1
 62
     5
  6
CONTINUOUS
 10
-0.447681
 20
1.183311
  0
SEQEND
  8
0
  0
POLYLINE
  8
PLAN_1
 62
     5
  6
CONTINUOUS
 66
     1
 40
0.003000
 41
0.003000
  0
VERTEX
  8
PLAN_1
 62
     5
  6
CONTINUOUS
 10
-0.447681
 20
1.174772
  0
VERTEX
  8
PLAN_1
 62
     5
  6
CONTINUOUS
 10
-0.447681
 20
1.166681
  0
SEQEND
  8
0
  0
POLYLINE
  8
PLAN_1
 62
     5
  6
CONTINUOUS
 66
     1
 40
0.003000
 41
0.003000
  0
VERTEX
  8
PLAN_1
 62
     5
  6
CONTINUOUS
 10
-0.447681
 20
1.158142
  0
VERTEX
  8
PLAN_1
 62
     5
  6
CONTINUOUS
 10
-0.447681
 20
1.150051
  0
SEQEND
  8
0
  0
POLYLINE
  8
PLAN_1
 62
     5
  6
CONTINUOUS
 66
     1
 40
0.003000
 41
0.003000
  0
VERTEX
  8
PLAN_1
 62
     5
  6
CONTINUOUS
 10
-0.447681
 20
1.141512
  0
VERTEX
  8
PLAN_1
 62
     5
  6
CONTINUOUS
 10
-0.447681
 20
1.133421
  0
SEQEND
  8
0
  0
POLYLINE
  8
PLAN_1
 62
     5
  6
CONTINUOUS
 66
     1
 40
0.003000
 41
0.003000
  0
VERTEX
  8
PLAN_1
 62
     5
  6
CONTINUOUS
 10
-0.447681
 20
1.124882
  0
VERTEX
  8
PLAN_1
 62
     5
  6
CONTINUOUS
 10
-0.447681
 20
1.116791
  0
SEQEND
  8
0
  0
POLYLINE
  8
PLAN_1
 62
     5
  6
CONTINUOUS
 66
     1
 40
0.003000
 41
0.003000
  0
VERTEX
  8
PLAN_1
 62
     5
  6
CONTINUOUS
 10
-0.447681
 20
1.108252
  0
VERTEX
  8
PLAN_1
 62
     5
  6
CONTINUOUS
 10
-0.447681
 20
1.099713
  0
SEQEND
  8
0
  0
POLYLINE
  8
PLAN_1
 62
     5
  6
CONTINUOUS
 66
     1
 40
0.003000
 41
0.003000
  0
VERTEX
  8
PLAN_1
 62
     5
  6
CONTINUOUS
 10
-0.447681
 20
1.091622
  0
VERTEX
  8
PLAN_1
 62
     5
  6
CONTINUOUS
 10
-0.447681
 20
1.083083
  0
SEQEND
  8
0
  0
POLYLINE
  8
PLAN_1
 62
     5
  6
CONTINUOUS
 66
     1
 40
0.003000
 41
0.003000
  0
VERTEX
  8
PLAN_1
 62
     5
  6
CONTINUOUS
 10
-0.447681
 20
1.074992
  0
VERTEX
  8
PLAN_1
 62
     5
  6
CONTINUOUS
 10
-0.447681
 20
1.066453
  0
SEQEND
  8
0
  0
POLYLINE
  8
PLAN_1
 62
     5
  6
CONTINUOUS
 66
     1
 40
0.003000
 41
0.003000
  0
VERTEX
  8
PLAN_1
 62
     5
  6
CONTINUOUS
 10
-0.447681
 20
1.058362
  0
VERTEX
  8
PLAN_1
 62
     5
  6
CONTINUOUS
 10
-0.447681
 20
1.049823
  0
SEQEND
  8
0
  0
POLYLINE
  8
PLAN_1
 62
     5
  6
CONTINUOUS
 66
     1
 40
0.003000
 41
0.003000
  0
VERTEX
  8
PLAN_1
 62
     5
  6
CONTINUOUS
 10
-0.447681
 20
1.041732
  0
VERTEX
  8
PLAN_1
 62
     5
  6
CONTINUOUS
 10
-0.447681
 20
1.033193
  0
SEQEND
  8
0
  0
POLYLINE
  8
PLAN_1
 62
     5
  6
CONTINUOUS
 66
     1
 40
0.003000
 41
0.003000
  0
VERTEX
  8
PLAN_1
 62
     5
  6
CONTINUOUS
 10
-0.447681
 20
1.025102
  0
VERTEX
  8
PLAN_1
 62
     5
  6
CONTINUOUS
 10
-0.447681
 20
1.016563
  0
SEQEND
  8
0
  0
POLYLINE
  8
PLAN_1
 62
     5
  6
CONTINUOUS
 66
     1
 40
0.003000
 41
0.003000
  0
VERTEX
  8
PLAN_1
 62
     5
  6
CONTINUOUS
 10
-0.447681
 20
1.008472
  0
VERTEX
  8
PLAN_1
 62
     5
  6
CONTINUOUS
 10
-0.447681
 20
0.999933
  0
SEQEND
  8
0
  0
POLYLINE
  8
PLAN_1
 62
     5
  6
CONTINUOUS
 66
     1
 40
0.003000
 41
0.003000
  0
VERTEX
  8
PLAN_1
 62
     5
  6
CONTINUOUS
 10
-0.447681
 20
0.991843
  0
VERTEX
  8
PLAN_1
 62
     5
  6
CONTINUOUS
 10
-0.447681
 20
0.983303
  0
SEQEND
  8
0
  0
POLYLINE
  8
PLAN_1
 62
     5
  6
CONTINUOUS
 66
     1
 40
0.003000
 41
0.003000
  0
VERTEX
  8
PLAN_1
 62
     5
  6
CONTINUOUS
 10
-0.447681
 20
0.975213
  0
VERTEX
  8
PLAN_1
 62
     5
  6
CONTINUOUS
 10
-0.447681
 20
0.966673
  0
SEQEND
  8
0
  0
POLYLINE
  8
PLAN_1
 62
     5
  6
CONTINUOUS
 66
     1
 40
0.003000
 41
0.003000
  0
VERTEX
  8
PLAN_1
 62
     5
  6
CONTINUOUS
 10
-0.447681
 20
0.958134
  0
VERTEX
  8
PLAN_1
 62
     5
  6
CONTINUOUS
 10
-0.447681
 20
0.950043
  0
SEQEND
  8
0
  0
POLYLINE
  8
PLAN_1
 62
     5
  6
CONTINUOUS
 66
     1
 40
0.003000
 41
0.003000
  0
VERTEX
  8
PLAN_1
 62
     5
  6
CONTINUOUS
 10
-0.447681
 20
0.941504
  0
VERTEX
  8
PLAN_1
 62
     5
  6
CONTINUOUS
 10
-0.447681
 20
0.933413
  0
SEQEND
  8
0
  0
POLYLINE
  8
PLAN_1
 62
     5
  6
CONTINUOUS
 66
     1
 40
0.003000
 41
0.003000
  0
VERTEX
  8
PLAN_1
 62
     5
  6
CONTINUOUS
 10
-0.447681
 20
0.924874
  0
VERTEX
  8
PLAN_1
 62
     5
  6
CONTINUOUS
 10
-0.447681
 20
0.916783
  0
SEQEND
  8
0
  0
POLYLINE
  8
PLAN_1
 62
     5
  6
CONTINUOUS
 66
     1
 40
0.003000
 41
0.003000
  0
VERTEX
  8
PLAN_1
 62
     5
  6
CONTINUOUS
 10
-0.447681
 20
0.908244
  0
VERTEX
  8
PLAN_1
 62
     5
  6
CONTINUOUS
 10
-0.447681
 20
0.900154
  0
SEQEND
  8
0
  0
POLYLINE
  8
PLAN_1
 62
     5
  6
CONTINUOUS
 66
     1
 40
0.003000
 41
0.003000
  0
VERTEX
  8
PLAN_1
 62
     5
  6
CONTINUOUS
 10
-0.447681
 20
0.891614
  0
VERTEX
  8
PLAN_1
 62
     5
  6
CONTINUOUS
 10
-0.447681
 20
0.883524
  0
SEQEND
  8
0
  0
POLYLINE
  8
PLAN_1
 62
     5
  6
CONTINUOUS
 66
     1
 40
0.003000
 41
0.003000
  0
VERTEX
  8
PLAN_1
 62
     5
  6
CONTINUOUS
 10
-0.447681
 20
0.874984
  0
VERTEX
  8
PLAN_1
 62
     5
  6
CONTINUOUS
 10
-0.447681
 20
0.866894
  0
SEQEND
  8
0
  0
POLYLINE
  8
PLAN_1
 62
     5
  6
CONTINUOUS
 66
     1
 40
0.003000
 41
0.003000
  0
VERTEX
  8
PLAN_1
 62
     5
  6
CONTINUOUS
 10
-0.447681
 20
0.858354
  0
VERTEX
  8
PLAN_1
 62
     5
  6
CONTINUOUS
 10
-0.447681
 20
0.850264
  0
SEQEND
  8
0
  0
POLYLINE
  8
PLAN_1
 62
     5
  6
CONTINUOUS
 66
     1
 40
0.003000
 41
0.003000
  0
VERTEX
  8
PLAN_1
 62
     5
  6
CONTINUOUS
 10
-0.447681
 20
0.841724
  0
VERTEX
  8
PLAN_1
 62
     5
  6
CONTINUOUS
 10
-0.447681
 20
0.833634
  0
SEQEND
  8
0
  0
POLYLINE
  8
PLAN_1
 62
     5
  6
CONTINUOUS
 66
     1
 40
0.003000
 41
0.003000
  0
VERTEX
  8
PLAN_1
 62
     5
  6
CONTINUOUS
 10
-0.447681
 20
0.825094
  0
VERTEX
  8
PLAN_1
 62
     5
  6
CONTINUOUS
 10
-0.447681
 20
0.816555
  0
SEQEND
  8
0
  0
POLYLINE
  8
PLAN_1
 62
     5
  6
CONTINUOUS
 66
     1
 40
0.003000
 41
0.003000
  0
VERTEX
  8
PLAN_1
 62
     5
  6
CONTINUOUS
 10
-0.447681
 20
0.808465
  0
VERTEX
  8
PLAN_1
 62
     5
  6
CONTINUOUS
 10
-0.447681
 20
0.799925
  0
SEQEND
  8
0
  0
POLYLINE
  8
PLAN_1
 62
     5
  6
CONTINUOUS
 66
     1
 40
0.003000
 41
0.003000
  0
VERTEX
  8
PLAN_1
 62
     5
  6
CONTINUOUS
 10
-0.447681
 20
0.791835
  0
VERTEX
  8
PLAN_1
 62
     5
  6
CONTINUOUS
 10
-0.447681
 20
0.783295
  0
SEQEND
  8
0
  0
POLYLINE
  8
PLAN_1
 62
     5
  6
CONTINUOUS
 66
     1
 40
0.003000
 41
0.003000
  0
VERTEX
  8
PLAN_1
 62
     5
  6
CONTINUOUS
 10
-0.447681
 20
0.775205
  0
VERTEX
  8
PLAN_1
 62
     5
  6
CONTINUOUS
 10
-0.447681
 20
0.766665
  0
SEQEND
  8
0
  0
POLYLINE
  8
PLAN_1
 62
     5
  6
CONTINUOUS
 66
     1
 40
0.003000
 41
0.003000
  0
VERTEX
  8
PLAN_1
 62
     5
  6
CONTINUOUS
 10
-0.447681
 20
0.758575
  0
VERTEX
  8
PLAN_1
 62
     5
  6
CONTINUOUS
 10
-0.447681
 20
0.750035
  0
SEQEND
  8
0
  0
POLYLINE
  8
PLAN_1
 62
     5
  6
CONTINUOUS
 66
     1
 40
0.003000
 41
0.003000
  0
VERTEX
  8
PLAN_1
 62
     5
  6
CONTINUOUS
 10
-0.447681
 20
0.741945
  0
VERTEX
  8
PLAN_1
 62
     5
  6
CONTINUOUS
 10
-0.447681
 20
0.733406
  0
SEQEND
  8
0
  0
POLYLINE
  8
PLAN_1
 62
     5
  6
CONTINUOUS
 66
     1
 40
0.003000
 41
0.003000
  0
VERTEX
  8
PLAN_1
 62
     5
  6
CONTINUOUS
 10
-0.447681
 20
0.725315
  0
VERTEX
  8
PLAN_1
 62
     5
  6
CONTINUOUS
 10
-0.447681
 20
0.716776
  0
SEQEND
  8
0
  0
POLYLINE
  8
PLAN_1
 62
     5
  6
CONTINUOUS
 66
     1
 40
0.003000
 41
0.003000
  0
VERTEX
  8
PLAN_1
 62
     5
  6
CONTINUOUS
 10
-0.447681
 20
0.708685
  0
VERTEX
  8
PLAN_1
 62
     5
  6
CONTINUOUS
 10
-0.447681
 20
0.700146
  0
SEQEND
  8
0
  0
POLYLINE
  8
PLAN_1
 62
     5
  6
CONTINUOUS
 66
     1
 40
0.003000
 41
0.003000
  0
VERTEX
  8
PLAN_1
 62
     5
  6
CONTINUOUS
 10
-0.447681
 20
0.692055
  0
VERTEX
  8
PLAN_1
 62
     5
  6
CONTINUOUS
 10
-0.447681
 20
0.683516
  0
SEQEND
  8
0
  0
POLYLINE
  8
PLAN_1
 62
     5
  6
CONTINUOUS
 66
     1
 40
0.003000
 41
0.003000
  0
VERTEX
  8
PLAN_1
 62
     5
  6
CONTINUOUS
 10
-0.447681
 20
0.674976
  0
VERTEX
  8
PLAN_1
 62
     5
  6
CONTINUOUS
 10
-0.447681
 20
0.666886
  0
SEQEND
  8
0
  0
POLYLINE
  8
PLAN_1
 62
     5
  6
CONTINUOUS
 66
     1
 40
0.003000
 41
0.003000
  0
VERTEX
  8
PLAN_1
 62
     5
  6
CONTINUOUS
 10
-0.447681
 20
0.658346
  0
VERTEX
  8
PLAN_1
 62
     5
  6
CONTINUOUS
 10
-0.447681
 20
0.650256
  0
SEQEND
  8
0
  0
POLYLINE
  8
PLAN_1
 62
     5
  6
CONTINUOUS
 66
     1
 40
0.003000
 41
0.003000
  0
VERTEX
  8
PLAN_1
 62
     5
  6
CONTINUOUS
 10
-0.447681
 20
0.641717
  0
VERTEX
  8
PLAN_1
 62
     5
  6
CONTINUOUS
 10
-0.447681
 20
0.633626
  0
SEQEND
  8
0
  0
POLYLINE
  8
PLAN_1
 62
     5
  6
CONTINUOUS
 66
     1
 40
0.003000
 41
0.003000
  0
VERTEX
  8
PLAN_1
 62
     5
  6
CONTINUOUS
 10
-0.447681
 20
0.625087
  0
VERTEX
  8
PLAN_1
 62
     5
  6
CONTINUOUS
 10
-0.447681
 20
0.616996
  0
SEQEND
  8
0
  0
POLYLINE
  8
PLAN_1
 62
     5
  6
CONTINUOUS
 66
     1
 40
0.003000
 41
0.003000
  0
VERTEX
  8
PLAN_1
 62
     5
  6
CONTINUOUS
 10
-0.447681
 20
0.608457
  0
VERTEX
  8
PLAN_1
 62
     5
  6
CONTINUOUS
 10
-0.447681
 20
0.600366
  0
SEQEND
  8
0
  0
POLYLINE
  8
PLAN_1
 62
     5
  6
CONTINUOUS
 66
     1
 40
0.003000
 41
0.003000
  0
VERTEX
  8
PLAN_1
 62
     5
  6
CONTINUOUS
 10
-0.447681
 20
0.591827
  0
VERTEX
  8
PLAN_1
 62
     5
  6
CONTINUOUS
 10
-0.447681
 20
0.583736
  0
SEQEND
  8
0
  0
POLYLINE
  8
PLAN_1
 62
     5
  6
CONTINUOUS
 66
     1
 40
0.003000
 41
0.003000
  0
VERTEX
  8
PLAN_1
 62
     5
  6
CONTINUOUS
 10
-0.447681
 20
0.575197
  0
VERTEX
  8
PLAN_1
 62
     5
  6
CONTINUOUS
 10
-0.447681
 20
0.567106
  0
SEQEND
  8
0
  0
POLYLINE
  8
PLAN_1
 62
     5
  6
CONTINUOUS
 66
     1
 40
0.003000
 41
0.003000
  0
VERTEX
  8
PLAN_1
 62
     5
  6
CONTINUOUS
 10
-0.447681
 20
0.558567
  0
VERTEX
  8
PLAN_1
 62
     5
  6
CONTINUOUS
 10
-0.447681
 20
0.550476
  0
SEQEND
  8
0
  0
POLYLINE
  8
PLAN_1
 62
     5
  6
CONTINUOUS
 66
     1
 40
0.003000
 41
0.003000
  0
VERTEX
  8
PLAN_1
 62
     5
  6
CONTINUOUS
 10
-0.447681
 20
0.541937
  0
VERTEX
  8
PLAN_1
 62
     5
  6
CONTINUOUS
 10
-0.447681
 20
0.533398
  0
SEQEND
  8
0
  0
POLYLINE
  8
PLAN_1
 62
     5
  6
CONTINUOUS
 66
     1
 40
0.003000
 41
0.003000
  0
VERTEX
  8
PLAN_1
 62
     5
  6
CONTINUOUS
 10
-0.447681
 20
0.525307
  0
VERTEX
  8
PLAN_1
 62
     5
  6
CONTINUOUS
 10
-0.447681
 20
0.521260
  0
SEQEND
  8
0
  0
POLYLINE
  8
PLAN_1
 62
     5
  6
CONTINUOUS
 66
     1
 40
0.003000
 41
0.003000
  0
VERTEX
  8
PLAN_1
 62
     5
  6
CONTINUOUS
 10
-0.447681
 20
0.525307
  0
VERTEX
  8
PLAN_1
 62
     5
  6
CONTINUOUS
 10
-0.447681
 20
0.521260
  0
SEQEND
  8
0
  0
POLYLINE
  8
PLAN_1
 62
     5
  6
CONTINUOUS
 66
     1
 40
0.003000
 41
0.003000
  0
VERTEX
  8
PLAN_1
 62
     5
  6
CONTINUOUS
 10
-0.775339
 20
1.024205
  0
VERTEX
  8
PLAN_1
 62
     5
  6
CONTINUOUS
 10
-0.767248
 20
1.024205
  0
SEQEND
  8
0
  0
POLYLINE
  8
PLAN_1
 62
     5
  6
CONTINUOUS
 66
     1
 40
0.003000
 41
0.003000
  0
VERTEX
  8
PLAN_1
 62
     5
  6
CONTINUOUS
 10
-0.758709
 20
1.024205
  0
VERTEX
  8
PLAN_1
 62
     5
  6
CONTINUOUS
 10
-0.750618
 20
1.024205
  0
SEQEND
  8
0
  0
POLYLINE
  8
PLAN_1
 62
     5
  6
CONTINUOUS
 66
     1
 40
0.003000
 41
0.003000
  0
VERTEX
  8
PLAN_1
 62
     5
  6
CONTINUOUS
 10
-0.742079
 20
1.024205
  0
VERTEX
  8
PLAN_1
 62
     5
  6
CONTINUOUS
 10
-0.733988
 20
1.024205
  0
SEQEND
  8
0
  0
POLYLINE
  8
PLAN_1
 62
     5
  6
CONTINUOUS
 66
     1
 40
0.003000
 41
0.003000
  0
VERTEX
  8
PLAN_1
 62
     5
  6
CONTINUOUS
 10
-0.725449
 20
1.024205
  0
VERTEX
  8
PLAN_1
 62
     5
  6
CONTINUOUS
 10
-0.717358
 20
1.024205
  0
SEQEND
  8
0
  0
POLYLINE
  8
PLAN_1
 62
     5
  6
CONTINUOUS
 66
     1
 40
0.003000
 41
0.003000
  0
VERTEX
  8
PLAN_1
 62
     5
  6
CONTINUOUS
 10
-0.708819
 20
1.024205
  0
VERTEX
  8
PLAN_1
 62
     5
  6
CONTINUOUS
 10
-0.700728
 20
1.024205
  0
SEQEND
  8
0
  0
POLYLINE
  8
PLAN_1
 62
     5
  6
CONTINUOUS
 66
     1
 40
0.003000
 41
0.003000
  0
VERTEX
  8
PLAN_1
 62
     5
  6
CONTINUOUS
 10
-0.692189
 20
1.024205
  0
VERTEX
  8
PLAN_1
 62
     5
  6
CONTINUOUS
 10
-0.683646
 20
1.024205
  0
SEQEND
  8
0
  0
POLYLINE
  8
PLAN_1
 62
     5
  6
CONTINUOUS
 66
     1
 40
0.003000
 41
0.003000
  0
VERTEX
  8
PLAN_1
 62
     5
  6
CONTINUOUS
 10
-0.675559
 20
1.024205
  0
VERTEX
  8
PLAN_1
 62
     5
  6
CONTINUOUS
 10
-0.667016
 20
1.024205
  0
SEQEND
  8
0
  0
POLYLINE
  8
PLAN_1
 62
     5
  6
CONTINUOUS
 66
     1
 40
0.003000
 41
0.003000
  0
VERTEX
  8
PLAN_1
 62
     5
  6
CONTINUOUS
 10
-0.658929
 20
1.024205
  0
VERTEX
  8
PLAN_1
 62
     5
  6
CONTINUOUS
 10
-0.650386
 20
1.024205
  0
SEQEND
  8
0
  0
POLYLINE
  8
PLAN_1
 62
     5
  6
CONTINUOUS
 66
     1
 40
0.003000
 41
0.003000
  0
VERTEX
  8
PLAN_1
 62
     5
  6
CONTINUOUS
 10
-0.642299
 20
1.024205
  0
VERTEX
  8
PLAN_1
 62
     5
  6
CONTINUOUS
 10
-0.633756
 20
1.024205
  0
SEQEND
  8
0
  0
POLYLINE
  8
PLAN_1
 62
     5
  6
CONTINUOUS
 66
     1
 40
0.003000
 41
0.003000
  0
VERTEX
  8
PLAN_1
 62
     5
  6
CONTINUOUS
 10
-0.625669
 20
1.024205
  0
VERTEX
  8
PLAN_1
 62
     5
  6
CONTINUOUS
 10
-0.617126
 20
1.024205
  0
SEQEND
  8
0
  0
POLYLINE
  8
PLAN_1
 62
     5
  6
CONTINUOUS
 66
     1
 40
0.003000
 41
0.003000
  0
VERTEX
  8
PLAN_1
 62
     5
  6
CONTINUOUS
 10
-0.609039
 20
1.024205
  0
VERTEX
  8
PLAN_1
 62
     5
  6
CONTINUOUS
 10
-0.600496
 20
1.024205
  0
SEQEND
  8
0
  0
POLYLINE
  8
PLAN_1
 62
     5
  6
CONTINUOUS
 66
     1
 40
0.003000
 41
0.003000
  0
VERTEX
  8
PLAN_1
 62
     5
  6
CONTINUOUS
 10
-0.592409
 20
1.024205
  0
VERTEX
  8
PLAN_1
 62
     5
  6
CONTINUOUS
 10
-0.583866
 20
1.024205
  0
SEQEND
  8
0
  0
POLYLINE
  8
PLAN_1
 62
     5
  6
CONTINUOUS
 66
     1
 40
0.003000
 41
0.003000
  0
VERTEX
  8
PLAN_1
 62
     5
  6
CONTINUOUS
 10
-0.575780
 20
1.024205
  0
VERTEX
  8
PLAN_1
 62
     5
  6
CONTINUOUS
 10
-0.567236
 20
1.024205
  0
SEQEND
  8
0
  0
POLYLINE
  8
PLAN_1
 62
     5
  6
CONTINUOUS
 66
     1
 40
0.003000
 41
0.003000
  0
VERTEX
  8
PLAN_1
 62
     5
  6
CONTINUOUS
 10
-0.559150
 20
1.024205
  0
VERTEX
  8
PLAN_1
 62
     5
  6
CONTINUOUS
 10
-0.550606
 20
1.024205
  0
SEQEND
  8
0
  0
POLYLINE
  8
PLAN_1
 62
     5
  6
CONTINUOUS
 66
     1
 40
0.003000
 41
0.003000
  0
VERTEX
  8
PLAN_1
 62
     5
  6
CONTINUOUS
 10
-0.542067
 20
1.024205
  0
VERTEX
  8
PLAN_1
 62
     5
  6
CONTINUOUS
 10
-0.533976
 20
1.024205
  0
SEQEND
  8
0
  0
POLYLINE
  8
PLAN_1
 62
     5
  6
CONTINUOUS
 66
     1
 40
0.003000
 41
0.003000
  0
VERTEX
  8
PLAN_1
 62
     5
  6
CONTINUOUS
 10
-0.525437
 20
1.024205
  0
VERTEX
  8
PLAN_1
 62
     5
  6
CONTINUOUS
 10
-0.517346
 20
1.024205
  0
SEQEND
  8
0
  0
POLYLINE
  8
PLAN_1
 62
     5
  6
CONTINUOUS
 66
     1
 40
0.003000
 41
0.003000
  0
VERTEX
  8
PLAN_1
 62
     5
  6
CONTINUOUS
 10
-0.508807
 20
1.024205
  0
VERTEX
  8
PLAN_1
 62
     5
  6
CONTINUOUS
 10
-0.500717
 20
1.024205
  0
SEQEND
  8
0
  0
POLYLINE
  8
PLAN_1
 62
     5
  6
CONTINUOUS
 66
     1
 40
0.003000
 41
0.003000
  0
VERTEX
  8
PLAN_1
 62
     5
  6
CONTINUOUS
 10
-0.492177
 20
1.024205
  0
VERTEX
  8
PLAN_1
 62
     5
  6
CONTINUOUS
 10
-0.484087
 20
1.024205
  0
SEQEND
  8
0
  0
POLYLINE
  8
PLAN_1
 62
     5
  6
CONTINUOUS
 66
     1
 40
0.003000
 41
0.003000
  0
VERTEX
  8
PLAN_1
 62
     5
  6
CONTINUOUS
 10
-0.475547
 20
1.024205
  0
VERTEX
  8
PLAN_1
 62
     5
  6
CONTINUOUS
 10
-0.467457
 20
1.024205
  0
SEQEND
  8
0
  0
POLYLINE
  8
PLAN_1
 62
     5
  6
CONTINUOUS
 66
     1
 40
0.003000
 41
0.003000
  0
VERTEX
  8
PLAN_1
 62
     5
  6
CONTINUOUS
 10
-0.458917
 20
1.024205
  0
VERTEX
  8
PLAN_1
 62
     5
  6
CONTINUOUS
 10
-0.453524
 20
1.024205
  0
SEQEND
  8
0
  0
POLYLINE
  8
PLAN_1
 62
     5
  6
CONTINUOUS
 66
     1
 40
0.003000
 41
0.003000
  0
VERTEX
  8
PLAN_1
 62
     5
  6
CONTINUOUS
 10
-0.458917
 20
1.024205
  0
VERTEX
  8
PLAN_1
 62
     5
  6
CONTINUOUS
 10
-0.453524
 20
1.024205
  0
SEQEND
  8
0
  0
POLYLINE
  8
PLAN_1
 62
     5
  6
CONTINUOUS
 66
     1
 40
0.003000
 41
0.003000
  0
VERTEX
  8
PLAN_1
 62
     5
  6
CONTINUOUS
 10
-0.637354
 20
0.892512
  0
VERTEX
  8
PLAN_1
 62
     5
  6
CONTINUOUS
 10
-0.637354
 20
0.900602
  0
SEQEND
  8
0
  0
POLYLINE
  8
PLAN_1
 62
     5
  6
CONTINUOUS
 66
     1
 40
0.003000
 41
0.003000
  0
VERTEX
  8
PLAN_1
 62
     5
  6
CONTINUOUS
 10
-0.637354
 20
0.909142
  0
VERTEX
  8
PLAN_1
 62
     5
  6
CONTINUOUS
 10
-0.637354
 20
0.917232
  0
SEQEND
  8
0
  0
POLYLINE
  8
PLAN_1
 62
     5
  6
CONTINUOUS
 66
     1
 40
0.003000
 41
0.003000
  0
VERTEX
  8
PLAN_1
 62
     5
  6
CONTINUOUS
 10
-0.637354
 20
0.925772
  0
VERTEX
  8
PLAN_1
 62
     5
  6
CONTINUOUS
 10
-0.637354
 20
0.933862
  0
SEQEND
  8
0
  0
POLYLINE
  8
PLAN_1
 62
     5
  6
CONTINUOUS
 66
     1
 40
0.003000
 41
0.003000
  0
VERTEX
  8
PLAN_1
 62
     5
  6
CONTINUOUS
 10
-0.637354
 20
0.942402
  0
VERTEX
  8
PLAN_1
 62
     5
  6
CONTINUOUS
 10
-0.637354
 20
0.950492
  0
SEQEND
  8
0
  0
POLYLINE
  8
PLAN_1
 62
     5
  6
CONTINUOUS
 66
     1
 40
0.003000
 41
0.003000
  0
VERTEX
  8
PLAN_1
 62
     5
  6
CONTINUOUS
 10
-0.637354
 20
0.959031
  0
VERTEX
  8
PLAN_1
 62
     5
  6
CONTINUOUS
 10
-0.637354
 20
0.967122
  0
SEQEND
  8
0
  0
POLYLINE
  8
PLAN_1
 62
     5
  6
CONTINUOUS
 66
     1
 40
0.003000
 41
0.003000
  0
VERTEX
  8
PLAN_1
 62
     5
  6
CONTINUOUS
 10
-0.637354
 20
0.975661
  0
VERTEX
  8
PLAN_1
 62
     5
  6
CONTINUOUS
 10
-0.637354
 20
0.983752
  0
SEQEND
  8
0
  0
POLYLINE
  8
PLAN_1
 62
     5
  6
CONTINUOUS
 66
     1
 40
0.003000
 41
0.003000
  0
VERTEX
  8
PLAN_1
 62
     5
  6
CONTINUOUS
 10
-0.637354
 20
0.992291
  0
VERTEX
  8
PLAN_1
 62
     5
  6
CONTINUOUS
 10
-0.637354
 20
1.000831
  0
SEQEND
  8
0
  0
POLYLINE
  8
PLAN_1
 62
     5
  6
CONTINUOUS
 66
     1
 40
0.003000
 41
0.003000
  0
VERTEX
  8
PLAN_1
 62
     5
  6
CONTINUOUS
 10
-0.637354
 20
1.008921
  0
VERTEX
  8
PLAN_1
 62
     5
  6
CONTINUOUS
 10
-0.637354
 20
1.017461
  0
SEQEND
  8
0
  0
POLYLINE
  8
PLAN_1
 62
     5
  6
CONTINUOUS
 66
     1
 40
0.003000
 41
0.003000
  0
VERTEX
  8
PLAN_1
 62
     5
  6
CONTINUOUS
 10
-0.637354
 20
1.025551
  0
VERTEX
  8
PLAN_1
 62
     5
  6
CONTINUOUS
 10
-0.637354
 20
1.034091
  0
SEQEND
  8
0
  0
POLYLINE
  8
PLAN_1
 62
     5
  6
CONTINUOUS
 66
     1
 40
0.003000
 41
0.003000
  0
VERTEX
  8
PLAN_1
 62
     5
  6
CONTINUOUS
 10
-0.637354
 20
1.042181
  0
VERTEX
  8
PLAN_1
 62
     5
  6
CONTINUOUS
 10
-0.637354
 20
1.050720
  0
SEQEND
  8
0
  0
POLYLINE
  8
PLAN_1
 62
     5
  6
CONTINUOUS
 66
     1
 40
0.003000
 41
0.003000
  0
VERTEX
  8
PLAN_1
 62
     5
  6
CONTINUOUS
 10
-0.637354
 20
1.058811
  0
VERTEX
  8
PLAN_1
 62
     5
  6
CONTINUOUS
 10
-0.637354
 20
1.067350
  0
SEQEND
  8
0
  0
POLYLINE
  8
PLAN_1
 62
     5
  6
CONTINUOUS
 66
     1
 40
0.003000
 41
0.003000
  0
VERTEX
  8
PLAN_1
 62
     5
  6
CONTINUOUS
 10
-0.637354
 20
1.075441
  0
VERTEX
  8
PLAN_1
 62
     5
  6
CONTINUOUS
 10
-0.637354
 20
1.083980
  0
SEQEND
  8
0
  0
POLYLINE
  8
PLAN_1
 62
     5
  6
CONTINUOUS
 66
     1
 40
0.003000
 41
0.003000
  0
VERTEX
  8
PLAN_1
 62
     5
  6
CONTINUOUS
 10
-0.637354
 20
1.092071
  0
VERTEX
  8
PLAN_1
 62
     5
  6
CONTINUOUS
 10
-0.637354
 20
1.100610
  0
SEQEND
  8
0
  0
POLYLINE
  8
PLAN_1
 62
     5
  6
CONTINUOUS
 66
     1
 40
0.003000
 41
0.003000
  0
VERTEX
  8
PLAN_1
 62
     5
  6
CONTINUOUS
 10
-0.637354
 20
1.108701
  0
VERTEX
  8
PLAN_1
 62
     5
  6
CONTINUOUS
 10
-0.637354
 20
1.117240
  0
SEQEND
  8
0
  0
POLYLINE
  8
PLAN_1
 62
     5
  6
CONTINUOUS
 66
     1
 40
0.003000
 41
0.003000
  0
VERTEX
  8
PLAN_1
 62
     5
  6
CONTINUOUS
 10
-0.637354
 20
1.125331
  0
VERTEX
  8
PLAN_1
 62
     5
  6
CONTINUOUS
 10
-0.637354
 20
1.133870
  0
SEQEND
  8
0
  0
POLYLINE
  8
PLAN_1
 62
     5
  6
CONTINUOUS
 66
     1
 40
0.003000
 41
0.003000
  0
VERTEX
  8
PLAN_1
 62
     5
  6
CONTINUOUS
 10
-0.637354
 20
1.142413
  0
VERTEX
  8
PLAN_1
 62
     5
  6
CONTINUOUS
 10
-0.637354
 20
1.150500
  0
SEQEND
  8
0
  0
POLYLINE
  8
PLAN_1
 62
     5
  6
CONTINUOUS
 66
     1
 40
0.003000
 41
0.003000
  0
VERTEX
  8
PLAN_1
 62
     5
  6
CONTINUOUS
 10
-0.637354
 20
1.159043
  0
VERTEX
  8
PLAN_1
 62
     5
  6
CONTINUOUS
 10
-0.637354
 20
1.162638
  0
SEQEND
  8
0
  0
POLYLINE
  8
PLAN_1
 62
     5
  6
CONTINUOUS
 66
     1
 40
0.003000
 41
0.003000
  0
VERTEX
  8
PLAN_1
 62
     5
  6
CONTINUOUS
 10
-0.637354
 20
1.159043
  0
VERTEX
  8
PLAN_1
 62
     5
  6
CONTINUOUS
 10
-0.637354
 20
1.162638
  0
SEQEND
  8
0
  0
POLYLINE
  8
PLAN_1
 62
     5
  6
CONTINUOUS
 66
     1
 40
0.003000
 41
0.003000
  0
VERTEX
  8
PLAN_1
 62
     5
  6
CONTINUOUS
 10
-2.045055
 20
1.024205
  0
VERTEX
  8
PLAN_1
 62
     5
  6
CONTINUOUS
 10
-2.036516
 20
1.024205
  0
SEQEND
  8
0
  0
POLYLINE
  8
PLAN_1
 62
     5
  6
CONTINUOUS
 66
     1
 40
0.003000
 41
0.003000
  0
VERTEX
  8
PLAN_1
 62
     5
  6
CONTINUOUS
 10
-2.028425
 20
1.024205
  0
VERTEX
  8
PLAN_1
 62
     5
  6
CONTINUOUS
 10
-2.019886
 20
1.024205
  0
SEQEND
  8
0
  0
POLYLINE
  8
PLAN_1
 62
     5
  6
CONTINUOUS
 66
     1
 40
0.003000
 41
0.003000
  0
VERTEX
  8
PLAN_1
 62
     5
  6
CONTINUOUS
 10
-2.011346
 20
1.024205
  0
VERTEX
  8
PLAN_1
 62
     5
  6
CONTINUOUS
 10
-2.003256
 20
1.024205
  0
SEQEND
  8
0
  0
POLYLINE
  8
PLAN_1
 62
     5
  6
CONTINUOUS
 66
     1
 40
0.003000
 41
0.003000
  0
VERTEX
  8
PLAN_1
 62
     5
  6
CONTINUOUS
 10
-1.994717
 20
1.024205
  0
VERTEX
  8
PLAN_1
 62
     5
  6
CONTINUOUS
 10
-1.986626
 20
1.024205
  0
SEQEND
  8
0
  0
POLYLINE
  8
PLAN_1
 62
     5
  6
CONTINUOUS
 66
     1
 40
0.003000
 41
0.003000
  0
VERTEX
  8
PLAN_1
 62
     5
  6
CONTINUOUS
 10
-1.978087
 20
1.024205
  0
VERTEX
  8
PLAN_1
 62
     5
  6
CONTINUOUS
 10
-1.969996
 20
1.024205
  0
SEQEND
  8
0
  0
POLYLINE
  8
PLAN_1
 62
     5
  6
CONTINUOUS
 66
     1
 40
0.003000
 41
0.003000
  0
VERTEX
  8
PLAN_1
 62
     5
  6
CONTINUOUS
 10
-1.961457
 20
1.024205
  0
VERTEX
  8
PLAN_1
 62
     5
  6
CONTINUOUS
 10
-1.953366
 20
1.024205
  0
SEQEND
  8
0
  0
POLYLINE
  8
PLAN_1
 62
     5
  6
CONTINUOUS
 66
     1
 40
0.003000
 41
0.003000
  0
VERTEX
  8
PLAN_1
 62
     5
  6
CONTINUOUS
 10
-1.944827
 20
1.024205
  0
VERTEX
  8
PLAN_1
 62
     5
  6
CONTINUOUS
 10
-1.936736
 20
1.024205
  0
SEQEND
  8
0
  0
POLYLINE
  8
PLAN_1
 62
     5
  6
CONTINUOUS
 66
     1
 40
0.003000
 41
0.003000
  0
VERTEX
  8
PLAN_1
 62
     5
  6
CONTINUOUS
 10
-1.928197
 20
1.024205
  0
VERTEX
  8
PLAN_1
 62
     5
  6
CONTINUOUS
 10
-1.920106
 20
1.024205
  0
SEQEND
  8
0
  0
POLYLINE
  8
PLAN_1
 62
     5
  6
CONTINUOUS
 66
     1
 40
0.003000
 41
0.003000
  0
VERTEX
  8
PLAN_1
 62
     5
  6
CONTINUOUS
 10
-1.911567
 20
1.024205
  0
VERTEX
  8
PLAN_1
 62
     5
  6
CONTINUOUS
 10
-1.903476
 20
1.024205
  0
SEQEND
  8
0
  0
POLYLINE
  8
PLAN_1
 62
     5
  6
CONTINUOUS
 66
     1
 40
0.003000
 41
0.003000
  0
VERTEX
  8
PLAN_1
 62
     5
  6
CONTINUOUS
 10
-1.894937
 20
1.024205
  0
VERTEX
  8
PLAN_1
 62
     5
  6
CONTINUOUS
 10
-1.886846
 20
1.024205
  0
SEQEND
  8
0
  0
POLYLINE
  8
PLAN_1
 62
     5
  6
CONTINUOUS
 66
     1
 40
0.003000
 41
0.003000
  0
VERTEX
  8
PLAN_1
 62
     5
  6
CONTINUOUS
 10
-1.878307
 20
1.024205
  0
VERTEX
  8
PLAN_1
 62
     5
  6
CONTINUOUS
 10
-1.869768
 20
1.024205
  0
SEQEND
  8
0
  0
POLYLINE
  8
PLAN_1
 62
     5
  6
CONTINUOUS
 66
     1
 40
0.003000
 41
0.003000
  0
VERTEX
  8
PLAN_1
 62
     5
  6
CONTINUOUS
 10
-1.861677
 20
1.024205
  0
VERTEX
  8
PLAN_1
 62
     5
  6
CONTINUOUS
 10
-1.853138
 20
1.024205
  0
SEQEND
  8
0
  0
POLYLINE
  8
PLAN_1
 62
     5
  6
CONTINUOUS
 66
     1
 40
0.003000
 41
0.003000
  0
VERTEX
  8
PLAN_1
 62
     5
  6
CONTINUOUS
 10
-1.845047
 20
1.024205
  0
VERTEX
  8
PLAN_1
 62
     5
  6
CONTINUOUS
 10
-1.836508
 20
1.024205
  0
SEQEND
  8
0
  0
POLYLINE
  8
PLAN_1
 62
     5
  6
CONTINUOUS
 66
     1
 40
0.003000
 41
0.003000
  0
VERTEX
  8
PLAN_1
 62
     5
  6
CONTINUOUS
 10
-1.828417
 20
1.024205
  0
VERTEX
  8
PLAN_1
 62
     5
  6
CONTINUOUS
 10
-1.819878
 20
1.024205
  0
SEQEND
  8
0
  0
POLYLINE
  8
PLAN_1
 62
     5
  6
CONTINUOUS
 66
     1
 40
0.003000
 41
0.003000
  0
VERTEX
  8
PLAN_1
 62
     5
  6
CONTINUOUS
 10
-1.811787
 20
1.024205
  0
VERTEX
  8
PLAN_1
 62
     5
  6
CONTINUOUS
 10
-1.803248
 20
1.024205
  0
SEQEND
  8
0
  0
POLYLINE
  8
PLAN_1
 62
     5
  6
CONTINUOUS
 66
     1
 40
0.003000
 41
0.003000
  0
VERTEX
  8
PLAN_1
 62
     5
  6
CONTINUOUS
 10
-1.795157
 20
1.024205
  0
VERTEX
  8
PLAN_1
 62
     5
  6
CONTINUOUS
 10
-1.786618
 20
1.024205
  0
SEQEND
  8
0
  0
POLYLINE
  8
PLAN_1
 62
     5
  6
CONTINUOUS
 66
     1
 40
0.003000
 41
0.003000
  0
VERTEX
  8
PLAN_1
 62
     5
  6
CONTINUOUS
 10
-1.778528
 20
1.024205
  0
VERTEX
  8
PLAN_1
 62
     5
  6
CONTINUOUS
 10
-1.769988
 20
1.024205
  0
SEQEND
  8
0
  0
POLYLINE
  8
PLAN_1
 62
     5
  6
CONTINUOUS
 66
     1
 40
0.003000
 41
0.003000
  0
VERTEX
  8
PLAN_1
 62
     5
  6
CONTINUOUS
 10
-1.906622
 20
0.877232
  0
VERTEX
  8
PLAN_1
 62
     5
  6
CONTINUOUS
 10
-1.906622
 20
0.885772
  0
SEQEND
  8
0
  0
POLYLINE
  8
PLAN_1
 62
     5
  6
CONTINUOUS
 66
     1
 40
0.003000
 41
0.003000
  0
VERTEX
  8
PLAN_1
 62
     5
  6
CONTINUOUS
 10
-1.906622
 20
0.893862
  0
VERTEX
  8
PLAN_1
 62
     5
  6
CONTINUOUS
 10
-1.906622
 20
0.902402
  0
SEQEND
  8
0
  0
POLYLINE
  8
PLAN_1
 62
     5
  6
CONTINUOUS
 66
     1
 40
0.003000
 41
0.003000
  0
VERTEX
  8
PLAN_1
 62
     5
  6
CONTINUOUS
 10
-1.906622
 20
0.910941
  0
VERTEX
  8
PLAN_1
 62
     5
  6
CONTINUOUS
 10
-1.906622
 20
0.919031
  0
SEQEND
  8
0
  0
POLYLINE
  8
PLAN_1
 62
     5
  6
CONTINUOUS
 66
     1
 40
0.003000
 41
0.003000
  0
VERTEX
  8
PLAN_1
 62
     5
  6
CONTINUOUS
 10
-1.906622
 20
0.927571
  0
VERTEX
  8
PLAN_1
 62
     5
  6
CONTINUOUS
 10
-1.906622
 20
0.935661
  0
SEQEND
  8
0
  0
POLYLINE
  8
PLAN_1
 62
     5
  6
CONTINUOUS
 66
     1
 40
0.003000
 41
0.003000
  0
VERTEX
  8
PLAN_1
 62
     5
  6
CONTINUOUS
 10
-1.906622
 20
0.944201
  0
VERTEX
  8
PLAN_1
 62
     5
  6
CONTINUOUS
 10
-1.906622
 20
0.952291
  0
SEQEND
  8
0
  0
POLYLINE
  8
PLAN_1
 62
     5
  6
CONTINUOUS
 66
     1
 40
0.003000
 41
0.003000
  0
VERTEX
  8
PLAN_1
 62
     5
  6
CONTINUOUS
 10
-1.906622
 20
0.960831
  0
VERTEX
  8
PLAN_1
 62
     5
  6
CONTINUOUS
 10
-1.906622
 20
0.968921
  0
SEQEND
  8
0
  0
POLYLINE
  8
PLAN_1
 62
     5
  6
CONTINUOUS
 66
     1
 40
0.003000
 41
0.003000
  0
VERTEX
  8
PLAN_1
 62
     5
  6
CONTINUOUS
 10
-1.906622
 20
0.977461
  0
VERTEX
  8
PLAN_1
 62
     5
  6
CONTINUOUS
 10
-1.906622
 20
0.985551
  0
SEQEND
  8
0
  0
POLYLINE
  8
PLAN_1
 62
     5
  6
CONTINUOUS
 66
     1
 40
0.003000
 41
0.003000
  0
VERTEX
  8
PLAN_1
 62
     5
  6
CONTINUOUS
 10
-1.906622
 20
0.994091
  0
VERTEX
  8
PLAN_1
 62
     5
  6
CONTINUOUS
 10
-1.906622
 20
1.002181
  0
SEQEND
  8
0
  0
POLYLINE
  8
PLAN_1
 62
     5
  6
CONTINUOUS
 66
     1
 40
0.003000
 41
0.003000
  0
VERTEX
  8
PLAN_1
 62
     5
  6
CONTINUOUS
 10
-1.906622
 20
1.010720
  0
VERTEX
  8
PLAN_1
 62
     5
  6
CONTINUOUS
 10
-1.906622
 20
1.018811
  0
SEQEND
  8
0
  0
POLYLINE
  8
PLAN_1
 62
     5
  6
CONTINUOUS
 66
     1
 40
0.003000
 41
0.003000
  0
VERTEX
  8
PLAN_1
 62
     5
  6
CONTINUOUS
 10
-1.906622
 20
1.027350
  0
VERTEX
  8
PLAN_1
 62
     5
  6
CONTINUOUS
 10
-1.906622
 20
1.035441
  0
SEQEND
  8
0
  0
POLYLINE
  8
PLAN_1
 62
     5
  6
CONTINUOUS
 66
     1
 40
0.003000
 41
0.003000
  0
VERTEX
  8
PLAN_1
 62
     5
  6
CONTINUOUS
 10
-1.906622
 20
1.043980
  0
VERTEX
  8
PLAN_1
 62
     5
  6
CONTINUOUS
 10
-1.906622
 20
1.052520
  0
SEQEND
  8
0
  0
POLYLINE
  8
PLAN_1
 62
     5
  6
CONTINUOUS
 66
     1
 40
0.003000
 41
0.003000
  0
VERTEX
  8
PLAN_1
 62
     5
  6
CONTINUOUS
 10
-1.906622
 20
1.060610
  0
VERTEX
  8
PLAN_1
 62
     5
  6
CONTINUOUS
 10
-1.906622
 20
1.069150
  0
SEQEND
  8
0
  0
POLYLINE
  8
PLAN_1
 62
     5
  6
CONTINUOUS
 66
     1
 40
0.003000
 41
0.003000
  0
VERTEX
  8
PLAN_1
 62
     5
  6
CONTINUOUS
 10
-1.906622
 20
1.077240
  0
VERTEX
  8
PLAN_1
 62
     5
  6
CONTINUOUS
 10
-1.906622
 20
1.085780
  0
SEQEND
  8
0
  0
POLYLINE
  8
PLAN_1
 62
     5
  6
CONTINUOUS
 66
     1
 40
0.003000
 41
0.003000
  0
VERTEX
  8
PLAN_1
 62
     5
  6
CONTINUOUS
 10
-1.906622
 20
1.093870
  0
VERTEX
  8
PLAN_1
 62
     5
  6
CONTINUOUS
 10
-1.906622
 20
1.102409
  0
SEQEND
  8
0
  0
POLYLINE
  8
PLAN_1
 62
     5
  6
CONTINUOUS
 66
     1
 40
0.003000
 41
0.003000
  0
VERTEX
  8
PLAN_1
 62
     5
  6
CONTINUOUS
 10
-1.906622
 20
1.110500
  0
VERTEX
  8
PLAN_1
 62
     5
  6
CONTINUOUS
 10
-1.906622
 20
1.119039
  0
SEQEND
  8
0
  0
POLYLINE
  8
PLAN_1
 62
     5
  6
CONTINUOUS
 66
     1
 40
0.003000
 41
0.003000
  0
VERTEX
  8
PLAN_1
 62
     5
  6
CONTINUOUS
 10
-1.906622
 20
1.127130
  0
VERTEX
  8
PLAN_1
 62
     5
  6
CONTINUOUS
 10
-1.906622
 20
1.135669
  0
SEQEND
  8
0
  0
POLYLINE
  8
PLAN_1
 62
     5
  6
CONTINUOUS
 66
     1
 40
0.003000
 41
0.003000
  0
VERTEX
  8
PLAN_1
 62
     5
  6
CONTINUOUS
 10
-1.906622
 20
1.143760
  0
VERTEX
  8
PLAN_1
 62
     5
  6
CONTINUOUS
 10
-1.906622
 20
1.152299
  0
SEQEND
  8
0
  0
POLYLINE
  8
PLAN_1
 62
     5
  6
CONTINUOUS
 66
     1
 40
0.003000
 41
0.003000
  0
VERTEX
  8
PLAN_1
 62
     5
  6
CONTINUOUS
 10
-1.906622
 20
1.160390
  0
VERTEX
  8
PLAN_1
 62
     5
  6
CONTINUOUS
 10
-1.906622
 20
1.168929
  0
SEQEND
  8
0
  0
POLYLINE
  8
PLAN_1
 62
     5
  6
CONTINUOUS
 66
     1
 40
0.003000
 41
0.003000
  0
VERTEX
  8
PLAN_1
 62
     5
  6
CONTINUOUS
 10
-1.906622
 20
1.177020
  0
VERTEX
  8
PLAN_1
 62
     5
  6
CONTINUOUS
 10
-1.906622
 20
1.185559
  0
SEQEND
  8
0
  0
POLYLINE
  8
PLAN_1
 62
     5
  6
CONTINUOUS
 66
     1
 40
0.003000
 41
0.003000
  0
VERTEX
  8
PLAN_1
 62
     5
  6
CONTINUOUS
 10
-1.906622
 20
1.194098
  0
VERTEX
  8
PLAN_1
 62
     5
  6
CONTINUOUS
 10
-1.906622
 20
1.202189
  0
SEQEND
  8
0
  0
POLYLINE
  8
PLAN_1
  6
CONTINUOUS
 66
     1
 40
0.008539
 41
0.008539
  0
VERTEX
  8
PLAN_1
  6
CONTINUOUS
 10
-1.949768
 20
1.496134
  0
VERTEX
  8
PLAN_1
  6
CONTINUOUS
 10
-1.610429
 20
1.496134
  0
VERTEX
  8
PLAN_1
  6
CONTINUOUS
 10
-1.610429
 20
1.297925
  0
SEQEND
  8
0
  0
POLYLINE
  8
PLAN_1
  6
CONTINUOUS
 66
     1
 40
0.008539
 41
0.008539
  0
VERTEX
  8
PLAN_1
  6
CONTINUOUS
 10
-0.938039
 20
1.297925
  0
VERTEX
  8
PLAN_1
  6
CONTINUOUS
 10
-0.938039
 20
1.495236
  0
VERTEX
  8
PLAN_1
  6
CONTINUOUS
 10
-0.593756
 20
1.495236
  0
SEQEND
  8
0
  0
POLYLINE
  8
PLAN_1
  6
CONTINUOUS
 66
     1
 40
0.008539
 41
0.008539
  0
VERTEX
  8
PLAN_1
  6
CONTINUOUS
 10
-1.703917
 20
1.495685
  0
VERTEX
  8
PLAN_1
  6
CONTINUOUS
 10
-1.703917
 20
1.297925
  0
SEQEND
  8
0
  0
POLYLINE
  8
PLAN_1
  6
CONTINUOUS
 66
     1
 40
0.008539
 41
0.008539
  0
VERTEX
  8
PLAN_1
  6
CONTINUOUS
 10
-0.836012
 20
1.495685
  0
VERTEX
  8
PLAN_1
  6
CONTINUOUS
 10
-0.836012
 20
1.297925
  0
SEQEND
  8
0
  0
POLYLINE
  8
PLAN_1
  6
CONTINUOUS
 66
     1
 40
0.008539
 41
0.008539
  0
VERTEX
  8
PLAN_1
  6
CONTINUOUS
 10
-1.065236
 20
0.867791
  0
VERTEX
  8
PLAN_1
  6
CONTINUOUS
 10
-1.065236
 20
0.915886
  0
VERTEX
  8
PLAN_1
  6
CONTINUOUS
 10
-1.478736
 20
0.915886
  0
VERTEX
  8
PLAN_1
  6
CONTINUOUS
 10
-1.478736
 20
0.867791
  0
VERTEX
  8
PLAN_1
  6
CONTINUOUS
 10
-1.065236
 20
0.867791
  0
SEQEND
  8
0
  0
POLYLINE
  8
PLAN_1
  6
CONTINUOUS
 66
     1
 40
0.008539
 41
0.008539
  0
VERTEX
  8
PLAN_1
  6
CONTINUOUS
 10
-0.716008
 20
1.274102
  0
VERTEX
  8
PLAN_1
  6
CONTINUOUS
 10
-0.716008
 20
1.297925
  0
VERTEX
  8
PLAN_1
  6
CONTINUOUS
 10
-1.827516
 20
1.297925
  0
VERTEX
  8
PLAN_1
  6
CONTINUOUS
 10
-1.827516
 20
1.274102
  0
VERTEX
  8
PLAN_1
  6
CONTINUOUS
 10
-0.716008
 20
1.274102
  0
SEQEND
  8
0
  0
POLYLINE
  8
PLAN_1
  6
CONTINUOUS
 66
     1
 40
0.008539
 41
0.008539
  0
VERTEX
  8
PLAN_1
  6
CONTINUOUS
 10
-0.930850
 20
0.915886
  0
VERTEX
  8
PLAN_1
  6
CONTINUOUS
 10
-0.930850
 20
1.274102
  0
VERTEX
  8
PLAN_1
  6
CONTINUOUS
 10
-1.613126
 20
1.274102
  0
VERTEX
  8
PLAN_1
  6
CONTINUOUS
 10
-1.613126
 20
0.915886
  0
VERTEX
  8
PLAN_1
  6
CONTINUOUS
 10
-0.930850
 20
0.915886
  0
SEQEND
  8
0
  0
POLYLINE
  8
PLAN_1
  6
CONTINUOUS
 66
     1
 40
0.008539
 41
0.008539
  0
VERTEX
  8
PLAN_1
  6
CONTINUOUS
 10
-1.604138
 20
2.263807
  0
VERTEX
  8
PLAN_1
  6
CONTINUOUS
 10
-1.950220
 20
2.263807
  0
VERTEX
  8
PLAN_1
  6
CONTINUOUS
 10
-1.950220
 20
1.297925
  0
VERTEX
  8
PLAN_1
  6
CONTINUOUS
 10
-0.594205
 20
1.297925
  0
VERTEX
  8
PLAN_1
  6
CONTINUOUS
 10
-0.594205
 20
2.263807
  0
VERTEX
  8
PLAN_1
  6
CONTINUOUS
 10
-0.944335
 20
2.263807
  0
SEQEND
  8
0
  0
POLYLINE
  8
PLAN_1
  6
CONTINUOUS
 66
     1
 40
0.008539
 41
0.008539
  0
VERTEX
  8
PLAN_1
  6
CONTINUOUS
 10
-1.604138
 20
2.263807
  0
VERTEX
  8
PLAN_1
  6
CONTINUOUS
 10
-1.552898
 20
2.695736
  0
SEQEND
  8
0
  0
POLYLINE
  8
PLAN_1
  6
CONTINUOUS
 66
     1
 40
0.008539
 41
0.008539
  0
VERTEX
  8
PLAN_1
  6
CONTINUOUS
 10
-0.944335
 20
2.263807
  0
VERTEX
  8
PLAN_1
  6
CONTINUOUS
 10
-0.996469
 20
2.695736
  0
SEQEND
  8
0
  0
POLYLINE
  8
PLAN_1
  6
CONTINUOUS
 66
     1
 40
0.008539
 41
0.008539
  0
VERTEX
  8
PLAN_1
  6
CONTINUOUS
 10
-0.900287
 20
1.899299
  0
VERTEX
  8
PLAN_1
  6
CONTINUOUS
 10
-0.944335
 20
2.263807
  0
SEQEND
  8
0
  0
POLYLINE
  8
PLAN_1
  6
CONTINUOUS
 66
     1
 40
0.008539
 41
0.008539
  0
VERTEX
  8
PLAN_1
  6
CONTINUOUS
 10
-1.604138
 20
2.263807
  0
VERTEX
  8
PLAN_1
  6
CONTINUOUS
 10
-1.647732
 20
1.899299
  0
SEQEND
  8
0
  0
POLYLINE
  8
PLAN_1
  6
CONTINUOUS
 66
     1
 40
0.008539
 41
0.008539
  0
VERTEX
  8
PLAN_1
  6
CONTINUOUS
 10
-1.507055
 20
2.662476
  0
VERTEX
  8
PLAN_1
  6
CONTINUOUS
 10
-1.546157
 20
2.283134
  0
SEQEND
  8
0
  0
POLYLINE
  8
PLAN_1
  6
CONTINUOUS
 66
     1
 40
0.008539
 41
0.008539
  0
VERTEX
  8
PLAN_1
  6
CONTINUOUS
 10
-1.546157
 20
2.283134
  0
VERTEX
  8
PLAN_1
  6
CONTINUOUS
 10
-1.545709
 20
2.278189
  0
VERTEX
  8
PLAN_1
  6
CONTINUOUS
 10
-1.544807
 20
2.273697
  0
VERTEX
  8
PLAN_1
  6
CONTINUOUS
 10
-1.543909
 20
2.269201
  0
VERTEX
  8
PLAN_1
  6
CONTINUOUS
 10
-1.542110
 20
2.264709
  0
VERTEX
  8
PLAN_1
  6
CONTINUOUS
 10
-1.540315
 20
2.260661
  0
VERTEX
  8
PLAN_1
  6
CONTINUOUS
 10
-1.538067
 20
2.256618
  0
VERTEX
  8
PLAN_1
  6
CONTINUOUS
 10
-1.535370
 20
2.253020
  0
VERTEX
  8
PLAN_1
  6
CONTINUOUS
 10
-1.532224
 20
2.249425
  0
VERTEX
  8
PLAN_1
  6
CONTINUOUS
 10
-1.528626
 20
2.246728
  0
VERTEX
  8
PLAN_1
  6
CONTINUOUS
 10
-1.525031
 20
2.244031
  0
VERTEX
  8
PLAN_1
  6
CONTINUOUS
 10
-1.520988
 20
2.241335
  0
VERTEX
  8
PLAN_1
  6
CONTINUOUS
 10
-1.516941
 20
2.239535
  0
VERTEX
  8
PLAN_1
  6
CONTINUOUS
 10
-1.512449
 20
2.237740
  0
VERTEX
  8
PLAN_1
  6
CONTINUOUS
 10
-1.507953
 20
2.236839
  0
VERTEX
  8
PLAN_1
  6
CONTINUOUS
 10
-1.503457
 20
2.235941
  0
VERTEX
  8
PLAN_1
  6
CONTINUOUS
 10
-1.498516
 20
2.235492
  0
SEQEND
  8
0
  0
POLYLINE
  8
PLAN_1
  6
CONTINUOUS
 66
     1
 40
0.008539
 41
0.008539
  0
VERTEX
  8
PLAN_1
  6
CONTINUOUS
 10
-1.498516
 20
2.235492
  0
VERTEX
  8
PLAN_1
  6
CONTINUOUS
 10
-1.051303
 20
2.235492
  0
SEQEND
  8
0
  0
POLYLINE
  8
PLAN_1
  6
CONTINUOUS
 66
     1
 40
0.008539
 41
0.008539
  0
VERTEX
  8
PLAN_1
  6
CONTINUOUS
 10
-1.051303
 20
2.235492
  0
VERTEX
  8
PLAN_1
  6
CONTINUOUS
 10
-1.046358
 20
2.235941
  0
VERTEX
  8
PLAN_1
  6
CONTINUOUS
 10
-1.041417
 20
2.236839
  0
VERTEX
  8
PLAN_1
  6
CONTINUOUS
 10
-1.036921
 20
2.237740
  0
VERTEX
  8
PLAN_1
  6
CONTINUOUS
 10
-1.032874
 20
2.239535
  0
VERTEX
  8
PLAN_1
  6
CONTINUOUS
 10
-1.028382
 20
2.241335
  0
VERTEX
  8
PLAN_1
  6
CONTINUOUS
 10
-1.024787
 20
2.244031
  0
VERTEX
  8
PLAN_1
  6
CONTINUOUS
 10
-1.021189
 20
2.246728
  0
VERTEX
  8
PLAN_1
  6
CONTINUOUS
 10
-1.017594
 20
2.249425
  0
VERTEX
  8
PLAN_1
  6
CONTINUOUS
 10
-1.014449
 20
2.253020
  0
VERTEX
  8
PLAN_1
  6
CONTINUOUS
 10
-1.011752
 20
2.256618
  0
VERTEX
  8
PLAN_1
  6
CONTINUOUS
 10
-1.009504
 20
2.260661
  0
VERTEX
  8
PLAN_1
  6
CONTINUOUS
 10
-1.007256
 20
2.264709
  0
VERTEX
  8
PLAN_1
  6
CONTINUOUS
 10
-1.005909
 20
2.269201
  0
VERTEX
  8
PLAN_1
  6
CONTINUOUS
 10
-1.004559
 20
2.273697
  0
VERTEX
  8
PLAN_1
  6
CONTINUOUS
 10
-1.004110
 20
2.278189
  0
VERTEX
  8
PLAN_1
  6
CONTINUOUS
 10
-1.003661
 20
2.283134
  0
SEQEND
  8
0
  0
POLYLINE
  8
PLAN_1
  6
CONTINUOUS
 66
     1
 40
0.008539
 41
0.008539
  0
VERTEX
  8
PLAN_1
  6
CONTINUOUS
 10
-1.003661
 20
2.283134
  0
VERTEX
  8
PLAN_1
  6
CONTINUOUS
 10
-1.038720
 20
2.664724
  0
SEQEND
  8
0
  0
POLYLINE
  8
PLAN_1
  6
CONTINUOUS
 66
     1
 40
0.008539
 41
0.008539
  0
VERTEX
  8
PLAN_1
  6
CONTINUOUS
 10
-0.996469
 20
2.695736
  0
VERTEX
  8
PLAN_1
  6
CONTINUOUS
 10
-1.001413
 20
2.691693
  0
VERTEX
  8
PLAN_1
  6
CONTINUOUS
 10
-1.006807
 20
2.687197
  0
VERTEX
  8
PLAN_1
  6
CONTINUOUS
 10
-1.011752
 20
2.683602
  0
VERTEX
  8
PLAN_1
  6
CONTINUOUS
 10
-1.017146
 20
2.679555
  0
VERTEX
  8
PLAN_1
  6
CONTINUOUS
 10
-1.022539
 20
2.675512
  0
VERTEX
  8
PLAN_1
  6
CONTINUOUS
 10
-1.027933
 20
2.671913
  0
VERTEX
  8
PLAN_1
  6
CONTINUOUS
 10
-1.033327
 20
2.668319
  0
VERTEX
  8
PLAN_1
  6
CONTINUOUS
 10
-1.038720
 20
2.664724
  0
SEQEND
  8
0
  0
POLYLINE
  8
PLAN_1
  6
CONTINUOUS
 66
     1
 40
0.008539
 41
0.008539
  0
VERTEX
  8
PLAN_1
  6
CONTINUOUS
 10
-1.507055
 20
2.662476
  0
VERTEX
  8
PLAN_1
  6
CONTINUOUS
 10
-1.513346
 20
2.666071
  0
VERTEX
  8
PLAN_1
  6
CONTINUOUS
 10
-1.519189
 20
2.670118
  0
VERTEX
  8
PLAN_1
  6
CONTINUOUS
 10
-1.525031
 20
2.674161
  0
VERTEX
  8
PLAN_1
  6
CONTINUOUS
 10
-1.530425
 20
2.678209
  0
VERTEX
  8
PLAN_1
  6
CONTINUOUS
 10
-1.536268
 20
2.682252
  0
VERTEX
  8
PLAN_1
  6
CONTINUOUS
 10
-1.541661
 20
2.686748
  0
VERTEX
  8
PLAN_1
  6
CONTINUOUS
 10
-1.547504
 20
2.691240
  0
VERTEX
  8
PLAN_1
  6
CONTINUOUS
 10
-1.552898
 20
2.695736
  0
SEQEND
  8
0
  0
POLYLINE
  8
PLAN_1
  6
CONTINUOUS
 66
     1
 40
0.008539
 41
0.008539
  0
VERTEX
  8
PLAN_1
  6
CONTINUOUS
 10
-1.507055
 20
2.662476
  0
VERTEX
  8
PLAN_1
  6
CONTINUOUS
 10
-1.506602
 20
2.662028
  0
VERTEX
  8
PLAN_1
  6
CONTINUOUS
 10
-1.506154
 20
2.661579
  0
VERTEX
  8
PLAN_1
  6
CONTINUOUS
 10
-1.505705
 20
2.661130
  0
VERTEX
  8
PLAN_1
  6
CONTINUOUS
 10
-1.505256
 20
2.661130
  0
VERTEX
  8
PLAN_1
  6
CONTINUOUS
 10
-1.504807
 20
2.660677
  0
VERTEX
  8
PLAN_1
  6
CONTINUOUS
 10
-1.504358
 20
2.660228
  0
VERTEX
  8
PLAN_1
  6
CONTINUOUS
 10
-1.503457
 20
2.659780
  0
VERTEX
  8
PLAN_1
  6
CONTINUOUS
 10
-1.503008
 20
2.659780
  0
VERTEX
  8
PLAN_1
  6
CONTINUOUS
 10
-1.490425
 20
2.652138
  0
VERTEX
  8
PLAN_1
  6
CONTINUOUS
 10
-1.477839
 20
2.644949
  0
VERTEX
  8
PLAN_1
  6
CONTINUOUS
 10
-1.464354
 20
2.638205
  0
VERTEX
  8
PLAN_1
  6
CONTINUOUS
 10
-1.451323
 20
2.632362
  0
VERTEX
  8
PLAN_1
  6
CONTINUOUS
 10
-1.437386
 20
2.626520
  0
VERTEX
  8
PLAN_1
  6
CONTINUOUS
 10
-1.423906
 20
2.621126
  0
VERTEX
  8
PLAN_1
  6
CONTINUOUS
 10
-1.409520
 20
2.616181
  0
VERTEX
  8
PLAN_1
  6
CONTINUOUS
 10
-1.395587
 20
2.611689
  0
VERTEX
  8
PLAN_1
  6
CONTINUOUS
 10
-1.380756
 20
2.608091
  0
VERTEX
  8
PLAN_1
  6
CONTINUOUS
 10
-1.366374
 20
2.604496
  0
VERTEX
  8
PLAN_1
  6
CONTINUOUS
 10
-1.351539
 20
2.601799
  0
VERTEX
  8
PLAN_1
  6
CONTINUOUS
 10
-1.336260
 20
2.599102
  0
VERTEX
  8
PLAN_1
  6
CONTINUOUS
 10
-1.320976
 20
2.597307
  0
VERTEX
  8
PLAN_1
  6
CONTINUOUS
 10
-1.305697
 20
2.595957
  0
VERTEX
  8
PLAN_1
  6
CONTINUOUS
 10
-1.290413
 20
2.595059
  0
VERTEX
  8
PLAN_1
  6
CONTINUOUS
 10
-1.274685
 20
2.595059
  0
VERTEX
  8
PLAN_1
  6
CONTINUOUS
 10
-1.259402
 20
2.595059
  0
VERTEX
  8
PLAN_1
  6
CONTINUOUS
 10
-1.244122
 20
2.595957
  0
VERTEX
  8
PLAN_1
  6
CONTINUOUS
 10
-1.229287
 20
2.597307
  0
VERTEX
  8
PLAN_1
  6
CONTINUOUS
 10
-1.214457
 20
2.599102
  0
VERTEX
  8
PLAN_1
  6
CONTINUOUS
 10
-1.199626
 20
2.601350
  0
VERTEX
  8
PLAN_1
  6
CONTINUOUS
 10
-1.185240
 20
2.604047
  0
VERTEX
  8
PLAN_1
  6
CONTINUOUS
 10
-1.170858
 20
2.607193
  0
VERTEX
  8
PLAN_1
  6
CONTINUOUS
 10
-1.156925
 20
2.611240
  0
VERTEX
  8
PLAN_1
  6
CONTINUOUS
 10
-1.142992
 20
2.615283
  0
VERTEX
  8
PLAN_1
  6
CONTINUOUS
 10
-1.129059
 20
2.619780
  0
VERTEX
  8
PLAN_1
  6
CONTINUOUS
 10
-1.115575
 20
2.624720
  0
VERTEX
  8
PLAN_1
  6
CONTINUOUS
 10
-1.102091
 20
2.630567
  0
VERTEX
  8
PLAN_1
  6
CONTINUOUS
 10
-1.089059
 20
2.636409
  0
VERTEX
  8
PLAN_1
  6
CONTINUOUS
 10
-1.076024
 20
2.642701
  0
VERTEX
  8
PLAN_1
  6
CONTINUOUS
 10
-1.063441
 20
2.649441
  0
VERTEX
  8
PLAN_1
  6
CONTINUOUS
 10
-1.051303
 20
2.656634
  0
VERTEX
  8
PLAN_1
  6
CONTINUOUS
 10
-1.049504
 20
2.657531
  0
VERTEX
  8
PLAN_1
  6
CONTINUOUS
 10
-1.048157
 20
2.658433
  0
VERTEX
  8
PLAN_1
  6
CONTINUOUS
 10
-1.046358
 20
2.659331
  0
VERTEX
  8
PLAN_1
  6
CONTINUOUS
 10
-1.045012
 20
2.660677
  0
VERTEX
  8
PLAN_1
  6
CONTINUOUS
 10
-1.043213
 20
2.661579
  0
VERTEX
  8
PLAN_1
  6
CONTINUOUS
 10
-1.041866
 20
2.662476
  0
VERTEX
  8
PLAN_1
  6
CONTINUOUS
 10
-1.040516
 20
2.663374
  0
VERTEX
  8
PLAN_1
  6
CONTINUOUS
 10
-1.038720
 20
2.664724
  0
SEQEND
  8
0
  0
POLYLINE
  8
PLAN_1
  6
CONTINUOUS
 66
     1
 40
0.008539
 41
0.008539
  0
VERTEX
  8
PLAN_1
  6
CONTINUOUS
 10
-0.996469
 20
2.695736
  0
VERTEX
  8
PLAN_1
  6
CONTINUOUS
 10
-0.987480
 20
2.703378
  0
VERTEX
  8
PLAN_1
  6
CONTINUOUS
 10
-0.978941
 20
2.711020
  0
VERTEX
  8
PLAN_1
  6
CONTINUOUS
 10
-0.970402
 20
2.719110
  0
VERTEX
  8
PLAN_1
  6
CONTINUOUS
 10
-0.962311
 20
2.727197
  0
VERTEX
  8
PLAN_1
  6
CONTINUOUS
 10
-0.954220
 20
2.735740
  0
VERTEX
  8
PLAN_1
  6
CONTINUOUS
 10
-0.946579
 20
2.744728
  0
VERTEX
  8
PLAN_1
  6
CONTINUOUS
 10
-0.938941
 20
2.753717
  0
VERTEX
  8
PLAN_1
  6
CONTINUOUS
 10
-0.931299
 20
2.762705
  0
VERTEX
  8
PLAN_1
  6
CONTINUOUS
 10
-0.924555
 20
2.772146
  0
VERTEX
  8
PLAN_1
  6
CONTINUOUS
 10
-0.917366
 20
2.781583
  0
VERTEX
  8
PLAN_1
  6
CONTINUOUS
 10
-0.911075
 20
2.791020
  0
VERTEX
  8
PLAN_1
  6
CONTINUOUS
 10
-0.904780
 20
2.800909
  0
VERTEX
  8
PLAN_1
  6
CONTINUOUS
 10
-0.898488
 20
2.811248
  0
VERTEX
  8
PLAN_1
  6
CONTINUOUS
 10
-0.892646
 20
2.821587
  0
VERTEX
  8
PLAN_1
  6
CONTINUOUS
 10
-0.887252
 20
2.831921
  0
VERTEX
  8
PLAN_1
  6
CONTINUOUS
 10
-0.881858
 20
2.842260
  0
VERTEX
  8
PLAN_1
  6
CONTINUOUS
 10
-0.876913
 20
2.853047
  0
VERTEX
  8
PLAN_1
  6
CONTINUOUS
 10
-0.872421
 20
2.863835
  0
VERTEX
  8
PLAN_1
  6
CONTINUOUS
 10
-0.867925
 20
2.875071
  0
VERTEX
  8
PLAN_1
  6
CONTINUOUS
 10
-0.863878
 20
2.886307
  0
VERTEX
  8
PLAN_1
  6
CONTINUOUS
 10
-0.859835
 20
2.897543
  0
VERTEX
  8
PLAN_1
  6
CONTINUOUS
 10
-0.856689
 20
2.909228
  0
VERTEX
  8
PLAN_1
  6
CONTINUOUS
 10
-0.853094
 20
2.920465
  0
VERTEX
  8
PLAN_1
  6
CONTINUOUS
 10
-0.850398
 20
2.932150
  0
VERTEX
  8
PLAN_1
  6
CONTINUOUS
 10
-0.847701
 20
2.944287
  0
VERTEX
  8
PLAN_1
  6
CONTINUOUS
 10
-0.845453
 20
2.955972
  0
VERTEX
  8
PLAN_1
  6
CONTINUOUS
 10
-0.843654
 20
2.968106
  0
VERTEX
  8
PLAN_1
  6
CONTINUOUS
 10
-0.842307
 20
2.980244
  0
VERTEX
  8
PLAN_1
  6
CONTINUOUS
 10
-0.840957
 20
2.992827
  0
VERTEX
  8
PLAN_1
  6
CONTINUOUS
 10
-0.840059
 20
3.004965
  0
VERTEX
  8
PLAN_1
  6
CONTINUOUS
 10
-0.839610
 20
3.017547
  0
VERTEX
  8
PLAN_1
  6
CONTINUOUS
 10
-0.839161
 20
3.030134
  0
VERTEX
  8
PLAN_1
  6
CONTINUOUS
 10
-0.840059
 20
3.052606
  0
VERTEX
  8
PLAN_1
  6
CONTINUOUS
 10
-0.841406
 20
3.074630
  0
VERTEX
  8
PLAN_1
  6
CONTINUOUS
 10
-0.844555
 20
3.096205
  0
VERTEX
  8
PLAN_1
  6
CONTINUOUS
 10
-0.848150
 20
3.117776
  0
VERTEX
  8
PLAN_1
  6
CONTINUOUS
 10
-0.853094
 20
3.138902
  0
VERTEX
  8
PLAN_1
  6
CONTINUOUS
 10
-0.858937
 20
3.159575
  0
VERTEX
  8
PLAN_1
  6
CONTINUOUS
 10
-0.865677
 20
3.179803
  0
VERTEX
  8
PLAN_1
  6
CONTINUOUS
 10
-0.873768
 20
3.199579
  0
VERTEX
  8
PLAN_1
  6
CONTINUOUS
 10
-0.882307
 20
3.218906
  0
VERTEX
  8
PLAN_1
  6
CONTINUOUS
 10
-0.891748
 20
3.237783
  0
VERTEX
  8
PLAN_1
  6
CONTINUOUS
 10
-0.902531
 20
3.255760
  0
VERTEX
  8
PLAN_1
  6
CONTINUOUS
 10
-0.913772
 20
3.273291
  0
VERTEX
  8
PLAN_1
  6
CONTINUOUS
 10
-0.925906
 20
3.290370
  0
VERTEX
  8
PLAN_1
  6
CONTINUOUS
 10
-0.938941
 20
3.307000
  0
VERTEX
  8
PLAN_1
  6
CONTINUOUS
 10
-0.952421
 20
3.322728
  0
VERTEX
  8
PLAN_1
  6
CONTINUOUS
 10
-0.966807
 20
3.338012
  0
VERTEX
  8
PLAN_1
  6
CONTINUOUS
 10
-0.982087
 20
3.352394
  0
VERTEX
  8
PLAN_1
  6
CONTINUOUS
 10
-0.997819
 20
3.365878
  0
VERTEX
  8
PLAN_1
  6
CONTINUOUS
 10
-1.014449
 20
3.378913
  0
VERTEX
  8
PLAN_1
  6
CONTINUOUS
 10
-1.031079
 20
3.391047
  0
VERTEX
  8
PLAN_1
  6
CONTINUOUS
 10
-1.049055
 20
3.402283
  0
VERTEX
  8
PLAN_1
  6
CONTINUOUS
 10
-1.067035
 20
3.413071
  0
VERTEX
  8
PLAN_1
  6
CONTINUOUS
 10
-1.085913
 20
3.422508
  0
VERTEX
  8
PLAN_1
  6
CONTINUOUS
 10
-1.105240
 20
3.431047
  0
VERTEX
  8
PLAN_1
  6
CONTINUOUS
 10
-1.125016
 20
3.439138
  0
VERTEX
  8
PLAN_1
  6
CONTINUOUS
 10
-1.145240
 20
3.445882
  0
VERTEX
  8
PLAN_1
  6
CONTINUOUS
 10
-1.165913
 20
3.451724
  0
VERTEX
  8
PLAN_1
  6
CONTINUOUS
 10
-1.187039
 20
3.456669
  0
VERTEX
  8
PLAN_1
  6
CONTINUOUS
 10
-1.208165
 20
3.460264
  0
VERTEX
  8
PLAN_1
  6
CONTINUOUS
 10
-1.230189
 20
3.462961
  0
VERTEX
  8
PLAN_1
  6
CONTINUOUS
 10
-1.252213
 20
3.464760
  0
VERTEX
  8
PLAN_1
  6
CONTINUOUS
 10
-1.274685
 20
3.465209
  0
VERTEX
  8
PLAN_1
  6
CONTINUOUS
 10
-1.297157
 20
3.464760
  0
VERTEX
  8
PLAN_1
  6
CONTINUOUS
 10
-1.319181
 20
3.462961
  0
VERTEX
  8
PLAN_1
  6
CONTINUOUS
 10
-1.340756
 20
3.460264
  0
VERTEX
  8
PLAN_1
  6
CONTINUOUS
 10
-1.362327
 20
3.456669
  0
VERTEX
  8
PLAN_1
  6
CONTINUOUS
 10
-1.383453
 20
3.451724
  0
VERTEX
  8
PLAN_1
  6
CONTINUOUS
 10
-1.404126
 20
3.445882
  0
VERTEX
  8
PLAN_1
  6
CONTINUOUS
 10
-1.424354
 20
3.439138
  0
VERTEX
  8
PLAN_1
  6
CONTINUOUS
 10
-1.444130
 20
3.431047
  0
VERTEX
  8
PLAN_1
  6
CONTINUOUS
 10
-1.463457
 20
3.422508
  0
VERTEX
  8
PLAN_1
  6
CONTINUOUS
 10
-1.482335
 20
3.413071
  0
VERTEX
  8
PLAN_1
  6
CONTINUOUS
 10
-1.500311
 20
3.402283
  0
VERTEX
  8
PLAN_1
  6
CONTINUOUS
 10
-1.517843
 20
3.391047
  0
VERTEX
  8
PLAN_1
  6
CONTINUOUS
 10
-1.534921
 20
3.378913
  0
VERTEX
  8
PLAN_1
  6
CONTINUOUS
 10
-1.551551
 20
3.365878
  0
VERTEX
  8
PLAN_1
  6
CONTINUOUS
 10
-1.567280
 20
3.352394
  0
VERTEX
  8
PLAN_1
  6
CONTINUOUS
 10
-1.582563
 20
3.338012
  0
VERTEX
  8
PLAN_1
  6
CONTINUOUS
 10
-1.596945
 20
3.322728
  0
VERTEX
  8
PLAN_1
  6
CONTINUOUS
 10
-1.610429
 20
3.307000
  0
VERTEX
  8
PLAN_1
  6
CONTINUOUS
 10
-1.623465
 20
3.290370
  0
VERTEX
  8
PLAN_1
  6
CONTINUOUS
 10
-1.635598
 20
3.273291
  0
VERTEX
  8
PLAN_1
  6
CONTINUOUS
 10
-1.646835
 20
3.255760
  0
VERTEX
  8
PLAN_1
  6
CONTINUOUS
 10
-1.657173
 20
3.237783
  0
VERTEX
  8
PLAN_1
  6
CONTINUOUS
 10
-1.667059
 20
3.218906
  0
VERTEX
  8
PLAN_1
  6
CONTINUOUS
 10
-1.675598
 20
3.199579
  0
VERTEX
  8
PLAN_1
  6
CONTINUOUS
 10
-1.683689
 20
3.179803
  0
VERTEX
  8
PLAN_1
  6
CONTINUOUS
 10
-1.690433
 20
3.159575
  0
VERTEX
  8
PLAN_1
  6
CONTINUOUS
 10
-1.696276
 20
3.138902
  0
VERTEX
  8
PLAN_1
  6
CONTINUOUS
 10
-1.701220
 20
3.117776
  0
VERTEX
  8
PLAN_1
  6
CONTINUOUS
 10
-1.704815
 20
3.096205
  0
VERTEX
  8
PLAN_1
  6
CONTINUOUS
 10
-1.707512
 20
3.074630
  0
VERTEX
  8
PLAN_1
  6
CONTINUOUS
 10
-1.709311
 20
3.052606
  0
VERTEX
  8
PLAN_1
  6
CONTINUOUS
 10
-1.709760
 20
3.030134
  0
VERTEX
  8
PLAN_1
  6
CONTINUOUS
 10
-1.709760
 20
3.017547
  0
VERTEX
  8
PLAN_1
  6
CONTINUOUS
 10
-1.709311
 20
3.004965
  0
VERTEX
  8
PLAN_1
  6
CONTINUOUS
 10
-1.708409
 20
2.992827
  0
VERTEX
  8
PLAN_1
  6
CONTINUOUS
 10
-1.707063
 20
2.980244
  0
VERTEX
  8
PLAN_1
  6
CONTINUOUS
 10
-1.705713
 20
2.968106
  0
VERTEX
  8
PLAN_1
  6
CONTINUOUS
 10
-1.703469
 20
2.955972
  0
VERTEX
  8
PLAN_1
  6
CONTINUOUS
 10
-1.701220
 20
2.944287
  0
VERTEX
  8
PLAN_1
  6
CONTINUOUS
 10
-1.698972
 20
2.932150
  0
VERTEX
  8
PLAN_1
  6
CONTINUOUS
 10
-1.695827
 20
2.920465
  0
VERTEX
  8
PLAN_1
  6
CONTINUOUS
 10
-1.692681
 20
2.908780
  0
VERTEX
  8
PLAN_1
  6
CONTINUOUS
 10
-1.689083
 20
2.897543
  0
VERTEX
  8
PLAN_1
  6
CONTINUOUS
 10
-1.685488
 20
2.886307
  0
VERTEX
  8
PLAN_1
  6
CONTINUOUS
 10
-1.681445
 20
2.875071
  0
VERTEX
  8
PLAN_1
  6
CONTINUOUS
 10
-1.676949
 20
2.863835
  0
VERTEX
  8
PLAN_1
  6
CONTINUOUS
 10
-1.672453
 20
2.853047
  0
VERTEX
  8
PLAN_1
  6
CONTINUOUS
 10
-1.667512
 20
2.842260
  0
VERTEX
  8
PLAN_1
  6
CONTINUOUS
 10
-1.662118
 20
2.831921
  0
VERTEX
  8
PLAN_1
  6
CONTINUOUS
 10
-1.656724
 20
2.821134
  0
VERTEX
  8
PLAN_1
  6
CONTINUOUS
 10
-1.650882
 20
2.811248
  0
VERTEX
  8
PLAN_1
  6
CONTINUOUS
 10
-1.644587
 20
2.800909
  0
VERTEX
  8
PLAN_1
  6
CONTINUOUS
 10
-1.638295
 20
2.791020
  0
VERTEX
  8
PLAN_1
  6
CONTINUOUS
 10
-1.631555
 20
2.781583
  0
VERTEX
  8
PLAN_1
  6
CONTINUOUS
 10
-1.624811
 20
2.772146
  0
VERTEX
  8
PLAN_1
  6
CONTINUOUS
 10
-1.617622
 20
2.762705
  0
VERTEX
  8
PLAN_1
  6
CONTINUOUS
 10
-1.610429
 20
2.753268
  0
VERTEX
  8
PLAN_1
  6
CONTINUOUS
 10
-1.602787
 20
2.744728
  0
VERTEX
  8
PLAN_1
  6
CONTINUOUS
 10
-1.595146
 20
2.735740
  0
VERTEX
  8
PLAN_1
  6
CONTINUOUS
 10
-1.587055
 20
2.727197
  0
VERTEX
  8
PLAN_1
  6
CONTINUOUS
 10
-1.578969
 20
2.719110
  0
VERTEX
  8
PLAN_1
  6
CONTINUOUS
 10
-1.570425
 20
2.711020
  0
VERTEX
  8
PLAN_1
  6
CONTINUOUS
 10
-1.561886
 20
2.703378
  0
VERTEX
  8
PLAN_1
  6
CONTINUOUS
 10
-1.552898
 20
2.695736
  0
SEQEND
  8
0
  0
POLYLINE
  8
PLAN_1
  6
CONTINUOUS
 66
     1
 40
0.008539
 41
0.008539
  0
VERTEX
  8
PLAN_1
  6
CONTINUOUS
 10
-1.278280
 20
3.288571
  0
VERTEX
  8
PLAN_1
  6
CONTINUOUS
 10
-1.051303
 20
3.166319
  0
VERTEX
  8
PLAN_1
  6
CONTINUOUS
 10
-1.051303
 20
2.897543
  0
VERTEX
  8
PLAN_1
  6
CONTINUOUS
 10
-1.278280
 20
2.771697
  0
VERTEX
  8
PLAN_1
  6
CONTINUOUS
 10
-1.494469
 20
2.897543
  0
VERTEX
  8
PLAN_1
  6
CONTINUOUS
 10
-1.494469
 20
3.166319
  0
VERTEX
  8
PLAN_1
  6
CONTINUOUS
 10
-1.278280
 20
3.288571
  0
SEQEND
  8
0
  0
POLYLINE
  8
PLAN_1
  6
CONTINUOUS
 66
     1
 40
0.008539
 41
0.008539
  0
VERTEX
  8
PLAN_1
  6
CONTINUOUS
 10
-1.277831
 20
1.484000
  0
VERTEX
  8
PLAN_1
  6
CONTINUOUS
 10
-1.258504
 20
1.484449
  0
VERTEX
  8
PLAN_1
  6
CONTINUOUS
 10
-1.239177
 20
1.485795
  0
VERTEX
  8
PLAN_1
  6
CONTINUOUS
 10
-1.220299
 20
1.488043
  0
VERTEX
  8
PLAN_1
  6
CONTINUOUS
 10
-1.201870
 20
1.491642
  0
VERTEX
  8
PLAN_1
  6
CONTINUOUS
 10
-1.183894
 20
1.495685
  0
VERTEX
  8
PLAN_1
  6
CONTINUOUS
 10
-1.165913
 20
1.500630
  0
VERTEX
  8
PLAN_1
  6
CONTINUOUS
 10
-1.148386
 20
1.506472
  0
VERTEX
  8
PLAN_1
  6
CONTINUOUS
 10
-1.131307
 20
1.513213
  0
VERTEX
  8
PLAN_1
  6
CONTINUOUS
 10
-1.114677
 20
1.520854
  0
VERTEX
  8
PLAN_1
  6
CONTINUOUS
 10
-1.098496
 20
1.529394
  0
VERTEX
  8
PLAN_1
  6
CONTINUOUS
 10
-1.082764
 20
1.538382
  0
VERTEX
  8
PLAN_1
  6
CONTINUOUS
 10
-1.067484
 20
1.547823
  0
VERTEX
  8
PLAN_1
  6
CONTINUOUS
 10
-1.052654
 20
1.558610
  0
VERTEX
  8
PLAN_1
  6
CONTINUOUS
 10
-1.038720
 20
1.569846
  0
VERTEX
  8
PLAN_1
  6
CONTINUOUS
 10
-1.024787
 20
1.581531
  0
VERTEX
  8
PLAN_1
  6
CONTINUOUS
 10
-1.011752
 20
1.594118
  0
VERTEX
  8
PLAN_1
  6
CONTINUOUS
 10
-0.999614
 20
1.607150
  0
VERTEX
  8
PLAN_1
  6
CONTINUOUS
 10
-0.987480
 20
1.620634
  0
VERTEX
  8
PLAN_1
  6
CONTINUOUS
 10
-0.976244
 20
1.635016
  0
VERTEX
  8
PLAN_1
  6
CONTINUOUS
 10
-0.965906
 20
1.649398
  0
VERTEX
  8
PLAN_1
  6
CONTINUOUS
 10
-0.956020
 20
1.664681
  0
VERTEX
  8
PLAN_1
  6
CONTINUOUS
 10
-0.947031
 20
1.680413
  0
VERTEX
  8
PLAN_1
  6
CONTINUOUS
 10
-0.938941
 20
1.696594
  0
VERTEX
  8
PLAN_1
  6
CONTINUOUS
 10
-0.931299
 20
1.713224
  0
VERTEX
  8
PLAN_1
  6
CONTINUOUS
 10
-0.924555
 20
1.730303
  0
VERTEX
  8
PLAN_1
  6
CONTINUOUS
 10
-0.918713
 20
1.747831
  0
VERTEX
  8
PLAN_1
  6
CONTINUOUS
 10
-0.913772
 20
1.765807
  0
VERTEX
  8
PLAN_1
  6
CONTINUOUS
 10
-0.909276
 20
1.783787
  0
VERTEX
  8
PLAN_1
  6
CONTINUOUS
 10
-0.906130
 20
1.802665
  0
VERTEX
  8
PLAN_1
  6
CONTINUOUS
 10
-0.903882
 20
1.821091
  0
VERTEX
  8
PLAN_1
  6
CONTINUOUS
 10
-0.902083
 20
1.840417
  0
VERTEX
  8
PLAN_1
  6
CONTINUOUS
 10
-0.901634
 20
1.859744
  0
VERTEX
  8
PLAN_1
  6
CONTINUOUS
 10
-0.902083
 20
1.879071
  0
VERTEX
  8
PLAN_1
  6
CONTINUOUS
 10
-0.903882
 20
1.897949
  0
VERTEX
  8
PLAN_1
  6
CONTINUOUS
 10
-0.906130
 20
1.916827
  0
VERTEX
  8
PLAN_1
  6
CONTINUOUS
 10
-0.909276
 20
1.935256
  0
VERTEX
  8
PLAN_1
  6
CONTINUOUS
 10
-0.913772
 20
1.953681
  0
VERTEX
  8
PLAN_1
  6
CONTINUOUS
 10
-0.918713
 20
1.971661
  0
VERTEX
  8
PLAN_1
  6
CONTINUOUS
 10
-0.924555
 20
1.988740
  0
VERTEX
  8
PLAN_1
  6
CONTINUOUS
 10
-0.931299
 20
2.005819
  0
VERTEX
  8
PLAN_1
  6
CONTINUOUS
 10
-0.938941
 20
2.022449
  0
VERTEX
  8
PLAN_1
  6
CONTINUOUS
 10
-0.947031
 20
2.039079
  0
VERTEX
  8
PLAN_1
  6
CONTINUOUS
 10
-0.956020
 20
2.054811
  0
VERTEX
  8
PLAN_1
  6
CONTINUOUS
 10
-0.965906
 20
2.069642
  0
VERTEX
  8
PLAN_1
  6
CONTINUOUS
 10
-0.976244
 20
2.084472
  0
VERTEX
  8
PLAN_1
  6
CONTINUOUS
 10
-0.987480
 20
2.098858
  0
VERTEX
  8
PLAN_1
  6
CONTINUOUS
 10
-0.999614
 20
2.112343
  0
VERTEX
  8
PLAN_1
  6
CONTINUOUS
 10
-1.011752
 20
2.125374
  0
VERTEX
  8
PLAN_1
  6
CONTINUOUS
 10
-1.024787
 20
2.137961
  0
VERTEX
  8
PLAN_1
  6
CONTINUOUS
 10
-1.038720
 20
2.149646
  0
VERTEX
  8
PLAN_1
  6
CONTINUOUS
 10
-1.052654
 20
2.160882
  0
VERTEX
  8
PLAN_1
  6
CONTINUOUS
 10
-1.067484
 20
2.171220
  0
VERTEX
  8
PLAN_1
  6
CONTINUOUS
 10
-1.082764
 20
2.181106
  0
VERTEX
  8
PLAN_1
  6
CONTINUOUS
 10
-1.098496
 20
2.190098
  0
VERTEX
  8
PLAN_1
  6
CONTINUOUS
 10
-1.114677
 20
2.198638
  0
VERTEX
  8
PLAN_1
  6
CONTINUOUS
 10
-1.131307
 20
2.206276
  0
VERTEX
  8
PLAN_1
  6
CONTINUOUS
 10
-1.148386
 20
2.212571
  0
VERTEX
  8
PLAN_1
  6
CONTINUOUS
 10
-1.165913
 20
2.218862
  0
VERTEX
  8
PLAN_1
  6
CONTINUOUS
 10
-1.183894
 20
2.223807
  0
VERTEX
  8
PLAN_1
  6
CONTINUOUS
 10
-1.201870
 20
2.227850
  0
VERTEX
  8
PLAN_1
  6
CONTINUOUS
 10
-1.220299
 20
2.231449
  0
VERTEX
  8
PLAN_1
  6
CONTINUOUS
 10
-1.239177
 20
2.233693
  0
VERTEX
  8
PLAN_1
  6
CONTINUOUS
 10
-1.258504
 20
2.235043
  0
VERTEX
  8
PLAN_1
  6
CONTINUOUS
 10
-1.277831
 20
2.235492
  0
VERTEX
  8
PLAN_1
  6
CONTINUOUS
 10
-1.297157
 20
2.235043
  0
VERTEX
  8
PLAN_1
  6
CONTINUOUS
 10
-1.316035
 20
2.233693
  0
VERTEX
  8
PLAN_1
  6
CONTINUOUS
 10
-1.334909
 20
2.231449
  0
VERTEX
  8
PLAN_1
  6
CONTINUOUS
 10
-1.353339
 20
2.227850
  0
VERTEX
  8
PLAN_1
  6
CONTINUOUS
 10
-1.371768
 20
2.223807
  0
VERTEX
  8
PLAN_1
  6
CONTINUOUS
 10
-1.389295
 20
2.218862
  0
VERTEX
  8
PLAN_1
  6
CONTINUOUS
 10
-1.406823
 20
2.212571
  0
VERTEX
  8
PLAN_1
  6
CONTINUOUS
 10
-1.423906
 20
2.206276
  0
VERTEX
  8
PLAN_1
  6
CONTINUOUS
 10
-1.440535
 20
2.198638
  0
VERTEX
  8
PLAN_1
  6
CONTINUOUS
 10
-1.456713
 20
2.190098
  0
VERTEX
  8
PLAN_1
  6
CONTINUOUS
 10
-1.472445
 20
2.181106
  0
VERTEX
  8
PLAN_1
  6
CONTINUOUS
 10
-1.487728
 20
2.171220
  0
VERTEX
  8
PLAN_1
  6
CONTINUOUS
 10
-1.502559
 20
2.160882
  0
VERTEX
  8
PLAN_1
  6
CONTINUOUS
 10
-1.516941
 20
2.149646
  0
VERTEX
  8
PLAN_1
  6
CONTINUOUS
 10
-1.530425
 20
2.137961
  0
VERTEX
  8
PLAN_1
  6
CONTINUOUS
 10
-1.543461
 20
2.125374
  0
VERTEX
  8
PLAN_1
  6
CONTINUOUS
 10
-1.556043
 20
2.112343
  0
VERTEX
  8
PLAN_1
  6
CONTINUOUS
 10
-1.567732
 20
2.098858
  0
VERTEX
  8
PLAN_1
  6
CONTINUOUS
 10
-1.578969
 20
2.084472
  0
VERTEX
  8
PLAN_1
  6
CONTINUOUS
 10
-1.589303
 20
2.069642
  0
VERTEX
  8
PLAN_1
  6
CONTINUOUS
 10
-1.599193
 20
2.054811
  0
VERTEX
  8
PLAN_1
  6
CONTINUOUS
 10
-1.608181
 20
2.039079
  0
VERTEX
  8
PLAN_1
  6
CONTINUOUS
 10
-1.616272
 20
2.022449
  0
VERTEX
  8
PLAN_1
  6
CONTINUOUS
 10
-1.623913
 20
2.005819
  0
VERTEX
  8
PLAN_1
  6
CONTINUOUS
 10
-1.630654
 20
1.988740
  0
VERTEX
  8
PLAN_1
  6
CONTINUOUS
 10
-1.636496
 20
1.971661
  0
VERTEX
  8
PLAN_1
  6
CONTINUOUS
 10
-1.641890
 20
1.953681
  0
VERTEX
  8
PLAN_1
  6
CONTINUOUS
 10
-1.645937
 20
1.935256
  0
VERTEX
  8
PLAN_1
  6
CONTINUOUS
 10
-1.649083
 20
1.916827
  0
VERTEX
  8
PLAN_1
  6
CONTINUOUS
 10
-1.651780
 20
1.897949
  0
VERTEX
  8
PLAN_1
  6
CONTINUOUS
 10
-1.653126
 20
1.879071
  0
VERTEX
  8
PLAN_1
  6
CONTINUOUS
 10
-1.653575
 20
1.859744
  0
VERTEX
  8
PLAN_1
  6
CONTINUOUS
 10
-1.653126
 20
1.840417
  0
VERTEX
  8
PLAN_1
  6
CONTINUOUS
 10
-1.651780
 20
1.821091
  0
VERTEX
  8
PLAN_1
  6
CONTINUOUS
 10
-1.649083
 20
1.802665
  0
VERTEX
  8
PLAN_1
  6
CONTINUOUS
 10
-1.645937
 20
1.783787
  0
VERTEX
  8
PLAN_1
  6
CONTINUOUS
 10
-1.641890
 20
1.765807
  0
VERTEX
  8
PLAN_1
  6
CONTINUOUS
 10
-1.636496
 20
1.747831
  0
VERTEX
  8
PLAN_1
  6
CONTINUOUS
 10
-1.630654
 20
1.730303
  0
VERTEX
  8
PLAN_1
  6
CONTINUOUS
 10
-1.623913
 20
1.713224
  0
VERTEX
  8
PLAN_1
  6
CONTINUOUS
 10
-1.616272
 20
1.696594
  0
VERTEX
  8
PLAN_1
  6
CONTINUOUS
 10
-1.608181
 20
1.680413
  0
VERTEX
  8
PLAN_1
  6
CONTINUOUS
 10
-1.599193
 20
1.664681
  0
VERTEX
  8
PLAN_1
  6
CONTINUOUS
 10
-1.589303
 20
1.649398
  0
VERTEX
  8
PLAN_1
  6
CONTINUOUS
 10
-1.578969
 20
1.635016
  0
VERTEX
  8
PLAN_1
  6
CONTINUOUS
 10
-1.567732
 20
1.620634
  0
VERTEX
  8
PLAN_1
  6
CONTINUOUS
 10
-1.556043
 20
1.607150
  0
VERTEX
  8
PLAN_1
  6
CONTINUOUS
 10
-1.543461
 20
1.594118
  0
VERTEX
  8
PLAN_1
  6
CONTINUOUS
 10
-1.530425
 20
1.581531
  0
VERTEX
  8
PLAN_1
  6
CONTINUOUS
 10
-1.516941
 20
1.569846
  0
VERTEX
  8
PLAN_1
  6
CONTINUOUS
 10
-1.502559
 20
1.558610
  0
VERTEX
  8
PLAN_1
  6
CONTINUOUS
 10
-1.487728
 20
1.547823
  0
VERTEX
  8
PLAN_1
  6
CONTINUOUS
 10
-1.472445
 20
1.538382
  0
VERTEX
  8
PLAN_1
  6
CONTINUOUS
 10
-1.456713
 20
1.529394
  0
VERTEX
  8
PLAN_1
  6
CONTINUOUS
 10
-1.440535
 20
1.520854
  0
VERTEX
  8
PLAN_1
  6
CONTINUOUS
 10
-1.423906
 20
1.513213
  0
VERTEX
  8
PLAN_1
  6
CONTINUOUS
 10
-1.406823
 20
1.506472
  0
VERTEX
  8
PLAN_1
  6
CONTINUOUS
 10
-1.389295
 20
1.500630
  0
VERTEX
  8
PLAN_1
  6
CONTINUOUS
 10
-1.371768
 20
1.495685
  0
VERTEX
  8
PLAN_1
  6
CONTINUOUS
 10
-1.353339
 20
1.491642
  0
VERTEX
  8
PLAN_1
  6
CONTINUOUS
 10
-1.334909
 20
1.488043
  0
VERTEX
  8
PLAN_1
  6
CONTINUOUS
 10
-1.316035
 20
1.485795
  0
VERTEX
  8
PLAN_1
  6
CONTINUOUS
 10
-1.297157
 20
1.484449
  0
VERTEX
  8
PLAN_1
  6
CONTINUOUS
 10
-1.277831
 20
1.484000
  0
SEQEND
  8
0
  0
POLYLINE
  8
PLAN_1
  6
CONTINUOUS
 66
     1
 40
0.008539
 41
0.008539
  0
VERTEX
  8
PLAN_1
  6
CONTINUOUS
 10
-1.464354
 20
2.101102
  0
VERTEX
  8
PLAN_1
  6
CONTINUOUS
 10
-1.521437
 20
2.044024
  0
VERTEX
  8
PLAN_1
  6
CONTINUOUS
 10
-1.513795
 20
1.955480
  0
VERTEX
  8
PLAN_1
  6
CONTINUOUS
 10
-1.579417
 20
1.897051
  0
VERTEX
  8
PLAN_1
  6
CONTINUOUS
 10
-1.579417
 20
1.817047
  0
VERTEX
  8
PLAN_1
  6
CONTINUOUS
 10
-1.511996
 20
1.759067
  0
VERTEX
  8
PLAN_1
  6
CONTINUOUS
 10
-1.516941
 20
1.671874
  0
VERTEX
  8
PLAN_1
  6
CONTINUOUS
 10
-1.459862
 20
1.614791
  0
VERTEX
  8
PLAN_1
  6
CONTINUOUS
 10
-1.372217
 20
1.622433
  0
VERTEX
  8
PLAN_1
  6
CONTINUOUS
 10
-1.313339
 20
1.556811
  0
VERTEX
  8
PLAN_1
  6
CONTINUOUS
 10
-1.233335
 20
1.556811
  0
VERTEX
  8
PLAN_1
  6
CONTINUOUS
 10
-1.177154
 20
1.625130
  0
VERTEX
  8
PLAN_1
  6
CONTINUOUS
 10
-1.089508
 20
1.620185
  0
VERTEX
  8
PLAN_1
  6
CONTINUOUS
 10
-1.032874
 20
1.676815
  0
VERTEX
  8
PLAN_1
  6
CONTINUOUS
 10
-1.040516
 20
1.764909
  0
VERTEX
  8
PLAN_1
  6
CONTINUOUS
 10
-0.975346
 20
1.823339
  0
VERTEX
  8
PLAN_1
  6
CONTINUOUS
 10
-0.975346
 20
1.903343
  0
VERTEX
  8
PLAN_1
  6
CONTINUOUS
 10
-1.043213
 20
1.959075
  0
VERTEX
  8
PLAN_1
  6
CONTINUOUS
 10
-1.038268
 20
2.046720
  0
VERTEX
  8
PLAN_1
  6
CONTINUOUS
 10
-1.094902
 20
2.103799
  0
VERTEX
  8
PLAN_1
  6
CONTINUOUS
 10
-1.180748
 20
2.097059
  0
VERTEX
  8
PLAN_1
  6
CONTINUOUS
 10
-1.239177
 20
2.162232
  0
VERTEX
  8
PLAN_1
  6
CONTINUOUS
 10
-1.319630
 20
2.162232
  0
VERTEX
  8
PLAN_1
  6
CONTINUOUS
 10
-1.378059
 20
2.097957
  0
VERTEX
  8
PLAN_1
  6
CONTINUOUS
 10
-1.464354
 20
2.101102
  0
SEQEND
  8
0
  0
POLYLINE
  8
PLAN_1
  6
CONTINUOUS
 66
     1
 40
0.008539
 41
0.008539
  0
VERTEX
  8
PLAN_1
  6
CONTINUOUS
 10
-1.280976
 20
2.090768
  0
VERTEX
  8
PLAN_1
  6
CONTINUOUS
 10
-1.076921
 20
1.981098
  0
VERTEX
  8
PLAN_1
  6
CONTINUOUS
 10
-1.076921
 20
1.739291
  0
VERTEX
  8
PLAN_1
  6
CONTINUOUS
 10
-1.280976
 20
1.626028
  0
VERTEX
  8
PLAN_1
  6
CONTINUOUS
 10
-1.476039
 20
1.739291
  0
VERTEX
  8
PLAN_1
  6
CONTINUOUS
 10
-1.476039
 20
1.981098
  0
VERTEX
  8
PLAN_1
  6
CONTINUOUS
 10
-1.280976
 20
2.090768
  0
SEQEND
  8
0
  0
POLYLINE
  8
PLAN_1
  6
CONTINUOUS
 66
     1
 40
0.008539
 41
0.008539
  0
VERTEX
  8
PLAN_1
  6
CONTINUOUS
 10
-1.277382
 20
1.730752
  0
VERTEX
  8
PLAN_1
  6
CONTINUOUS
 10
-1.270638
 20
1.731201
  0
VERTEX
  8
PLAN_1
  6
CONTINUOUS
 10
-1.264346
 20
1.731650
  0
VERTEX
  8
PLAN_1
  6
CONTINUOUS
 10
-1.258055
 20
1.732547
  0
VERTEX
  8
PLAN_1
  6
CONTINUOUS
 10
-1.251311
 20
1.733449
  0
VERTEX
  8
PLAN_1
  6
CONTINUOUS
 10
-1.245469
 20
1.734795
  0
VERTEX
  8
PLAN_1
  6
CONTINUOUS
 10
-1.239177
 20
1.736594
  0
VERTEX
  8
PLAN_1
  6
CONTINUOUS
 10
-1.233335
 20
1.738843
  0
VERTEX
  8
PLAN_1
  6
CONTINUOUS
 10
-1.227492
 20
1.741091
  0
VERTEX
  8
PLAN_1
  6
CONTINUOUS
 10
-1.221650
 20
1.743787
  0
VERTEX
  8
PLAN_1
  6
CONTINUOUS
 10
-1.216256
 20
1.746484
  0
VERTEX
  8
PLAN_1
  6
CONTINUOUS
 10
-1.210862
 20
1.749630
  0
VERTEX
  8
PLAN_1
  6
CONTINUOUS
 10
-1.205469
 20
1.752776
  0
VERTEX
  8
PLAN_1
  6
CONTINUOUS
 10
-1.200524
 20
1.756370
  0
VERTEX
  8
PLAN_1
  6
CONTINUOUS
 10
-1.195579
 20
1.760417
  0
VERTEX
  8
PLAN_1
  6
CONTINUOUS
 10
-1.191087
 20
1.764461
  0
VERTEX
  8
PLAN_1
  6
CONTINUOUS
 10
-1.186591
 20
1.768504
  0
VERTEX
  8
PLAN_1
  6
CONTINUOUS
 10
-1.182094
 20
1.773000
  0
VERTEX
  8
PLAN_1
  6
CONTINUOUS
 10
-1.178051
 20
1.777496
  0
VERTEX
  8
PLAN_1
  6
CONTINUOUS
 10
-1.174457
 20
1.782437
  0
VERTEX
  8
PLAN_1
  6
CONTINUOUS
 10
-1.170858
 20
1.787831
  0
VERTEX
  8
PLAN_1
  6
CONTINUOUS
 10
-1.167264
 20
1.792776
  0
VERTEX
  8
PLAN_1
  6
CONTINUOUS
 10
-1.164567
 20
1.798169
  0
VERTEX
  8
PLAN_1
  6
CONTINUOUS
 10
-1.161421
 20
1.803563
  0
VERTEX
  8
PLAN_1
  6
CONTINUOUS
 10
-1.158724
 20
1.809406
  0
VERTEX
  8
PLAN_1
  6
CONTINUOUS
 10
-1.156476
 20
1.815248
  0
VERTEX
  8
PLAN_1
  6
CONTINUOUS
 10
-1.154677
 20
1.821091
  0
VERTEX
  8
PLAN_1
  6
CONTINUOUS
 10
-1.152882
 20
1.827386
  0
VERTEX
  8
PLAN_1
  6
CONTINUOUS
 10
-1.151531
 20
1.833677
  0
VERTEX
  8
PLAN_1
  6
CONTINUOUS
 10
-1.150185
 20
1.839969
  0
VERTEX
  8
PLAN_1
  6
CONTINUOUS
 10
-1.149283
 20
1.846264
  0
VERTEX
  8
PLAN_1
  6
CONTINUOUS
 10
-1.148835
 20
1.853004
  0
VERTEX
  8
PLAN_1
  6
CONTINUOUS
 10
-1.148835
 20
1.859295
  0
VERTEX
  8
PLAN_1
  6
CONTINUOUS
 10
-1.148835
 20
1.866039
  0
VERTEX
  8
PLAN_1
  6
CONTINUOUS
 10
-1.149283
 20
1.872780
  0
VERTEX
  8
PLAN_1
  6
CONTINUOUS
 10
-1.150185
 20
1.879071
  0
VERTEX
  8
PLAN_1
  6
CONTINUOUS
 10
-1.151531
 20
1.885366
  0
VERTEX
  8
PLAN_1
  6
CONTINUOUS
 10
-1.152882
 20
1.891657
  0
VERTEX
  8
PLAN_1
  6
CONTINUOUS
 10
-1.154677
 20
1.897949
  0
VERTEX
  8
PLAN_1
  6
CONTINUOUS
 10
-1.156476
 20
1.903791
  0
VERTEX
  8
PLAN_1
  6
CONTINUOUS
 10
-1.158724
 20
1.909634
  0
VERTEX
  8
PLAN_1
  6
CONTINUOUS
 10
-1.161421
 20
1.915028
  0
VERTEX
  8
PLAN_1
  6
CONTINUOUS
 10
-1.164567
 20
1.920870
  0
VERTEX
  8
PLAN_1
  6
CONTINUOUS
 10
-1.167264
 20
1.926264
  0
VERTEX
  8
PLAN_1
  6
CONTINUOUS
 10
-1.170858
 20
1.931209
  0
VERTEX
  8
PLAN_1
  6
CONTINUOUS
 10
-1.174457
 20
1.936602
  0
VERTEX
  8
PLAN_1
  6
CONTINUOUS
 10
-1.178051
 20
1.941098
  0
VERTEX
  8
PLAN_1
  6
CONTINUOUS
 10
-1.182094
 20
1.946043
  0
VERTEX
  8
PLAN_1
  6
CONTINUOUS
 10
-1.186591
 20
1.950535
  0
VERTEX
  8
PLAN_1
  6
CONTINUOUS
 10
-1.191087
 20
1.954583
  0
VERTEX
  8
PLAN_1
  6
CONTINUOUS
 10
-1.195579
 20
1.958626
  0
VERTEX
  8
PLAN_1
  6
CONTINUOUS
 10
-1.200524
 20
1.962673
  0
VERTEX
  8
PLAN_1
  6
CONTINUOUS
 10
-1.205469
 20
1.966268
  0
VERTEX
  8
PLAN_1
  6
CONTINUOUS
 10
-1.210862
 20
1.969413
  0
VERTEX
  8
PLAN_1
  6
CONTINUOUS
 10
-1.216256
 20
1.972559
  0
VERTEX
  8
PLAN_1
  6
CONTINUOUS
 10
-1.221650
 20
1.975256
  0
VERTEX
  8
PLAN_1
  6
CONTINUOUS
 10
-1.227492
 20
1.977953
  0
VERTEX
  8
PLAN_1
  6
CONTINUOUS
 10
-1.233335
 20
1.980201
  0
VERTEX
  8
PLAN_1
  6
CONTINUOUS
 10
-1.239177
 20
1.982449
  0
VERTEX
  8
PLAN_1
  6
CONTINUOUS
 10
-1.245469
 20
1.984244
  0
VERTEX
  8
PLAN_1
  6
CONTINUOUS
 10
-1.251311
 20
1.985594
  0
VERTEX
  8
PLAN_1
  6
CONTINUOUS
 10
-1.258055
 20
1.986492
  0
VERTEX
  8
PLAN_1
  6
CONTINUOUS
 10
-1.264346
 20
1.987390
  0
VERTEX
  8
PLAN_1
  6
CONTINUOUS
 10
-1.270638
 20
1.987843
  0
VERTEX
  8
PLAN_1
  6
CONTINUOUS
 10
-1.277382
 20
1.988291
  0
VERTEX
  8
PLAN_1
  6
CONTINUOUS
 10
-1.284122
 20
1.987843
  0
VERTEX
  8
PLAN_1
  6
CONTINUOUS
 10
-1.290413
 20
1.987390
  0
VERTEX
  8
PLAN_1
  6
CONTINUOUS
 10
-1.297157
 20
1.986492
  0
VERTEX
  8
PLAN_1
  6
CONTINUOUS
 10
-1.303449
 20
1.985594
  0
VERTEX
  8
PLAN_1
  6
CONTINUOUS
 10
-1.309740
 20
1.984244
  0
VERTEX
  8
PLAN_1
  6
CONTINUOUS
 10
-1.315587
 20
1.982449
  0
VERTEX
  8
PLAN_1
  6
CONTINUOUS
 10
-1.321878
 20
1.980201
  0
VERTEX
  8
PLAN_1
  6
CONTINUOUS
 10
-1.327272
 20
1.977953
  0
VERTEX
  8
PLAN_1
  6
CONTINUOUS
 10
-1.333114
 20
1.975256
  0
VERTEX
  8
PLAN_1
  6
CONTINUOUS
 10
-1.338957
 20
1.972559
  0
VERTEX
  8
PLAN_1
  6
CONTINUOUS
 10
-1.343902
 20
1.969413
  0
VERTEX
  8
PLAN_1
  6
CONTINUOUS
 10
-1.349295
 20
1.966268
  0
VERTEX
  8
PLAN_1
  6
CONTINUOUS
 10
-1.354236
 20
1.962673
  0
VERTEX
  8
PLAN_1
  6
CONTINUOUS
 10
-1.359181
 20
1.958626
  0
VERTEX
  8
PLAN_1
  6
CONTINUOUS
 10
-1.363677
 20
1.954583
  0
VERTEX
  8
PLAN_1
  6
CONTINUOUS
 10
-1.368169
 20
1.950535
  0
VERTEX
  8
PLAN_1
  6
CONTINUOUS
 10
-1.372665
 20
1.946043
  0
VERTEX
  8
PLAN_1
  6
CONTINUOUS
 10
-1.376713
 20
1.941098
  0
VERTEX
  8
PLAN_1
  6
CONTINUOUS
 10
-1.380307
 20
1.936602
  0
VERTEX
  8
PLAN_1
  6
CONTINUOUS
 10
-1.383902
 20
1.931209
  0
VERTEX
  8
PLAN_1
  6
CONTINUOUS
 10
-1.387496
 20
1.926264
  0
VERTEX
  8
PLAN_1
  6
CONTINUOUS
 10
-1.390646
 20
1.920870
  0
VERTEX
  8
PLAN_1
  6
CONTINUOUS
 10
-1.393343
 20
1.915028
  0
VERTEX
  8
PLAN_1
  6
CONTINUOUS
 10
-1.396039
 20
1.909634
  0
VERTEX
  8
PLAN_1
  6
CONTINUOUS
 10
-1.398283
 20
1.903791
  0
VERTEX
  8
PLAN_1
  6
CONTINUOUS
 10
-1.400083
 20
1.897949
  0
VERTEX
  8
PLAN_1
  6
CONTINUOUS
 10
-1.401882
 20
1.891657
  0
VERTEX
  8
PLAN_1
  6
CONTINUOUS
 10
-1.403228
 20
1.885366
  0
VERTEX
  8
PLAN_1
  6
CONTINUOUS
 10
-1.404579
 20
1.879071
  0
VERTEX
  8
PLAN_1
  6
CONTINUOUS
 10
-1.405476
 20
1.872780
  0
VERTEX
  8
PLAN_1
  6
CONTINUOUS
 10
-1.405925
 20
1.866039
  0
VERTEX
  8
PLAN_1
  6
CONTINUOUS
 10
-1.405925
 20
1.859295
  0
VERTEX
  8
PLAN_1
  6
CONTINUOUS
 10
-1.405925
 20
1.853004
  0
VERTEX
  8
PLAN_1
  6
CONTINUOUS
 10
-1.405476
 20
1.846264
  0
VERTEX
  8
PLAN_1
  6
CONTINUOUS
 10
-1.404579
 20
1.839969
  0
VERTEX
  8
PLAN_1
  6
CONTINUOUS
 10
-1.403228
 20
1.833677
  0
VERTEX
  8
PLAN_1
  6
CONTINUOUS
 10
-1.401882
 20
1.827386
  0
VERTEX
  8
PLAN_1
  6
CONTINUOUS
 10
-1.400083
 20
1.821091
  0
VERTEX
  8
PLAN_1
  6
CONTINUOUS
 10
-1.398283
 20
1.815248
  0
VERTEX
  8
PLAN_1
  6
CONTINUOUS
 10
-1.396039
 20
1.809406
  0
VERTEX
  8
PLAN_1
  6
CONTINUOUS
 10
-1.393343
 20
1.803563
  0
VERTEX
  8
PLAN_1
  6
CONTINUOUS
 10
-1.390646
 20
1.798169
  0
VERTEX
  8
PLAN_1
  6
CONTINUOUS
 10
-1.387496
 20
1.792776
  0
VERTEX
  8
PLAN_1
  6
CONTINUOUS
 10
-1.383902
 20
1.787831
  0
VERTEX
  8
PLAN_1
  6
CONTINUOUS
 10
-1.380307
 20
1.782437
  0
VERTEX
  8
PLAN_1
  6
CONTINUOUS
 10
-1.376713
 20
1.777496
  0
VERTEX
  8
PLAN_1
  6
CONTINUOUS
 10
-1.372665
 20
1.773000
  0
VERTEX
  8
PLAN_1
  6
CONTINUOUS
 10
-1.368169
 20
1.768504
  0
VERTEX
  8
PLAN_1
  6
CONTINUOUS
 10
-1.363677
 20
1.764461
  0
VERTEX
  8
PLAN_1
  6
CONTINUOUS
 10
-1.359181
 20
1.760417
  0
VERTEX
  8
PLAN_1
  6
CONTINUOUS
 10
-1.354236
 20
1.756370
  0
VERTEX
  8
PLAN_1
  6
CONTINUOUS
 10
-1.349295
 20
1.752776
  0
VERTEX
  8
PLAN_1
  6
CONTINUOUS
 10
-1.343902
 20
1.749630
  0
VERTEX
  8
PLAN_1
  6
CONTINUOUS
 10
-1.338957
 20
1.746484
  0
VERTEX
  8
PLAN_1
  6
CONTINUOUS
 10
-1.333114
 20
1.743787
  0
VERTEX
  8
PLAN_1
  6
CONTINUOUS
 10
-1.327272
 20
1.741091
  0
VERTEX
  8
PLAN_1
  6
CONTINUOUS
 10
-1.321878
 20
1.738843
  0
VERTEX
  8
PLAN_1
  6
CONTINUOUS
 10
-1.315587
 20
1.736594
  0
VERTEX
  8
PLAN_1
  6
CONTINUOUS
 10
-1.309740
 20
1.734795
  0
VERTEX
  8
PLAN_1
  6
CONTINUOUS
 10
-1.303449
 20
1.733449
  0
VERTEX
  8
PLAN_1
  6
CONTINUOUS
 10
-1.297157
 20
1.732547
  0
VERTEX
  8
PLAN_1
  6
CONTINUOUS
 10
-1.290413
 20
1.731650
  0
VERTEX
  8
PLAN_1
  6
CONTINUOUS
 10
-1.284122
 20
1.731201
  0
VERTEX
  8
PLAN_1
  6
CONTINUOUS
 10
-1.277382
 20
1.730752
  0
SEQEND
  8
0
  0
POLYLINE
  8
PLAN_1
  6
CONTINUOUS
 66
     1
 40
0.008539
 41
0.008539
  0
VERTEX
  8
PLAN_1
  6
CONTINUOUS
 10
-1.277382
 20
1.750528
  0
VERTEX
  8
PLAN_1
  6
CONTINUOUS
 10
-1.271988
 20
1.750528
  0
VERTEX
  8
PLAN_1
  6
CONTINUOUS
 10
-1.266146
 20
1.750976
  0
VERTEX
  8
PLAN_1
  6
CONTINUOUS
 10
-1.260752
 20
1.751874
  0
VERTEX
  8
PLAN_1
  6
CONTINUOUS
 10
-1.255358
 20
1.752776
  0
VERTEX
  8
PLAN_1
  6
CONTINUOUS
 10
-1.250413
 20
1.754122
  0
VERTEX
  8
PLAN_1
  6
CONTINUOUS
 10
-1.245020
 20
1.755472
  0
VERTEX
  8
PLAN_1
  6
CONTINUOUS
 10
-1.240075
 20
1.757268
  0
VERTEX
  8
PLAN_1
  6
CONTINUOUS
 10
-1.235130
 20
1.759067
  0
VERTEX
  8
PLAN_1
  6
CONTINUOUS
 10
-1.230189
 20
1.761315
  0
VERTEX
  8
PLAN_1
  6
CONTINUOUS
 10
-1.225693
 20
1.763563
  0
VERTEX
  8
PLAN_1
  6
CONTINUOUS
 10
-1.221197
 20
1.766260
  0
VERTEX
  8
PLAN_1
  6
CONTINUOUS
 10
-1.216705
 20
1.768957
  0
VERTEX
  8
PLAN_1
  6
CONTINUOUS
 10
-1.212209
 20
1.772102
  0
VERTEX
  8
PLAN_1
  6
CONTINUOUS
 10
-1.208165
 20
1.775248
  0
VERTEX
  8
PLAN_1
  6
CONTINUOUS
 10
-1.204118
 20
1.778843
  0
VERTEX
  8
PLAN_1
  6
CONTINUOUS
 10
-1.200524
 20
1.782437
  0
VERTEX
  8
PLAN_1
  6
CONTINUOUS
 10
-1.196929
 20
1.786035
  0
VERTEX
  8
PLAN_1
  6
CONTINUOUS
 10
-1.193331
 20
1.790079
  0
VERTEX
  8
PLAN_1
  6
CONTINUOUS
 10
-1.190185
 20
1.794126
  0
VERTEX
  8
PLAN_1
  6
CONTINUOUS
 10
-1.187039
 20
1.798618
  0
VERTEX
  8
PLAN_1
  6
CONTINUOUS
 10
-1.184343
 20
1.803114
  0
VERTEX
  8
PLAN_1
  6
CONTINUOUS
 10
-1.181646
 20
1.807610
  0
VERTEX
  8
PLAN_1
  6
CONTINUOUS
 10
-1.179398
 20
1.812102
  0
VERTEX
  8
PLAN_1
  6
CONTINUOUS
 10
-1.177154
 20
1.817047
  0
VERTEX
  8
PLAN_1
  6
CONTINUOUS
 10
-1.175354
 20
1.821992
  0
VERTEX
  8
PLAN_1
  6
CONTINUOUS
 10
-1.173555
 20
1.826937
  0
VERTEX
  8
PLAN_1
  6
CONTINUOUS
 10
-1.172209
 20
1.832327
  0
VERTEX
  8
PLAN_1
  6
CONTINUOUS
 10
-1.170858
 20
1.837272
  0
VERTEX
  8
PLAN_1
  6
CONTINUOUS
 10
-1.169961
 20
1.842665
  0
VERTEX
  8
PLAN_1
  6
CONTINUOUS
 10
-1.169063
 20
1.848059
  0
VERTEX
  8
PLAN_1
  6
CONTINUOUS
 10
-1.168610
 20
1.853902
  0
VERTEX
  8
PLAN_1
  6
CONTINUOUS
 10
-1.168610
 20
1.859295
  0
VERTEX
  8
PLAN_1
  6
CONTINUOUS
 10
-1.168610
 20
1.865138
  0
VERTEX
  8
PLAN_1
  6
CONTINUOUS
 10
-1.169063
 20
1.870531
  0
VERTEX
  8
PLAN_1
  6
CONTINUOUS
 10
-1.169961
 20
1.875925
  0
VERTEX
  8
PLAN_1
  6
CONTINUOUS
 10
-1.170858
 20
1.881319
  0
VERTEX
  8
PLAN_1
  6
CONTINUOUS
 10
-1.172209
 20
1.886713
  0
VERTEX
  8
PLAN_1
  6
CONTINUOUS
 10
-1.173555
 20
1.891657
  0
VERTEX
  8
PLAN_1
  6
CONTINUOUS
 10
-1.175354
 20
1.896602
  0
VERTEX
  8
PLAN_1
  6
CONTINUOUS
 10
-1.177154
 20
1.901543
  0
VERTEX
  8
PLAN_1
  6
CONTINUOUS
 10
-1.179398
 20
1.906488
  0
VERTEX
  8
PLAN_1
  6
CONTINUOUS
 10
-1.181646
 20
1.911433
  0
VERTEX
  8
PLAN_1
  6
CONTINUOUS
 10
-1.184343
 20
1.915929
  0
VERTEX
  8
PLAN_1
  6
CONTINUOUS
 10
-1.187039
 20
1.920421
  0
VERTEX
  8
PLAN_1
  6
CONTINUOUS
 10
-1.190185
 20
1.924469
  0
VERTEX
  8
PLAN_1
  6
CONTINUOUS
 10
-1.193331
 20
1.928512
  0
VERTEX
  8
PLAN_1
  6
CONTINUOUS
 10
-1.196929
 20
1.932559
  0
VERTEX
  8
PLAN_1
  6
CONTINUOUS
 10
-1.200524
 20
1.936154
  0
VERTEX
  8
PLAN_1
  6
CONTINUOUS
 10
-1.204118
 20
1.939748
  0
VERTEX
  8
PLAN_1
  6
CONTINUOUS
 10
-1.208165
 20
1.943346
  0
VERTEX
  8
PLAN_1
  6
CONTINUOUS
 10
-1.212209
 20
1.946492
  0
VERTEX
  8
PLAN_1
  6
CONTINUOUS
 10
-1.216705
 20
1.949638
  0
VERTEX
  8
PLAN_1
  6
CONTINUOUS
 10
-1.221197
 20
1.952335
  0
VERTEX
  8
PLAN_1
  6
CONTINUOUS
 10
-1.225693
 20
1.955031
  0
VERTEX
  8
PLAN_1
  6
CONTINUOUS
 10
-1.230189
 20
1.957280
  0
VERTEX
  8
PLAN_1
  6
CONTINUOUS
 10
-1.235130
 20
1.959524
  0
VERTEX
  8
PLAN_1
  6
CONTINUOUS
 10
-1.240075
 20
1.961772
  0
VERTEX
  8
PLAN_1
  6
CONTINUOUS
 10
-1.245020
 20
1.963122
  0
VERTEX
  8
PLAN_1
  6
CONTINUOUS
 10
-1.250413
 20
1.964917
  0
VERTEX
  8
PLAN_1
  6
CONTINUOUS
 10
-1.255358
 20
1.965819
  0
VERTEX
  8
PLAN_1
  6
CONTINUOUS
 10
-1.260752
 20
1.967165
  0
VERTEX
  8
PLAN_1
  6
CONTINUOUS
 10
-1.266146
 20
1.967614
  0
VERTEX
  8
PLAN_1
  6
CONTINUOUS
 10
-1.271988
 20
1.968063
  0
VERTEX
  8
PLAN_1
  6
CONTINUOUS
 10
-1.277382
 20
1.968063
  0
VERTEX
  8
PLAN_1
  6
CONTINUOUS
 10
-1.283224
 20
1.968063
  0
VERTEX
  8
PLAN_1
  6
CONTINUOUS
 10
-1.288618
 20
1.967614
  0
VERTEX
  8
PLAN_1
  6
CONTINUOUS
 10
-1.294012
 20
1.967165
  0
VERTEX
  8
PLAN_1
  6
CONTINUOUS
 10
-1.299406
 20
1.965819
  0
VERTEX
  8
PLAN_1
  6
CONTINUOUS
 10
-1.304799
 20
1.964917
  0
VERTEX
  8
PLAN_1
  6
CONTINUOUS
 10
-1.309740
 20
1.963122
  0
VERTEX
  8
PLAN_1
  6
CONTINUOUS
 10
-1.314685
 20
1.961772
  0
VERTEX
  8
PLAN_1
  6
CONTINUOUS
 10
-1.319630
 20
1.959524
  0
VERTEX
  8
PLAN_1
  6
CONTINUOUS
 10
-1.324575
 20
1.957280
  0
VERTEX
  8
PLAN_1
  6
CONTINUOUS
 10
-1.329520
 20
1.955031
  0
VERTEX
  8
PLAN_1
  6
CONTINUOUS
 10
-1.334012
 20
1.952335
  0
VERTEX
  8
PLAN_1
  6
CONTINUOUS
 10
-1.338059
 20
1.949638
  0
VERTEX
  8
PLAN_1
  6
CONTINUOUS
 10
-1.342551
 20
1.946492
  0
VERTEX
  8
PLAN_1
  6
CONTINUOUS
 10
-1.346598
 20
1.943346
  0
VERTEX
  8
PLAN_1
  6
CONTINUOUS
 10
-1.350642
 20
1.939748
  0
VERTEX
  8
PLAN_1
  6
CONTINUOUS
 10
-1.354236
 20
1.936154
  0
VERTEX
  8
PLAN_1
  6
CONTINUOUS
 10
-1.357835
 20
1.932559
  0
VERTEX
  8
PLAN_1
  6
CONTINUOUS
 10
-1.361429
 20
1.928512
  0
VERTEX
  8
PLAN_1
  6
CONTINUOUS
 10
-1.364575
 20
1.924469
  0
VERTEX
  8
PLAN_1
  6
CONTINUOUS
 10
-1.367720
 20
1.920421
  0
VERTEX
  8
PLAN_1
  6
CONTINUOUS
 10
-1.370417
 20
1.915929
  0
VERTEX
  8
PLAN_1
  6
CONTINUOUS
 10
-1.373114
 20
1.911433
  0
VERTEX
  8
PLAN_1
  6
CONTINUOUS
 10
-1.375362
 20
1.906488
  0
VERTEX
  8
PLAN_1
  6
CONTINUOUS
 10
-1.377610
 20
1.901543
  0
VERTEX
  8
PLAN_1
  6
CONTINUOUS
 10
-1.379858
 20
1.896602
  0
VERTEX
  8
PLAN_1
  6
CONTINUOUS
 10
-1.381205
 20
1.891657
  0
VERTEX
  8
PLAN_1
  6
CONTINUOUS
 10
-1.383004
 20
1.886713
  0
VERTEX
  8
PLAN_1
  6
CONTINUOUS
 10
-1.383902
 20
1.881319
  0
VERTEX
  8
PLAN_1
  6
CONTINUOUS
 10
-1.384799
 20
1.875925
  0
VERTEX
  8
PLAN_1
  6
CONTINUOUS
 10
-1.385701
 20
1.870531
  0
VERTEX
  8
PLAN_1
  6
CONTINUOUS
 10
-1.386150
 20
1.865138
  0
VERTEX
  8
PLAN_1
  6
CONTINUOUS
 10
-1.386150
 20
1.859295
  0
VERTEX
  8
PLAN_1
  6
CONTINUOUS
 10
-1.386150
 20
1.853902
  0
VERTEX
  8
PLAN_1
  6
CONTINUOUS
 10
-1.385701
 20
1.848059
  0
VERTEX
  8
PLAN_1
  6
CONTINUOUS
 10
-1.384799
 20
1.842665
  0
VERTEX
  8
PLAN_1
  6
CONTINUOUS
 10
-1.383902
 20
1.837272
  0
VERTEX
  8
PLAN_1
  6
CONTINUOUS
 10
-1.383004
 20
1.832327
  0
VERTEX
  8
PLAN_1
  6
CONTINUOUS
 10
-1.381205
 20
1.826937
  0
VERTEX
  8
PLAN_1
  6
CONTINUOUS
 10
-1.379858
 20
1.821992
  0
VERTEX
  8
PLAN_1
  6
CONTINUOUS
 10
-1.377610
 20
1.817047
  0
VERTEX
  8
PLAN_1
  6
CONTINUOUS
 10
-1.375362
 20
1.812102
  0
VERTEX
  8
PLAN_1
  6
CONTINUOUS
 10
-1.373114
 20
1.807610
  0
VERTEX
  8
PLAN_1
  6
CONTINUOUS
 10
-1.370417
 20
1.803114
  0
VERTEX
  8
PLAN_1
  6
CONTINUOUS
 10
-1.367720
 20
1.798618
  0
VERTEX
  8
PLAN_1
  6
CONTINUOUS
 10
-1.364575
 20
1.794126
  0
VERTEX
  8
PLAN_1
  6
CONTINUOUS
 10
-1.361429
 20
1.790079
  0
VERTEX
  8
PLAN_1
  6
CONTINUOUS
 10
-1.357835
 20
1.786035
  0
VERTEX
  8
PLAN_1
  6
CONTINUOUS
 10
-1.354236
 20
1.782437
  0
VERTEX
  8
PLAN_1
  6
CONTINUOUS
 10
-1.350642
 20
1.778843
  0
VERTEX
  8
PLAN_1
  6
CONTINUOUS
 10
-1.346598
 20
1.775248
  0
VERTEX
  8
PLAN_1
  6
CONTINUOUS
 10
-1.342551
 20
1.772102
  0
VERTEX
  8
PLAN_1
  6
CONTINUOUS
 10
-1.338059
 20
1.768957
  0
VERTEX
  8
PLAN_1
  6
CONTINUOUS
 10
-1.334012
 20
1.766260
  0
VERTEX
  8
PLAN_1
  6
CONTINUOUS
 10
-1.329520
 20
1.763563
  0
VERTEX
  8
PLAN_1
  6
CONTINUOUS
 10
-1.324575
 20
1.761315
  0
VERTEX
  8
PLAN_1
  6
CONTINUOUS
 10
-1.319630
 20
1.759067
  0
VERTEX
  8
PLAN_1
  6
CONTINUOUS
 10
-1.314685
 20
1.757268
  0
VERTEX
  8
PLAN_1
  6
CONTINUOUS
 10
-1.309740
 20
1.755472
  0
VERTEX
  8
PLAN_1
  6
CONTINUOUS
 10
-1.304799
 20
1.754122
  0
VERTEX
  8
PLAN_1
  6
CONTINUOUS
 10
-1.299406
 20
1.752776
  0
VERTEX
  8
PLAN_1
  6
CONTINUOUS
 10
-1.294012
 20
1.751874
  0
VERTEX
  8
PLAN_1
  6
CONTINUOUS
 10
-1.288618
 20
1.750976
  0
VERTEX
  8
PLAN_1
  6
CONTINUOUS
 10
-1.283224
 20
1.750528
  0
VERTEX
  8
PLAN_1
  6
CONTINUOUS
 10
-1.277382
 20
1.750528
  0
SEQEND
  8
0
  0
POLYLINE
  8
PLAN_1
 62
     5
  6
CONTINUOUS
 66
     1
 40
0.003000
 41
0.003000
  0
VERTEX
  8
PLAN_1
 62
     5
  6
CONTINUOUS
 10
-1.416264
 20
1.852555
  0
VERTEX
  8
PLAN_1
 62
     5
  6
CONTINUOUS
 10
-1.407724
 20
1.852555
  0
SEQEND
  8
0
  0
POLYLINE
  8
PLAN_1
 62
     5
  6
CONTINUOUS
 66
     1
 40
0.003000
 41
0.003000
  0
VERTEX
  8
PLAN_1
 62
     5
  6
CONTINUOUS
 10
-1.399634
 20
1.852555
  0
VERTEX
  8
PLAN_1
 62
     5
  6
CONTINUOUS
 10
-1.391094
 20
1.852555
  0
SEQEND
  8
0
  0
POLYLINE
  8
PLAN_1
 62
     5
  6
CONTINUOUS
 66
     1
 40
0.003000
 41
0.003000
  0
VERTEX
  8
PLAN_1
 62
     5
  6
CONTINUOUS
 10
-1.383004
 20
1.852555
  0
VERTEX
  8
PLAN_1
 62
     5
  6
CONTINUOUS
 10
-1.374465
 20
1.852555
  0
SEQEND
  8
0
  0
POLYLINE
  8
PLAN_1
 62
     5
  6
CONTINUOUS
 66
     1
 40
0.003000
 41
0.003000
  0
VERTEX
  8
PLAN_1
 62
     5
  6
CONTINUOUS
 10
-1.366374
 20
1.852555
  0
VERTEX
  8
PLAN_1
 62
     5
  6
CONTINUOUS
 10
-1.357835
 20
1.852555
  0
SEQEND
  8
0
  0
POLYLINE
  8
PLAN_1
 62
     5
  6
CONTINUOUS
 66
     1
 40
0.003000
 41
0.003000
  0
VERTEX
  8
PLAN_1
 62
     5
  6
CONTINUOUS
 10
-1.349295
 20
1.852555
  0
VERTEX
  8
PLAN_1
 62
     5
  6
CONTINUOUS
 10
-1.341205
 20
1.852555
  0
SEQEND
  8
0
  0
POLYLINE
  8
PLAN_1
 62
     5
  6
CONTINUOUS
 66
     1
 40
0.003000
 41
0.003000
  0
VERTEX
  8
PLAN_1
 62
     5
  6
CONTINUOUS
 10
-1.332665
 20
1.852555
  0
VERTEX
  8
PLAN_1
 62
     5
  6
CONTINUOUS
 10
-1.324575
 20
1.852555
  0
SEQEND
  8
0
  0
POLYLINE
  8
PLAN_1
 62
     5
  6
CONTINUOUS
 66
     1
 40
0.003000
 41
0.003000
  0
VERTEX
  8
PLAN_1
 62
     5
  6
CONTINUOUS
 10
-1.316035
 20
1.852555
  0
VERTEX
  8
PLAN_1
 62
     5
  6
CONTINUOUS
 10
-1.307945
 20
1.852555
  0
SEQEND
  8
0
  0
POLYLINE
  8
PLAN_1
 62
     5
  6
CONTINUOUS
 66
     1
 40
0.003000
 41
0.003000
  0
VERTEX
  8
PLAN_1
 62
     5
  6
CONTINUOUS
 10
-1.299406
 20
1.852555
  0
VERTEX
  8
PLAN_1
 62
     5
  6
CONTINUOUS
 10
-1.291315
 20
1.852555
  0
SEQEND
  8
0
  0
POLYLINE
  8
PLAN_1
 62
     5
  6
CONTINUOUS
 66
     1
 40
0.003000
 41
0.003000
  0
VERTEX
  8
PLAN_1
 62
     5
  6
CONTINUOUS
 10
-1.282776
 20
1.852555
  0
VERTEX
  8
PLAN_1
 62
     5
  6
CONTINUOUS
 10
-1.274685
 20
1.852555
  0
SEQEND
  8
0
  0
POLYLINE
  8
PLAN_1
 62
     5
  6
CONTINUOUS
 66
     1
 40
0.003000
 41
0.003000
  0
VERTEX
  8
PLAN_1
 62
     5
  6
CONTINUOUS
 10
-1.266146
 20
1.852555
  0
VERTEX
  8
PLAN_1
 62
     5
  6
CONTINUOUS
 10
-1.258055
 20
1.852555
  0
SEQEND
  8
0
  0
POLYLINE
  8
PLAN_1
 62
     5
  6
CONTINUOUS
 66
     1
 40
0.003000
 41
0.003000
  0
VERTEX
  8
PLAN_1
 62
     5
  6
CONTINUOUS
 10
-1.249516
 20
1.852555
  0
VERTEX
  8
PLAN_1
 62
     5
  6
CONTINUOUS
 10
-1.241425
 20
1.852555
  0
SEQEND
  8
0
  0
POLYLINE
  8
PLAN_1
 62
     5
  6
CONTINUOUS
 66
     1
 40
0.003000
 41
0.003000
  0
VERTEX
  8
PLAN_1
 62
     5
  6
CONTINUOUS
 10
-1.232886
 20
1.852555
  0
VERTEX
  8
PLAN_1
 62
     5
  6
CONTINUOUS
 10
-1.224346
 20
1.852555
  0
SEQEND
  8
0
  0
POLYLINE
  8
PLAN_1
 62
     5
  6
CONTINUOUS
 66
     1
 40
0.003000
 41
0.003000
  0
VERTEX
  8
PLAN_1
 62
     5
  6
CONTINUOUS
 10
-1.216256
 20
1.852555
  0
VERTEX
  8
PLAN_1
 62
     5
  6
CONTINUOUS
 10
-1.207717
 20
1.852555
  0
SEQEND
  8
0
  0
POLYLINE
  8
PLAN_1
 62
     5
  6
CONTINUOUS
 66
     1
 40
0.003000
 41
0.003000
  0
VERTEX
  8
PLAN_1
 62
     5
  6
CONTINUOUS
 10
-1.199626
 20
1.852555
  0
VERTEX
  8
PLAN_1
 62
     5
  6
CONTINUOUS
 10
-1.191087
 20
1.852555
  0
SEQEND
  8
0
  0
POLYLINE
  8
PLAN_1
 62
     5
  6
CONTINUOUS
 66
     1
 40
0.003000
 41
0.003000
  0
VERTEX
  8
PLAN_1
 62
     5
  6
CONTINUOUS
 10
-1.182996
 20
1.852555
  0
VERTEX
  8
PLAN_1
 62
     5
  6
CONTINUOUS
 10
-1.174457
 20
1.852555
  0
SEQEND
  8
0
  0
POLYLINE
  8
PLAN_1
 62
     5
  6
CONTINUOUS
 66
     1
 40
0.003000
 41
0.003000
  0
VERTEX
  8
PLAN_1
 62
     5
  6
CONTINUOUS
 10
-1.166366
 20
1.852555
  0
VERTEX
  8
PLAN_1
 62
     5
  6
CONTINUOUS
 10
-1.157827
 20
1.852555
  0
SEQEND
  8
0
  0
POLYLINE
  8
PLAN_1
 62
     5
  6
CONTINUOUS
 66
     1
 40
0.003000
 41
0.003000
  0
VERTEX
  8
PLAN_1
 62
     5
  6
CONTINUOUS
 10
-1.149736
 20
1.852555
  0
VERTEX
  8
PLAN_1
 62
     5
  6
CONTINUOUS
 10
-1.141197
 20
1.852555
  0
SEQEND
  8
0
  0
POLYLINE
  8
PLAN_1
 62
     5
  6
CONTINUOUS
 66
     1
 40
0.003000
 41
0.003000
  0
VERTEX
  8
PLAN_1
 62
     5
  6
CONTINUOUS
 10
-1.133106
 20
1.852555
  0
VERTEX
  8
PLAN_1
 62
     5
  6
CONTINUOUS
 10
-1.124567
 20
1.852555
  0
SEQEND
  8
0
  0
POLYLINE
  8
PLAN_1
 62
     5
  6
CONTINUOUS
 66
     1
 40
0.003000
 41
0.003000
  0
VERTEX
  8
PLAN_1
 62
     5
  6
CONTINUOUS
 10
-1.277831
 20
1.720413
  0
VERTEX
  8
PLAN_1
 62
     5
  6
CONTINUOUS
 10
-1.277831
 20
1.728504
  0
SEQEND
  8
0
  0
POLYLINE
  8
PLAN_1
 62
     5
  6
CONTINUOUS
 66
     1
 40
0.003000
 41
0.003000
  0
VERTEX
  8
PLAN_1
 62
     5
  6
CONTINUOUS
 10
-1.277831
 20
1.737043
  0
VERTEX
  8
PLAN_1
 62
     5
  6
CONTINUOUS
 10
-1.277831
 20
1.745583
  0
SEQEND
  8
0
  0
POLYLINE
  8
PLAN_1
 62
     5
  6
CONTINUOUS
 66
     1
 40
0.003000
 41
0.003000
  0
VERTEX
  8
PLAN_1
 62
     5
  6
CONTINUOUS
 10
-1.277831
 20
1.753673
  0
VERTEX
  8
PLAN_1
 62
     5
  6
CONTINUOUS
 10
-1.277831
 20
1.762213
  0
SEQEND
  8
0
  0
POLYLINE
  8
PLAN_1
 62
     5
  6
CONTINUOUS
 66
     1
 40
0.003000
 41
0.003000
  0
VERTEX
  8
PLAN_1
 62
     5
  6
CONTINUOUS
 10
-1.277831
 20
1.770303
  0
VERTEX
  8
PLAN_1
 62
     5
  6
CONTINUOUS
 10
-1.277831
 20
1.778843
  0
SEQEND
  8
0
  0
POLYLINE
  8
PLAN_1
 62
     5
  6
CONTINUOUS
 66
     1
 40
0.003000
 41
0.003000
  0
VERTEX
  8
PLAN_1
 62
     5
  6
CONTINUOUS
 10
-1.277831
 20
1.786933
  0
VERTEX
  8
PLAN_1
 62
     5
  6
CONTINUOUS
 10
-1.277831
 20
1.795472
  0
SEQEND
  8
0
  0
POLYLINE
  8
PLAN_1
 62
     5
  6
CONTINUOUS
 66
     1
 40
0.003000
 41
0.003000
  0
VERTEX
  8
PLAN_1
 62
     5
  6
CONTINUOUS
 10
-1.277831
 20
1.803563
  0
VERTEX
  8
PLAN_1
 62
     5
  6
CONTINUOUS
 10
-1.277831
 20
1.812102
  0
SEQEND
  8
0
  0
POLYLINE
  8
PLAN_1
 62
     5
  6
CONTINUOUS
 66
     1
 40
0.003000
 41
0.003000
  0
VERTEX
  8
PLAN_1
 62
     5
  6
CONTINUOUS
 10
-1.277831
 20
1.820193
  0
VERTEX
  8
PLAN_1
 62
     5
  6
CONTINUOUS
 10
-1.277831
 20
1.828732
  0
SEQEND
  8
0
  0
POLYLINE
  8
PLAN_1
 62
     5
  6
CONTINUOUS
 66
     1
 40
0.003000
 41
0.003000
  0
VERTEX
  8
PLAN_1
 62
     5
  6
CONTINUOUS
 10
-1.277831
 20
1.836823
  0
VERTEX
  8
PLAN_1
 62
     5
  6
CONTINUOUS
 10
-1.277831
 20
1.845362
  0
SEQEND
  8
0
  0
POLYLINE
  8
PLAN_1
 62
     5
  6
CONTINUOUS
 66
     1
 40
0.003000
 41
0.003000
  0
VERTEX
  8
PLAN_1
 62
     5
  6
CONTINUOUS
 10
-1.277831
 20
1.853453
  0
VERTEX
  8
PLAN_1
 62
     5
  6
CONTINUOUS
 10
-1.277831
 20
1.861992
  0
SEQEND
  8
0
  0
POLYLINE
  8
PLAN_1
 62
     5
  6
CONTINUOUS
 66
     1
 40
0.003000
 41
0.003000
  0
VERTEX
  8
PLAN_1
 62
     5
  6
CONTINUOUS
 10
-1.277831
 20
1.870083
  0
VERTEX
  8
PLAN_1
 62
     5
  6
CONTINUOUS
 10
-1.277831
 20
1.878622
  0
SEQEND
  8
0
  0
POLYLINE
  8
PLAN_1
 62
     5
  6
CONTINUOUS
 66
     1
 40
0.003000
 41
0.003000
  0
VERTEX
  8
PLAN_1
 62
     5
  6
CONTINUOUS
 10
-1.277831
 20
1.887161
  0
VERTEX
  8
PLAN_1
 62
     5
  6
CONTINUOUS
 10
-1.277831
 20
1.895252
  0
SEQEND
  8
0
  0
POLYLINE
  8
PLAN_1
 62
     5
  6
CONTINUOUS
 66
     1
 40
0.003000
 41
0.003000
  0
VERTEX
  8
PLAN_1
 62
     5
  6
CONTINUOUS
 10
-1.277831
 20
1.903791
  0
VERTEX
  8
PLAN_1
 62
     5
  6
CONTINUOUS
 10
-1.277831
 20
1.911882
  0
SEQEND
  8
0
  0
POLYLINE
  8
PLAN_1
 62
     5
  6
CONTINUOUS
 66
     1
 40
0.003000
 41
0.003000
  0
VERTEX
  8
PLAN_1
 62
     5
  6
CONTINUOUS
 10
-1.277831
 20
1.920421
  0
VERTEX
  8
PLAN_1
 62
     5
  6
CONTINUOUS
 10
-1.277831
 20
1.928512
  0
SEQEND
  8
0
  0
POLYLINE
  8
PLAN_1
 62
     5
  6
CONTINUOUS
 66
     1
 40
0.003000
 41
0.003000
  0
VERTEX
  8
PLAN_1
 62
     5
  6
CONTINUOUS
 10
-1.277831
 20
1.937051
  0
VERTEX
  8
PLAN_1
 62
     5
  6
CONTINUOUS
 10
-1.277831
 20
1.945142
  0
SEQEND
  8
0
  0
POLYLINE
  8
PLAN_1
 62
     5
  6
CONTINUOUS
 66
     1
 40
0.003000
 41
0.003000
  0
VERTEX
  8
PLAN_1
 62
     5
  6
CONTINUOUS
 10
-1.277831
 20
1.953681
  0
VERTEX
  8
PLAN_1
 62
     5
  6
CONTINUOUS
 10
-1.277831
 20
1.961772
  0
SEQEND
  8
0
  0
POLYLINE
  8
PLAN_1
 62
     5
  6
CONTINUOUS
 66
     1
 40
0.003000
 41
0.003000
  0
VERTEX
  8
PLAN_1
 62
     5
  6
CONTINUOUS
 10
-1.277831
 20
1.970311
  0
VERTEX
  8
PLAN_1
 62
     5
  6
CONTINUOUS
 10
-1.277831
 20
1.978402
  0
SEQEND
  8
0
  0
POLYLINE
  8
PLAN_1
 62
     5
  6
CONTINUOUS
 66
     1
 40
0.003000
 41
0.003000
  0
VERTEX
  8
PLAN_1
 62
     5
  6
CONTINUOUS
 10
-1.277831
 20
1.986941
  0
VERTEX
  8
PLAN_1
 62
     5
  6
CONTINUOUS
 10
-1.277831
 20
1.990539
  0
SEQEND
  8
0
  0
POLYLINE
  8
PLAN_1
 62
     5
  6
CONTINUOUS
 66
     1
 40
0.003000
 41
0.003000
  0
VERTEX
  8
PLAN_1
 62
     5
  6
CONTINUOUS
 10
-1.277831
 20
1.986941
  0
VERTEX
  8
PLAN_1
 62
     5
  6
CONTINUOUS
 10
-1.277831
 20
1.990539
  0
SEQEND
  8
0
  0
POLYLINE
  8
PLAN_1
 62
     2
  6
CONTINUOUS
 66
     1
 40
0.004043
 41
0.004043
  0
VERTEX
  8
PLAN_1
 62
     2
  6
CONTINUOUS
 10
-0.292618
 20
1.883118
  0
VERTEX
  8
PLAN_1
 62
     2
  6
CONTINUOUS
 10
-0.292618
 20
3.437791
  0
SEQEND
  8
0
  0
SOLID
  8
PLAN_1
 62
     2
 10
-0.292618
 20
3.467457
 11
-0.308350
 21
3.408126
 12
-0.292618
 22
3.467457
 13
-0.276890
 23
3.408126
  0
POLYLINE
  8
PLAN_1
 62
     2
  6
CONTINUOUS
 66
     1
 40
0.003000
 41
0.003000
  0
VERTEX
  8
PLAN_1
 62
     2
  6
CONTINUOUS
 10
-0.292618
 20
3.467457
  0
VERTEX
  8
PLAN_1
 62
     2
  6
CONTINUOUS
 10
-0.308350
 20
3.408126
  0
VERTEX
  8
PLAN_1
 62
     2
  6
CONTINUOUS
 10
-0.276890
 20
3.408126
  0
VERTEX
  8
PLAN_1
 62
     2
  6
CONTINUOUS
 10
-0.292618
 20
3.467457
  0
SEQEND
  8
0
  0
SOLID
  8
PLAN_1
 62
     2
 10
-0.292618
 20
1.853453
 11
-0.308350
 21
1.912783
 12
-0.292618
 22
1.853453
 13
-0.276890
 23
1.912783
  0
POLYLINE
  8
PLAN_1
 62
     2
  6
CONTINUOUS
 66
     1
 40
0.003000
 41
0.003000
  0
VERTEX
  8
PLAN_1
 62
     2
  6
CONTINUOUS
 10
-0.292618
 20
1.853453
  0
VERTEX
  8
PLAN_1
 62
     2
  6
CONTINUOUS
 10
-0.308350
 20
1.912783
  0
VERTEX
  8
PLAN_1
 62
     2
  6
CONTINUOUS
 10
-0.276890
 20
1.912783
  0
VERTEX
  8
PLAN_1
 62
     2
  6
CONTINUOUS
 10
-0.292618
 20
1.853453
  0
SEQEND
  8
0
  0
POLYLINE
  8
PLAN_1
 62
     2
  6
CONTINUOUS
 66
     1
 40
0.003000
 41
0.003000
  0
VERTEX
  8
PLAN_1
 62
     2
  6
CONTINUOUS
 10
-0.333969
 20
2.646295
  0
VERTEX
  8
PLAN_1
 62
     2
  6
CONTINUOUS
 10
-0.316441
 20
2.646295
  0
VERTEX
  8
PLAN_1
 62
     2
  6
CONTINUOUS
 10
-0.316441
 20
2.637307
  0
VERTEX
  8
PLAN_1
 62
     2
  6
CONTINUOUS
 10
-0.333969
 20
2.637307
  0
VERTEX
  8
PLAN_1
 62
     2
  6
CONTINUOUS
 10
-0.333969
 20
2.605394
  0
VERTEX
  8
PLAN_1
 62
     2
  6
CONTINUOUS
 10
-0.342957
 20
2.605394
  0
VERTEX
  8
PLAN_1
 62
     2
  6
CONTINUOUS
 10
-0.389252
 20
2.638654
  0
VERTEX
  8
PLAN_1
 62
     2
  6
CONTINUOUS
 10
-0.389252
 20
2.646295
  0
VERTEX
  8
PLAN_1
 62
     2
  6
CONTINUOUS
 10
-0.342059
 20
2.646295
  0
VERTEX
  8
PLAN_1
 62
     2
  6
CONTINUOUS
 10
-0.342059
 20
2.657083
  0
VERTEX
  8
PLAN_1
 62
     2
  6
CONTINUOUS
 10
-0.333969
 20
2.657083
  0
VERTEX
  8
PLAN_1
 62
     2
  6
CONTINUOUS
 10
-0.333969
 20
2.646295
  0
SEQEND
  8
0
  0
SOLID
  8
PLAN_1
 62
     2
 10
-0.342059
 20
2.613484
 11
-0.342059
 21
2.637307
 12
-0.375319
 22
2.636858
 13
-0.375319
 23
2.637307
  0
POLYLINE
  8
PLAN_1
 62
     2
  6
CONTINUOUS
 66
     1
 40
0.003000
 41
0.003000
  0
VERTEX
  8
PLAN_1
 62
     2
  6
CONTINUOUS
 10
-0.342059
 20
2.613484
  0
VERTEX
  8
PLAN_1
 62
     2
  6
CONTINUOUS
 10
-0.342059
 20
2.637307
  0
VERTEX
  8
PLAN_1
 62
     2
  6
CONTINUOUS
 10
-0.375319
 20
2.637307
  0
VERTEX
  8
PLAN_1
 62
     2
  6
CONTINUOUS
 10
-0.375319
 20
2.636858
  0
VERTEX
  8
PLAN_1
 62
     2
  6
CONTINUOUS
 10
-0.342059
 20
2.613484
  0
SEQEND
  8
0
  0
POLYLINE
  8
PLAN_1
 62
     2
  6
CONTINUOUS
 66
     1
 40
0.003000
 41
0.003000
  0
VERTEX
  8
PLAN_1
 62
     2
  6
CONTINUOUS
 10
-0.316441
 20
2.697984
  0
VERTEX
  8
PLAN_1
 62
     2
  6
CONTINUOUS
 10
-0.316441
 20
2.688094
  0
VERTEX
  8
PLAN_1
 62
     2
  6
CONTINUOUS
 10
-0.368130
 20
2.688094
  0
VERTEX
  8
PLAN_1
 62
     2
  6
CONTINUOUS
 10
-0.368130
 20
2.671016
  0
VERTEX
  8
PLAN_1
 62
     2
  6
CONTINUOUS
 10
-0.375319
 20
2.671016
  0
VERTEX
  8
PLAN_1
 62
     2
  6
CONTINUOUS
 10
-0.375768
 20
2.675063
  0
VERTEX
  8
PLAN_1
 62
     2
  6
CONTINUOUS
 10
-0.376217
 20
2.678657
  0
VERTEX
  8
PLAN_1
 62
     2
  6
CONTINUOUS
 10
-0.377118
 20
2.681803
  0
VERTEX
  8
PLAN_1
 62
     2
  6
CONTINUOUS
 10
-0.378016
 20
2.684051
  0
VERTEX
  8
PLAN_1
 62
     2
  6
CONTINUOUS
 10
-0.379815
 20
2.686299
  0
VERTEX
  8
PLAN_1
 62
     2
  6
CONTINUOUS
 10
-0.382063
 20
2.688094
  0
VERTEX
  8
PLAN_1
 62
     2
  6
CONTINUOUS
 10
-0.385209
 20
2.689445
  0
VERTEX
  8
PLAN_1
 62
     2
  6
CONTINUOUS
 10
-0.389252
 20
2.690791
  0
VERTEX
  8
PLAN_1
 62
     2
  6
CONTINUOUS
 10
-0.389252
 20
2.697984
  0
VERTEX
  8
PLAN_1
 62
     2
  6
CONTINUOUS
 10
-0.316441
 20
2.697984
  0
SEQEND
  8
0
  0
POLYLINE
  8
PLAN_1
 62
     2
  6
CONTINUOUS
 66
     1
 40
0.004043
 41
0.004043
  0
VERTEX
  8
PLAN_1
 62
     2
  6
CONTINUOUS
 10
-0.135311
 20
1.049374
  0
VERTEX
  8
PLAN_1
 62
     2
  6
CONTINUOUS
 10
-0.135311
 20
3.437791
  0
SEQEND
  8
0
  0
SOLID
  8
PLAN_1
 62
     2
 10
-0.135311
 20
3.467457
 11
-0.151039
 21
3.408126
 12
-0.135311
 22
3.467457
 13
-0.119579
 23
3.408126
  0
POLYLINE
  8
PLAN_1
 62
     2
  6
CONTINUOUS
 66
     1
 40
0.003000
 41
0.003000
  0
VERTEX
  8
PLAN_1
 62
     2
  6
CONTINUOUS
 10
-0.135311
 20
3.467457
  0
VERTEX
  8
PLAN_1
 62
     2
  6
CONTINUOUS
 10
-0.151039
 20
3.408126
  0
VERTEX
  8
PLAN_1
 62
     2
  6
CONTINUOUS
 10
-0.119579
 20
3.408126
  0
VERTEX
  8
PLAN_1
 62
     2
  6
CONTINUOUS
 10
-0.135311
 20
3.467457
  0
SEQEND
  8
0
  0
SOLID
  8
PLAN_1
 62
     2
 10
-0.135311
 20
1.019709
 11
-0.151039
 21
1.078587
 12
-0.135311
 22
1.019709
 13
-0.119579
 23
1.078587
  0
POLYLINE
  8
PLAN_1
 62
     2
  6
CONTINUOUS
 66
     1
 40
0.003000
 41
0.003000
  0
VERTEX
  8
PLAN_1
 62
     2
  6
CONTINUOUS
 10
-0.135311
 20
1.019709
  0
VERTEX
  8
PLAN_1
 62
     2
  6
CONTINUOUS
 10
-0.151039
 20
1.078587
  0
VERTEX
  8
PLAN_1
 62
     2
  6
CONTINUOUS
 10
-0.119579
 20
1.078587
  0
VERTEX
  8
PLAN_1
 62
     2
  6
CONTINUOUS
 10
-0.135311
 20
1.019709
  0
SEQEND
  8
0
  0
POLYLINE
  8
PLAN_1
 62
     2
  6
CONTINUOUS
 66
     1
 40
0.003000
 41
0.003000
  0
VERTEX
  8
PLAN_1
 62
     2
  6
CONTINUOUS
 10
-0.212614
 20
2.229201
  0
VERTEX
  8
PLAN_1
 62
     2
  6
CONTINUOUS
 10
-0.214862
 20
2.228299
  0
VERTEX
  8
PLAN_1
 62
     2
  6
CONTINUOUS
 10
-0.217110
 20
2.227850
  0
VERTEX
  8
PLAN_1
 62
     2
  6
CONTINUOUS
 10
-0.218909
 20
2.226504
  0
VERTEX
  8
PLAN_1
 62
     2
  6
CONTINUOUS
 10
-0.220705
 20
2.225154
  0
VERTEX
  8
PLAN_1
 62
     2
  6
CONTINUOUS
 10
-0.222055
 20
2.223358
  0
VERTEX
  8
PLAN_1
 62
     2
  6
CONTINUOUS
 10
-0.222953
 20
2.221559
  0
VERTEX
  8
PLAN_1
 62
     2
  6
CONTINUOUS
 10
-0.223402
 20
2.219311
  0
VERTEX
  8
PLAN_1
 62
     2
  6
CONTINUOUS
 10
-0.223854
 20
2.216614
  0
VERTEX
  8
PLAN_1
 62
     2
  6
CONTINUOUS
 10
-0.223402
 20
2.213917
  0
VERTEX
  8
PLAN_1
 62
     2
  6
CONTINUOUS
 10
-0.222953
 20
2.211669
  0
VERTEX
  8
PLAN_1
 62
     2
  6
CONTINUOUS
 10
-0.222055
 20
2.209425
  0
VERTEX
  8
PLAN_1
 62
     2
  6
CONTINUOUS
 10
-0.220705
 20
2.207626
  0
VERTEX
  8
PLAN_1
 62
     2
  6
CONTINUOUS
 10
-0.218909
 20
2.205827
  0
VERTEX
  8
PLAN_1
 62
     2
  6
CONTINUOUS
 10
-0.217110
 20
2.204480
  0
VERTEX
  8
PLAN_1
 62
     2
  6
CONTINUOUS
 10
-0.215311
 20
2.203579
  0
VERTEX
  8
PLAN_1
 62
     2
  6
CONTINUOUS
 10
-0.213067
 20
2.202232
  0
VERTEX
  8
PLAN_1
 62
     2
  6
CONTINUOUS
 10
-0.208571
 20
2.200886
  0
VERTEX
  8
PLAN_1
 62
     2
  6
CONTINUOUS
 10
-0.204075
 20
2.199535
  0
VERTEX
  8
PLAN_1
 62
     2
  6
CONTINUOUS
 10
-0.200031
 20
2.199087
  0
VERTEX
  8
PLAN_1
 62
     2
  6
CONTINUOUS
 10
-0.196886
 20
2.199087
  0
VERTEX
  8
PLAN_1
 62
     2
  6
CONTINUOUS
 10
-0.196437
 20
2.199087
  0
VERTEX
  8
PLAN_1
 62
     2
  6
CONTINUOUS
 10
-0.197783
 20
2.200433
  0
VERTEX
  8
PLAN_1
 62
     2
  6
CONTINUOUS
 10
-0.199583
 20
2.201335
  0
VERTEX
  8
PLAN_1
 62
     2
  6
CONTINUOUS
 10
-0.200929
 20
2.203130
  0
VERTEX
  8
PLAN_1
 62
     2
  6
CONTINUOUS
 10
-0.202280
 20
2.204929
  0
VERTEX
  8
PLAN_1
 62
     2
  6
CONTINUOUS
 10
-0.203626
 20
2.207177
  0
VERTEX
  8
PLAN_1
 62
     2
  6
CONTINUOUS
 10
-0.204528
 20
2.209874
  0
VERTEX
  8
PLAN_1
 62
     2
  6
CONTINUOUS
 10
-0.204976
 20
2.213020
  0
VERTEX
  8
PLAN_1
 62
     2
  6
CONTINUOUS
 10
-0.205425
 20
2.216614
  0
VERTEX
  8
PLAN_1
 62
     2
  6
CONTINUOUS
 10
-0.204976
 20
2.220209
  0
VERTEX
  8
PLAN_1
 62
     2
  6
CONTINUOUS
 10
-0.204075
 20
2.223807
  0
VERTEX
  8
PLAN_1
 62
     2
  6
CONTINUOUS
 10
-0.202728
 20
2.227850
  0
VERTEX
  8
PLAN_1
 62
     2
  6
CONTINUOUS
 10
-0.200480
 20
2.231449
  0
VERTEX
  8
PLAN_1
 62
     2
  6
CONTINUOUS
 10
-0.199134
 20
2.233244
  0
VERTEX
  8
PLAN_1
 62
     2
  6
CONTINUOUS
 10
-0.197335
 20
2.234594
  0
VERTEX
  8
PLAN_1
 62
     2
  6
CONTINUOUS
 10
-0.195535
 20
2.235941
  0
VERTEX
  8
PLAN_1
 62
     2
  6
CONTINUOUS
 10
-0.193287
 20
2.237291
  0
VERTEX
  8
PLAN_1
 62
     2
  6
CONTINUOUS
 10
-0.191043
 20
2.238189
  0
VERTEX
  8
PLAN_1
 62
     2
  6
CONTINUOUS
 10
-0.188346
 20
2.239087
  0
VERTEX
  8
PLAN_1
 62
     2
  6
CONTINUOUS
 10
-0.185201
 20
2.239535
  0
VERTEX
  8
PLAN_1
 62
     2
  6
CONTINUOUS
 10
-0.182051
 20
2.239535
  0
VERTEX
  8
PLAN_1
 62
     2
  6
CONTINUOUS
 10
-0.179354
 20
2.239535
  0
VERTEX
  8
PLAN_1
 62
     2
  6
CONTINUOUS
 10
-0.177110
 20
2.239087
  0
VERTEX
  8
PLAN_1
 62
     2
  6
CONTINUOUS
 10
-0.174413
 20
2.238638
  0
VERTEX
  8
PLAN_1
 62
     2
  6
CONTINUOUS
 10
-0.172165
 20
2.237740
  0
VERTEX
  8
PLAN_1
 62
     2
  6
CONTINUOUS
 10
-0.169917
 20
2.236839
  0
VERTEX
  8
PLAN_1
 62
     2
  6
CONTINUOUS
 10
-0.168118
 20
2.235492
  0
VERTEX
  8
PLAN_1
 62
     2
  6
CONTINUOUS
 10
-0.165874
 20
2.234146
  0
VERTEX
  8
PLAN_1
 62
     2
  6
CONTINUOUS
 10
-0.164075
 20
2.232346
  0
VERTEX
  8
PLAN_1
 62
     2
  6
CONTINUOUS
 10
-0.162276
 20
2.230996
  0
VERTEX
  8
PLAN_1
 62
     2
  6
CONTINUOUS
 10
-0.160929
 20
2.229650
  0
VERTEX
  8
PLAN_1
 62
     2
  6
CONTINUOUS
 10
-0.159579
 20
2.227850
  0
VERTEX
  8
PLAN_1
 62
     2
  6
CONTINUOUS
 10
-0.158681
 20
2.225602
  0
VERTEX
  8
PLAN_1
 62
     2
  6
CONTINUOUS
 10
-0.157783
 20
2.223358
  0
VERTEX
  8
PLAN_1
 62
     2
  6
CONTINUOUS
 10
-0.157335
 20
2.220661
  0
VERTEX
  8
PLAN_1
 62
     2
  6
CONTINUOUS
 10
-0.156882
 20
2.217516
  0
VERTEX
  8
PLAN_1
 62
     2
  6
CONTINUOUS
 10
-0.156882
 20
2.213917
  0
VERTEX
  8
PLAN_1
 62
     2
  6
CONTINUOUS
 10
-0.156882
 20
2.211669
  0
VERTEX
  8
PLAN_1
 62
     2
  6
CONTINUOUS
 10
-0.157335
 20
2.209425
  0
VERTEX
  8
PLAN_1
 62
     2
  6
CONTINUOUS
 10
-0.158232
 20
2.206728
  0
VERTEX
  8
PLAN_1
 62
     2
  6
CONTINUOUS
 10
-0.159130
 20
2.204480
  0
VERTEX
  8
PLAN_1
 62
     2
  6
CONTINUOUS
 10
-0.160480
 20
2.201783
  0
VERTEX
  8
PLAN_1
 62
     2
  6
CONTINUOUS
 10
-0.162276
 20
2.199535
  0
VERTEX
  8
PLAN_1
 62
     2
  6
CONTINUOUS
 10
-0.164524
 20
2.197287
  0
VERTEX
  8
PLAN_1
 62
     2
  6
CONTINUOUS
 10
-0.167220
 20
2.195039
  0
VERTEX
  8
PLAN_1
 62
     2
  6
CONTINUOUS
 10
-0.169917
 20
2.193693
  0
VERTEX
  8
PLAN_1
 62
     2
  6
CONTINUOUS
 10
-0.173063
 20
2.192343
  0
VERTEX
  8
PLAN_1
 62
     2
  6
CONTINUOUS
 10
-0.175760
 20
2.191445
  0
VERTEX
  8
PLAN_1
 62
     2
  6
CONTINUOUS
 10
-0.178906
 20
2.190547
  0
VERTEX
  8
PLAN_1
 62
     2
  6
CONTINUOUS
 10
-0.182504
 20
2.190098
  0
VERTEX
  8
PLAN_1
 62
     2
  6
CONTINUOUS
 10
-0.185650
 20
2.189646
  0
VERTEX
  8
PLAN_1
 62
     2
  6
CONTINUOUS
 10
-0.189244
 20
2.189646
  0
VERTEX
  8
PLAN_1
 62
     2
  6
CONTINUOUS
 10
-0.192839
 20
2.189646
  0
VERTEX
  8
PLAN_1
 62
     2
  6
CONTINUOUS
 10
-0.199134
 20
2.189646
  0
VERTEX
  8
PLAN_1
 62
     2
  6
CONTINUOUS
 10
-0.205874
 20
2.190547
  0
VERTEX
  8
PLAN_1
 62
     2
  6
CONTINUOUS
 10
-0.209020
 20
2.191445
  0
VERTEX
  8
PLAN_1
 62
     2
  6
CONTINUOUS
 10
-0.212165
 20
2.192343
  0
VERTEX
  8
PLAN_1
 62
     2
  6
CONTINUOUS
 10
-0.215311
 20
2.193693
  0
VERTEX
  8
PLAN_1
 62
     2
  6
CONTINUOUS
 10
-0.218461
 20
2.195039
  0
VERTEX
  8
PLAN_1
 62
     2
  6
CONTINUOUS
 10
-0.221157
 20
2.196390
  0
VERTEX
  8
PLAN_1
 62
     2
  6
CONTINUOUS
 10
-0.223854
 20
2.198638
  0
VERTEX
  8
PLAN_1
 62
     2
  6
CONTINUOUS
 10
-0.226098
 20
2.200433
  0
VERTEX
  8
PLAN_1
 62
     2
  6
CONTINUOUS
 10
-0.227898
 20
2.203130
  0
VERTEX
  8
PLAN_1
 62
     2
  6
CONTINUOUS
 10
-0.229697
 20
2.205827
  0
VERTEX
  8
PLAN_1
 62
     2
  6
CONTINUOUS
 10
-0.231043
 20
2.208972
  0
VERTEX
  8
PLAN_1
 62
     2
  6
CONTINUOUS
 10
-0.231492
 20
2.212571
  0
VERTEX
  8
PLAN_1
 62
     2
  6
CONTINUOUS
 10
-0.231941
 20
2.216614
  0
VERTEX
  8
PLAN_1
 62
     2
  6
CONTINUOUS
 10
-0.231492
 20
2.219760
  0
VERTEX
  8
PLAN_1
 62
     2
  6
CONTINUOUS
 10
-0.231043
 20
2.223358
  0
VERTEX
  8
PLAN_1
 62
     2
  6
CONTINUOUS
 10
-0.229697
 20
2.226953
  0
VERTEX
  8
PLAN_1
 62
     2
  6
CONTINUOUS
 10
-0.227898
 20
2.230098
  0
VERTEX
  8
PLAN_1
 62
     2
  6
CONTINUOUS
 10
-0.225201
 20
2.232795
  0
VERTEX
  8
PLAN_1
 62
     2
  6
CONTINUOUS
 10
-0.221606
 20
2.235492
  0
VERTEX
  8
PLAN_1
 62
     2
  6
CONTINUOUS
 10
-0.219807
 20
2.236390
  0
VERTEX
  8
PLAN_1
 62
     2
  6
CONTINUOUS
 10
-0.217559
 20
2.237291
  0
VERTEX
  8
PLAN_1
 62
     2
  6
CONTINUOUS
 10
-0.215311
 20
2.237740
  0
VERTEX
  8
PLAN_1
 62
     2
  6
CONTINUOUS
 10
-0.212614
 20
2.237740
  0
VERTEX
  8
PLAN_1
 62
     2
  6
CONTINUOUS
 10
-0.212614
 20
2.229201
  0
SEQEND
  8
0
  0
POLYLINE
  8
PLAN_1
 62
     2
  6
CONTINUOUS
 66
     1
 40
0.003000
 41
0.003000
  0
VERTEX
  8
PLAN_1
 62
     2
  6
CONTINUOUS
 10
-0.164972
 20
2.215717
  0
VERTEX
  8
PLAN_1
 62
     2
  6
CONTINUOUS
 10
-0.165421
 20
2.218862
  0
VERTEX
  8
PLAN_1
 62
     2
  6
CONTINUOUS
 10
-0.166323
 20
2.221559
  0
VERTEX
  8
PLAN_1
 62
     2
  6
CONTINUOUS
 10
-0.167669
 20
2.224256
  0
VERTEX
  8
PLAN_1
 62
     2
  6
CONTINUOUS
 10
-0.169917
 20
2.226055
  0
VERTEX
  8
PLAN_1
 62
     2
  6
CONTINUOUS
 10
-0.172165
 20
2.227850
  0
VERTEX
  8
PLAN_1
 62
     2
  6
CONTINUOUS
 10
-0.174862
 20
2.229201
  0
VERTEX
  8
PLAN_1
 62
     2
  6
CONTINUOUS
 10
-0.178457
 20
2.229650
  0
VERTEX
  8
PLAN_1
 62
     2
  6
CONTINUOUS
 10
-0.181602
 20
2.230098
  0
VERTEX
  8
PLAN_1
 62
     2
  6
CONTINUOUS
 10
-0.184299
 20
2.229650
  0
VERTEX
  8
PLAN_1
 62
     2
  6
CONTINUOUS
 10
-0.186996
 20
2.229201
  0
VERTEX
  8
PLAN_1
 62
     2
  6
CONTINUOUS
 10
-0.189693
 20
2.228299
  0
VERTEX
  8
PLAN_1
 62
     2
  6
CONTINUOUS
 10
-0.191941
 20
2.226953
  0
VERTEX
  8
PLAN_1
 62
     2
  6
CONTINUOUS
 10
-0.194189
 20
2.224705
  0
VERTEX
  8
PLAN_1
 62
     2
  6
CONTINUOUS
 10
-0.195535
 20
2.222457
  0
VERTEX
  8
PLAN_1
 62
     2
  6
CONTINUOUS
 10
-0.196886
 20
2.219311
  0
VERTEX
  8
PLAN_1
 62
     2
  6
CONTINUOUS
 10
-0.197335
 20
2.215268
  0
VERTEX
  8
PLAN_1
 62
     2
  6
CONTINUOUS
 10
-0.196886
 20
2.211669
  0
VERTEX
  8
PLAN_1
 62
     2
  6
CONTINUOUS
 10
-0.195984
 20
2.208524
  0
VERTEX
  8
PLAN_1
 62
     2
  6
CONTINUOUS
 10
-0.194638
 20
2.206276
  0
VERTEX
  8
PLAN_1
 62
     2
  6
CONTINUOUS
 10
-0.192390
 20
2.204031
  0
VERTEX
  8
PLAN_1
 62
     2
  6
CONTINUOUS
 10
-0.190142
 20
2.202232
  0
VERTEX
  8
PLAN_1
 62
     2
  6
CONTINUOUS
 10
-0.187445
 20
2.201335
  0
VERTEX
  8
PLAN_1
 62
     2
  6
CONTINUOUS
 10
-0.184299
 20
2.200433
  0
VERTEX
  8
PLAN_1
 62
     2
  6
CONTINUOUS
 10
-0.181154
 20
2.200433
  0
VERTEX
  8
PLAN_1
 62
     2
  6
CONTINUOUS
 10
-0.178457
 20
2.200433
  0
VERTEX
  8
PLAN_1
 62
     2
  6
CONTINUOUS
 10
-0.175311
 20
2.201335
  0
VERTEX
  8
PLAN_1
 62
     2
  6
CONTINUOUS
 10
-0.172614
 20
2.202232
  0
VERTEX
  8
PLAN_1
 62
     2
  6
CONTINUOUS
 10
-0.170366
 20
2.204031
  0
VERTEX
  8
PLAN_1
 62
     2
  6
CONTINUOUS
 10
-0.168118
 20
2.206276
  0
VERTEX
  8
PLAN_1
 62
     2
  6
CONTINUOUS
 10
-0.166323
 20
2.208524
  0
VERTEX
  8
PLAN_1
 62
     2
  6
CONTINUOUS
 10
-0.165421
 20
2.212122
  0
VERTEX
  8
PLAN_1
 62
     2
  6
CONTINUOUS
 10
-0.164972
 20
2.215717
  0
SEQEND
  8
0
  0
POLYLINE
  8
PLAN_1
 62
     2
  6
CONTINUOUS
 66
     1
 40
0.003000
 41
0.003000
  0
VERTEX
  8
PLAN_1
 62
     2
  6
CONTINUOUS
 10
-0.200480
 20
2.266953
  0
VERTEX
  8
PLAN_1
 62
     2
  6
CONTINUOUS
 10
-0.200480
 20
2.267406
  0
VERTEX
  8
PLAN_1
 62
     2
  6
CONTINUOUS
 10
-0.200480
 20
2.267854
  0
VERTEX
  8
PLAN_1
 62
     2
  6
CONTINUOUS
 10
-0.200480
 20
2.268752
  0
VERTEX
  8
PLAN_1
 62
     2
  6
CONTINUOUS
 10
-0.200480
 20
2.269201
  0
VERTEX
  8
PLAN_1
 62
     2
  6
CONTINUOUS
 10
-0.200031
 20
2.269650
  0
VERTEX
  8
PLAN_1
 62
     2
  6
CONTINUOUS
 10
-0.200031
 20
2.270551
  0
VERTEX
  8
PLAN_1
 62
     2
  6
CONTINUOUS
 10
-0.200031
 20
2.271000
  0
VERTEX
  8
PLAN_1
 62
     2
  6
CONTINUOUS
 10
-0.200031
 20
2.271449
  0
VERTEX
  8
PLAN_1
 62
     2
  6
CONTINUOUS
 10
-0.200480
 20
2.274146
  0
VERTEX
  8
PLAN_1
 62
     2
  6
CONTINUOUS
 10
-0.200929
 20
2.276843
  0
VERTEX
  8
PLAN_1
 62
     2
  6
CONTINUOUS
 10
-0.201378
 20
2.279091
  0
VERTEX
  8
PLAN_1
 62
     2
  6
CONTINUOUS
 10
-0.202728
 20
2.281339
  0
VERTEX
  8
PLAN_1
 62
     2
  6
CONTINUOUS
 10
-0.204528
 20
2.283134
  0
VERTEX
  8
PLAN_1
 62
     2
  6
CONTINUOUS
 10
-0.206323
 20
2.284484
  0
VERTEX
  8
PLAN_1
 62
     2
  6
CONTINUOUS
 10
-0.209020
 20
2.285382
  0
VERTEX
  8
PLAN_1
 62
     2
  6
CONTINUOUS
 10
-0.212165
 20
2.285382
  0
VERTEX
  8
PLAN_1
 62
     2
  6
CONTINUOUS
 10
-0.213965
 20
2.285382
  0
VERTEX
  8
PLAN_1
 62
     2
  6
CONTINUOUS
 10
-0.215764
 20
2.284933
  0
VERTEX
  8
PLAN_1
 62
     2
  6
CONTINUOUS
 10
-0.217559
 20
2.284035
  0
VERTEX
  8
PLAN_1
 62
     2
  6
CONTINUOUS
 10
-0.219807
 20
2.282685
  0
VERTEX
  8
PLAN_1
 62
     2
  6
CONTINUOUS
 10
-0.221157
 20
2.280886
  0
VERTEX
  8
PLAN_1
 62
     2
  6
CONTINUOUS
 10
-0.222504
 20
2.278642
  0
VERTEX
  8
PLAN_1
 62
     2
  6
CONTINUOUS
 10
-0.223402
 20
2.275492
  0
VERTEX
  8
PLAN_1
 62
     2
  6
CONTINUOUS
 10
-0.223854
 20
2.271898
  0
VERTEX
  8
PLAN_1
 62
     2
  6
CONTINUOUS
 10
-0.223402
 20
2.269650
  0
VERTEX
  8
PLAN_1
 62
     2
  6
CONTINUOUS
 10
-0.223402
 20
2.267854
  0
VERTEX
  8
PLAN_1
 62
     2
  6
CONTINUOUS
 10
-0.222504
 20
2.266055
  0
VERTEX
  8
PLAN_1
 62
     2
  6
CONTINUOUS
 10
-0.222055
 20
2.264256
  0
VERTEX
  8
PLAN_1
 62
     2
  6
CONTINUOUS
 10
-0.220256
 20
2.262012
  0
VERTEX
  8
PLAN_1
 62
     2
  6
CONTINUOUS
 10
-0.217559
 20
2.260213
  0
VERTEX
  8
PLAN_1
 62
     2
  6
CONTINUOUS
 10
-0.215311
 20
2.258862
  0
VERTEX
  8
PLAN_1
 62
     2
  6
CONTINUOUS
 10
-0.212614
 20
2.258413
  0
VERTEX
  8
PLAN_1
 62
     2
  6
CONTINUOUS
 10
-0.210370
 20
2.257965
  0
VERTEX
  8
PLAN_1
 62
     2
  6
CONTINUOUS
 10
-0.208122
 20
2.257965
  0
VERTEX
  8
PLAN_1
 62
     2
  6
CONTINUOUS
 10
-0.208122
 20
2.248976
  0
VERTEX
  8
PLAN_1
 62
     2
  6
CONTINUOUS
 10
-0.212165
 20
2.248976
  0
VERTEX
  8
PLAN_1
 62
     2
  6
CONTINUOUS
 10
-0.216213
 20
2.249874
  0
VERTEX
  8
PLAN_1
 62
     2
  6
CONTINUOUS
 10
-0.220256
 20
2.251224
  0
VERTEX
  8
PLAN_1
 62
     2
  6
CONTINUOUS
 10
-0.223854
 20
2.253469
  0
VERTEX
  8
PLAN_1
 62
     2
  6
CONTINUOUS
 10
-0.225650
 20
2.254819
  0
VERTEX
  8
PLAN_1
 62
     2
  6
CONTINUOUS
 10
-0.227000
 20
2.256618
  0
VERTEX
  8
PLAN_1
 62
     2
  6
CONTINUOUS
 10
-0.228346
 20
2.258413
  0
VERTEX
  8
PLAN_1
 62
     2
  6
CONTINUOUS
 10
-0.229697
 20
2.260661
  0
VERTEX
  8
PLAN_1
 62
     2
  6
CONTINUOUS
 10
-0.230594
 20
2.262909
  0
VERTEX
  8
PLAN_1
 62
     2
  6
CONTINUOUS
 10
-0.231492
 20
2.266055
  0
VERTEX
  8
PLAN_1
 62
     2
  6
CONTINUOUS
 10
-0.231941
 20
2.268752
  0
VERTEX
  8
PLAN_1
 62
     2
  6
CONTINUOUS
 10
-0.231941
 20
2.272346
  0
VERTEX
  8
PLAN_1
 62
     2
  6
CONTINUOUS
 10
-0.231492
 20
2.277291
  0
VERTEX
  8
PLAN_1
 62
     2
  6
CONTINUOUS
 10
-0.230594
 20
2.281787
  0
VERTEX
  8
PLAN_1
 62
     2
  6
CONTINUOUS
 10
-0.228795
 20
2.285831
  0
VERTEX
  8
PLAN_1
 62
     2
  6
CONTINUOUS
 10
-0.226547
 20
2.288976
  0
VERTEX
  8
PLAN_1
 62
     2
  6
CONTINUOUS
 10
-0.223854
 20
2.291673
  0
VERTEX
  8
PLAN_1
 62
     2
  6
CONTINUOUS
 10
-0.220256
 20
2.293472
  0
VERTEX
  8
PLAN_1
 62
     2
  6
CONTINUOUS
 10
-0.216661
 20
2.294370
  0
VERTEX
  8
PLAN_1
 62
     2
  6
CONTINUOUS
 10
-0.212614
 20
2.294819
  0
VERTEX
  8
PLAN_1
 62
     2
  6
CONTINUOUS
 10
-0.209469
 20
2.294819
  0
VERTEX
  8
PLAN_1
 62
     2
  6
CONTINUOUS
 10
-0.206772
 20
2.293921
  0
VERTEX
  8
PLAN_1
 62
     2
  6
CONTINUOUS
 10
-0.204075
 20
2.293024
  0
VERTEX
  8
PLAN_1
 62
     2
  6
CONTINUOUS
 10
-0.202280
 20
2.291673
  0
VERTEX
  8
PLAN_1
 62
     2
  6
CONTINUOUS
 10
-0.200480
 20
2.290327
  0
VERTEX
  8
PLAN_1
 62
     2
  6
CONTINUOUS
 10
-0.199134
 20
2.288528
  0
VERTEX
  8
PLAN_1
 62
     2
  6
CONTINUOUS
 10
-0.198232
 20
2.287181
  0
VERTEX
  8
PLAN_1
 62
     2
  6
CONTINUOUS
 10
-0.197783
 20
2.285831
  0
VERTEX
  8
PLAN_1
 62
     2
  6
CONTINUOUS
 10
-0.197335
 20
2.285831
  0
VERTEX
  8
PLAN_1
 62
     2
  6
CONTINUOUS
 10
-0.196437
 20
2.288079
  0
VERTEX
  8
PLAN_1
 62
     2
  6
CONTINUOUS
 10
-0.195087
 20
2.290327
  0
VERTEX
  8
PLAN_1
 62
     2
  6
CONTINUOUS
 10
-0.193740
 20
2.292575
  0
VERTEX
  8
PLAN_1
 62
     2
  6
CONTINUOUS
 10
-0.191492
 20
2.294370
  0
VERTEX
  8
PLAN_1
 62
     2
  6
CONTINUOUS
 10
-0.189244
 20
2.295720
  0
VERTEX
  8
PLAN_1
 62
     2
  6
CONTINUOUS
 10
-0.186996
 20
2.297067
  0
VERTEX
  8
PLAN_1
 62
     2
  6
CONTINUOUS
 10
-0.183850
 20
2.297516
  0
VERTEX
  8
PLAN_1
 62
     2
  6
CONTINUOUS
 10
-0.180256
 20
2.297969
  0
VERTEX
  8
PLAN_1
 62
     2
  6
CONTINUOUS
 10
-0.175760
 20
2.297516
  0
VERTEX
  8
PLAN_1
 62
     2
  6
CONTINUOUS
 10
-0.171717
 20
2.296169
  0
VERTEX
  8
PLAN_1
 62
     2
  6
CONTINUOUS
 10
-0.169469
 20
2.295272
  0
VERTEX
  8
PLAN_1
 62
     2
  6
CONTINUOUS
 10
-0.167669
 20
2.294370
  0
VERTEX
  8
PLAN_1
 62
     2
  6
CONTINUOUS
 10
-0.165874
 20
2.293024
  0
VERTEX
  8
PLAN_1
 62
     2
  6
CONTINUOUS
 10
-0.164075
 20
2.291673
  0
VERTEX
  8
PLAN_1
 62
     2
  6
CONTINUOUS
 10
-0.162724
 20
2.289878
  0
VERTEX
  8
PLAN_1
 62
     2
  6
CONTINUOUS
 10
-0.160929
 20
2.288079
  0
VERTEX
  8
PLAN_1
 62
     2
  6
CONTINUOUS
 10
-0.160028
 20
2.285831
  0
VERTEX
  8
PLAN_1
 62
     2
  6
CONTINUOUS
 10
-0.158681
 20
2.283583
  0
VERTEX
  8
PLAN_1
 62
     2
  6
CONTINUOUS
 10
-0.157783
 20
2.280886
  0
VERTEX
  8
PLAN_1
 62
     2
  6
CONTINUOUS
 10
-0.157335
 20
2.277740
  0
VERTEX
  8
PLAN_1
 62
     2
  6
CONTINUOUS
 10
-0.156882
 20
2.275043
  0
VERTEX
  8
PLAN_1
 62
     2
  6
CONTINUOUS
 10
-0.156882
 20
2.271449
  0
VERTEX
  8
PLAN_1
 62
     2
  6
CONTINUOUS
 10
-0.156882
 20
2.269650
  0
VERTEX
  8
PLAN_1
 62
     2
  6
CONTINUOUS
 10
-0.156882
 20
2.267406
  0
VERTEX
  8
PLAN_1
 62
     2
  6
CONTINUOUS
 10
-0.157335
 20
2.265606
  0
VERTEX
  8
PLAN_1
 62
     2
  6
CONTINUOUS
 10
-0.157783
 20
2.263807
  0
VERTEX
  8
PLAN_1
 62
     2
  6
CONTINUOUS
 10
-0.158232
 20
2.262461
  0
VERTEX
  8
PLAN_1
 62
     2
  6
CONTINUOUS
 10
-0.158681
 20
2.260661
  0
VERTEX
  8
PLAN_1
 62
     2
  6
CONTINUOUS
 10
-0.159579
 20
2.259315
  0
VERTEX
  8
PLAN_1
 62
     2
  6
CONTINUOUS
 10
-0.160028
 20
2.257965
  0
VERTEX
  8
PLAN_1
 62
     2
  6
CONTINUOUS
 10
-0.161827
 20
2.255268
  0
VERTEX
  8
PLAN_1
 62
     2
  6
CONTINUOUS
 10
-0.164075
 20
2.253020
  0
VERTEX
  8
PLAN_1
 62
     2
  6
CONTINUOUS
 10
-0.166323
 20
2.251224
  0
VERTEX
  8
PLAN_1
 62
     2
  6
CONTINUOUS
 10
-0.169020
 20
2.249874
  0
VERTEX
  8
PLAN_1
 62
     2
  6
CONTINUOUS
 10
-0.171717
 20
2.248528
  0
VERTEX
  8
PLAN_1
 62
     2
  6
CONTINUOUS
 10
-0.174862
 20
2.248079
  0
VERTEX
  8
PLAN_1
 62
     2
  6
CONTINUOUS
 10
-0.178008
 20
2.247177
  0
VERTEX
  8
PLAN_1
 62
     2
  6
CONTINUOUS
 10
-0.181154
 20
2.247177
  0
VERTEX
  8
PLAN_1
 62
     2
  6
CONTINUOUS
 10
-0.181154
 20
2.256618
  0
VERTEX
  8
PLAN_1
 62
     2
  6
CONTINUOUS
 10
-0.178457
 20
2.256618
  0
VERTEX
  8
PLAN_1
 62
     2
  6
CONTINUOUS
 10
-0.175760
 20
2.257067
  0
VERTEX
  8
PLAN_1
 62
     2
  6
CONTINUOUS
 10
-0.173063
 20
2.257965
  0
VERTEX
  8
PLAN_1
 62
     2
  6
CONTINUOUS
 10
-0.170366
 20
2.259315
  0
VERTEX
  8
PLAN_1
 62
     2
  6
CONTINUOUS
 10
-0.168571
 20
2.261110
  0
VERTEX
  8
PLAN_1
 62
     2
  6
CONTINUOUS
 10
-0.166772
 20
2.263807
  0
VERTEX
  8
PLAN_1
 62
     2
  6
CONTINUOUS
 10
-0.165874
 20
2.265606
  0
VERTEX
  8
PLAN_1
 62
     2
  6
CONTINUOUS
 10
-0.165421
 20
2.267406
  0
VERTEX
  8
PLAN_1
 62
     2
  6
CONTINUOUS
 10
-0.164972
 20
2.269650
  0
VERTEX
  8
PLAN_1
 62
     2
  6
CONTINUOUS
 10
-0.164972
 20
2.271898
  0
VERTEX
  8
PLAN_1
 62
     2
  6
CONTINUOUS
 10
-0.165421
 20
2.275492
  0
VERTEX
  8
PLAN_1
 62
     2
  6
CONTINUOUS
 10
-0.165874
 20
2.278642
  0
VERTEX
  8
PLAN_1
 62
     2
  6
CONTINUOUS
 10
-0.167220
 20
2.281339
  0
VERTEX
  8
PLAN_1
 62
     2
  6
CONTINUOUS
 10
-0.169020
 20
2.283583
  0
VERTEX
  8
PLAN_1
 62
     2
  6
CONTINUOUS
 10
-0.170815
 20
2.285382
  0
VERTEX
  8
PLAN_1
 62
     2
  6
CONTINUOUS
 10
-0.173512
 20
2.286728
  0
VERTEX
  8
PLAN_1
 62
     2
  6
CONTINUOUS
 10
-0.176209
 20
2.287630
  0
VERTEX
  8
PLAN_1
 62
     2
  6
CONTINUOUS
 10
-0.179354
 20
2.288079
  0
VERTEX
  8
PLAN_1
 62
     2
  6
CONTINUOUS
 10
-0.181154
 20
2.288079
  0
VERTEX
  8
PLAN_1
 62
     2
  6
CONTINUOUS
 10
-0.183402
 20
2.287630
  0
VERTEX
  8
PLAN_1
 62
     2
  6
CONTINUOUS
 10
-0.185201
 20
2.287181
  0
VERTEX
  8
PLAN_1
 62
     2
  6
CONTINUOUS
 10
-0.186547
 20
2.286280
  0
VERTEX
  8
PLAN_1
 62
     2
  6
CONTINUOUS
 10
-0.188795
 20
2.284035
  0
VERTEX
  8
PLAN_1
 62
     2
  6
CONTINUOUS
 10
-0.190594
 20
2.281787
  0
VERTEX
  8
PLAN_1
 62
     2
  6
CONTINUOUS
 10
-0.191492
 20
2.279091
  0
VERTEX
  8
PLAN_1
 62
     2
  6
CONTINUOUS
 10
-0.192390
 20
2.276394
  0
VERTEX
  8
PLAN_1
 62
     2
  6
CONTINUOUS
 10
-0.192390
 20
2.273248
  0
VERTEX
  8
PLAN_1
 62
     2
  6
CONTINUOUS
 10
-0.192390
 20
2.271000
  0
VERTEX
  8
PLAN_1
 62
     2
  6
CONTINUOUS
 10
-0.192390
 20
2.270551
  0
VERTEX
  8
PLAN_1
 62
     2
  6
CONTINUOUS
 10
-0.192390
 20
2.270098
  0
VERTEX
  8
PLAN_1
 62
     2
  6
CONTINUOUS
 10
-0.192390
 20
2.269201
  0
VERTEX
  8
PLAN_1
 62
     2
  6
CONTINUOUS
 10
-0.192390
 20
2.268752
  0
VERTEX
  8
PLAN_1
 62
     2
  6
CONTINUOUS
 10
-0.192390
 20
2.268303
  0
VERTEX
  8
PLAN_1
 62
     2
  6
CONTINUOUS
 10
-0.192390
 20
2.267854
  0
VERTEX
  8
PLAN_1
 62
     2
  6
CONTINUOUS
 10
-0.192390
 20
2.267406
  0
VERTEX
  8
PLAN_1
 62
     2
  6
CONTINUOUS
 10
-0.192390
 20
2.266953
  0
VERTEX
  8
PLAN_1
 62
     2
  6
CONTINUOUS
 10
-0.200480
 20
2.266953
  0
SEQEND
  8
0
  0
POLYLINE
  8
PLAN_1
 62
     2
  6
CONTINUOUS
 66
     1
 40
0.004043
 41
0.004043
  0
VERTEX
  8
PLAN_1
 62
     2
  6
CONTINUOUS
 10
-1.176252
 20
3.467457
  0
VERTEX
  8
PLAN_1
 62
     2
  6
CONTINUOUS
 10
-0.104748
 20
3.467457
  0
SEQEND
  8
0
  0
POLYLINE
  8
PLAN_1
 62
     2
  6
CONTINUOUS
 66
     1
 40
0.004043
 41
0.004043
  0
VERTEX
  8
PLAN_1
 62
     2
  6
CONTINUOUS
 10
-0.408130
 20
1.019709
  0
VERTEX
  8
PLAN_1
 62
     2
  6
CONTINUOUS
 10
-0.111488
 20
1.019709
  0
SEQEND
  8
0
  0
POLYLINE
  8
PLAN_1
 62
     2
  6
CONTINUOUS
 66
     1
 40
0.004043
 41
0.004043
  0
VERTEX
  8
PLAN_1
 62
     2
  6
CONTINUOUS
 10
-1.018941
 20
1.853453
  0
VERTEX
  8
PLAN_1
 62
     2
  6
CONTINUOUS
 10
-0.268799
 20
1.853453
  0
SEQEND
  8
0
  0
SOLID
  8
PLAN_1
 62
     2
 10
-1.581213
 20
3.344752
 11
-1.611776
 21
3.397339
 12
-1.581213
 22
3.344752
 13
-1.634252
 23
3.375315
  0
POLYLINE
  8
PLAN_1
 62
     2
  6
CONTINUOUS
 66
     1
 40
0.003000
 41
0.003000
  0
VERTEX
  8
PLAN_1
 62
     2
  6
CONTINUOUS
 10
-1.581213
 20
3.344752
  0
VERTEX
  8
PLAN_1
 62
     2
  6
CONTINUOUS
 10
-1.611776
 20
3.397339
  0
VERTEX
  8
PLAN_1
 62
     2
  6
CONTINUOUS
 10
-1.634252
 20
3.375315
  0
VERTEX
  8
PLAN_1
 62
     2
  6
CONTINUOUS
 10
-1.581213
 20
3.344752
  0
SEQEND
  8
0
  0
POLYLINE
  8
PLAN_1
 62
     2
  6
CONTINUOUS
 66
     1
 40
0.004043
 41
0.004043
  0
VERTEX
  8
PLAN_1
 62
     2
  6
CONTINUOUS
 10
-1.607732
 20
3.371272
  0
VERTEX
  8
PLAN_1
 62
     2
  6
CONTINUOUS
 10
-1.737177
 20
3.495772
  0
VERTEX
  8
PLAN_1
 62
     2
  6
CONTINUOUS
 10
-2.025728
 20
3.495772
  0
SEQEND
  8
0
  0
POLYLINE
  8
PLAN_1
 62
     2
  6
CONTINUOUS
 66
     1
 40
0.003000
 41
0.003000
  0
VERTEX
  8
PLAN_1
 62
     2
  6
CONTINUOUS
 10
-1.945276
 20
3.583413
  0
VERTEX
  8
PLAN_1
 62
     2
  6
CONTINUOUS
 10
-1.943028
 20
3.580268
  0
VERTEX
  8
PLAN_1
 62
     2
  6
CONTINUOUS
 10
-1.941228
 20
3.577122
  0
VERTEX
  8
PLAN_1
 62
     2
  6
CONTINUOUS
 10
-1.939882
 20
3.573528
  0
VERTEX
  8
PLAN_1
 62
     2
  6
CONTINUOUS
 10
-1.938531
 20
3.570382
  0
VERTEX
  8
PLAN_1
 62
     2
  6
CONTINUOUS
 10
-1.937634
 20
3.566783
  0
VERTEX
  8
PLAN_1
 62
     2
  6
CONTINUOUS
 10
-1.937185
 20
3.563189
  0
VERTEX
  8
PLAN_1
 62
     2
  6
CONTINUOUS
 10
-1.936736
 20
3.560043
  0
VERTEX
  8
PLAN_1
 62
     2
  6
CONTINUOUS
 10
-1.936736
 20
3.556898
  0
VERTEX
  8
PLAN_1
 62
     2
  6
CONTINUOUS
 10
-1.937185
 20
3.550154
  0
VERTEX
  8
PLAN_1
 62
     2
  6
CONTINUOUS
 10
-1.938531
 20
3.543862
  0
VERTEX
  8
PLAN_1
 62
     2
  6
CONTINUOUS
 10
-1.939433
 20
3.540268
  0
VERTEX
  8
PLAN_1
 62
     2
  6
CONTINUOUS
 10
-1.940780
 20
3.537122
  0
VERTEX
  8
PLAN_1
 62
     2
  6
CONTINUOUS
 10
-1.942579
 20
3.533976
  0
VERTEX
  8
PLAN_1
 62
     2
  6
CONTINUOUS
 10
-1.944374
 20
3.530827
  0
VERTEX
  8
PLAN_1
 62
     2
  6
CONTINUOUS
 10
-1.946622
 20
3.528134
  0
VERTEX
  8
PLAN_1
 62
     2
  6
CONTINUOUS
 10
-1.949319
 20
3.525437
  0
VERTEX
  8
PLAN_1
 62
     2
  6
CONTINUOUS
 10
-1.952016
 20
3.523189
  0
VERTEX
  8
PLAN_1
 62
     2
  6
CONTINUOUS
 10
-1.955610
 20
3.521390
  0
VERTEX
  8
PLAN_1
 62
     2
  6
CONTINUOUS
 10
-1.959209
 20
3.519591
  0
VERTEX
  8
PLAN_1
 62
     2
  6
CONTINUOUS
 10
-1.963252
 20
3.518244
  0
VERTEX
  8
PLAN_1
 62
     2
  6
CONTINUOUS
 10
-1.968197
 20
3.517795
  0
VERTEX
  8
PLAN_1
 62
     2
  6
CONTINUOUS
 10
-1.973142
 20
3.517346
  0
VERTEX
  8
PLAN_1
 62
     2
  6
CONTINUOUS
 10
-1.976736
 20
3.517346
  0
VERTEX
  8
PLAN_1
 62
     2
  6
CONTINUOUS
 10
-1.980783
 20
3.517795
  0
VERTEX
  8
PLAN_1
 62
     2
  6
CONTINUOUS
 10
-1.983929
 20
3.518693
  0
VERTEX
  8
PLAN_1
 62
     2
  6
CONTINUOUS
 10
-1.987075
 20
3.520043
  0
VERTEX
  8
PLAN_1
 62
     2
  6
CONTINUOUS
 10
-1.990220
 20
3.520941
  0
VERTEX
  8
PLAN_1
 62
     2
  6
CONTINUOUS
 10
-1.992917
 20
3.522740
  0
VERTEX
  8
PLAN_1
 62
     2
  6
CONTINUOUS
 10
-1.995165
 20
3.524535
  0
VERTEX
  8
PLAN_1
 62
     2
  6
CONTINUOUS
 10
-1.997413
 20
3.526335
  0
VERTEX
  8
PLAN_1
 62
     2
  6
CONTINUOUS
 10
-2.005953
 20
3.517346
  0
VERTEX
  8
PLAN_1
 62
     2
  6
CONTINUOUS
 10
-2.009098
 20
3.520492
  0
VERTEX
  8
PLAN_1
 62
     2
  6
CONTINUOUS
 10
-2.000559
 20
3.529480
  0
VERTEX
  8
PLAN_1
 62
     2
  6
CONTINUOUS
 10
-2.002807
 20
3.532626
  0
VERTEX
  8
PLAN_1
 62
     2
  6
CONTINUOUS
 10
-2.004602
 20
3.536220
  0
VERTEX
  8
PLAN_1
 62
     2
  6
CONTINUOUS
 10
-2.006402
 20
3.539370
  0
VERTEX
  8
PLAN_1
 62
     2
  6
CONTINUOUS
 10
-2.007299
 20
3.542965
  0
VERTEX
  8
PLAN_1
 62
     2
  6
CONTINUOUS
 10
-2.008197
 20
3.546559
  0
VERTEX
  8
PLAN_1
 62
     2
  6
CONTINUOUS
 10
-2.009098
 20
3.550154
  0
VERTEX
  8
PLAN_1
 62
     2
  6
CONTINUOUS
 10
-2.009098
 20
3.553303
  0
VERTEX
  8
PLAN_1
 62
     2
  6
CONTINUOUS
 10
-2.009547
 20
3.556898
  0
VERTEX
  8
PLAN_1
 62
     2
  6
CONTINUOUS
 10
-2.009098
 20
3.563189
  0
VERTEX
  8
PLAN_1
 62
     2
  6
CONTINUOUS
 10
-2.007748
 20
3.569480
  0
VERTEX
  8
PLAN_1
 62
     2
  6
CONTINUOUS
 10
-2.006402
 20
3.573079
  0
VERTEX
  8
PLAN_1
 62
     2
  6
CONTINUOUS
 10
-2.005051
 20
3.576224
  0
VERTEX
  8
PLAN_1
 62
     2
  6
CONTINUOUS
 10
-2.003705
 20
3.579370
  0
VERTEX
  8
PLAN_1
 62
     2
  6
CONTINUOUS
 10
-2.001457
 20
3.582516
  0
VERTEX
  8
PLAN_1
 62
     2
  6
CONTINUOUS
 10
-1.999209
 20
3.585213
  0
VERTEX
  8
PLAN_1
 62
     2
  6
CONTINUOUS
 10
-1.996961
 20
3.587909
  0
VERTEX
  8
PLAN_1
 62
     2
  6
CONTINUOUS
 10
-1.993815
 20
3.590157
  0
VERTEX
  8
PLAN_1
 62
     2
  6
CONTINUOUS
 10
-1.990220
 20
3.591957
  0
VERTEX
  8
PLAN_1
 62
     2
  6
CONTINUOUS
 10
-1.986626
 20
3.593752
  0
VERTEX
  8
PLAN_1
 62
     2
  6
CONTINUOUS
 10
-1.982579
 20
3.595102
  0
VERTEX
  8
PLAN_1
 62
     2
  6
CONTINUOUS
 10
-1.978087
 20
3.595551
  0
VERTEX
  8
PLAN_1
 62
     2
  6
CONTINUOUS
 10
-1.973142
 20
3.596000
  0
VERTEX
  8
PLAN_1
 62
     2
  6
CONTINUOUS
 10
-1.969094
 20
3.596000
  0
VERTEX
  8
PLAN_1
 62
     2
  6
CONTINUOUS
 10
-1.965051
 20
3.595551
  0
VERTEX
  8
PLAN_1
 62
     2
  6
CONTINUOUS
 10
-1.961457
 20
3.594654
  0
VERTEX
  8
PLAN_1
 62
     2
  6
CONTINUOUS
 10
-1.958307
 20
3.593303
  0
VERTEX
  8
PLAN_1
 62
     2
  6
CONTINUOUS
 10
-1.955610
 20
3.591957
  0
VERTEX
  8
PLAN_1
 62
     2
  6
CONTINUOUS
 10
-1.952917
 20
3.590606
  0
VERTEX
  8
PLAN_1
 62
     2
  6
CONTINUOUS
 10
-1.950220
 20
3.588807
  0
VERTEX
  8
PLAN_1
 62
     2
  6
CONTINUOUS
 10
-1.947972
 20
3.586563
  0
VERTEX
  8
PLAN_1
 62
     2
  6
CONTINUOUS
 10
-1.939882
 20
3.596000
  0
VERTEX
  8
PLAN_1
 62
     2
  6
CONTINUOUS
 10
-1.936287
 20
3.592854
  0
VERTEX
  8
PLAN_1
 62
     2
  6
CONTINUOUS
 10
-1.945276
 20
3.583413
  0
SEQEND
  8
0
  0
POLYLINE
  8
PLAN_1
 62
     2
  6
CONTINUOUS
 66
     1
 40
0.003000
 41
0.003000
  0
VERTEX
  8
PLAN_1
 62
     2
  6
CONTINUOUS
 10
-1.990669
 20
3.533524
  0
VERTEX
  8
PLAN_1
 62
     2
  6
CONTINUOUS
 10
-1.989323
 20
3.532177
  0
VERTEX
  8
PLAN_1
 62
     2
  6
CONTINUOUS
 10
-1.987075
 20
3.530378
  0
VERTEX
  8
PLAN_1
 62
     2
  6
CONTINUOUS
 10
-1.985276
 20
3.529480
  0
VERTEX
  8
PLAN_1
 62
     2
  6
CONTINUOUS
 10
-1.983028
 20
3.528134
  0
VERTEX
  8
PLAN_1
 62
     2
  6
CONTINUOUS
 10
-1.980783
 20
3.527232
  0
VERTEX
  8
PLAN_1
 62
     2
  6
CONTINUOUS
 10
-1.978535
 20
3.526783
  0
VERTEX
  8
PLAN_1
 62
     2
  6
CONTINUOUS
 10
-1.975839
 20
3.526335
  0
VERTEX
  8
PLAN_1
 62
     2
  6
CONTINUOUS
 10
-1.973142
 20
3.526335
  0
VERTEX
  8
PLAN_1
 62
     2
  6
CONTINUOUS
 10
-1.969996
 20
3.526335
  0
VERTEX
  8
PLAN_1
 62
     2
  6
CONTINUOUS
 10
-1.967299
 20
3.526783
  0
VERTEX
  8
PLAN_1
 62
     2
  6
CONTINUOUS
 10
-1.964602
 20
3.527681
  0
VERTEX
  8
PLAN_1
 62
     2
  6
CONTINUOUS
 10
-1.961906
 20
3.528583
  0
VERTEX
  8
PLAN_1
 62
     2
  6
CONTINUOUS
 10
-1.959657
 20
3.529929
  0
VERTEX
  8
PLAN_1
 62
     2
  6
CONTINUOUS
 10
-1.957409
 20
3.531280
  0
VERTEX
  8
PLAN_1
 62
     2
  6
CONTINUOUS
 10
-1.955610
 20
3.533075
  0
VERTEX
  8
PLAN_1
 62
     2
  6
CONTINUOUS
 10
-1.953815
 20
3.534874
  0
VERTEX
  8
PLAN_1
 62
     2
  6
CONTINUOUS
 10
-1.952465
 20
3.537122
  0
VERTEX
  8
PLAN_1
 62
     2
  6
CONTINUOUS
 10
-1.951118
 20
3.539370
  0
VERTEX
  8
PLAN_1
 62
     2
  6
CONTINUOUS
 10
-1.949768
 20
3.541614
  0
VERTEX
  8
PLAN_1
 62
     2
  6
CONTINUOUS
 10
-1.948870
 20
3.544311
  0
VERTEX
  8
PLAN_1
 62
     2
  6
CONTINUOUS
 10
-1.947972
 20
3.547457
  0
VERTEX
  8
PLAN_1
 62
     2
  6
CONTINUOUS
 10
-1.947524
 20
3.550154
  0
VERTEX
  8
PLAN_1
 62
     2
  6
CONTINUOUS
 10
-1.947071
 20
3.553303
  0
VERTEX
  8
PLAN_1
 62
     2
  6
CONTINUOUS
 10
-1.947071
 20
3.556898
  0
VERTEX
  8
PLAN_1
 62
     2
  6
CONTINUOUS
 10
-1.947071
 20
3.559594
  0
VERTEX
  8
PLAN_1
 62
     2
  6
CONTINUOUS
 10
-1.947524
 20
3.562291
  0
VERTEX
  8
PLAN_1
 62
     2
  6
CONTINUOUS
 10
-1.947524
 20
3.564539
  0
VERTEX
  8
PLAN_1
 62
     2
  6
CONTINUOUS
 10
-1.948421
 20
3.567236
  0
VERTEX
  8
PLAN_1
 62
     2
  6
CONTINUOUS
 10
-1.948870
 20
3.569480
  0
VERTEX
  8
PLAN_1
 62
     2
  6
CONTINUOUS
 10
-1.949768
 20
3.571728
  0
VERTEX
  8
PLAN_1
 62
     2
  6
CONTINUOUS
 10
-1.951118
 20
3.573976
  0
VERTEX
  8
PLAN_1
 62
     2
  6
CONTINUOUS
 10
-1.952016
 20
3.575776
  0
VERTEX
  8
PLAN_1
 62
     2
  6
CONTINUOUS
 10
-1.990669
 20
3.533524
  0
SEQEND
  8
0
  0
POLYLINE
  8
PLAN_1
 62
     2
  6
CONTINUOUS
 66
     1
 40
0.003000
 41
0.003000
  0
VERTEX
  8
PLAN_1
 62
     2
  6
CONTINUOUS
 10
-1.954713
 20
3.579370
  0
VERTEX
  8
PLAN_1
 62
     2
  6
CONTINUOUS
 10
-1.956512
 20
3.581169
  0
VERTEX
  8
PLAN_1
 62
     2
  6
CONTINUOUS
 10
-1.958307
 20
3.582516
  0
VERTEX
  8
PLAN_1
 62
     2
  6
CONTINUOUS
 10
-1.960555
 20
3.583866
  0
VERTEX
  8
PLAN_1
 62
     2
  6
CONTINUOUS
 10
-1.962803
 20
3.585213
  0
VERTEX
  8
PLAN_1
 62
     2
  6
CONTINUOUS
 10
-1.965051
 20
3.586110
  0
VERTEX
  8
PLAN_1
 62
     2
  6
CONTINUOUS
 10
-1.967748
 20
3.586563
  0
VERTEX
  8
PLAN_1
 62
     2
  6
CONTINUOUS
 10
-1.969996
 20
3.587012
  0
VERTEX
  8
PLAN_1
 62
     2
  6
CONTINUOUS
 10
-1.973142
 20
3.587012
  0
VERTEX
  8
PLAN_1
 62
     2
  6
CONTINUOUS
 10
-1.975839
 20
3.587012
  0
VERTEX
  8
PLAN_1
 62
     2
  6
CONTINUOUS
 10
-1.978984
 20
3.586563
  0
VERTEX
  8
PLAN_1
 62
     2
  6
CONTINUOUS
 10
-1.981232
 20
3.585661
  0
VERTEX
  8
PLAN_1
 62
     2
  6
CONTINUOUS
 10
-1.983929
 20
3.584764
  0
VERTEX
  8
PLAN_1
 62
     2
  6
CONTINUOUS
 10
-1.986177
 20
3.583413
  0
VERTEX
  8
PLAN_1
 62
     2
  6
CONTINUOUS
 10
-1.988421
 20
3.582067
  0
VERTEX
  8
PLAN_1
 62
     2
  6
CONTINUOUS
 10
-1.990220
 20
3.580268
  0
VERTEX
  8
PLAN_1
 62
     2
  6
CONTINUOUS
 10
-1.992020
 20
3.578472
  0
VERTEX
  8
PLAN_1
 62
     2
  6
CONTINUOUS
 10
-1.993815
 20
3.576224
  0
VERTEX
  8
PLAN_1
 62
     2
  6
CONTINUOUS
 10
-1.995165
 20
3.573976
  0
VERTEX
  8
PLAN_1
 62
     2
  6
CONTINUOUS
 10
-1.996063
 20
3.571280
  0
VERTEX
  8
PLAN_1
 62
     2
  6
CONTINUOUS
 10
-1.997413
 20
3.569031
  0
VERTEX
  8
PLAN_1
 62
     2
  6
CONTINUOUS
 10
-1.997862
 20
3.565886
  0
VERTEX
  8
PLAN_1
 62
     2
  6
CONTINUOUS
 10
-1.998760
 20
3.563189
  0
VERTEX
  8
PLAN_1
 62
     2
  6
CONTINUOUS
 10
-1.998760
 20
3.560043
  0
VERTEX
  8
PLAN_1
 62
     2
  6
CONTINUOUS
 10
-1.999209
 20
3.556898
  0
VERTEX
  8
PLAN_1
 62
     2
  6
CONTINUOUS
 10
-1.998760
 20
3.553752
  0
VERTEX
  8
PLAN_1
 62
     2
  6
CONTINUOUS
 10
-1.998760
 20
3.551055
  0
VERTEX
  8
PLAN_1
 62
     2
  6
CONTINUOUS
 10
-1.998311
 20
3.548358
  0
VERTEX
  8
PLAN_1
 62
     2
  6
CONTINUOUS
 10
-1.997413
 20
3.546110
  0
VERTEX
  8
PLAN_1
 62
     2
  6
CONTINUOUS
 10
-1.996961
 20
3.543413
  0
VERTEX
  8
PLAN_1
 62
     2
  6
CONTINUOUS
 10
-1.996063
 20
3.541165
  0
VERTEX
  8
PLAN_1
 62
     2
  6
CONTINUOUS
 10
-1.994717
 20
3.539370
  0
VERTEX
  8
PLAN_1
 62
     2
  6
CONTINUOUS
 10
-1.993815
 20
3.537122
  0
VERTEX
  8
PLAN_1
 62
     2
  6
CONTINUOUS
 10
-1.954713
 20
3.579370
  0
SEQEND
  8
0
  0
POLYLINE
  8
PLAN_1
 62
     2
  6
CONTINUOUS
 66
     1
 40
0.003000
 41
0.003000
  0
VERTEX
  8
PLAN_1
 62
     2
  6
CONTINUOUS
 10
-1.927744
 20
3.566335
  0
VERTEX
  8
PLAN_1
 62
     2
  6
CONTINUOUS
 10
-1.927744
 20
3.570382
  0
VERTEX
  8
PLAN_1
 62
     2
  6
CONTINUOUS
 10
-1.927295
 20
3.574425
  0
VERTEX
  8
PLAN_1
 62
     2
  6
CONTINUOUS
 10
-1.926398
 20
3.577571
  0
VERTEX
  8
PLAN_1
 62
     2
  6
CONTINUOUS
 10
-1.925047
 20
3.580268
  0
VERTEX
  8
PLAN_1
 62
     2
  6
CONTINUOUS
 10
-1.923701
 20
3.582965
  0
VERTEX
  8
PLAN_1
 62
     2
  6
CONTINUOUS
 10
-1.921902
 20
3.585213
  0
VERTEX
  8
PLAN_1
 62
     2
  6
CONTINUOUS
 10
-1.920106
 20
3.587012
  0
VERTEX
  8
PLAN_1
 62
     2
  6
CONTINUOUS
 10
-1.918307
 20
3.588358
  0
VERTEX
  8
PLAN_1
 62
     2
  6
CONTINUOUS
 10
-1.914264
 20
3.590606
  0
VERTEX
  8
PLAN_1
 62
     2
  6
CONTINUOUS
 10
-1.909768
 20
3.591504
  0
VERTEX
  8
PLAN_1
 62
     2
  6
CONTINUOUS
 10
-1.906173
 20
3.592406
  0
VERTEX
  8
PLAN_1
 62
     2
  6
CONTINUOUS
 10
-1.902575
 20
3.592406
  0
VERTEX
  8
PLAN_1
 62
     2
  6
CONTINUOUS
 10
-1.898083
 20
3.591957
  0
VERTEX
  8
PLAN_1
 62
     2
  6
CONTINUOUS
 10
-1.893587
 20
3.591055
  0
VERTEX
  8
PLAN_1
 62
     2
  6
CONTINUOUS
 10
-1.889992
 20
3.589260
  0
VERTEX
  8
PLAN_1
 62
     2
  6
CONTINUOUS
 10
-1.886398
 20
3.586563
  0
VERTEX
  8
PLAN_1
 62
     2
  6
CONTINUOUS
 10
-1.883701
 20
3.583413
  0
VERTEX
  8
PLAN_1
 62
     2
  6
CONTINUOUS
 10
-1.881453
 20
3.579819
  0
VERTEX
  8
PLAN_1
 62
     2
  6
CONTINUOUS
 10
-1.880551
 20
3.577571
  0
VERTEX
  8
PLAN_1
 62
     2
  6
CONTINUOUS
 10
-1.880102
 20
3.575327
  0
VERTEX
  8
PLAN_1
 62
     2
  6
CONTINUOUS
 10
-1.879654
 20
3.573079
  0
VERTEX
  8
PLAN_1
 62
     2
  6
CONTINUOUS
 10
-1.879654
 20
3.570831
  0
VERTEX
  8
PLAN_1
 62
     2
  6
CONTINUOUS
 10
-1.880102
 20
3.565886
  0
VERTEX
  8
PLAN_1
 62
     2
  6
CONTINUOUS
 10
-1.881453
 20
3.562291
  0
VERTEX
  8
PLAN_1
 62
     2
  6
CONTINUOUS
 10
-1.882799
 20
3.558697
  0
VERTEX
  8
PLAN_1
 62
     2
  6
CONTINUOUS
 10
-1.885496
 20
3.555547
  0
VERTEX
  8
PLAN_1
 62
     2
  6
CONTINUOUS
 10
-1.888193
 20
3.552850
  0
VERTEX
  8
PLAN_1
 62
     2
  6
CONTINUOUS
 10
-1.891787
 20
3.550606
  0
VERTEX
  8
PLAN_1
 62
     2
  6
CONTINUOUS
 10
-1.895386
 20
3.548358
  0
VERTEX
  8
PLAN_1
 62
     2
  6
CONTINUOUS
 10
-1.899429
 20
3.546110
  0
VERTEX
  8
PLAN_1
 62
     2
  6
CONTINUOUS
 10
-1.907071
 20
3.542067
  0
VERTEX
  8
PLAN_1
 62
     2
  6
CONTINUOUS
 10
-1.910217
 20
3.539819
  0
VERTEX
  8
PLAN_1
 62
     2
  6
CONTINUOUS
 10
-1.912913
 20
3.538020
  0
VERTEX
  8
PLAN_1
 62
     2
  6
CONTINUOUS
 10
-1.915161
 20
3.535772
  0
VERTEX
  8
PLAN_1
 62
     2
  6
CONTINUOUS
 10
-1.916961
 20
3.533976
  0
VERTEX
  8
PLAN_1
 62
     2
  6
CONTINUOUS
 10
-1.917858
 20
3.532177
  0
VERTEX
  8
PLAN_1
 62
     2
  6
CONTINUOUS
 10
-1.918756
 20
3.530378
  0
VERTEX
  8
PLAN_1
 62
     2
  6
CONTINUOUS
 10
-1.919205
 20
3.529031
  0
VERTEX
  8
PLAN_1
 62
     2
  6
CONTINUOUS
 10
-1.919657
 20
3.528134
  0
VERTEX
  8
PLAN_1
 62
     2
  6
CONTINUOUS
 10
-1.879654
 20
3.528134
  0
VERTEX
  8
PLAN_1
 62
     2
  6
CONTINUOUS
 10
-1.879654
 20
3.519142
  0
VERTEX
  8
PLAN_1
 62
     2
  6
CONTINUOUS
 10
-1.929543
 20
3.519142
  0
VERTEX
  8
PLAN_1
 62
     2
  6
CONTINUOUS
 10
-1.929094
 20
3.524535
  0
VERTEX
  8
PLAN_1
 62
     2
  6
CONTINUOUS
 10
-1.928197
 20
3.529480
  0
VERTEX
  8
PLAN_1
 62
     2
  6
CONTINUOUS
 10
-1.926846
 20
3.533524
  0
VERTEX
  8
PLAN_1
 62
     2
  6
CONTINUOUS
 10
-1.924598
 20
3.537571
  0
VERTEX
  8
PLAN_1
 62
     2
  6
CONTINUOUS
 10
-1.922350
 20
3.540717
  0
VERTEX
  8
PLAN_1
 62
     2
  6
CONTINUOUS
 10
-1.919205
 20
3.543413
  0
VERTEX
  8
PLAN_1
 62
     2
  6
CONTINUOUS
 10
-1.916059
 20
3.546110
  0
VERTEX
  8
PLAN_1
 62
     2
  6
CONTINUOUS
 10
-1.912465
 20
3.548358
  0
VERTEX
  8
PLAN_1
 62
     2
  6
CONTINUOUS
 10
-1.903028
 20
3.553752
  0
VERTEX
  8
PLAN_1
 62
     2
  6
CONTINUOUS
 10
-1.899878
 20
3.555547
  0
VERTEX
  8
PLAN_1
 62
     2
  6
CONTINUOUS
 10
-1.897634
 20
3.557346
  0
VERTEX
  8
PLAN_1
 62
     2
  6
CONTINUOUS
 10
-1.895386
 20
3.558697
  0
VERTEX
  8
PLAN_1
 62
     2
  6
CONTINUOUS
 10
-1.893138
 20
3.560492
  0
VERTEX
  8
PLAN_1
 62
     2
  6
CONTINUOUS
 10
-1.891787
 20
3.562740
  0
VERTEX
  8
PLAN_1
 62
     2
  6
CONTINUOUS
 10
-1.890441
 20
3.564988
  0
VERTEX
  8
PLAN_1
 62
     2
  6
CONTINUOUS
 10
-1.889543
 20
3.567685
  0
VERTEX
  8
PLAN_1
 62
     2
  6
CONTINUOUS
 10
-1.889543
 20
3.570831
  0
VERTEX
  8
PLAN_1
 62
     2
  6
CONTINUOUS
 10
-1.889543
 20
3.573079
  0
VERTEX
  8
PLAN_1
 62
     2
  6
CONTINUOUS
 10
-1.890441
 20
3.575776
  0
VERTEX
  8
PLAN_1
 62
     2
  6
CONTINUOUS
 10
-1.891339
 20
3.577571
  0
VERTEX
  8
PLAN_1
 62
     2
  6
CONTINUOUS
 10
-1.892689
 20
3.579819
  0
VERTEX
  8
PLAN_1
 62
     2
  6
CONTINUOUS
 10
-1.894484
 20
3.581618
  0
VERTEX
  8
PLAN_1
 62
     2
  6
CONTINUOUS
 10
-1.897181
 20
3.582965
  0
VERTEX
  8
PLAN_1
 62
     2
  6
CONTINUOUS
 10
-1.900331
 20
3.583866
  0
VERTEX
  8
PLAN_1
 62
     2
  6
CONTINUOUS
 10
-1.903925
 20
3.584315
  0
VERTEX
  8
PLAN_1
 62
     2
  6
CONTINUOUS
 10
-1.906622
 20
3.584315
  0
VERTEX
  8
PLAN_1
 62
     2
  6
CONTINUOUS
 10
-1.908417
 20
3.583866
  0
VERTEX
  8
PLAN_1
 62
     2
  6
CONTINUOUS
 10
-1.910217
 20
3.582965
  0
VERTEX
  8
PLAN_1
 62
     2
  6
CONTINUOUS
 10
-1.912016
 20
3.582067
  0
VERTEX
  8
PLAN_1
 62
     2
  6
CONTINUOUS
 10
-1.913362
 20
3.581169
  0
VERTEX
  8
PLAN_1
 62
     2
  6
CONTINUOUS
 10
-1.914713
 20
3.579819
  0
VERTEX
  8
PLAN_1
 62
     2
  6
CONTINUOUS
 10
-1.915610
 20
3.578472
  0
VERTEX
  8
PLAN_1
 62
     2
  6
CONTINUOUS
 10
-1.916508
 20
3.577122
  0
VERTEX
  8
PLAN_1
 62
     2
  6
CONTINUOUS
 10
-1.917409
 20
3.573976
  0
VERTEX
  8
PLAN_1
 62
     2
  6
CONTINUOUS
 10
-1.918307
 20
3.571280
  0
VERTEX
  8
PLAN_1
 62
     2
  6
CONTINUOUS
 10
-1.918756
 20
3.568583
  0
VERTEX
  8
PLAN_1
 62
     2
  6
CONTINUOUS
 10
-1.918756
 20
3.566335
  0
VERTEX
  8
PLAN_1
 62
     2
  6
CONTINUOUS
 10
-1.927744
 20
3.566335
  0
SEQEND
  8
0
  0
POLYLINE
  8
PLAN_1
 62
     2
  6
CONTINUOUS
 66
     1
 40
0.003000
 41
0.003000
  0
VERTEX
  8
PLAN_1
 62
     2
  6
CONTINUOUS
 10
-1.841000
 20
3.566335
  0
VERTEX
  8
PLAN_1
 62
     2
  6
CONTINUOUS
 10
-1.841000
 20
3.570382
  0
VERTEX
  8
PLAN_1
 62
     2
  6
CONTINUOUS
 10
-1.840102
 20
3.574425
  0
VERTEX
  8
PLAN_1
 62
     2
  6
CONTINUOUS
 10
-1.839201
 20
3.577571
  0
VERTEX
  8
PLAN_1
 62
     2
  6
CONTINUOUS
 10
-1.838303
 20
3.580268
  0
VERTEX
  8
PLAN_1
 62
     2
  6
CONTINUOUS
 10
-1.836957
 20
3.582965
  0
VERTEX
  8
PLAN_1
 62
     2
  6
CONTINUOUS
 10
-1.835157
 20
3.585213
  0
VERTEX
  8
PLAN_1
 62
     2
  6
CONTINUOUS
 10
-1.833358
 20
3.587012
  0
VERTEX
  8
PLAN_1
 62
     2
  6
CONTINUOUS
 10
-1.831563
 20
3.588358
  0
VERTEX
  8
PLAN_1
 62
     2
  6
CONTINUOUS
 10
-1.827067
 20
3.590606
  0
VERTEX
  8
PLAN_1
 62
     2
  6
CONTINUOUS
 10
-1.823024
 20
3.591504
  0
VERTEX
  8
PLAN_1
 62
     2
  6
CONTINUOUS
 10
-1.818976
 20
3.592406
  0
VERTEX
  8
PLAN_1
 62
     2
  6
CONTINUOUS
 10
-1.815831
 20
3.592406
  0
VERTEX
  8
PLAN_1
 62
     2
  6
CONTINUOUS
 10
-1.811335
 20
3.591957
  0
VERTEX
  8
PLAN_1
 62
     2
  6
CONTINUOUS
 10
-1.806843
 20
3.591055
  0
VERTEX
  8
PLAN_1
 62
     2
  6
CONTINUOUS
 10
-1.802795
 20
3.589260
  0
VERTEX
  8
PLAN_1
 62
     2
  6
CONTINUOUS
 10
-1.799650
 20
3.586563
  0
VERTEX
  8
PLAN_1
 62
     2
  6
CONTINUOUS
 10
-1.796953
 20
3.583413
  0
VERTEX
  8
PLAN_1
 62
     2
  6
CONTINUOUS
 10
-1.794705
 20
3.579819
  0
VERTEX
  8
PLAN_1
 62
     2
  6
CONTINUOUS
 10
-1.793807
 20
3.577571
  0
VERTEX
  8
PLAN_1
 62
     2
  6
CONTINUOUS
 10
-1.793358
 20
3.575327
  0
VERTEX
  8
PLAN_1
 62
     2
  6
CONTINUOUS
 10
-1.792909
 20
3.573079
  0
VERTEX
  8
PLAN_1
 62
     2
  6
CONTINUOUS
 10
-1.792909
 20
3.570831
  0
VERTEX
  8
PLAN_1
 62
     2
  6
CONTINUOUS
 10
-1.793358
 20
3.565886
  0
VERTEX
  8
PLAN_1
 62
     2
  6
CONTINUOUS
 10
-1.794256
 20
3.562291
  0
VERTEX
  8
PLAN_1
 62
     2
  6
CONTINUOUS
 10
-1.796055
 20
3.558697
  0
VERTEX
  8
PLAN_1
 62
     2
  6
CONTINUOUS
 10
-1.798752
 20
3.555547
  0
VERTEX
  8
PLAN_1
 62
     2
  6
CONTINUOUS
 10
-1.801449
 20
3.552850
  0
VERTEX
  8
PLAN_1
 62
     2
  6
CONTINUOUS
 10
-1.804594
 20
3.550606
  0
VERTEX
  8
PLAN_1
 62
     2
  6
CONTINUOUS
 10
-1.808638
 20
3.548358
  0
VERTEX
  8
PLAN_1
 62
     2
  6
CONTINUOUS
 10
-1.812236
 20
3.546110
  0
VERTEX
  8
PLAN_1
 62
     2
  6
CONTINUOUS
 10
-1.819878
 20
3.542067
  0
VERTEX
  8
PLAN_1
 62
     2
  6
CONTINUOUS
 10
-1.823472
 20
3.539819
  0
VERTEX
  8
PLAN_1
 62
     2
  6
CONTINUOUS
 10
-1.826169
 20
3.538020
  0
VERTEX
  8
PLAN_1
 62
     2
  6
CONTINUOUS
 10
-1.828417
 20
3.535772
  0
VERTEX
  8
PLAN_1
 62
     2
  6
CONTINUOUS
 10
-1.829764
 20
3.533976
  0
VERTEX
  8
PLAN_1
 62
     2
  6
CONTINUOUS
 10
-1.831114
 20
3.532177
  0
VERTEX
  8
PLAN_1
 62
     2
  6
CONTINUOUS
 10
-1.832012
 20
3.530378
  0
VERTEX
  8
PLAN_1
 62
     2
  6
CONTINUOUS
 10
-1.832461
 20
3.529031
  0
VERTEX
  8
PLAN_1
 62
     2
  6
CONTINUOUS
 10
-1.832461
 20
3.528134
  0
VERTEX
  8
PLAN_1
 62
     2
  6
CONTINUOUS
 10
-1.792909
 20
3.528134
  0
VERTEX
  8
PLAN_1
 62
     2
  6
CONTINUOUS
 10
-1.792909
 20
3.519142
  0
VERTEX
  8
PLAN_1
 62
     2
  6
CONTINUOUS
 10
-1.842799
 20
3.519142
  0
VERTEX
  8
PLAN_1
 62
     2
  6
CONTINUOUS
 10
-1.842350
 20
3.524535
  0
VERTEX
  8
PLAN_1
 62
     2
  6
CONTINUOUS
 10
-1.841449
 20
3.529480
  0
VERTEX
  8
PLAN_1
 62
     2
  6
CONTINUOUS
 10
-1.839654
 20
3.533524
  0
VERTEX
  8
PLAN_1
 62
     2
  6
CONTINUOUS
 10
-1.837854
 20
3.537571
  0
VERTEX
  8
PLAN_1
 62
     2
  6
CONTINUOUS
 10
-1.835157
 20
3.540717
  0
VERTEX
  8
PLAN_1
 62
     2
  6
CONTINUOUS
 10
-1.832461
 20
3.543413
  0
VERTEX
  8
PLAN_1
 62
     2
  6
CONTINUOUS
 10
-1.829315
 20
3.546110
  0
VERTEX
  8
PLAN_1
 62
     2
  6
CONTINUOUS
 10
-1.825720
 20
3.548358
  0
VERTEX
  8
PLAN_1
 62
     2
  6
CONTINUOUS
 10
-1.816280
 20
3.553752
  0
VERTEX
  8
PLAN_1
 62
     2
  6
CONTINUOUS
 10
-1.813134
 20
3.555547
  0
VERTEX
  8
PLAN_1
 62
     2
  6
CONTINUOUS
 10
-1.810886
 20
3.557346
  0
VERTEX
  8
PLAN_1
 62
     2
  6
CONTINUOUS
 10
-1.808189
 20
3.558697
  0
VERTEX
  8
PLAN_1
 62
     2
  6
CONTINUOUS
 10
-1.806394
 20
3.560492
  0
VERTEX
  8
PLAN_1
 62
     2
  6
CONTINUOUS
 10
-1.805043
 20
3.562740
  0
VERTEX
  8
PLAN_1
 62
     2
  6
CONTINUOUS
 10
-1.803697
 20
3.564988
  0
VERTEX
  8
PLAN_1
 62
     2
  6
CONTINUOUS
 10
-1.802795
 20
3.567685
  0
VERTEX
  8
PLAN_1
 62
     2
  6
CONTINUOUS
 10
-1.802795
 20
3.570831
  0
VERTEX
  8
PLAN_1
 62
     2
  6
CONTINUOUS
 10
-1.802795
 20
3.573079
  0
VERTEX
  8
PLAN_1
 62
     2
  6
CONTINUOUS
 10
-1.803248
 20
3.575776
  0
VERTEX
  8
PLAN_1
 62
     2
  6
CONTINUOUS
 10
-1.804594
 20
3.577571
  0
VERTEX
  8
PLAN_1
 62
     2
  6
CONTINUOUS
 10
-1.805941
 20
3.579819
  0
VERTEX
  8
PLAN_1
 62
     2
  6
CONTINUOUS
 10
-1.807740
 20
3.581618
  0
VERTEX
  8
PLAN_1
 62
     2
  6
CONTINUOUS
 10
-1.810437
 20
3.582965
  0
VERTEX
  8
PLAN_1
 62
     2
  6
CONTINUOUS
 10
-1.813583
 20
3.583866
  0
VERTEX
  8
PLAN_1
 62
     2
  6
CONTINUOUS
 10
-1.817181
 20
3.584315
  0
VERTEX
  8
PLAN_1
 62
     2
  6
CONTINUOUS
 10
-1.819425
 20
3.584315
  0
VERTEX
  8
PLAN_1
 62
     2
  6
CONTINUOUS
 10
-1.821673
 20
3.583866
  0
VERTEX
  8
PLAN_1
 62
     2
  6
CONTINUOUS
 10
-1.823472
 20
3.582965
  0
VERTEX
  8
PLAN_1
 62
     2
  6
CONTINUOUS
 10
-1.825268
 20
3.582067
  0
VERTEX
  8
PLAN_1
 62
     2
  6
CONTINUOUS
 10
-1.826618
 20
3.581169
  0
VERTEX
  8
PLAN_1
 62
     2
  6
CONTINUOUS
 10
-1.827965
 20
3.579819
  0
VERTEX
  8
PLAN_1
 62
     2
  6
CONTINUOUS
 10
-1.828866
 20
3.578472
  0
VERTEX
  8
PLAN_1
 62
     2
  6
CONTINUOUS
 10
-1.829764
 20
3.577122
  0
VERTEX
  8
PLAN_1
 62
     2
  6
CONTINUOUS
 10
-1.830661
 20
3.573976
  0
VERTEX
  8
PLAN_1
 62
     2
  6
CONTINUOUS
 10
-1.831563
 20
3.571280
  0
VERTEX
  8
PLAN_1
 62
     2
  6
CONTINUOUS
 10
-1.831563
 20
3.568583
  0
VERTEX
  8
PLAN_1
 62
     2
  6
CONTINUOUS
 10
-1.832012
 20
3.566335
  0
VERTEX
  8
PLAN_1
 62
     2
  6
CONTINUOUS
 10
-1.841000
 20
3.566335
  0
SEQEND
  8
0
  0
ENDSEC
  0
EOF
