999
DXF file: C:\Users\sesa63760\Dev\_Creo\CAD\MCADID0004065_3D-CAD\drw0001_4.dxf
999
Pro/ENGINEER 2019471 by Parametric Technology Corporation
  0
SECTION
  2
HEADER
  9
$ACADVER
  1
AC1024
  9
$DWGCODEPAGE
  3
ANSI_1252
  9
$EXTMAX
 10
82.1695406374
 20
116.2112074729
 30
0.0
  9
$EXTMIN
 10
0.0
 20
0.0
 30
0.0
  9
$LIMMIN
 10
0.0
 20
0.0
  9
$LIMMAX
 10
82.1695406374
 20
116.2112074729
  9
$VIEWCTR
 10
41.0847703187
 20
58.1056037365
  9
$VIEWSIZE
 40
116.2112074729
  9
$CLAYER
  8
0
  9
$LTSCALE
 40
7.5752490797
  9
$CELTYPE
  6
BYLAYER
  9
$DIMSCALE
 40
1.0
  9
$DIMASZ
 40
0.9782088171
  9
$DIMEXO
 40
1.0
  9
$DIMDLI
 40
5.2338084551
  9
$DIMEXE
 40
1.0
  9
$DIMCEN
 40
1.239586213
  9
$DIMLFAC
 40
1.0
  9
$DIMBLK
  1
_FILLED
  9
$DIMALT
 70
0
  9
$DIMALTF
 40
0.0393700787
  9
$DIMTXT
 40
1.369492344
  9
$DIMTOL
 70
1
  9
$DIMLIM
 70
0
  9
$DIMTFAC
 40
1.0
  9
$DIMTP
 40
0.01
  9
$DIMTM
 40
0.01
  9
$DIMGAP
 40
0.625
  9
$DIMDSEP
 70
46
  9
$AUNITS
 70
0
  9
$PDMODE
 70
3
  9
$PDSIZE
 40
0.3125
  9
$HANDSEED
  5
250
  9
$TILEMODE
 70
1
  9
$MEASUREMENT
 70
1
  9
$INSUNITS
 70
4
  0
ENDSEC
  0
SECTION
  2
CLASSES
  0
CLASS
  1
ACDBDICTIONARYWDFLT
  2
AcDbDictionaryWithDefault
  3
AutoCAD 2000
 90
0
 91
1
280
0
281
0
  0
CLASS
  1
ACDBPLACEHOLDER
  2
AcDbPlaceHolder
  3
AutoCAD 2000
 90
0
 91
1
280
0
281
0
  0
CLASS
  1
LAYOUT
  2
AcDbLayout
  3
AutoCAD 2000
 90
0
 91
0
280
0
281
0
  0
ENDSEC
  0
SECTION
  2
TABLES
  0
TABLE
  2
VPORT
  5
8
100
AcDbSymbolTable
 70
2
  0
VPORT
  5
1F4
100
AcDbSymbolTableRecord
100
AcDbViewportTableRecord
  2
*ACTIVE
 70
0
 10
0.0
 20
0.0
 11
1.0
 21
1.0
 12
41.0847703187
 22
58.1056037365
 13
0.0
 23
0.0
 14
1.0
 24
1.0
 15
0.0
 25
0.0
 16
0.0
 26
0.0
 36
1.0
 17
0.0
 27
0.0
 37
0.0
 40
116.2112074729
 41
0.7070707071
 42
50.0
 43
0.0
 44
0.0
 50
0.0
 51
0.0
 71
0
 72
100
 73
1
 74
1
 75
0
 76
0
 77
0
 78
0
  0
ENDTAB
  0
TABLE
  2
LTYPE
  5
5
100
AcDbSymbolTable
 70
6
  0
LTYPE
  5
14
100
AcDbSymbolTableRecord
100
AcDbLinetypeTableRecord
  2
BYBLOCK
 70
0
  3

 72
65
 73
0
 40
0.0
  0
LTYPE
  5
15
100
AcDbSymbolTableRecord
100
AcDbLinetypeTableRecord
  2
BYLAYER
 70
0
  3

 72
65
 73
0
 40
0.0
  0
LTYPE
  5
16
100
AcDbSymbolTableRecord
100
AcDbLinetypeTableRecord
  2
CONTINUOUS
 70
64
  3
Solid line
 72
65
 73
0
 40
0.0
  0
LTYPE
  5
1F5
100
AcDbSymbolTableRecord
100
AcDbLinetypeTableRecord
  2
CENTER
 70
64
  3
____ _ ____ _ ____ _ ____ _ ____ _ ____ _ ____
 72
65
 73
4
 40
0.6
 49
0.375
 74
0
 49
-0.075
 74
0
 49
0.075
 74
0
 49
-0.075
 74
0
  0
LTYPE
  5
1F6
100
AcDbSymbolTableRecord
100
AcDbLinetypeTableRecord
  2
HIDDEN
 70
64
  3
- - - - - - - - - - - - - - - - - - - -
 72
65
 73
2
 40
0.2
 49
0.1
 74
0
 49
-0.1
 74
0
  0
LTYPE
  5
1F7
100
AcDbSymbolTableRecord
100
AcDbLinetypeTableRecord
  2
PHANTOM
 70
64
  3
_____ _ _ _____ _ _ _____ _ _ _____
 72
65
 73
6
 40
0.8
 49
0.45
 74
0
 49
-0.05
 74
0
 49
0.1
 74
0
 49
-0.05
 74
0
 49
0.1
 74
0
 49
-0.05
 74
0
  0
LTYPE
  5
1F8
100
AcDbSymbolTableRecord
100
AcDbLinetypeTableRecord
  2
DOT
 70
64
  3
. . . . . . . . . . . . . . . . . . . .
 72
65
 73
2
 40
0.2
 49
0.1
 74
0
 49
-0.1
 74
0
  0
LTYPE
  5
1F9
100
AcDbSymbolTableRecord
100
AcDbLinetypeTableRecord
  2
DASHED
 70
64
  3
- - - - - - - - - - - - - - - - - - - -
 72
65
 73
2
 40
0.2
 49
0.1
 74
0
 49
-0.1
 74
0
  0
ENDTAB
  0
TABLE
  2
LAYER
  5
2
100
AcDbSymbolTable
 70
36
  0
LAYER
  5
10
100
AcDbSymbolTableRecord
100
AcDbLayerTableRecord
  2
0
 70
0
 62
7
  6
CONTINUOUS
370
-3
390
F
  0
LAYER
  5
1FA
100
AcDbSymbolTableRecord
100
AcDbLayerTableRecord
  2
DEFAULT_1
 70
0
 62
7
  6
CENTER
370
-3
390
F
  0
LAYER
  5
1FB
100
AcDbSymbolTableRecord
100
AcDbLayerTableRecord
  2
DEFAULT_2
 70
0
 62
7
  6
HIDDEN
370
-3
390
F
  0
LAYER
  5
1FC
100
AcDbSymbolTableRecord
100
AcDbLayerTableRecord
  2
DEFAULT_3
 70
0
 62
7
  6
PHANTOM
370
-3
390
F
  0
LAYER
  5
1FD
100
AcDbSymbolTableRecord
100
AcDbLayerTableRecord
  2
00_COMPONENTS
 70
0
 62
7
  6
CONTINUOUS
370
-3
390
F
  0
LAYER
  5
1FE
100
AcDbSymbolTableRecord
100
AcDbLayerTableRecord
  2
01_1_DEFAULT_DATUMS
 70
0
 62
7
  6
CONTINUOUS
370
-3
390
F
  0
LAYER
  5
1FF
100
AcDbSymbolTableRecord
100
AcDbLayerTableRecord
  2
01_PLANES
 70
0
 62
7
  6
CONTINUOUS
370
-3
390
F
  0
LAYER
  5
200
100
AcDbSymbolTableRecord
100
AcDbLayerTableRecord
  2
02_COORD_SYS
 70
0
 62
7
  6
CONTINUOUS
370
-3
390
F
  0
LAYER
  5
201
100
AcDbSymbolTableRecord
100
AcDbLayerTableRecord
  2
03_AXES
 70
0
 62
7
  6
CONTINUOUS
370
-3
390
F
  0
LAYER
  5
202
100
AcDbSymbolTableRecord
100
AcDbLayerTableRecord
  2
04_POINTS
 70
0
 62
7
  6
CONTINUOUS
370
-3
390
F
  0
LAYER
  5
203
100
AcDbSymbolTableRecord
100
AcDbLayerTableRecord
  2
05_CURVES
 70
0
 62
7
  6
CONTINUOUS
370
-3
390
F
  0
LAYER
  5
204
100
AcDbSymbolTableRecord
100
AcDbLayerTableRecord
  2
06_SURFS
 70
0
 62
7
  6
CONTINUOUS
370
-3
390
F
  0
LAYER
  5
205
100
AcDbSymbolTableRecord
100
AcDbLayerTableRecord
  2
07_COSMETICS
 70
0
 62
7
  6
CONTINUOUS
370
-3
390
F
  0
LAYER
  5
206
100
AcDbSymbolTableRecord
100
AcDbLayerTableRecord
  2
10_NOTES
 70
0
 62
7
  6
CONTINUOUS
370
-3
390
F
  0
LAYER
  5
207
100
AcDbSymbolTableRecord
100
AcDbLayerTableRecord
  2
11_NOTES_PUB
 70
0
 62
7
  6
CONTINUOUS
370
-3
390
F
  0
LAYER
  5
208
100
AcDbSymbolTableRecord
100
AcDbLayerTableRecord
  2
13_REF_GTOL
 70
0
 62
7
  6
CONTINUOUS
370
-3
390
F
  0
LAYER
  5
209
100
AcDbSymbolTableRecord
100
AcDbLayerTableRecord
  2
16_MISC
 70
0
 62
7
  6
CONTINUOUS
370
-3
390
F
  0
LAYER
  5
20A
100
AcDbSymbolTableRecord
100
AcDbLayerTableRecord
  2
17_NO_PRINT
 70
0
 62
7
  6
CONTINUOUS
370
-3
390
F
  0
LAYER
  5
20B
100
AcDbSymbolTableRecord
100
AcDbLayerTableRecord
  2
18_DATUM_CAMS_JOINTS
 70
0
 62
7
  6
CONTINUOUS
370
-3
390
F
  0
LAYER
  5
20C
100
AcDbSymbolTableRecord
100
AcDbLayerTableRecord
  2
19_DATUM_FUNCTIONAL
 70
0
 62
7
  6
CONTINUOUS
370
-3
390
F
  0
LAYER
  5
20D
100
AcDbSymbolTableRecord
100
AcDbLayerTableRecord
  2
20_DATUM_KINEMATIC_SCHEME
 70
0
 62
7
  6
CONTINUOUS
370
-3
390
F
  0
ENDTAB
  0
TABLE
  2
STYLE
  5
3
100
AcDbSymbolTable
 70
1
  0
STYLE
  5
11
100
AcDbSymbolTableRecord
100
AcDbTextStyleTableRecord
  2
STANDARD
 70
0
 40
0.0
 41
1.0
 50
0.0
 71
0
 42
0.2
  3
ARIAL.TTF
  4

  0
STYLE
  5
20E
100
AcDbSymbolTableRecord
100
AcDbTextStyleTableRecord
  2
TEXTSTYLE_1
 70
0
 40
0.0
 41
0.8
 50
0.0
 71
0
 42
0.2
  3
gdt
  4

  0
ENDTAB
  0
TABLE
  2
VIEW
  5
6
100
AcDbSymbolTable
 70
0
  0
ENDTAB
  0
TABLE
  2
UCS
  5
7
100
AcDbSymbolTable
 70
0
  0
ENDTAB
  0
TABLE
  2
APPID
  5
9
100
AcDbSymbolTable
 70
1
  0
APPID
  5
20F
100
AcDbSymbolTableRecord
100
AcDbRegAppTableRecord
  2
ACAD
 70
0
  0
ENDTAB
  0
TABLE
  2
BLOCK_RECORD
  5
1
100
AcDbSymbolTable
 70
0
  0
BLOCK_RECORD
  5
210
100
AcDbSymbolTableRecord
100
AcDbBlockTableRecord
  2
*Model_Space
  0
BLOCK_RECORD
  5
211
100
AcDbSymbolTableRecord
100
AcDbBlockTableRecord
  2
*Paper_Space
  0
BLOCK_RECORD
  5
212
100
AcDbSymbolTableRecord
100
AcDbBlockTableRecord
  2
_FILLED
  0
ENDTAB
  0
TABLE
  2
DIMSTYLE
  5
A
100
AcDbSymbolTable
 70
1
100
AcDbDimStyleTable
 71
0
  0
DIMSTYLE
105
213
100
AcDbSymbolTableRecord
100
AcDbDimStyleTableRecord
  2
STANDARD
 70
0
  3

  4

 40
1.0
 41
0.9782088171
 42
1.0
 43
0.38
 44
1.0
 45
0.0
 46
0.0
 47
0.01
 48
0.01
140
1.369492344
141
0.09
142
0.0
143
25.4
144
1.0
145
0.0
146
1.0
147
0.625
 71
1
 72
0
 73
0
 74
0
 75
0
 76
0
 77
1
 78
8
 79
2
170
0
171
1
172
0
173
0
174
0
175
0
176
0
177
0
178
0
270
2
179
2
271
2
272
2
273
2
274
2
275
0
280
0
281
0
282
0
283
1
284
8
285
0
286
0
287
3
288
0
340
11
278
46
341
212
342
212
343
212
344
212
  0
ENDTAB
  0
ENDSEC
  0
SECTION
  2
BLOCKS
  0
BLOCK
  5
20
100
AcDbEntity
  8
0
100
AcDbBlockBegin
  2
*Model_Space
 70
0
 10
0.0
 20
0.0
 30
0.0
  3
*Model_Space
  1

  0
ENDBLK
  5
21
100
AcDbEntity
  8
0
100
AcDbBlockEnd
  0
BLOCK
  5
1C
100
AcDbEntity
  8
0
100
AcDbBlockBegin
  2
*Paper_Space
 70
0
 10
0.0
 20
0.0
 30
0.0
  3
*Paper_Space
  1

  0
ENDBLK
  5
1D
100
AcDbEntity
  8
0
100
AcDbBlockEnd
  0
BLOCK
  5
214
100
AcDbEntity
  8
0
100
AcDbBlockBegin
  2
_FILLED
 70
64
 10
0.0
 20
0.0
  3
_FILLED
  1

  0
SOLID
  5
215
100
AcDbEntity
  8
0
  6
BYBLOCK
 62
0
100
AcDbTrace
 10
0.0
 20
0.0
 11
-1.0
 21
0.25
 12
-1.0
 22
-0.25
 13
-1.0
 23
-0.25
  0
ENDBLK
  5
216
100
AcDbEntity
  8
0
  6
BYBLOCK
 62
0
100
AcDbBlockEnd
  0
ENDSEC
  0
SECTION
  2
ENTITIES
  0
LINE
  5
217
100
AcDbEntity
  8
0
100
AcDbLine
 62
7
  6
BYLAYER
 10
34.9695589807
 20
54.0000254646
 11
34.9695589807
 21
58.2999751083
  0
LINE
  5
218
100
AcDbEntity
  8
0
100
AcDbLine
 62
7
  6
BYLAYER
 10
75.1515558259
 20
51.2500002864
 11
72.1515558259
 21
51.2500002864
  0
LINE
  5
219
100
AcDbEntity
  8
0
100
AcDbLine
 62
7
  6
BYLAYER
 10
54.7607204169
 20
51.2500002864
 11
49.1515558259
 21
51.2500002864
  0
LINE
  5
21A
100
AcDbEntity
  8
0
100
AcDbLine
 62
7
  6
BYLAYER
 10
72.1515558259
 20
51.4585649832
 11
54.760699201
 21
51.4567806652
  0
LINE
  5
21B
100
AcDbEntity
  8
0
100
AcDbLine
 62
7
  6
BYLAYER
 10
48.9695589807
 20
51.5014553802
 11
49.1537241863
 21
51.5014553802
  0
LINE
  5
21C
100
AcDbEntity
  8
0
100
AcDbLine
 62
7
  6
BYLAYER
 10
43.7695589807
 20
51.865747295
 11
48.9695589807
 21
51.5014553802
  0
LINE
  5
21D
100
AcDbEntity
  8
0
100
AcDbLine
 62
7
  6
BYLAYER
 10
34.9695589807
 20
54.0000254646
 11
37.9695602098
 21
53.6500253211
  0
LINE
  5
21E
100
AcDbEntity
  8
0
100
AcDbLine
 62
7
  6
BYLAYER
 10
41.3695589807
 20
52.4104392413
 11
42.9700620298
 21
52.0187115895
  0
LINE
  5
21F
100
AcDbEntity
  8
0
100
AcDbLine
 62
7
  6
BYLAYER
 10
39.3695589807
 20
53.0691472444
 11
40.5702591614
 21
52.6504055849
  0
LINE
  5
220
100
AcDbEntity
  8
0
100
AcDbLine
 62
7
  6
BYLAYER
 10
37.9695602098
 20
53.6500253211
 11
38.5743439657
 21
53.3865082238
  0
LINE
  5
221
100
AcDbEntity
  8
0
100
AcDbLine
 62
7
  6
BYLAYER
 10
37.9695602098
 20
53.6500253211
 11
37.9695602098
 21
58.6499752517
  0
LINE
  5
222
100
AcDbEntity
  8
0
100
AcDbLine
 62
7
  6
BYLAYER
 10
38.5743439657
 20
58.913492349
 11
38.5743439657
 21
53.3865082238
  0
LINE
  5
223
100
AcDbEntity
  8
0
100
AcDbLine
 62
7
  6
BYLAYER
 10
39.3695589807
 20
53.0691565853
 11
39.3695589807
 21
59.2308533285
  0
LINE
  5
224
100
AcDbEntity
  8
0
100
AcDbLine
 62
7
  6
BYLAYER
 10
38.5743439657
 20
58.913492349
 11
37.9695602098
 21
58.6499752517
  0
LINE
  5
225
100
AcDbEntity
  8
0
100
AcDbLine
 62
7
  6
BYLAYER
 10
39.3695589807
 20
59.2308533285
 11
40.5702591614
 21
59.6495949879
  0
LINE
  5
226
100
AcDbEntity
  8
0
100
AcDbLine
 62
7
  6
BYLAYER
 10
9.6158595187
 20
54.0500254646
 11
34.9695589807
 21
54.0500254646
  0
LINE
  5
227
100
AcDbEntity
  8
0
100
AcDbLine
 62
7
  6
BYLAYER
 10
40.5702591614
 20
52.6504055849
 11
40.5702591614
 21
59.6495949879
  0
LINE
  5
228
100
AcDbEntity
  8
0
100
AcDbLine
 62
7
  6
BYLAYER
 10
41.3695589807
 20
52.4104392413
 11
41.3695589807
 21
59.8895613316
  0
LINE
  5
229
100
AcDbEntity
  8
0
100
AcDbLine
 62
7
  6
BYLAYER
 10
42.9700620298
 20
60.2812889833
 11
42.9700620298
 21
52.0187115895
  0
LINE
  5
22A
100
AcDbEntity
  8
0
100
AcDbLine
 62
7
  6
BYLAYER
 10
43.7695589807
 20
51.8659134222
 11
43.7695589807
 21
60.4342532779
  0
LINE
  5
22B
100
AcDbEntity
  8
0
100
AcDbLine
 62
7
  6
BYLAYER
 10
42.9700620298
 20
60.2812889833
 11
41.3695589807
 21
59.8895613316
  0
LINE
  5
22C
100
AcDbEntity
  8
0
100
AcDbLine
 62
7
  6
BYLAYER
 10
37.9695602098
 20
58.6499752517
 11
34.9695589807
 21
58.2999751083
  0
LINE
  5
22D
100
AcDbEntity
  8
0
100
AcDbLine
 62
7
  6
BYLAYER
 10
34.9695589807
 20
58.2499751083
 11
9.6158595187
 21
58.2499751083
  0
LINE
  5
22E
100
AcDbEntity
  8
0
100
AcDbLine
 62
7
  6
BYLAYER
 10
49.2274404355
 20
60.0500002864
 11
56.0200020365
 21
60.0500002864
  0
LINE
  5
22F
100
AcDbEntity
  8
0
100
AcDbLine
 62
7
  6
BYLAYER
 10
43.7695589807
 20
60.4342532779
 11
48.9695589807
 21
60.7985451926
  0
LINE
  5
230
100
AcDbEntity
  8
0
100
AcDbLine
 62
7
  6
BYLAYER
 10
49.2338953261
 20
60.7985451926
 11
48.9695589807
 21
60.7985451926
  0
LINE
  5
231
100
AcDbEntity
  8
0
100
AcDbLine
 62
7
  6
BYLAYER
 10
48.9695589807
 20
51.5014553802
 11
48.9695589807
 21
60.7985451926
  0
LINE
  5
232
100
AcDbEntity
  8
0
100
AcDbLine
 62
7
  6
BYLAYER
 10
56.0119836235
 20
63.2587268219
 11
74.1861772365
 21
63.2587268219
  0
LINE
  5
233
100
AcDbEntity
  8
0
100
AcDbLine
 62
7
  6
BYLAYER
 10
54.1395312388
 20
63.7500002864
 11
54.7905286765
 21
63.7500002864
  0
LINE
  5
234
100
AcDbEntity
  8
0
100
AcDbLine
 62
7
  6
BYLAYER
 10
49.5112110962
 20
64.2500002864
 11
74.7922022146
 21
64.2500002864
  0
LINE
  5
235
100
AcDbEntity
  8
0
100
AcDbLine
 62
7
  6
BYLAYER
 10
49.2612523685
 20
63.9710194856
 11
49.1515558259
 21
51.2500002864
  0
LINE
  5
236
100
AcDbEntity
  8
0
100
AcDbLine
 62
7
  6
BYLAYER
 10
53.0004354593
 20
64.2500002864
 11
53.0004354593
 21
60.0500002864
  0
LINE
  5
237
100
AcDbEntity
  8
0
100
AcDbLine
 62
7
  6
BYLAYER
 10
54.1395312388
 20
64.2500002864
 11
54.1395312388
 21
63.7500002864
  0
LINE
  5
238
100
AcDbEntity
  8
0
100
AcDbLine
 62
7
  6
BYLAYER
 10
54.760699201
 20
51.4567806652
 11
54.7607204169
 21
51.2500002864
  0
LINE
  5
239
100
AcDbEntity
  8
0
100
AcDbLine
 62
7
  6
BYLAYER
 10
54.7905286765
 20
64.2500002864
 11
54.7905286765
 21
63.7500002864
  0
LINE
  5
23A
100
AcDbEntity
  8
0
100
AcDbLine
 62
7
  6
BYLAYER
 10
54.9210194568
 20
60.0500002864
 11
54.9210194568
 21
64.2500002864
  0
LINE
  5
23B
100
AcDbEntity
  8
0
100
AcDbLine
 62
7
  6
BYLAYER
 10
56.0200020365
 20
60.0500002864
 11
56.0119836235
 21
63.2587268219
  0
LINE
  5
23C
100
AcDbEntity
  8
0
100
AcDbLine
 62
7
  6
BYLAYER
 10
75.0421396124
 20
63.9734930007
 11
75.1515558259
 21
51.2529075164
  0
LINE
  5
23D
100
AcDbEntity
  8
0
100
AcDbLine
 62
7
  6
BYLAYER
 10
72.1515558259
 20
51.2500002864
 11
72.1515558259
 21
51.4585649832
  0
ARC
  5
23E
100
AcDbEntity
  8
0
100
AcDbCircle
 62
7
  6
BYLAYER
 10
38.9695491187
 20
53.3246957912
 40
0.4000098621
100
AcDbArc
 50
0.0013070689
 51
171.1106194075
  0
ARC
  5
23F
100
AcDbEntity
  8
0
100
AcDbCircle
 62
7
  6
BYLAYER
 10
38.9695491187
 20
58.9753047816
 40
0.4000098621
100
AcDbArc
 50
188.8893805925
 51
359.9986929311
  0
ARC
  5
240
100
AcDbEntity
  8
0
100
AcDbCircle
 62
7
  6
BYLAYER
 10
40.9695640913
 20
52.6267296987
 40
0.4000062181
100
AcDbArc
 50
359.5687841646
 51
176.6067485891
  0
ARC
  5
241
100
AcDbEntity
  8
0
100
AcDbCircle
 62
7
  6
BYLAYER
 10
40.9695640913
 20
59.6732708741
 40
0.4000062181
100
AcDbArc
 50
183.3932514109
 51
0.4312158354
  0
ARC
  5
242
100
AcDbEntity
  8
0
100
AcDbCircle
 62
7
  6
BYLAYER
 10
43.3695589807
 20
52.0387661691
 40
0.4
100
AcDbArc
 50
0.0
 51
180.0
  0
ARC
  5
243
100
AcDbEntity
  8
0
100
AcDbCircle
 62
7
  6
BYLAYER
 10
43.3695589807
 20
60.2612344038
 40
0.4
100
AcDbArc
 50
180.0
 51
360.0
  0
ARC
  5
244
100
AcDbEntity
  8
0
100
AcDbCircle
 62
7
  6
BYLAYER
 10
74.7615499921
 20
63.9710795069
 40
0.2806
100
AcDbArc
 50
0.4928179328
 51
83.728600356
  0
ARC
  5
245
100
AcDbEntity
  8
0
100
AcDbCircle
 62
7
  6
BYLAYER
 10
49.5418633187
 20
63.9710795069
 40
0.2806
100
AcDbArc
 50
96.271399644
 51
179.5059363532
  0
SPLINE
  5
246
100
AcDbEntity
  8
0
100
AcDbSpline
 62
7
  6
BYLAYER
 70
0
 71
3
 72
18
 73
14
 74
0
 42
0.0000001
 43
0.0000001
 44
0.0000000001
 40
0.0
 40
0.0
 40
0.0
 40
0.0
 40
0.1774669642
 40
0.3492606676
 40
0.5084974194
 40
0.5809418648
 40
0.647250601
 40
0.7071336822
 40
0.7608893355
 40
0.852878908
 40
0.9307138014
 40
0.9661893343
 40
1.0
 40
1.0
 40
1.0
 40
1.0
 10
9.6154302219
 20
56.1489433965
 30
0.0
 10
9.5620490672
 20
56.0164142796
 30
0.0
 10
9.4540906223
 20
55.7567549537
 30
0.0
 10
9.3029648005
 20
55.3763408112
 30
0.0
 10
9.2042256847
 20
55.0659569262
 30
0.0
 10
9.1599585656
 20
54.8298031325
 30
0.0
 10
9.1479694364
 20
54.6699071581
 30
0.0
 10
9.1580904602
 20
54.5247554284
 30
0.0
 10
9.1965386571
 20
54.3630825842
 30
0.0
 10
9.2860320667
 20
54.2013786383
 30
0.0
 10
9.4203433416
 20
54.096709563
 30
0.0
 10
9.5326748256
 20
54.056787631
 30
0.0
 10
9.5886390818
 20
54.0500254646
 30
0.0
 10
9.6158595187
 20
54.0500254646
 30
0.0
  0
SPLINE
  5
247
100
AcDbEntity
  8
0
100
AcDbSpline
 62
7
  6
BYLAYER
 70
0
 71
3
 72
18
 73
14
 74
0
 42
0.0000001
 43
0.0000001
 44
0.0000000001
 40
0.0
 40
0.0
 40
0.0
 40
0.0
 40
0.051184271
 40
0.1070189734
 40
0.2297791379
 40
0.3625139736
 40
0.4997756852
 40
0.6369608531
 40
0.7697009566
 40
0.8328569819
 40
0.8927961626
 40
0.948778831
 40
1.0
 40
1.0
 40
1.0
 40
1.0
 10
10.0091272974
 20
54.6650938496
 30
0.0
 10
10.0091272974
 20
54.7181295764
 30
0.0
 10
10.0032272392
 20
54.8290488485
 30
0.0
 10
9.9714880024
 20
55.0652015966
 30
0.0
 10
9.8959655697
 20
55.3796198511
 30
0.0
 10
9.7675717845
 20
55.7660413587
 30
0.0
 10
9.6138001537
 20
56.1590518853
 30
0.0
 10
9.4519042827
 20
56.5486178285
 30
0.0
 10
9.3245330627
 20
56.8695407678
 30
0.0
 10
9.2403712829
 20
57.1210081828
 30
0.0
 10
9.1915684461
 20
57.3001975141
 30
0.0
 10
9.1600445214
 20
57.4707147922
 30
0.0
 10
9.1515805052
 20
57.5818327637
 30
0.0
 10
9.1515805052
 20
57.6349067233
 30
0.0
  0
SPLINE
  5
248
100
AcDbEntity
  8
0
100
AcDbSpline
 62
7
  6
BYLAYER
 70
0
 71
3
 72
12
 73
8
 74
0
 42
0.0000001
 43
0.0000001
 44
0.0000000001
 40
0.0
 40
0.0
 40
0.0
 40
0.0
 40
0.3211950397
 40
0.5822935977
 40
0.8032891463
 40
0.904012854
 40
1.0
 40
1.0
 40
1.0
 40
1.0
 10
9.1515805052
 20
57.6349067233
 30
0.0
 10
9.1515805052
 20
57.7260678461
 30
0.0
 10
9.1729167271
 20
57.8937382878
 30
0.0
 10
9.2857356374
 20
58.098356152
 30
0.0
 10
9.420183672
 20
58.203227772
 30
0.0
 10
9.5326005214
 20
58.2432119725
 30
0.0
 10
9.5886165824
 20
58.2499751083
 30
0.0
 10
9.6158595187
 20
58.2499751083
 30
0.0
  0
SPLINE
  5
249
100
AcDbEntity
  8
0
100
AcDbSpline
 62
7
  6
BYLAYER
 70
0
 71
3
 72
15
 73
11
 74
0
 42
0.0000001
 43
0.0000001
 44
0.0000000001
 40
0.0
 40
0.0
 40
0.0
 40
0.0
 40
0.0968691602
 40
0.1943187842
 40
0.2959903366
 40
0.4060754562
 40
0.5287350628
 40
0.6673273227
 40
0.8242181688
 40
1.0
 40
1.0
 40
1.0
 40
1.0
 10
9.6158595187
 20
54.0500254646
 30
0.0
 10
9.6421189527
 20
54.0500254646
 30
0.0
 10
9.6950408262
 20
54.0562055632
 30
0.0
 10
9.7707294301
 20
54.0852355594
 30
0.0
 10
9.8396734419
 20
54.1344218498
 30
0.0
 10
9.8993760511
 20
54.2036764585
 30
0.0
 10
9.9477338735
 20
54.2926999833
 30
0.0
 10
9.9833693442
 20
54.4008377321
 30
0.0
 10
10.0048200108
 20
54.5271566455
 30
0.0
 10
10.0091272974
 20
54.617442653
 30
0.0
 10
10.0091272974
 20
54.6650938496
 30
0.0
  0
SPLINE
  5
24A
100
AcDbEntity
  8
0
100
AcDbSpline
 62
7
  6
BYLAYER
 70
0
 71
3
 72
17
 73
13
 74
0
 42
0.0000001
 43
0.0000001
 44
0.0000000001
 40
0.0
 40
0.0
 40
0.0
 40
0.0
 40
0.0727136406
 40
0.1449251583
 40
0.2163685306
 40
0.2868969991
 40
0.424742742
 40
0.5574910751
 40
0.6836579974
 40
0.8012790926
 40
0.9077993258
 40
1.0
 40
1.0
 40
1.0
 40
1.0
 10
74.1861731981
 20
63.2587268219
 30
0.0
 10
74.1870111951
 20
63.2884568098
 30
0.0
 10
74.1955771532
 20
63.3476770339
 30
0.0
 10
74.2252049432
 20
63.4314761763
 30
0.0
 10
74.2657588682
 20
63.5093562029
 30
0.0
 10
74.3282818477
 20
63.6053598874
 30
0.0
 10
74.4158097255
 20
63.714374489
 30
0.0
 10
74.5264490205
 20
63.8331878173
 30
0.0
 10
74.636983149
 20
63.9405155748
 30
0.0
 10
74.7439052103
 20
64.0359687088
 30
0.0
 10
74.844171329
 20
64.117807915
 30
0.0
 10
74.9099396916
 20
64.1657257678
 30
0.0
 10
74.9414881052
 20
64.1863880699
 30
0.0
  0
SPLINE
  5
24B
100
AcDbEntity
  8
0
100
AcDbSpline
 62
7
  6
BYLAYER
 70
0
 71
3
 72
40
 73
36
 74
0
 42
0.0000001
 43
0.0000001
 44
0.0000000001
 40
0.0
 40
0.0
 40
0.0
 40
0.0
 40
0.125008096
 40
0.2500161851
 40
0.3125202376
 40
0.3750242894
 40
0.43752834
 40
0.5000323884
 40
0.5625364334
 40
0.6250404718
 40
0.6562924988
 40
0.687544525
 40
0.71879655
 40
0.7500485731
 40
0.7813005926
 40
0.8125526058
 40
0.8438046065
 40
0.8594306191
 40
0.8750566296
 40
0.8906826368
 40
0.9063086377
 40
0.9219346261
 40
0.9375605869
 40
0.9453735885
 40
0.9531865842
 40
0.9609995675
 40
0.9688125228
 40
0.9766254025
 40
0.9805318856
 40
0.9844383419
 40
0.9883447213
 40
0.9922508134
 40
0.9961548431
 40
0.9981057826
 40
1.0
 40
1.0
 40
1.0
 40
1.0
 10
74.1861772365
 20
63.2587268219
 30
0.0
 10
74.175008016
 20
62.7571426801
 30
0.0
 10
74.1518950005
 20
61.7539914603
 30
0.0
 10
74.1206587091
 20
60.5001082592
 30
0.0
 10
74.0939051454
 20
59.4970477662
 30
0.0
 10
74.0728337706
 20
58.7447797878
 30
0.0
 10
74.0506068799
 20
57.9925450039
 30
0.0
 10
74.0270312189
 20
57.2403511621
 30
0.0
 10
74.0018517719
 20
56.4882091985
 30
0.0
 10
73.9792446832
 20
55.8614802345
 30
0.0
 10
73.9599322266
 20
55.3601433756
 30
0.0
 10
73.9447469475
 20
54.9841682697
 30
0.0
 10
73.92875505
 20
54.6082265432
 30
0.0
 10
73.911819871
 20
54.2323260314
 30
0.0
 10
73.8937611791
 20
53.8564776295
 30
0.0
 10
73.8743318633
 20
53.4806974361
 30
0.0
 10
73.8567076745
 20
53.1676237964
 30
0.0
 10
73.841475575
 20
52.9172321219
 30
0.0
 10
73.8293841891
 20
52.729479932
 30
0.0
 10
73.8164978579
 20
52.5417804922
 30
0.0
 10
73.8026407518
 20
52.3541498846
 30
0.0
 10
73.7875597939
 20
52.1666134481
 30
0.0
 10
73.7736581359
 20
52.0104442831
 30
0.0
 10
73.7614107337
 20
51.8856159433
 30
0.0
 10
73.7515300136
 20
51.7920650212
 30
0.0
 10
73.7407747875
 20
51.6986101434
 30
0.0
 10
73.7288645275
 20
51.6052943253
 30
0.0
 10
73.7176065471
 20
51.5277107218
 30
0.0
 10
73.7073456377
 20
51.4658362239
 30
0.0
 10
73.6988228732
 20
51.4195906418
 30
0.0
 10
73.6890894815
 20
51.3735164693
 30
0.0
 10
73.6777021722
 20
51.3280732243
 30
0.0
 10
73.6650356807
 20
51.2902881387
 30
0.0
 10
73.6519134563
 20
51.2632929971
 30
0.0
 10
73.639158093
 20
51.2500002864
 30
0.0
 10
73.6315558259
 20
51.2500002864
 30
0.0
  0
ELLIPSE
  5
24C
100
AcDbEntity
  8
0
100
AcDbEllipse
 62
7
  6
BYLAYER
 10
55.7239218945
 20
63.2476142308
 30
0.0
 11
0.0
 21
1.0060388291
 31
0.0
 40
0.2863500848
 41
-1.5597502153
 42
-0.0852413833
  0
ELLIPSE
  5
24D
100
AcDbEntity
  8
0
100
AcDbEllipse
 62
7
  6
BYLAYER
 10
50.6715558259
 20
225.4247485243
 30
0.0
 11
-0.0
 21
174.1747482379
 31
0.0
 40
0.0087268678
 41
-3.4608268733
 42
-3.1415926536
  0
ENDSEC
  0
SECTION
  2
OBJECTS
  0
DICTIONARY
  5
C
100
AcDbDictionary
280
0
281
1
  3
ACAD_GROUP
350
D
  3
ACAD_MLINESTYLE
350
17
  3
ACAD_LAYOUT
350
1A
  3
ACAD_PLOTSETTINGS
350
19
  3
ACAD_PLOTSTYLENAME
350
E
  0
DICTIONARY
  5
D
102
{ACAD_REACTORS
330
C
102
}
100
AcDbDictionary
280
0
281
1
  0
ACDBDICTIONARYWDFLT
  5
E
102
{ACAD_REACTORS
330
C
102
}
100
AcDbDictionary
281
1
  3
Normal
350
F
100
AcDbDictionaryWithDefault
340
F
  0
DICTIONARY
  5
17
102
{ACAD_REACTORS
330
C
102
}
100
AcDbDictionary
280
0
281
1
  3
Standard
350
18
  0
DICTIONARY
  5
19
102
{ACAD_REACTORS
330
C
102
}
100
AcDbDictionary
281
1
  0
DICTIONARY
  5
1A
102
{ACAD_REACTORS
330
C
102
}
100
AcDbDictionary
281
1
  3
Model
350
24E
  3
Layout1
350
24F
  0
ACDBPLACEHOLDER
  5
F
102
{ACAD_REACTORS
330
E
102
}
  0
MLINESTYLE
  5
18
102
{ACAD_REACTORS
330
17
102
}
100
AcDbMlineStyle
  2
STANDARD
 70
0
  3

 62
256
 51
90.0
 52
90.0
 71
2
 49
0.5
 62
256
  6
BYLAYER
 49
-0.5
 62
256
  6
BYLAYER
  0
LAYOUT
  5
24E
102
{ACAD_REACTORS
330
1A
102
}
100
AcDbPlotSettings
  1

  2
none_device
  4

  6

 40
0.0
 41
0.0
 42
0.0
 43
0.0
 44
210.0
 45
297.0
 46
0.0
 47
0.0
 48
0.0
 49
0.0
140
0.0
141
0.0
142
1.0
143
1.0
 70
1024
 72
1
 73
0
 74
0
  7

 75
0
147
1.0
148
0.0
149
0.0
100
AcDbLayout
  1
Model
 70
0
 71
0
 10
0.0
 20
0.0
 11
210.0
 21
297.0
 12
0.0
 22
0.0
 32
0.0
 14
0.0
 24
0.0
 34
0.0
 15
0.0
 25
0.0
 35
0.0
146
0.0
 13
0.0
 23
0.0
 33
0.0
 16
1.0
 26
0.0
 36
0.0
 17
0.0
 27
1.0
 37
0.0
 76
0
330
210
345
0
346
0
  0
LAYOUT
  5
24F
102
{ACAD_REACTORS
330
1A
102
}
100
AcDbPlotSettings
  1

  2
none_device
  4

  6

 40
0.0
 41
0.0
 42
0.0
 43
0.0
 44
210.0
 45
297.0
 46
0.0
 47
0.0
 48
0.0
 49
0.0
140
0.0
141
0.0
142
1.0
143
1.0
 70
0
 72
1
 73
0
 74
0
  7

 75
0
147
1.0
148
0.0
149
0.0
100
AcDbLayout
  1
Layout1
 70
0
 71
1
 10
0.0
 20
0.0
 11
210.0
 21
297.0
 12
0.0
 22
0.0
 32
0.0
 14
0.0
 24
0.0
 34
0.0
 15
0.0
 25
0.0
 35
0.0
146
0.0
 13
0.0
 23
0.0
 33
0.0
 16
1.0
 26
0.0
 36
0.0
 17
0.0
 27
1.0
 37
0.0
 76
0
330
211
345
0
346
0
  0
ENDSEC
  0
EOF
