999
DXF file: C:\Users\sesa63760\Dev\_Creo\CAD\MCADID0004063_3D-CAD\drw0001_1.dxf
999
Pro/ENGINEER 2019471 by Parametric Technology Corporation
  0
SECTION
  2
HEADER
  9
$ACADVER
  1
AC1024
  9
$DWGCODEPAGE
  3
ANSI_1252
  9
$EXTMAX
 10
151.1227581647
 20
213.7307579758
 30
0.0
  9
$EXTMIN
 10
0.0
 20
0.0
 30
0.0
  9
$LIMMIN
 10
0.0
 20
0.0
  9
$LIMMAX
 10
151.1227581647
 20
213.7307579758
  9
$VIEWCTR
 10
75.5613790824
 20
106.8653789879
  9
$VIEWSIZE
 40
213.7307579758
  9
$CLAYER
  8
0
  9
$LTSCALE
 40
13.9320790384
  9
$CELTYPE
  6
BYLAYER
  9
$DIMSCALE
 40
1.0
  9
$DIMASZ
 40
1.7990804543
  9
$DIMEXO
 40
1.0
  9
$DIMDLI
 40
9.6258000629
  9
$DIMEXE
 40
1.0
  9
$DIMCEN
 40
2.2797947517
  9
$DIMLFAC
 40
1.0
  9
$DIMBLK
  1
_FILLED
  9
$DIMALT
 70
0
  9
$DIMALTF
 40
0.0393700787
  9
$DIMTXT
 40
2.5187126361
  9
$DIMTOL
 70
1
  9
$DIMLIM
 70
0
  9
$DIMTFAC
 40
1.0
  9
$DIMTP
 40
0.01
  9
$DIMTM
 40
0.01
  9
$DIMGAP
 40
0.625
  9
$DIMDSEP
 70
46
  9
$AUNITS
 70
0
  9
$PDMODE
 70
3
  9
$PDSIZE
 40
0.3125
  9
$HANDSEED
  5
319
  9
$TILEMODE
 70
1
  9
$MEASUREMENT
 70
1
  9
$INSUNITS
 70
4
  0
ENDSEC
  0
SECTION
  2
CLASSES
  0
CLASS
  1
ACDBDICTIONARYWDFLT
  2
AcDbDictionaryWithDefault
  3
AutoCAD 2000
 90
0
 91
1
280
0
281
0
  0
CLASS
  1
ACDBPLACEHOLDER
  2
AcDbPlaceHolder
  3
AutoCAD 2000
 90
0
 91
1
280
0
281
0
  0
CLASS
  1
LAYOUT
  2
AcDbLayout
  3
AutoCAD 2000
 90
0
 91
0
280
0
281
0
  0
ENDSEC
  0
SECTION
  2
TABLES
  0
TABLE
  2
VPORT
  5
8
100
AcDbSymbolTable
 70
2
  0
VPORT
  5
1F4
100
AcDbSymbolTableRecord
100
AcDbViewportTableRecord
  2
*ACTIVE
 70
0
 10
0.0
 20
0.0
 11
1.0
 21
1.0
 12
75.5613790824
 22
106.8653789879
 13
0.0
 23
0.0
 14
1.0
 24
1.0
 15
0.0
 25
0.0
 16
0.0
 26
0.0
 36
1.0
 17
0.0
 27
0.0
 37
0.0
 40
213.7307579758
 41
0.7070707071
 42
50.0
 43
0.0
 44
0.0
 50
0.0
 51
0.0
 71
0
 72
100
 73
1
 74
1
 75
0
 76
0
 77
0
 78
0
  0
ENDTAB
  0
TABLE
  2
LTYPE
  5
5
100
AcDbSymbolTable
 70
6
  0
LTYPE
  5
14
100
AcDbSymbolTableRecord
100
AcDbLinetypeTableRecord
  2
BYBLOCK
 70
0
  3

 72
65
 73
0
 40
0.0
  0
LTYPE
  5
15
100
AcDbSymbolTableRecord
100
AcDbLinetypeTableRecord
  2
BYLAYER
 70
0
  3

 72
65
 73
0
 40
0.0
  0
LTYPE
  5
16
100
AcDbSymbolTableRecord
100
AcDbLinetypeTableRecord
  2
CONTINUOUS
 70
64
  3
Solid line
 72
65
 73
0
 40
0.0
  0
LTYPE
  5
1F5
100
AcDbSymbolTableRecord
100
AcDbLinetypeTableRecord
  2
CENTER
 70
64
  3
____ _ ____ _ ____ _ ____ _ ____ _ ____ _ ____
 72
65
 73
4
 40
0.6
 49
0.375
 74
0
 49
-0.075
 74
0
 49
0.075
 74
0
 49
-0.075
 74
0
  0
LTYPE
  5
1F6
100
AcDbSymbolTableRecord
100
AcDbLinetypeTableRecord
  2
HIDDEN
 70
64
  3
- - - - - - - - - - - - - - - - - - - -
 72
65
 73
2
 40
0.2
 49
0.1
 74
0
 49
-0.1
 74
0
  0
LTYPE
  5
1F7
100
AcDbSymbolTableRecord
100
AcDbLinetypeTableRecord
  2
PHANTOM
 70
64
  3
_____ _ _ _____ _ _ _____ _ _ _____
 72
65
 73
6
 40
0.8
 49
0.45
 74
0
 49
-0.05
 74
0
 49
0.1
 74
0
 49
-0.05
 74
0
 49
0.1
 74
0
 49
-0.05
 74
0
  0
LTYPE
  5
1F8
100
AcDbSymbolTableRecord
100
AcDbLinetypeTableRecord
  2
DOT
 70
64
  3
. . . . . . . . . . . . . . . . . . . .
 72
65
 73
2
 40
0.2
 49
0.1
 74
0
 49
-0.1
 74
0
  0
LTYPE
  5
1F9
100
AcDbSymbolTableRecord
100
AcDbLinetypeTableRecord
  2
DASHED
 70
64
  3
- - - - - - - - - - - - - - - - - - - -
 72
65
 73
2
 40
0.2
 49
0.1
 74
0
 49
-0.1
 74
0
  0
ENDTAB
  0
TABLE
  2
LAYER
  5
2
100
AcDbSymbolTable
 70
36
  0
LAYER
  5
10
100
AcDbSymbolTableRecord
100
AcDbLayerTableRecord
  2
0
 70
0
 62
7
  6
CONTINUOUS
370
-3
390
F
  0
LAYER
  5
1FA
100
AcDbSymbolTableRecord
100
AcDbLayerTableRecord
  2
DEFAULT_1
 70
0
 62
7
  6
CENTER
370
-3
390
F
  0
LAYER
  5
1FB
100
AcDbSymbolTableRecord
100
AcDbLayerTableRecord
  2
DEFAULT_2
 70
0
 62
7
  6
HIDDEN
370
-3
390
F
  0
LAYER
  5
1FC
100
AcDbSymbolTableRecord
100
AcDbLayerTableRecord
  2
DEFAULT_3
 70
0
 62
7
  6
PHANTOM
370
-3
390
F
  0
LAYER
  5
1FD
100
AcDbSymbolTableRecord
100
AcDbLayerTableRecord
  2
00_COMPONENTS
 70
0
 62
7
  6
CONTINUOUS
370
-3
390
F
  0
LAYER
  5
1FE
100
AcDbSymbolTableRecord
100
AcDbLayerTableRecord
  2
01_1_DEFAULT_DATUMS
 70
0
 62
7
  6
CONTINUOUS
370
-3
390
F
  0
LAYER
  5
1FF
100
AcDbSymbolTableRecord
100
AcDbLayerTableRecord
  2
01_PLANES
 70
0
 62
7
  6
CONTINUOUS
370
-3
390
F
  0
LAYER
  5
200
100
AcDbSymbolTableRecord
100
AcDbLayerTableRecord
  2
02_COORD_SYS
 70
0
 62
7
  6
CONTINUOUS
370
-3
390
F
  0
LAYER
  5
201
100
AcDbSymbolTableRecord
100
AcDbLayerTableRecord
  2
03_AXES
 70
0
 62
7
  6
CONTINUOUS
370
-3
390
F
  0
LAYER
  5
202
100
AcDbSymbolTableRecord
100
AcDbLayerTableRecord
  2
04_POINTS
 70
0
 62
7
  6
CONTINUOUS
370
-3
390
F
  0
LAYER
  5
203
100
AcDbSymbolTableRecord
100
AcDbLayerTableRecord
  2
05_CURVES
 70
0
 62
7
  6
CONTINUOUS
370
-3
390
F
  0
LAYER
  5
204
100
AcDbSymbolTableRecord
100
AcDbLayerTableRecord
  2
06_SURFS
 70
0
 62
7
  6
CONTINUOUS
370
-3
390
F
  0
LAYER
  5
205
100
AcDbSymbolTableRecord
100
AcDbLayerTableRecord
  2
07_COSMETICS
 70
0
 62
7
  6
CONTINUOUS
370
-3
390
F
  0
LAYER
  5
206
100
AcDbSymbolTableRecord
100
AcDbLayerTableRecord
  2
10_NOTES
 70
0
 62
7
  6
CONTINUOUS
370
-3
390
F
  0
LAYER
  5
207
100
AcDbSymbolTableRecord
100
AcDbLayerTableRecord
  2
11_NOTES_PUB
 70
0
 62
7
  6
CONTINUOUS
370
-3
390
F
  0
LAYER
  5
208
100
AcDbSymbolTableRecord
100
AcDbLayerTableRecord
  2
13_REF_GTOL
 70
0
 62
7
  6
CONTINUOUS
370
-3
390
F
  0
LAYER
  5
209
100
AcDbSymbolTableRecord
100
AcDbLayerTableRecord
  2
16_MISC
 70
0
 62
7
  6
CONTINUOUS
370
-3
390
F
  0
LAYER
  5
20A
100
AcDbSymbolTableRecord
100
AcDbLayerTableRecord
  2
17_NO_PRINT
 70
0
 62
7
  6
CONTINUOUS
370
-3
390
F
  0
LAYER
  5
20B
100
AcDbSymbolTableRecord
100
AcDbLayerTableRecord
  2
18_DATUM_CAMS_JOINTS
 70
0
 62
7
  6
CONTINUOUS
370
-3
390
F
  0
LAYER
  5
20C
100
AcDbSymbolTableRecord
100
AcDbLayerTableRecord
  2
19_DATUM_FUNCTIONAL
 70
0
 62
7
  6
CONTINUOUS
370
-3
390
F
  0
LAYER
  5
20D
100
AcDbSymbolTableRecord
100
AcDbLayerTableRecord
  2
20_DATUM_KINEMATIC_SCHEME
 70
0
 62
7
  6
CONTINUOUS
370
-3
390
F
  0
ENDTAB
  0
TABLE
  2
STYLE
  5
3
100
AcDbSymbolTable
 70
1
  0
STYLE
  5
11
100
AcDbSymbolTableRecord
100
AcDbTextStyleTableRecord
  2
STANDARD
 70
0
 40
0.0
 41
1.0
 50
0.0
 71
0
 42
0.2
  3
ARIAL.TTF
  4

  0
STYLE
  5
20E
100
AcDbSymbolTableRecord
100
AcDbTextStyleTableRecord
  2
TEXTSTYLE_1
 70
0
 40
0.0
 41
0.8
 50
0.0
 71
0
 42
0.2
  3
gdt
  4

  0
ENDTAB
  0
TABLE
  2
VIEW
  5
6
100
AcDbSymbolTable
 70
0
  0
ENDTAB
  0
TABLE
  2
UCS
  5
7
100
AcDbSymbolTable
 70
0
  0
ENDTAB
  0
TABLE
  2
APPID
  5
9
100
AcDbSymbolTable
 70
1
  0
APPID
  5
20F
100
AcDbSymbolTableRecord
100
AcDbRegAppTableRecord
  2
ACAD
 70
0
  0
ENDTAB
  0
TABLE
  2
BLOCK_RECORD
  5
1
100
AcDbSymbolTable
 70
0
  0
BLOCK_RECORD
  5
210
100
AcDbSymbolTableRecord
100
AcDbBlockTableRecord
  2
*Model_Space
  0
BLOCK_RECORD
  5
211
100
AcDbSymbolTableRecord
100
AcDbBlockTableRecord
  2
*Paper_Space
  0
BLOCK_RECORD
  5
212
100
AcDbSymbolTableRecord
100
AcDbBlockTableRecord
  2
_FILLED
  0
ENDTAB
  0
TABLE
  2
DIMSTYLE
  5
A
100
AcDbSymbolTable
 70
1
100
AcDbDimStyleTable
 71
0
  0
DIMSTYLE
105
213
100
AcDbSymbolTableRecord
100
AcDbDimStyleTableRecord
  2
STANDARD
 70
0
  3

  4

 40
1.0
 41
1.7990804543
 42
1.0
 43
0.38
 44
1.0
 45
0.0
 46
0.0
 47
0.01
 48
0.01
140
2.5187126361
141
0.09
142
0.0
143
25.4
144
1.0
145
0.0
146
1.0
147
0.625
 71
1
 72
0
 73
0
 74
0
 75
0
 76
0
 77
1
 78
8
 79
2
170
0
171
1
172
0
173
0
174
0
175
0
176
0
177
0
178
0
270
2
179
2
271
2
272
2
273
2
274
2
275
0
280
0
281
0
282
0
283
1
284
8
285
0
286
0
287
3
288
0
340
11
278
46
341
212
342
212
343
212
344
212
  0
ENDTAB
  0
ENDSEC
  0
SECTION
  2
BLOCKS
  0
BLOCK
  5
20
100
AcDbEntity
  8
0
100
AcDbBlockBegin
  2
*Model_Space
 70
0
 10
0.0
 20
0.0
 30
0.0
  3
*Model_Space
  1

  0
ENDBLK
  5
21
100
AcDbEntity
  8
0
100
AcDbBlockEnd
  0
BLOCK
  5
1C
100
AcDbEntity
  8
0
100
AcDbBlockBegin
  2
*Paper_Space
 70
0
 10
0.0
 20
0.0
 30
0.0
  3
*Paper_Space
  1

  0
ENDBLK
  5
1D
100
AcDbEntity
  8
0
100
AcDbBlockEnd
  0
BLOCK
  5
214
100
AcDbEntity
  8
0
100
AcDbBlockBegin
  2
_FILLED
 70
64
 10
0.0
 20
0.0
  3
_FILLED
  1

  0
SOLID
  5
215
100
AcDbEntity
  8
0
  6
BYBLOCK
 62
0
100
AcDbTrace
 10
0.0
 20
0.0
 11
-1.0
 21
0.25
 12
-1.0
 22
-0.25
 13
-1.0
 23
-0.25
  0
ENDBLK
  5
216
100
AcDbEntity
  8
0
  6
BYBLOCK
 62
0
100
AcDbBlockEnd
  0
ENDSEC
  0
SECTION
  2
ENTITIES
  0
LINE
  5
217
100
AcDbEntity
  8
0
100
AcDbLine
 62
7
  6
BYLAYER
 10
26.1146596664
 20
99.3143787896
 11
26.1146596664
 21
112.3784174637
  0
LINE
  5
218
100
AcDbEntity
  8
0
100
AcDbLine
 62
7
  6
BYLAYER
 10
26.6488367138
 20
113.5307082196
 11
26.1146768833
 21
112.3784174645
  0
LINE
  5
219
100
AcDbEntity
  8
0
100
AcDbLine
 62
7
  6
BYLAYER
 10
33.210902108
 20
94.5079651096
 11
33.2090508675
 21
94.2619455767
  0
LINE
  5
21A
100
AcDbEntity
  8
0
100
AcDbLine
 62
7
  6
BYLAYER
 10
26.1146768833
 20
112.3784174645
 11
26.6441830737
 21
111.2301319132
  0
LINE
  5
21B
100
AcDbEntity
  8
0
100
AcDbLine
 62
7
  6
BYLAYER
 10
35.7723580627
 20
126.7308276267
 11
35.7290191913
 21
118.7731227243
  0
LINE
  5
21C
100
AcDbEntity
  8
0
100
AcDbLine
 62
7
  6
BYLAYER
 10
35.691331507
 20
106.0068764956
 11
35.7319139623
 21
113.4032838407
  0
LINE
  5
21D
100
AcDbEntity
  8
0
100
AcDbLine
 62
7
  6
BYLAYER
 10
70.1172079091
 20
146.6273770701
 11
35.8456158512
 21
126.84078228
  0
LINE
  5
21E
100
AcDbEntity
  8
0
100
AcDbLine
 62
7
  6
BYLAYER
 10
35.874904431
 20
126.7900526689
 11
70.2442051321
 21
146.6330592337
  0
LINE
  5
21F
100
AcDbEntity
  8
0
100
AcDbLine
 62
7
  6
BYLAYER
 10
40.7199041647
 20
134.0158302546
 11
41.3771410564
 21
134.274745944
  0
LINE
  5
220
100
AcDbEntity
  8
0
100
AcDbLine
 62
7
  6
BYLAYER
 10
41.4437370226
 20
121.1368970897
 11
41.4437370226
 21
119.9447619425
  0
LINE
  5
221
100
AcDbEntity
  8
0
100
AcDbLine
 62
7
  6
BYLAYER
 10
41.6681298984
 20
120.2660396597
 11
41.6681298984
 21
120.798563307
  0
LINE
  5
222
100
AcDbEntity
  8
0
100
AcDbLine
 62
7
  6
BYLAYER
 10
41.7245651593
 20
120.8311460256
 11
41.7245651593
 21
120.3157516564
  0
LINE
  5
223
100
AcDbEntity
  8
0
100
AcDbLine
 62
7
  6
BYLAYER
 10
41.4389971469
 20
119.9447619425
 11
36.2480925449
 21
114.7311023387
  0
LINE
  5
224
100
AcDbEntity
  8
0
100
AcDbLine
 62
7
  6
BYLAYER
 10
41.9745129014
 20
120.5221344072
 11
41.7456313056
 21
120.3157516564
  0
LINE
  5
225
100
AcDbEntity
  8
0
100
AcDbLine
 62
7
  6
BYLAYER
 10
91.1331624312
 20
146.3774137388
 11
82.0540456403
 21
143.3962683595
  0
LINE
  5
226
100
AcDbEntity
  8
0
100
AcDbLine
 62
7
  6
BYLAYER
 10
78.1981445282
 20
68.2880678487
 11
72.2734867223
 21
71.7085932451
  0
LINE
  5
227
100
AcDbEntity
  8
0
100
AcDbLine
 62
7
  6
BYLAYER
 10
33.2090508675
 20
94.2619455767
 11
27.2862443176
 21
97.6814021741
  0
LINE
  5
228
100
AcDbEntity
  8
0
100
AcDbLine
 62
7
  6
BYLAYER
 10
72.2753379628
 20
71.9546127781
 11
33.210902108
 21
94.5079651096
  0
LINE
  5
229
100
AcDbEntity
  8
0
100
AcDbLine
 62
7
  6
BYLAYER
 10
38.8323318879
 20
129.7253347151
 11
38.9572623993
 21
128.8892674428
  0
LINE
  5
22A
100
AcDbEntity
  8
0
100
AcDbLine
 62
7
  6
BYLAYER
 10
41.9868793259
 20
120.5175465554
 11
41.7456313056
 21
120.3157516564
  0
LINE
  5
22B
100
AcDbEntity
  8
0
100
AcDbLine
 62
7
  6
BYLAYER
 10
79.0302491143
 20
143.7729502477
 11
78.9689801083
 21
143.7375767818
  0
LINE
  5
22C
100
AcDbEntity
  8
0
100
AcDbLine
 62
7
  6
BYLAYER
 10
35.7290191913
 20
118.7731227243
 11
26.6488367138
 21
113.5307082196
  0
LINE
  5
22D
100
AcDbEntity
  8
0
100
AcDbLine
 62
7
  6
BYLAYER
 10
80.5841924273
 20
143.2666283676
 11
80.527906873
 21
143.2341320817
  0
LINE
  5
22E
100
AcDbEntity
  8
0
100
AcDbLine
 62
7
  6
BYLAYER
 10
41.7245651593
 20
120.8311460256
 11
41.6681298984
 21
120.798563307
  0
LINE
  5
22F
100
AcDbEntity
  8
0
100
AcDbLine
 62
7
  6
BYLAYER
 10
41.6595270875
 20
120.2660396597
 11
41.7456313056
 21
120.3157516564
  0
LINE
  5
230
100
AcDbEntity
  8
0
100
AcDbLine
 62
7
  6
BYLAYER
 10
81.4206090438
 20
143.2219740019
 11
81.5069743794
 21
143.2718367541
  0
LINE
  5
231
100
AcDbEntity
  8
0
100
AcDbLine
 62
7
  6
BYLAYER
 10
80.7141707922
 20
142.9404588047
 11
80.373637131
 21
142.8047563556
  0
LINE
  5
232
100
AcDbEntity
  8
0
100
AcDbLine
 62
7
  6
BYLAYER
 10
80.6988040084
 20
142.954164287
 11
80.3518563871
 21
142.8240474642
  0
LINE
  5
233
100
AcDbEntity
  8
0
100
AcDbLine
 62
7
  6
BYLAYER
 10
38.7030963397
 20
129.6430598527
 11
38.9572623993
 21
128.8892674428
  0
LINE
  5
234
100
AcDbEntity
  8
0
100
AcDbLine
 62
7
  6
BYLAYER
 10
26.6441830737
 20
111.2301319132
 11
35.691331507
 21
106.0068764956
  0
LINE
  5
235
100
AcDbEntity
  8
0
100
AcDbLine
 62
7
  6
BYLAYER
 10
69.9519107079
 20
86.2269693526
 11
79.0376714266
 21
80.9814216261
  0
LINE
  5
236
100
AcDbEntity
  8
0
100
AcDbLine
 62
7
  6
BYLAYER
 10
37.9886435357
 20
116.47928326
 11
35.7290191913
 21
118.7731227243
  0
LINE
  5
237
100
AcDbEntity
  8
0
100
AcDbLine
 62
7
  6
BYLAYER
 10
92.0806577696
 20
86.1987207987
 11
82.0635183461
 21
89.523098963
  0
LINE
  5
238
100
AcDbEntity
  8
0
100
AcDbLine
 62
7
  6
BYLAYER
 10
35.7319139623
 20
113.4032838407
 11
70.0227850438
 21
93.605888068
  0
LINE
  5
239
100
AcDbEntity
  8
0
100
AcDbLine
 62
7
  6
BYLAYER
 10
70.9242537705
 20
94.7112642299
 11
36.2480925449
 21
114.7311023387
  0
LINE
  5
23A
100
AcDbEntity
  8
0
100
AcDbLine
 62
7
  6
BYLAYER
 10
35.874904431
 20
126.7900526689
 11
41.4437370226
 21
121.1368970897
  0
LINE
  5
23B
100
AcDbEntity
  8
0
100
AcDbLine
 62
7
  6
BYLAYER
 10
33.2090508675
 20
94.2619455767
 11
33.4230386913
 21
94.3854907669
  0
LINE
  5
23C
100
AcDbEntity
  8
0
100
AcDbLine
 62
7
  6
BYLAYER
 10
72.2734867223
 20
71.7085932451
 11
72.2753379628
 21
71.9546127781
  0
LINE
  5
23D
100
AcDbEntity
  8
0
100
AcDbLine
 62
7
  6
BYLAYER
 10
70.0227850438
 20
93.605888068
 11
69.9519107079
 21
86.2269693526
  0
LINE
  5
23E
100
AcDbEntity
  8
0
100
AcDbLine
 62
7
  6
BYLAYER
 10
82.0635183461
 20
97.6881231343
 11
91.8353397238
 21
94.4451584275
  0
LINE
  5
23F
100
AcDbEntity
  8
0
100
AcDbLine
 62
7
  6
BYLAYER
 10
35.156970522
 20
131.8964071089
 11
38.8402405127
 21
129.2363248352
  0
LINE
  5
240
100
AcDbEntity
  8
0
100
AcDbLine
 62
7
  6
BYLAYER
 10
108.6033853791
 20
90.6012092899
 11
108.5517627015
 21
90.6282609949
  0
LINE
  5
241
100
AcDbEntity
  8
0
100
AcDbLine
 62
7
  6
BYLAYER
 10
96.1491583898
 20
92.8214888597
 11
96.0489319736
 21
92.879353299
  0
LINE
  5
242
100
AcDbEntity
  8
0
100
AcDbLine
 62
7
  6
BYLAYER
 10
97.7278057031
 20
93.7329158705
 11
97.6275792868
 21
93.7907803098
  0
LINE
  5
243
100
AcDbEntity
  8
0
100
AcDbLine
 62
7
  6
BYLAYER
 10
91.8864705927
 20
97.8051790655
 11
94.7708097747
 21
96.1399427351
  0
LINE
  5
244
100
AcDbEntity
  8
0
100
AcDbLine
 62
7
  6
BYLAYER
 10
96.1253760046
 20
96.5131346645
 11
96.0489319736
 21
96.5572686479
  0
LINE
  5
245
100
AcDbEntity
  8
0
100
AcDbLine
 62
7
  6
BYLAYER
 10
96.1395233642
 20
96.5213025977
 11
93.1132303228
 21
98.268494173
  0
LINE
  5
246
100
AcDbEntity
  8
0
100
AcDbLine
 62
7
  6
BYLAYER
 10
79.9986501825
 20
97.6908596637
 11
79.9986501825
 21
89.5258354924
  0
LINE
  5
247
100
AcDbEntity
  8
0
100
AcDbLine
 62
7
  6
BYLAYER
 10
80.527906873
 20
142.8662327504
 11
80.527906873
 21
143.2341320817
  0
LINE
  5
248
100
AcDbEntity
  8
0
100
AcDbLine
 62
7
  6
BYLAYER
 10
80.5457214435
 20
96.9987888521
 11
80.5457214435
 21
97.8152912692
  0
LINE
  5
249
100
AcDbEntity
  8
0
100
AcDbLine
 62
7
  6
BYLAYER
 10
80.5841924273
 20
143.2666283676
 11
80.5841924273
 21
142.8886625083
  0
LINE
  5
24A
100
AcDbEntity
  8
0
100
AcDbLine
 62
7
  6
BYLAYER
 10
80.6320867791
 20
97.8651540214
 11
80.6320867791
 21
97.0486516042
  0
LINE
  5
24B
100
AcDbEntity
  8
0
100
AcDbLine
 62
7
  6
BYLAYER
 10
81.4685033956
 20
97.8204996556
 11
81.4685033956
 21
97.0039972385
  0
LINE
  5
24C
100
AcDbEntity
  8
0
100
AcDbLine
 62
7
  6
BYLAYER
 10
82.0635183461
 20
89.523098963
 11
82.0635183461
 21
97.6881231343
  0
LINE
  5
24D
100
AcDbEntity
  8
0
100
AcDbLine
 62
7
  6
BYLAYER
 10
95.9975695048
 20
96.8482085677
 11
93.1132303228
 21
98.5134448982
  0
LINE
  5
24E
100
AcDbEntity
  8
0
100
AcDbLine
 62
7
  6
BYLAYER
 10
34.8089697939
 20
132.5541842043
 11
18.3571066365
 21
142.0524540054
  0
LINE
  5
24F
100
AcDbEntity
  8
0
100
AcDbLine
 62
7
  6
BYLAYER
 10
93.4774542264
 20
98.7237284118
 11
96.3617934084
 21
97.0584920813
  0
LINE
  5
250
100
AcDbEntity
  8
0
100
AcDbLine
 62
7
  6
BYLAYER
 10
108.5517627015
 20
90.6282609949
 11
107.8965233549
 21
91.0065550499
  0
LINE
  5
251
100
AcDbEntity
  8
0
100
AcDbLine
 62
7
  6
BYLAYER
 10
97.7040233178
 20
97.4245616753
 11
97.6275792868
 21
97.4686956587
  0
LINE
  5
252
100
AcDbEntity
  8
0
100
AcDbLine
 62
7
  6
BYLAYER
 10
97.730506998
 20
97.4398519439
 11
94.7042139565
 21
99.1870435192
  0
LINE
  5
253
100
AcDbEntity
  8
0
100
AcDbLine
 62
7
  6
BYLAYER
 10
97.5885531385
 20
97.7667579139
 11
94.7042139565
 21
99.4319942444
  0
LINE
  5
254
100
AcDbEntity
  8
0
100
AcDbLine
 62
7
  6
BYLAYER
 10
108.4020216574
 20
91.8378516794
 11
108.5445001801
 21
91.7555935268
  0
LINE
  5
255
100
AcDbEntity
  8
0
100
AcDbLine
 62
7
  6
BYLAYER
 10
36.8666700964
 20
136.215908459
 11
20.457071978
 21
145.6897829565
  0
LINE
  5
256
100
AcDbEntity
  8
0
100
AcDbLine
 62
7
  6
BYLAYER
 10
120.3931687353
 20
120.8210883636
 11
120.3070645172
 21
120.7713763669
  0
LINE
  5
257
100
AcDbEntity
  8
0
100
AcDbLine
 62
7
  6
BYLAYER
 10
80.6320867791
 20
97.8651540214
 11
80.5457214435
 21
97.8152912692
  0
LINE
  5
258
100
AcDbEntity
  8
0
100
AcDbLine
 62
7
  6
BYLAYER
 10
70.9242537705
 20
94.7112642299
 11
79.9986501825
 21
97.6908596637
  0
LINE
  5
259
100
AcDbEntity
  8
0
100
AcDbLine
 62
7
  6
BYLAYER
 10
89.7814584908
 20
71.7097041325
 11
89.7798745738
 21
71.9555693118
  0
LINE
  5
25A
100
AcDbEntity
  8
0
100
AcDbLine
 62
7
  6
BYLAYER
 10
81.4685033956
 20
97.8204996556
 11
81.5247889498
 21
97.8529959416
  0
LINE
  5
25B
100
AcDbEntity
  8
0
100
AcDbLine
 62
7
  6
BYLAYER
 10
120.3281306636
 20
120.2559819977
 11
120.3845659245
 21
120.2885647163
  0
LINE
  5
25C
100
AcDbEntity
  8
0
100
AcDbLine
 62
7
  6
BYLAYER
 10
80.5457214435
 20
96.9987888521
 11
80.6320867791
 21
97.0486516042
  0
LINE
  5
25D
100
AcDbEntity
  8
0
100
AcDbLine
 62
7
  6
BYLAYER
 10
81.4685033956
 20
97.3819630979
 11
81.3385250306
 21
97.3301668015
  0
LINE
  5
25E
100
AcDbEntity
  8
0
100
AcDbLine
 62
7
  6
BYLAYER
 10
81.4863956336
 20
97.3660476204
 11
81.3538918144
 21
97.3164613191
  0
LINE
  5
25F
100
AcDbEntity
  8
0
100
AcDbLine
 62
7
  6
BYLAYER
 10
37.6525840873
 20
136.2190343887
 11
41.7979543431
 21
134.3593513594
  0
LINE
  5
260
100
AcDbEntity
  8
0
100
AcDbLine
 62
7
  6
BYLAYER
 10
92.0806577696
 20
86.1987207987
 11
92.0149476218
 21
94.2222340348
  0
LINE
  5
261
100
AcDbEntity
  8
0
100
AcDbLine
 62
7
  6
BYLAYER
 10
94.9122357743
 20
95.8949743654
 11
94.9365460194
 21
92.1213909602
  0
LINE
  5
262
100
AcDbEntity
  8
0
100
AcDbLine
 62
7
  6
BYLAYER
 10
96.1491583898
 20
92.8214888597
 11
96.1253760046
 21
96.5131346645
  0
LINE
  5
263
100
AcDbEntity
  8
0
100
AcDbLine
 62
7
  6
BYLAYER
 10
96.1395233642
 20
96.5213025977
 11
96.1389955044
 21
96.6032401908
  0
LINE
  5
264
100
AcDbEntity
  8
0
100
AcDbLine
 62
7
  6
BYLAYER
 10
91.8864693121
 20
97.8051790655
 11
91.8864693121
 21
97.9827645331
  0
LINE
  5
265
100
AcDbEntity
  8
0
100
AcDbLine
 62
7
  6
BYLAYER
 10
92.805638873
 20
98.5134441588
 11
92.805638873
 21
98.2684934337
  0
LINE
  5
266
100
AcDbEntity
  8
0
100
AcDbLine
 62
7
  6
BYLAYER
 10
93.1132303228
 20
98.268494173
 11
93.1132303228
 21
98.5134448982
  0
LINE
  5
267
100
AcDbEntity
  8
0
100
AcDbLine
 62
7
  6
BYLAYER
 10
93.4774529458
 20
98.7237284118
 11
93.4774529458
 21
98.9013138793
  0
LINE
  5
268
100
AcDbEntity
  8
0
100
AcDbLine
 62
7
  6
BYLAYER
 10
94.3966225067
 20
99.431993505
 11
94.3966225067
 21
99.1870427799
  0
LINE
  5
269
100
AcDbEntity
  8
0
100
AcDbLine
 62
7
  6
BYLAYER
 10
94.7042139565
 20
99.1870435192
 11
94.7042139565
 21
99.4319942444
  0
LINE
  5
26A
100
AcDbEntity
  8
0
100
AcDbLine
 62
7
  6
BYLAYER
 10
96.0489319736
 20
92.879353299
 11
96.0489319736
 21
96.5572686479
  0
LINE
  5
26B
100
AcDbEntity
  8
0
100
AcDbLine
 62
7
  6
BYLAYER
 10
120.3281306636
 20
120.2559819977
 11
120.1757717351
 21
120.1201367994
  0
LINE
  5
26C
100
AcDbEntity
  8
0
100
AcDbLine
 62
7
  6
BYLAYER
 10
120.3281306636
 20
120.2559819977
 11
120.1677201401
 21
120.1231539333
  0
LINE
  5
26D
100
AcDbEntity
  8
0
100
AcDbLine
 62
7
  6
BYLAYER
 10
94.3966225067
 20
99.431993505
 11
93.4774529458
 21
98.9013138793
  0
LINE
  5
26E
100
AcDbEntity
  8
0
100
AcDbLine
 62
7
  6
BYLAYER
 10
92.805638873
 20
98.5134441588
 11
91.8864693121
 21
97.9827645331
  0
LINE
  5
26F
100
AcDbEntity
  8
0
100
AcDbLine
 62
7
  6
BYLAYER
 10
94.3966225067
 20
99.1870427799
 11
93.5357944445
 21
98.6900464331
  0
LINE
  5
270
100
AcDbEntity
  8
0
100
AcDbLine
 62
7
  6
BYLAYER
 10
91.9448108108
 20
97.7714970869
 11
92.805638873
 21
98.2684934337
  0
LINE
  5
271
100
AcDbEntity
  8
0
100
AcDbLine
 62
7
  6
BYLAYER
 10
126.1931205837
 20
114.2815140487
 11
97.5885531385
 21
97.7667579139
  0
LINE
  5
272
100
AcDbEntity
  8
0
100
AcDbLine
 62
7
  6
BYLAYER
 10
96.3617934084
 20
97.0584920813
 11
95.9975695048
 21
96.8482085677
  0
LINE
  5
273
100
AcDbEntity
  8
0
100
AcDbLine
 62
7
  6
BYLAYER
 10
94.7708097747
 20
96.1399427351
 11
91.8353397238
 21
94.4451584275
  0
LINE
  5
274
100
AcDbEntity
  8
0
100
AcDbLine
 62
7
  6
BYLAYER
 10
96.4131611601
 20
96.9939292024
 11
96.4273032369
 21
97.0020940855
  0
LINE
  5
275
100
AcDbEntity
  8
0
100
AcDbLine
 62
7
  6
BYLAYER
 10
92.0149374645
 20
94.2234742888
 11
96.0489319736
 21
96.5572686479
  0
LINE
  5
276
100
AcDbEntity
  8
0
100
AcDbLine
 62
7
  6
BYLAYER
 10
96.1389875078
 20
96.6044814787
 11
97.6275792868
 21
97.4686956587
  0
LINE
  5
277
100
AcDbEntity
  8
0
100
AcDbLine
 62
7
  6
BYLAYER
 10
97.7299711415
 20
97.5230308249
 11
126.2956601511
 21
114.0153406184
  0
LINE
  5
278
100
AcDbEntity
  8
0
100
AcDbLine
 62
7
  6
BYLAYER
 10
96.1253760046
 20
96.5131346645
 11
96.1395233642
 21
96.5213025977
  0
LINE
  5
279
100
AcDbEntity
  8
0
100
AcDbLine
 62
7
  6
BYLAYER
 10
97.7040233178
 20
97.4245616753
 11
97.730506998
 21
97.4398519439
  0
LINE
  5
27A
100
AcDbEntity
  8
0
100
AcDbLine
 62
7
  6
BYLAYER
 10
79.9986501825
 20
89.5258354924
 11
69.9519107079
 21
86.2269693526
  0
LINE
  5
27B
100
AcDbEntity
  8
0
100
AcDbLine
 62
7
  6
BYLAYER
 10
128.8455690653
 20
94.2632442619
 11
128.6318485651
 21
94.3866330588
  0
LINE
  5
27C
100
AcDbEntity
  8
0
100
AcDbLine
 62
7
  6
BYLAYER
 10
96.4890773856
 20
96.805350398
 11
96.5133875764
 21
93.0317754234
  0
LINE
  5
27D
100
AcDbEntity
  8
0
100
AcDbLine
 62
7
  6
BYLAYER
 10
97.7278057031
 20
93.7329158705
 11
97.7040233178
 21
97.4245616753
  0
LINE
  5
27E
100
AcDbEntity
  8
0
100
AcDbLine
 62
7
  6
BYLAYER
 10
97.730506998
 20
97.4398519439
 11
97.7299791382
 21
97.521789537
  0
LINE
  5
27F
100
AcDbEntity
  8
0
100
AcDbLine
 62
7
  6
BYLAYER
 10
96.4273032369
 20
96.9729988088
 11
96.4273032369
 21
97.0020940855
  0
LINE
  5
280
100
AcDbEntity
  8
0
100
AcDbLine
 62
7
  6
BYLAYER
 10
97.6275792868
 20
97.4686956587
 11
97.6275792868
 21
93.7907803098
  0
LINE
  5
281
100
AcDbEntity
  8
0
100
AcDbLine
 62
7
  6
BYLAYER
 10
120.613698676
 20
121.1423660808
 11
125.8073061542
 21
126.3587404092
  0
LINE
  5
282
100
AcDbEntity
  8
0
100
AcDbLine
 62
7
  6
BYLAYER
 10
97.6275792868
 20
93.7907803098
 11
96.5126447823
 21
93.1470764159
  0
LINE
  5
283
100
AcDbEntity
  8
0
100
AcDbLine
 62
7
  6
BYLAYER
 10
96.0489319736
 20
92.879353299
 11
94.9358032253
 21
92.2366919528
  0
LINE
  5
284
100
AcDbEntity
  8
0
100
AcDbLine
 62
7
  6
BYLAYER
 10
94.9365460194
 20
92.1213909602
 11
96.1491583898
 21
92.8214888597
  0
LINE
  5
285
100
AcDbEntity
  8
0
100
AcDbLine
 62
7
  6
BYLAYER
 10
96.5133875764
 20
93.0317754234
 11
97.7278057031
 21
93.7329158705
  0
LINE
  5
286
100
AcDbEntity
  8
0
100
AcDbLine
 62
7
  6
BYLAYER
 10
126.3640671921
 20
118.7529179098
 11
124.0640522872
 21
116.442820592
  0
LINE
  5
287
100
AcDbEntity
  8
0
100
AcDbLine
 62
7
  6
BYLAYER
 10
83.0844299013
 20
81.0047772209
 11
92.0806577696
 21
86.1987207987
  0
LINE
  5
288
100
AcDbEntity
  8
0
100
AcDbLine
 62
7
  6
BYLAYER
 10
126.3331825142
 20
105.9743071361
 11
135.3680927906
 21
111.1905838793
  0
LINE
  5
289
100
AcDbEntity
  8
0
100
AcDbLine
 62
7
  6
BYLAYER
 10
108.402023468
 20
91.8378548156
 11
106.9878157936
 21
91.0213665079
  0
LINE
  5
28A
100
AcDbEntity
  8
0
100
AcDbLine
 62
7
  6
BYLAYER
 10
45.8618001615
 20
134.6972252246
 11
47.3745201812
 21
134.598971492
  0
LINE
  5
28B
100
AcDbEntity
  8
0
100
AcDbLine
 62
7
  6
BYLAYER
 10
106.8474509708
 20
90.7758075575
 11
106.8547134922
 21
89.6484750256
  0
LINE
  5
28C
100
AcDbEntity
  8
0
100
AcDbLine
 62
7
  6
BYLAYER
 10
108.5517627015
 20
90.6282609949
 11
108.5445001801
 21
91.7555935268
  0
LINE
  5
28D
100
AcDbEntity
  8
0
100
AcDbLine
 62
7
  6
BYLAYER
 10
107.8965233549
 20
91.5460059313
 11
107.8965233549
 21
91.0065550499
  0
LINE
  5
28E
100
AcDbEntity
  8
0
100
AcDbLine
 62
7
  6
BYLAYER
 10
41.3771410564
 20
134.274745944
 11
42.1570243905
 21
134.431543164
  0
LINE
  5
28F
100
AcDbEntity
  8
0
100
AcDbLine
 62
7
  6
BYLAYER
 10
43.4172904957
 20
134.6073930023
 11
44.5264164658
 21
134.687895794
  0
LINE
  5
290
100
AcDbEntity
  8
0
100
AcDbLine
 62
7
  6
BYLAYER
 10
89.7798745738
 20
71.9555693118
 11
128.8421339079
 21
94.5080406334
  0
LINE
  5
291
100
AcDbEntity
  8
0
100
AcDbLine
 62
7
  6
BYLAYER
 10
83.8549987776
 20
68.2880814461
 11
89.7814584908
 21
71.7097041325
  0
LINE
  5
292
100
AcDbEntity
  8
0
100
AcDbLine
 62
7
  6
BYLAYER
 10
128.8455690653
 20
94.2632442619
 11
134.766475057
 21
97.6816605248
  0
LINE
  5
293
100
AcDbEntity
  8
0
100
AcDbLine
 62
7
  6
BYLAYER
 10
79.9891774768
 20
143.399004889
 11
70.2442051321
 21
146.6330592337
  0
LINE
  5
294
100
AcDbEntity
  8
0
100
AcDbLine
 62
7
  6
BYLAYER
 10
135.39998883
 20
113.536144139
 11
126.3640671921
 21
118.7529179098
  0
LINE
  5
295
100
AcDbEntity
  8
0
100
AcDbLine
 62
7
  6
BYLAYER
 10
83.0902441101
 20
143.7365061108
 11
83.0307156417
 21
143.7708741105
  0
LINE
  5
296
100
AcDbEntity
  8
0
100
AcDbLine
 62
7
  6
BYLAYER
 10
91.1331624312
 20
146.3774137388
 11
125.8073061542
 21
126.3587404092
  0
LINE
  5
297
100
AcDbEntity
  8
0
100
AcDbLine
 62
7
  6
BYLAYER
 10
91.7706131915
 20
146.3475812873
 11
126.1723087552
 21
126.4862024174
  0
LINE
  5
298
100
AcDbEntity
  8
0
100
AcDbLine
 62
7
  6
BYLAYER
 10
126.1931205837
 20
114.2815140487
 11
120.6089588002
 21
119.9502309336
  0
LINE
  5
299
100
AcDbEntity
  8
0
100
AcDbLine
 62
7
  6
BYLAYER
 10
120.3070645172
 20
120.2559819977
 11
120.3070645172
 21
120.7713763669
  0
LINE
  5
29A
100
AcDbEntity
  8
0
100
AcDbLine
 62
7
  6
BYLAYER
 10
120.3931687353
 20
120.8210883636
 11
120.3931687353
 21
120.2885647163
  0
LINE
  5
29B
100
AcDbEntity
  8
0
100
AcDbLine
 62
7
  6
BYLAYER
 10
120.6136986759
 20
119.9502309336
 11
120.6136986759
 21
121.1423660808
  0
LINE
  5
29C
100
AcDbEntity
  8
0
100
AcDbLine
 62
7
  6
BYLAYER
 10
128.8421339079
 20
94.5080406334
 11
128.8455690653
 21
94.2632442619
  0
LINE
  5
29D
100
AcDbEntity
  8
0
100
AcDbLine
 62
7
  6
BYLAYER
 10
126.3640671921
 20
118.7529179098
 11
126.3234847368
 21
126.0678045476
  0
LINE
  5
29E
100
AcDbEntity
  8
0
100
AcDbLine
 62
7
  6
BYLAYER
 10
126.2956659505
 20
114.0140977972
 11
126.3331825142
 21
105.9743071361
  0
LINE
  5
29F
100
AcDbEntity
  8
0
100
AcDbLine
 62
7
  6
BYLAYER
 10
135.9380361564
 20
99.3146235429
 11
135.9380361564
 21
112.378662217
  0
ARC
  5
2A0
100
AcDbEntity
  8
0
100
AcDbCircle
 62
7
  6
BYLAYER
 10
137.6041948375
 20
-9.311541877
 40
162.5517418517
100
AcDbArc
 50
110.2205687855
 51
110.4919363078
  0
ARC
  5
2A1
100
AcDbEntity
  8
0
100
AcDbCircle
 62
7
  6
BYLAYER
 10
24.4485009871
 20
249.5821674787
 40
162.5517418469
100
AcDbArc
 50
290.2205687855
 51
290.4919363078
  0
ARC
  5
2A2
100
AcDbEntity
  8
0
100
AcDbCircle
 62
7
  6
BYLAYER
 10
24.465324341
 20
250.3532270489
 40
162.5032849466
100
AcDbArc
 50
290.2205406242
 51
290.5149211212
  0
ARC
  5
2A3
100
AcDbEntity
  8
0
100
AcDbCircle
 62
7
  6
BYLAYER
 10
41.2611660856
 20
214.7811492701
 40
123.4573133762
100
AcDbArc
 50
299.7250478976
 51
299.9996533877
  0
ARC
  5
2A4
100
AcDbEntity
  8
0
100
AcDbCircle
 62
7
  6
BYLAYER
 10
120.3769608978
 20
27.4322437589
 40
121.9211039869
100
AcDbArc
 50
119.9996387063
 51
120.297458195
  0
ARC
  5
2A5
100
AcDbEntity
  8
0
100
AcDbCircle
 62
7
  6
BYLAYER
 10
62.5274763207
 20
184.6197066698
 40
86.1109173952
100
AcDbArc
 50
311.9384802582
 51
312.1435408277
  0
ARC
  5
2A6
100
AcDbEntity
  8
0
100
AcDbCircle
 62
7
  6
BYLAYER
 10
44.5007248343
 20
110.2686670928
 40
24.5157365677
100
AcDbArc
 50
79.6778081274
 51
80.3134155059
  0
ARC
  5
2A7
100
AcDbEntity
  8
0
100
AcDbCircle
 62
7
  6
BYLAYER
 10
44.1911677491
 20
130.7620830137
 40
3.9702579129
100
AcDbArc
 50
119.5718765449
 51
120.0002464877
  0
ARC
  5
2A8
100
AcDbEntity
  8
0
100
AcDbCircle
 62
7
  6
BYLAYER
 10
47.2771418616
 20
130.38941377
 40
3.7870978707
100
AcDbArc
 50
107.3659768293
 51
109.004644451
  0
ARC
  5
2A9
100
AcDbEntity
  8
0
100
AcDbCircle
 62
7
  6
BYLAYER
 10
81.0270526914
 20
93.4685286353
 40
3.5629225319
100
AcDbArc
 50
82.8826887978
 51
97.764084561
  0
ARC
  5
2AA
100
AcDbEntity
  8
0
100
AcDbCircle
 62
7
  6
BYLAYER
 10
81.0009897714
 20
146.5970012271
 40
3.3563526943
100
AcDbArc
 50
259.3090864544
 51
262.8665016608
  0
ARC
  5
2AB
100
AcDbEntity
  8
0
100
AcDbCircle
 62
7
  6
BYLAYER
 10
42.5561406811
 20
132.4463514827
 40
2.0249239087
100
AcDbArc
 50
101.3674666137
 51
102.3727118243
  0
ARC
  5
2AC
100
AcDbEntity
  8
0
100
AcDbCircle
 62
7
  6
BYLAYER
 10
42.5466740485
 20
132.4934609489
 40
1.9768726973
100
AcDbArc
 50
100.3179905884
 51
101.3675935757
  0
ARC
  5
2AD
100
AcDbEntity
  8
0
100
AcDbCircle
 62
7
  6
BYLAYER
 10
35.6610706081
 20
132.5933903253
 40
0.8601614725
100
AcDbArc
 50
225.4913603772
 51
234.1232227148
  0
ARC
  5
2AE
100
AcDbEntity
  8
0
100
AcDbCircle
 62
7
  6
BYLAYER
 10
96.1472846416
 20
96.7711579471
 40
0.3469211103
100
AcDbArc
 50
28.0485557324
 51
35.8420248224
  0
ARC
  5
2AF
100
AcDbEntity
  8
0
100
AcDbCircle
 62
7
  6
BYLAYER
 10
96.1654331948
 20
96.7844088057
 40
0.3244502142
100
AcDbArc
 50
35.8217740004
 51
40.2234740781
  0
SPLINE
  5
2B0
100
AcDbEntity
  8
0
100
AcDbSpline
 62
7
  6
BYLAYER
 70
0
 71
3
 72
9
 73
5
 74
0
 42
0.0000001
 43
0.0000001
 44
0.0000000001
 40
0.0
 40
0.0
 40
0.0
 40
0.0
 40
0.2388777388
 40
1.0
 40
1.0
 40
1.0
 40
1.0
 10
42.7889717966
 20
134.4402664336
 30
0.0
 10
42.7422532655
 20
134.4496578071
 30
0.0
 10
42.5445785086
 20
134.4785010694
 30
0.0
 10
42.3419741445
 20
134.4655549726
 30
0.0
 10
42.1925941235
 20
134.4383653342
 30
0.0
  0
SPLINE
  5
2B1
100
AcDbEntity
  8
0
100
AcDbSpline
 62
7
  6
BYLAYER
 70
0
 71
3
 72
9
 73
5
 74
0
 42
0.0000001
 43
0.0000001
 44
0.0000000001
 40
0.0
 40
0.0
 40
0.0
 40
0.0
 40
0.2643190279
 40
1.0
 40
1.0
 40
1.0
 40
1.0
 10
42.2317858429
 20
134.2151643102
 30
0.0
 10
42.299821646
 20
134.2537692439
 30
0.0
 10
42.5613847693
 20
134.3920802524
 30
0.0
 10
42.840900349
 20
134.4986320416
 30
0.0
 10
43.0525832363
 20
134.5495697029
 30
0.0
  0
SPLINE
  5
2B2
100
AcDbEntity
  8
0
100
AcDbSpline
 62
7
  6
BYLAYER
 70
0
 71
3
 72
9
 73
5
 74
0
 42
0.0000001
 43
0.0000001
 44
0.0000000001
 40
0.0
 40
0.0
 40
0.0
 40
0.0
 40
0.257022633
 40
1.0
 40
1.0
 40
1.0
 40
1.0
 10
43.0525832363
 20
134.5495697029
 30
0.0
 10
43.0833603966
 20
134.5569756703
 30
0.0
 10
43.2036298227
 20
134.5835280992
 30
0.0
 10
43.3260225898
 20
134.6007633189
 30
0.0
 10
43.4172896548
 20
134.6073899658
 30
0.0
  0
SPLINE
  5
2B3
100
AcDbEntity
  8
0
100
AcDbSpline
 62
7
  6
BYLAYER
 70
0
 71
3
 72
15
 73
11
 74
0
 42
0.0000001
 43
0.0000001
 44
0.0000000001
 40
0.0
 40
0.0
 40
0.0
 40
0.0
 40
0.0895126802
 40
0.1962602555
 40
0.3167755403
 40
0.4465797057
 40
0.5819654888
 40
0.7203218171
 40
0.8599784764
 40
1.0
 40
1.0
 40
1.0
 40
1.0
 10
18.3570931171
 20
142.0524618241
 30
0.0
 10
18.278185715
 20
142.0980203365
 30
0.0
 10
18.1243615074
 20
142.2306584345
 30
0.0
 10
17.9319625854
 20
142.4911087159
 30
0.0
 10
17.7642695355
 20
142.8150933119
 30
0.0
 10
17.6315878027
 20
143.1857332497
 30
0.0
 10
17.5445246176
 20
143.5884822989
 30
0.0
 10
17.5177536063
 20
144.0103954241
 30
0.0
 10
17.5722445376
 20
144.4356889645
 30
0.0
 10
17.6794314659
 20
144.7040143546
 30
0.0
 10
17.7506952127
 20
144.8274474699
 30
0.0
  0
SPLINE
  5
2B4
100
AcDbEntity
  8
0
100
AcDbSpline
 62
7
  6
BYLAYER
 70
0
 71
3
 72
9
 73
5
 74
0
 42
0.0000001
 43
0.0000001
 44
0.0000000001
 40
0.0
 40
0.0
 40
0.0
 40
0.0
 40
0.2424367629
 40
1.0
 40
1.0
 40
1.0
 40
1.0
 10
45.1232505049
 20
134.6468996575
 30
0.0
 10
45.075997116
 20
134.6575848215
 30
0.0
 10
44.8793483376
 20
134.6938653681
 30
0.0
 10
44.6774022249
 20
134.6988535207
 30
0.0
 10
44.5264149941
 20
134.6878901702
 30
0.0
  0
SPLINE
  5
2B5
100
AcDbEntity
  8
0
100
AcDbSpline
 62
7
  6
BYLAYER
 70
0
 71
3
 72
15
 73
11
 74
0
 42
0.0000001
 43
0.0000001
 44
0.0000000001
 40
0.0
 40
0.0
 40
0.0
 40
0.0
 40
0.089728987
 40
0.1940887434
 40
0.315012763
 40
0.4496918807
 40
0.5924981004
 40
0.7364339592
 40
0.8743424442
 40
1.0
 40
1.0
 40
1.0
 40
1.0
 10
35.0580829589
 20
131.9799706861
 30
0.0
 10
34.9563766964
 20
132.0798124699
 30
0.0
 10
34.789564675
 20
132.3514226267
 30
0.0
 10
34.6927025518
 20
132.8491694456
 30
0.0
 10
34.7262785046
 20
133.4245666453
 30
0.0
 10
34.8865685065
 20
134.0402178673
 30
0.0
 10
35.161288172
 20
134.65370378
 30
0.0
 10
35.5310056938
 20
135.2212941147
 30
0.0
 10
35.968736187
 20
135.7018660104
 30
0.0
 10
36.3055852606
 20
135.9566569533
 30
0.0
 10
36.4784352272
 20
136.0564513323
 30
0.0
  0
SPLINE
  5
2B6
100
AcDbEntity
  8
0
100
AcDbSpline
 62
7
  6
BYLAYER
 70
0
 71
3
 72
9
 73
5
 74
0
 42
0.0000001
 43
0.0000001
 44
0.0000000001
 40
0.0
 40
0.0
 40
0.0
 40
0.0
 40
0.2583957994
 40
1.0
 40
1.0
 40
1.0
 40
1.0
 10
43.9737983137
 20
134.1727231211
 30
0.0
 10
44.0288386626
 20
134.2045004917
 30
0.0
 10
44.2440966776
 20
134.3234971959
 30
0.0
 10
44.4685443439
 20
134.4262129785
 30
0.0
 10
44.6392360976
 20
134.4905238842
 30
0.0
  0
SPLINE
  5
2B7
100
AcDbEntity
  8
0
100
AcDbSpline
 62
7
  6
BYLAYER
 70
0
 71
3
 72
9
 73
5
 74
0
 42
0.0000001
 43
0.0000001
 44
0.0000000001
 40
0.0
 40
0.0
 40
0.0
 40
0.0
 40
0.2690316214
 40
1.0
 40
1.0
 40
1.0
 40
1.0
 10
44.6392360976
 20
134.4905238842
 30
0.0
 10
44.7437073597
 20
134.5298851382
 30
0.0
 10
45.1375323021
 20
134.6596725423
 30
0.0
 10
45.5591040036
 20
134.7169335939
 30
0.0
 10
45.8617922881
 20
134.6972043882
 30
0.0
  0
SPLINE
  5
2B8
100
AcDbEntity
  8
0
100
AcDbSpline
 62
7
  6
BYLAYER
 70
0
 71
3
 72
9
 73
5
 74
0
 42
0.0000001
 43
0.0000001
 44
0.0000000001
 40
0.0
 40
0.0
 40
0.0
 40
0.0
 40
0.2550923103
 40
1.0
 40
1.0
 40
1.0
 40
1.0
 10
38.9572551037
 20
128.8892604848
 30
0.0
 10
38.9633934681
 20
128.871058179
 30
0.0
 10
38.9884816601
 20
128.8000543041
 30
0.0
 10
39.0177454672
 20
128.7305089026
 30
0.0
 10
39.0420094058
 20
128.6799336655
 30
0.0
  0
SPLINE
  5
2B9
100
AcDbEntity
  8
0
100
AcDbSpline
 62
7
  6
BYLAYER
 70
0
 71
3
 72
9
 73
5
 74
0
 42
0.0000001
 43
0.0000001
 44
0.0000000001
 40
0.0
 40
0.0
 40
0.0
 40
0.0
 40
0.2451232702
 40
1.0
 40
1.0
 40
1.0
 40
1.0
 10
47.9852174055
 20
134.4775803148
 30
0.0
 10
47.937092813
 20
134.494355416
 30
0.0
 10
47.7383439247
 20
134.5557526325
 30
0.0
 10
47.5311209541
 20
134.5887264767
 30
0.0
 10
47.3745035906
 20
134.5989280578
 30
0.0
  0
SPLINE
  5
2BA
100
AcDbEntity
  8
0
100
AcDbSpline
 62
7
  6
BYLAYER
 70
0
 71
3
 72
9
 73
5
 74
0
 42
0.0000001
 43
0.0000001
 44
0.0000000001
 40
0.0
 40
0.0
 40
0.0
 40
0.0
 40
0.5159060348
 40
1.0
 40
1.0
 40
1.0
 40
1.0
 10
43.3388871107
 20
131.2025932235
 30
0.0
 10
43.6373920111
 20
131.6281787933
 30
0.0
 10
44.2738888608
 20
132.4142321142
 30
0.0
 10
45.024226132
 20
133.0949665113
 30
0.0
 10
45.4148580859
 20
133.3870906215
 30
0.0
  0
SPLINE
  5
2BB
100
AcDbEntity
  8
0
100
AcDbSpline
 62
7
  6
BYLAYER
 70
0
 71
3
 72
9
 73
5
 74
0
 42
0.0000001
 43
0.0000001
 44
0.0000000001
 40
0.0
 40
0.0
 40
0.0
 40
0.0
 40
0.2565503703
 40
1.0
 40
1.0
 40
1.0
 40
1.0
 10
45.4148580859
 20
133.3870906215
 30
0.0
 10
45.4707555275
 20
133.4288920928
 30
0.0
 10
45.6908565751
 20
133.5888215384
 30
0.0
 10
45.9199578701
 20
133.7365001486
 30
0.0
 10
46.0951274892
 20
133.8376337717
 30
0.0
  0
SPLINE
  5
2BC
100
AcDbEntity
  8
0
100
AcDbSpline
 62
7
  6
BYLAYER
 70
0
 71
3
 72
11
 73
7
 74
0
 42
0.0000001
 43
0.0000001
 44
0.0000000001
 40
0.0
 40
0.0
 40
0.0
 40
0.0
 40
0.2806305248
 40
0.5399403935
 40
0.7785640736
 40
1.0
 40
1.0
 40
1.0
 40
1.0
 10
46.0951274892
 20
133.8376337717
 30
0.0
 10
46.3096798688
 20
133.9615049064
 30
0.0
 10
46.7374001667
 20
134.1755303712
 30
0.0
 10
47.3923475306
 20
134.3929217918
 30
0.0
 10
48.0235975328
 20
134.4886143784
 30
0.0
 10
48.4329767007
 20
134.4676881294
 30
0.0
 10
48.6256776816
 20
134.4348090691
 30
0.0
  0
SPLINE
  5
2BD
100
AcDbEntity
  8
0
100
AcDbSpline
 62
7
  6
BYLAYER
 70
0
 71
3
 72
11
 73
7
 74
0
 42
0.0000001
 43
0.0000001
 44
0.0000000001
 40
0.0
 40
0.0
 40
0.0
 40
0.0
 40
0.2177648073
 40
0.4508950352
 40
0.7103684932
 40
1.0
 40
1.0
 40
1.0
 40
1.0
 10
83.7764816242
 20
85.8427805032
 30
0.0
 10
83.7764400224
 20
85.738047197
 30
0.0
 10
83.7379000559
 20
85.5197225503
 30
0.0
 10
83.5723024189
 20
85.2155129321
 30
0.0
 10
83.3106218252
 20
84.9405945424
 30
0.0
 10
83.0917262655
 20
84.7897666222
 30
0.0
 10
82.9710910134
 20
84.7201182427
 30
0.0
  0
SPLINE
  5
2BE
100
AcDbEntity
  8
0
100
AcDbSpline
 62
7
  6
BYLAYER
 70
0
 71
3
 72
15
 73
11
 74
0
 42
0.0000001
 43
0.0000001
 44
0.0000000001
 40
0.0
 40
0.0
 40
0.0
 40
0.0
 40
0.1498038667
 40
0.3001295407
 40
0.4458494557
 40
0.5823566497
 40
0.7061332536
 40
0.8155537815
 40
0.9118499672
 40
1.0
 40
1.0
 40
1.0
 40
1.0
 10
35.7451111953
 20
110.8401486711
 30
0.0
 10
35.540431988
 20
110.8099578474
 30
0.0
 10
35.1257329452
 20
110.7777222599
 30
0.0
 10
34.5091546533
 20
110.809734725
 30
0.0
 10
33.9200504853
 20
110.9199879966
 30
0.0
 10
33.3876238322
 20
111.1030846041
 30
0.0
 10
32.9375772835
 20
111.3506785225
 30
0.0
 10
32.5914455166
 20
111.6530491134
 30
0.0
 10
32.3679542423
 20
111.9998736854
 30
0.0
 10
32.314416421
 20
112.2566853362
 30
0.0
 10
32.3144647797
 20
112.3784291758
 30
0.0
  0
SPLINE
  5
2BF
100
AcDbEntity
  8
0
100
AcDbSpline
 62
7
  6
BYLAYER
 70
0
 71
3
 72
9
 73
5
 74
0
 42
0.0000001
 43
0.0000001
 44
0.0000000001
 40
0.0
 40
0.0
 40
0.0
 40
0.0
 40
0.2367258392
 40
1.0
 40
1.0
 40
1.0
 40
1.0
 10
41.6595270875
 20
120.2660396597
 30
0.0
 10
41.6477964229
 20
120.2374902363
 30
0.0
 10
41.5913296043
 20
120.1197275951
 30
0.0
 10
41.5092139562
 20
120.0152865563
 30
0.0
 10
41.4389971469
 20
119.9447619425
 30
0.0
  0
SPLINE
  5
2C0
100
AcDbEntity
  8
0
100
AcDbSpline
 62
7
  6
BYLAYER
 70
0
 71
3
 72
9
 73
5
 74
0
 42
0.0000001
 43
0.0000001
 44
0.0000000001
 40
0.0
 40
0.0
 40
0.0
 40
0.0
 40
0.5142379563
 40
1.0
 40
1.0
 40
1.0
 40
1.0
 10
58.8690659786
 20
132.7011112364
 30
0.0
 10
55.782741126
 20
130.897776834
 30
0.0
 10
49.9311971428
 20
127.1246718257
 30
0.0
 10
44.4862440944
 20
122.7788366176
 30
0.0
 10
41.9745129014
 20
120.5221344072
 30
0.0
  0
SPLINE
  5
2C1
100
AcDbEntity
  8
0
100
AcDbSpline
 62
7
  6
BYLAYER
 70
0
 71
3
 72
9
 73
5
 74
0
 42
0.0000001
 43
0.0000001
 44
0.0000000001
 40
0.0
 40
0.0
 40
0.0
 40
0.0
 40
0.5115116728
 40
1.0
 40
1.0
 40
1.0
 40
1.0
 10
80.3518563871
 20
142.8240474642
 30
0.0
 10
76.6598345768
 20
141.4345872737
 30
0.0
 10
69.5381011064
 20
138.4533690621
 30
0.0
 10
62.6796263136
 20
134.9030252721
 30
0.0
 10
59.4170747109
 20
133.0194014698
 30
0.0
  0
SPLINE
  5
2C2
100
AcDbEntity
  8
0
100
AcDbSpline
 62
7
  6
BYLAYER
 70
0
 71
3
 72
9
 73
5
 74
0
 42
0.0000001
 43
0.0000001
 44
0.0000000001
 40
0.0
 40
0.0
 40
0.0
 40
0.0
 40
0.2431107764
 40
1.0
 40
1.0
 40
1.0
 40
1.0
 10
82.0540456403
 20
143.3962683595
 30
0.0
 10
82.0108159214
 20
143.3820737986
 30
0.0
 10
81.8315658987
 20
143.3280925097
 30
0.0
 10
81.6473168085
 20
143.2911051715
 30
0.0
 10
81.5069743794
 20
143.2718367541
 30
0.0
  0
SPLINE
  5
2C3
100
AcDbEntity
  8
0
100
AcDbSpline
 62
7
  6
BYLAYER
 70
0
 71
3
 72
9
 73
5
 74
0
 42
0.0000001
 43
0.0000001
 44
0.0000000001
 40
0.0
 40
0.0
 40
0.0
 40
0.0
 40
0.277845252
 40
1.0
 40
1.0
 40
1.0
 40
1.0
 10
91.8864705927
 20
97.8051790655
 30
0.0
 10
91.8800161593
 20
97.8089054501
 30
0.0
 10
91.8576495639
 20
97.8235563617
 30
0.0
 10
91.8382435798
 20
97.8441324968
 30
0.0
 10
91.8300819859
 20
97.8617002093
 30
0.0
  0
SPLINE
  5
2C4
100
AcDbEntity
  8
0
100
AcDbSpline
 62
7
  6
BYLAYER
 70
0
 71
3
 72
8
 73
4
 74
0
 42
0.0000001
 43
0.0000001
 44
0.0000000001
 40
0.0
 40
0.0
 40
0.0
 40
0.0
 40
1.0
 40
1.0
 40
1.0
 40
1.0
 10
91.8300819859
 20
97.8617002093
 30
0.0
 10
91.8254339617
 20
97.8717050139
 30
0.0
 10
91.8227456093
 20
97.8829403905
 30
0.0
 10
91.8227456038
 20
97.8939721739
 30
0.0
  0
SPLINE
  5
2C5
100
AcDbEntity
  8
0
100
AcDbSpline
 62
7
  6
BYLAYER
 70
0
 71
3
 72
9
 73
5
 74
0
 42
0.0000001
 43
0.0000001
 44
0.0000000001
 40
0.0
 40
0.0
 40
0.0
 40
0.0
 40
0.4886459472
 40
1.0
 40
1.0
 40
1.0
 40
1.0
 10
102.4760377842
 20
107.5689871382
 30
0.0
 10
99.2066894275
 20
105.7022740396
 30
0.0
 10
92.3403945852
 20
102.1844269001
 30
0.0
 10
85.2160946071
 20
99.2297429333
 30
0.0
 10
81.5247889498
 20
97.8529959416
 30
0.0
  0
SPLINE
  5
2C6
100
AcDbEntity
  8
0
100
AcDbSpline
 62
7
  6
BYLAYER
 70
0
 71
3
 72
9
 73
5
 74
0
 42
0.0000001
 43
0.0000001
 44
0.0000000001
 40
0.0
 40
0.0
 40
0.0
 40
0.0
 40
0.4857165772
 40
1.0
 40
1.0
 40
1.0
 40
1.0
 10
120.1757717351
 20
120.1201367994
 30
0.0
 10
117.6188543287
 20
117.8457183626
 30
0.0
 10
112.0777224826
 20
113.4689387682
 30
0.0
 10
106.1271133349
 20
109.6752843417
 30
0.0
 10
102.9891759745
 20
107.8636061762
 30
0.0
  0
SPLINE
  5
2C7
100
AcDbEntity
  8
0
100
AcDbSpline
 62
7
  6
BYLAYER
 70
0
 71
3
 72
9
 73
5
 74
0
 42
0.0000001
 43
0.0000001
 44
0.0000000001
 40
0.0
 40
0.0
 40
0.0
 40
0.0
 40
0.2662369009
 40
1.0
 40
1.0
 40
1.0
 40
1.0
 10
120.6089588002
 20
119.9502309336
 30
0.0
 10
120.5835749291
 20
119.975999166
 30
0.0
 10
120.4924657386
 20
120.0766938208
 30
0.0
 10
120.4197252606
 20
120.1952814385
 30
0.0
 10
120.3845659245
 20
120.2885647163
 30
0.0
  0
SPLINE
  5
2C8
100
AcDbEntity
  8
0
100
AcDbSpline
 62
7
  6
BYLAYER
 70
0
 71
3
 72
9
 73
5
 74
0
 42
0.0000001
 43
0.0000001
 44
0.0000000001
 40
0.0
 40
0.0
 40
0.0
 40
0.0
 40
0.277845252
 40
1.0
 40
1.0
 40
1.0
 40
1.0
 10
93.4774542264
 20
98.7237284118
 30
0.0
 10
93.470999793
 20
98.7274547963
 30
0.0
 10
93.4486331976
 20
98.7421057079
 30
0.0
 10
93.4292272135
 20
98.7626818431
 30
0.0
 10
93.4210656197
 20
98.7802495555
 30
0.0
  0
SPLINE
  5
2C9
100
AcDbEntity
  8
0
100
AcDbSpline
 62
7
  6
BYLAYER
 70
0
 71
3
 72
8
 73
4
 74
0
 42
0.0000001
 43
0.0000001
 44
0.0000000001
 40
0.0
 40
0.0
 40
0.0
 40
0.0
 40
1.0
 40
1.0
 40
1.0
 40
1.0
 10
93.4210656197
 20
98.7802495555
 30
0.0
 10
93.4164175955
 20
98.7902543602
 30
0.0
 10
93.4137292431
 20
98.8014897367
 30
0.0
 10
93.4137292375
 20
98.8125215201
 30
0.0
  0
SPLINE
  5
2CA
100
AcDbEntity
  8
0
100
AcDbSpline
 62
7
  6
BYLAYER
 70
0
 71
3
 72
9
 73
5
 74
0
 42
0.0000001
 43
0.0000001
 44
0.0000000001
 40
0.0
 40
0.0
 40
0.0
 40
0.0
 40
0.5000746144
 40
1.0
 40
1.0
 40
1.0
 40
1.0
 10
94.7708097747
 20
96.1399427351
 30
0.0
 10
94.8127967873
 20
96.1157020704
 30
0.0
 10
94.8793192242
 20
96.0391789517
 30
0.0
 10
94.9119235414
 20
95.9434410438
 30
0.0
 10
94.9122357743
 20
95.8949743654
 30
0.0
  0
SPLINE
  5
2CB
100
AcDbEntity
  8
0
100
AcDbSpline
 62
7
  6
BYLAYER
 70
0
 71
3
 72
11
 73
7
 74
0
 42
0.0000001
 43
0.0000001
 44
0.0000000001
 40
0.0
 40
0.0
 40
0.0
 40
0.0
 40
0.2177648073
 40
0.4508950352
 40
0.7103684932
 40
1.0
 40
1.0
 40
1.0
 40
1.0
 10
129.7382310431
 20
112.3786505049
 30
0.0
 10
129.7381894413
 20
112.2739171986
 30
0.0
 10
129.6996494748
 20
112.055592552
 30
0.0
 10
129.5340518378
 20
111.7513829338
 30
0.0
 10
129.2723712441
 20
111.476464544
 30
0.0
 10
129.0534756844
 20
111.3256366239
 30
0.0
 10
128.9328404323
 20
111.2559882443
 30
0.0
  0
SPLINE
  5
2CC
100
AcDbEntity
  8
0
100
AcDbSpline
 62
7
  6
BYLAYER
 70
0
 71
3
 72
17
 73
13
 74
0
 42
0.0000001
 43
0.0000001
 44
0.0000000001
 40
0.0
 40
0.0
 40
0.0
 40
0.0
 40
0.128688448
 40
0.2702796817
 40
0.4174325464
 40
0.5617749928
 40
0.6954478191
 40
0.8127119577
 40
0.8646769781
 40
0.912510124
 40
0.9571398159
 40
1.0
 40
1.0
 40
1.0
 40
1.0
 10
82.9710910134
 20
84.7201182427
 30
0.0
 10
82.767526969
 20
84.6025911884
 30
0.0
 10
82.3066210337
 20
84.4124229325
 30
0.0
 10
81.5554452603
 20
84.2621300847
 30
0.0
 10
80.7609378697
 20
84.2401361934
 30
0.0
 10
79.9879456218
 20
84.3487547564
 30
0.0
 10
79.2991277325
 20
84.5788277032
 30
0.0
 10
78.8200543109
 20
84.8704454932
 30
0.0
 10
78.5389112615
 20
85.1526096048
 30
0.0
 10
78.3895503171
 20
85.3722880583
 30
0.0
 10
78.2975137386
 20
85.6040047891
 30
0.0
 10
78.2765658178
 20
85.76449411
 30
0.0
 10
78.2765969143
 20
85.842780132
 30
0.0
  0
SPLINE
  5
2CD
100
AcDbEntity
  8
0
100
AcDbSpline
 62
7
  6
BYLAYER
 70
0
 71
3
 72
10
 73
6
 74
0
 42
0.0000001
 43
0.0000001
 44
0.0000000001
 40
0.0
 40
0.0
 40
0.0
 40
0.0
 40
0.2329081324
 40
0.47353198
 40
1.0
 40
1.0
 40
1.0
 40
1.0
 10
135.9380107256
 20
112.3786622257
 30
0.0
 10
135.9380190077
 20
112.480035165
 30
0.0
 10
135.914072073
 20
112.6869209999
 30
0.0
 10
135.7688373162
 20
113.1000769581
 30
0.0
 10
135.5623647231
 20
113.374461555
 30
0.0
 10
135.39998883
 20
113.536144139
 30
0.0
  0
SPLINE
  5
2CE
100
AcDbEntity
  8
0
100
AcDbSpline
 62
7
  6
BYLAYER
 70
0
 71
3
 72
11
 73
7
 74
0
 42
0.0000001
 43
0.0000001
 44
0.0000000001
 40
0.0
 40
0.0
 40
0.0
 40
0.0
 40
0.2177821605
 40
0.4509085882
 40
0.7102951949
 40
1.0
 40
1.0
 40
1.0
 40
1.0
 10
135.9380161969
 20
99.314623543
 30
0.0
 10
135.9380161542
 20
99.1622715289
 30
0.0
 10
135.8817152559
 20
98.8447219477
 30
0.0
 10
135.6409821858
 20
98.4022729618
 30
0.0
 10
135.260416965
 20
98.0023163228
 30
0.0
 10
134.9419895066
 20
97.7829932347
 30
0.0
 10
134.766475057
 20
97.6816605248
 30
0.0
  0
SPLINE
  5
2CF
100
AcDbEntity
  8
0
100
AcDbSpline
 62
7
  6
BYLAYER
 70
0
 71
3
 72
13
 73
9
 74
0
 42
0.0000001
 43
0.0000001
 44
0.0000000001
 40
0.0
 40
0.0
 40
0.0
 40
0.0
 40
0.1142249338
 40
0.2375584468
 40
0.4999994088
 40
0.7624406902
 40
0.885774603
 40
1.0
 40
1.0
 40
1.0
 40
1.0
 10
83.8549987776
 20
68.2880814461
 30
0.0
 10
83.6614248782
 20
68.1763221703
 30
0.0
 10
83.2379363979
 20
67.9791742357
 30
0.0
 10
82.29953187
 20
67.6940611423
 30
0.0
 10
81.0265764318
 20
67.5556517979
 30
0.0
 10
79.7536196063
 20
67.6940551114
 30
0.0
 10
78.8152113081
 20
67.9791636729
 30
0.0
 10
78.3917200185
 20
68.1763095156
 30
0.0
 10
78.1981445282
 20
68.2880678487
 30
0.0
  0
SPLINE
  5
2D0
100
AcDbEntity
  8
0
100
AcDbSpline
 62
7
  6
BYLAYER
 70
0
 71
3
 72
9
 73
5
 74
0
 42
0.0000001
 43
0.0000001
 44
0.0000000001
 40
0.0
 40
0.0
 40
0.0
 40
0.0
 40
0.2308978383
 40
1.0
 40
1.0
 40
1.0
 40
1.0
 10
35.8023810081
 20
126.8158733844
 30
0.0
 10
35.8007466522
 20
126.8149337548
 30
0.0
 10
35.7939939536
 20
126.8102882431
 30
0.0
 10
35.7888694686
 20
126.8035560014
 30
0.0
 10
35.7858297182
 20
126.7980612862
 30
0.0
  0
SPLINE
  5
2D1
100
AcDbEntity
  8
0
100
AcDbSpline
 62
7
  6
BYLAYER
 70
0
 71
3
 72
9
 73
5
 74
0
 42
0.0000001
 43
0.0000001
 44
0.0000000001
 40
0.0
 40
0.0
 40
0.0
 40
0.0
 40
0.208575984
 40
1.0
 40
1.0
 40
1.0
 40
1.0
 10
35.7858297182
 20
126.7980612862
 30
0.0
 10
35.7835082517
 20
126.793864956
 30
0.0
 10
35.7746241129
 20
126.7725187807
 30
0.0
 10
35.7724571635
 20
126.7490241006
 30
0.0
 10
35.7723580627
 20
126.7308276267
 30
0.0
  0
SPLINE
  5
2D2
100
AcDbEntity
  8
0
100
AcDbSpline
 62
7
  6
BYLAYER
 70
0
 71
3
 72
9
 73
5
 74
0
 42
0.0000001
 43
0.0000001
 44
0.0000000001
 40
0.0
 40
0.0
 40
0.0
 40
0.0
 40
0.2295630796
 40
1.0
 40
1.0
 40
1.0
 40
1.0
 10
70.1171789322
 20
146.6274156688
 30
0.0
 10
70.1257607817
 20
146.6323586973
 30
0.0
 10
70.1662248584
 20
146.648689898
 30
0.0
 10
70.2126593952
 20
146.6435282863
 30
0.0
 10
70.2442051321
 20
146.6330592337
 30
0.0
  0
SPLINE
  5
2D3
100
AcDbEntity
  8
0
100
AcDbSpline
 62
7
  6
BYLAYER
 70
0
 71
3
 72
11
 73
7
 74
0
 42
0.0000001
 43
0.0000001
 44
0.0000000001
 40
0.0
 40
0.0
 40
0.0
 40
0.0
 40
0.2442618887
 40
0.4999429472
 40
0.7556740969
 40
1.0
 40
1.0
 40
1.0
 40
1.0
 10
83.0307156417
 20
143.7708741105
 30
0.0
 10
82.7171787565
 20
143.8758295485
 30
0.0
 10
82.0543859372
 20
144.0301678061
 30
0.0
 10
81.0308347985
 20
144.1070644024
 30
0.0
 10
80.0068924256
 20
144.0319837131
 30
0.0
 10
79.3441205674
 20
143.8771761606
 30
0.0
 10
79.0302491143
 20
143.7729502477
 30
0.0
  0
SPLINE
  5
2D4
100
AcDbEntity
  8
0
100
AcDbSpline
 62
7
  6
BYLAYER
 70
0
 71
3
 72
9
 73
5
 74
0
 42
0.0000001
 43
0.0000001
 44
0.0000000001
 40
0.0
 40
0.0
 40
0.0
 40
0.0
 40
0.2552343643
 40
1.0
 40
1.0
 40
1.0
 40
1.0
 10
80.3783501587
 20
143.2989073349
 30
0.0
 10
80.3447438474
 20
143.305261657
 30
0.0
 10
80.2134808442
 20
143.3322298082
 30
0.0
 10
80.0838972959
 20
143.3675703162
 30
0.0
 10
79.9891774768
 20
143.399004889
 30
0.0
  0
SPLINE
  5
2D5
100
AcDbEntity
  8
0
100
AcDbSpline
 62
7
  6
BYLAYER
 70
0
 71
3
 72
11
 73
7
 74
0
 42
0.0000001
 43
0.0000001
 44
0.0000000001
 40
0.0
 40
0.0
 40
0.0
 40
0.0
 40
0.2530961489
 40
0.5106254997
 40
0.7626475351
 40
1.0
 40
1.0
 40
1.0
 40
1.0
 10
40.4535617842
 20
129.5503252016
 30
0.0
 10
40.5884990471
 20
129.9623976341
 30
0.0
 10
40.9246317171
 20
130.7739154196
 30
0.0
 10
41.5884554115
 20
131.9038835236
 30
0.0
 10
42.3853373965
 20
132.9102419197
 30
0.0
 10
43.0017855444
 20
133.4851203712
 30
0.0
 10
43.323464583
 20
133.7338602719
 30
0.0
  0
SPLINE
  5
2D6
100
AcDbEntity
  8
0
100
AcDbSpline
 62
7
  6
BYLAYER
 70
0
 71
3
 72
9
 73
5
 74
0
 42
0.0000001
 43
0.0000001
 44
0.0000000001
 40
0.0
 40
0.0
 40
0.0
 40
0.0
 40
0.2574101692
 40
1.0
 40
1.0
 40
1.0
 40
1.0
 10
43.323464583
 20
133.7338602719
 30
0.0
 10
43.3767406891
 20
133.7750562833
 30
0.0
 10
43.586163076
 20
133.9318754911
 30
0.0
 10
43.8055444677
 20
134.0755822976
 30
0.0
 10
43.9737983137
 20
134.1727231211
 30
0.0
  0
SPLINE
  5
2D7
100
AcDbEntity
  8
0
100
AcDbSpline
 62
7
  6
BYLAYER
 70
0
 71
3
 72
11
 73
7
 74
0
 42
0.0000001
 43
0.0000001
 44
0.0000000001
 40
0.0
 40
0.0
 40
0.0
 40
0.0
 40
0.2292030638
 40
0.48630537
 40
0.7507657229
 40
1.0
 40
1.0
 40
1.0
 40
1.0
 10
39.1867501812
 20
128.768624064
 30
0.0
 10
39.1644554
 20
129.2130190615
 30
0.0
 10
39.2818311154
 20
130.1647019361
 30
0.0
 10
39.7936000057
 20
131.5397173634
 30
0.0
 10
40.5925091094
 20
132.8163971839
 30
0.0
 10
41.2937401625
 20
133.5409126158
 30
0.0
 10
41.6746563789
 20
133.8392490471
 30
0.0
  0
SPLINE
  5
2D8
100
AcDbEntity
  8
0
100
AcDbSpline
 62
7
  6
BYLAYER
 70
0
 71
3
 72
9
 73
5
 74
0
 42
0.0000001
 43
0.0000001
 44
0.0000000001
 40
0.0
 40
0.0
 40
0.0
 40
0.0
 40
0.2577236121
 40
1.0
 40
1.0
 40
1.0
 40
1.0
 10
41.6746563789
 20
133.8392490471
 30
0.0
 10
41.7181297913
 20
133.8732977491
 30
0.0
 10
41.888923014
 20
134.0026712179
 30
0.0
 10
42.0682905742
 20
134.1208987294
 30
0.0
 10
42.2060240009
 20
134.2004186857
 30
0.0
  0
SPLINE
  5
2D9
100
AcDbEntity
  8
0
100
AcDbSpline
 62
7
  6
BYLAYER
 70
0
 71
3
 72
11
 73
7
 74
0
 42
0.0000001
 43
0.0000001
 44
0.0000000001
 40
0.0
 40
0.0
 40
0.0
 40
0.0
 40
0.2279460828
 40
0.4775027853
 40
0.7386889764
 40
1.0
 40
1.0
 40
1.0
 40
1.0
 10
128.9328404323
 20
111.2559882443
 30
0.0
 10
128.7536019137
 20
111.1525054551
 30
0.0
 10
128.3521663474
 20
110.9797443474
 30
0.0
 10
127.6964733429
 20
110.8263338786
 30
0.0
 10
126.9949023321
 20
110.7733895297
 30
0.0
 10
126.5196151104
 20
110.8079745863
 30
0.0
 10
126.285071143
 20
110.8437758412
 30
0.0
  0
SPLINE
  5
2DA
100
AcDbEntity
  8
0
100
AcDbSpline
 62
7
  6
BYLAYER
 70
0
 71
3
 72
10
 73
6
 74
0
 42
0.0000001
 43
0.0000001
 44
0.0000000001
 40
0.0
 40
0.0
 40
0.0
 40
0.0
 40
0.2202193535
 40
0.4818322888
 40
1.0
 40
1.0
 40
1.0
 40
1.0
 10
126.1931205837
 20
114.2815140487
 30
0.0
 10
126.2081181095
 20
114.2662894311
 30
0.0
 10
126.2355906203
 20
114.2277569279
 30
0.0
 10
126.2773076974
 20
114.1401724271
 30
0.0
 10
126.2954313057
 20
114.0643821261
 30
0.0
 10
126.2956659505
 20
114.0140977972
 30
0.0
  0
SPLINE
  5
2DB
100
AcDbEntity
  8
0
100
AcDbSpline
 62
7
  6
BYLAYER
 70
0
 71
3
 72
9
 73
5
 74
0
 42
0.0000001
 43
0.0000001
 44
0.0000000001
 40
0.0
 40
0.0
 40
0.0
 40
0.0
 40
0.7560191621
 40
1.0
 40
1.0
 40
1.0
 40
1.0
 10
96.4534596659
 20
96.9342870717
 30
0.0
 10
96.4618331848
 20
96.9185738367
 30
0.0
 10
96.4713485838
 20
96.8968742174
 30
0.0
 10
96.4782934683
 20
96.8743621933
 30
0.0
 10
96.479817987
 20
96.8688221015
 30
0.0
  0
SPLINE
  5
2DC
100
AcDbEntity
  8
0
100
AcDbSpline
 62
7
  6
BYLAYER
 70
0
 71
3
 72
9
 73
5
 74
0
 42
0.0000001
 43
0.0000001
 44
0.0000000001
 40
0.0
 40
0.0
 40
0.0
 40
0.0
 40
0.2632253627
 40
1.0
 40
1.0
 40
1.0
 40
1.0
 10
96.479817987
 20
96.8688221015
 30
0.0
 10
96.4813135264
 20
96.8633873203
 30
0.0
 10
96.4863685443
 20
96.8425796964
 30
0.0
 10
96.4889757454
 20
96.821127613
 30
0.0
 10
96.4890773856
 20
96.805350398
 30
0.0
  0
SPLINE
  5
2DD
100
AcDbEntity
  8
0
100
AcDbSpline
 62
7
  6
BYLAYER
 70
0
 71
3
 72
9
 73
5
 74
0
 42
0.0000001
 43
0.0000001
 44
0.0000000001
 40
0.0
 40
0.0
 40
0.0
 40
0.0
 40
0.2333660273
 40
1.0
 40
1.0
 40
1.0
 40
1.0
 10
96.3617934084
 20
97.0584920813
 30
0.0
 10
96.36763333
 20
97.0551204772
 30
0.0
 10
96.3918787966
 20
97.03932992
 30
0.0
 10
96.4129873257
 20
97.0189994571
 30
0.0
 10
96.4273032369
 20
97.0020940855
 30
0.0
  0
SPLINE
  5
2DE
100
AcDbEntity
  8
0
100
AcDbSpline
 62
7
  6
BYLAYER
 70
0
 71
3
 72
11
 73
7
 74
0
 42
0.0000001
 43
0.0000001
 44
0.0000000001
 40
0.0
 40
0.0
 40
0.0
 40
0.0
 40
0.253170741
 40
0.5055683195
 40
0.7557273842
 40
1.0
 40
1.0
 40
1.0
 40
1.0
 10
17.7506952127
 20
144.8274474699
 30
0.0
 10
17.8223686334
 20
144.9515901653
 30
0.0
 10
18.0026405542
 20
145.1794559468
 30
0.0
 10
18.3457557125
 20
145.4405856522
 30
0.0
 10
18.7269624098
 20
145.6280788018
 30
0.0
 10
18.9946865027
 20
145.7133147178
 30
0.0
 10
19.1289982979
 20
145.7463266633
 30
0.0
  0
SPLINE
  5
2DF
100
AcDbEntity
  8
0
100
AcDbSpline
 62
7
  6
BYLAYER
 70
0
 71
3
 72
11
 73
7
 74
0
 42
0.0000001
 43
0.0000001
 44
0.0000000001
 40
0.0
 40
0.0
 40
0.0
 40
0.0
 40
0.290443924
 40
0.5603888693
 40
0.7994403944
 40
1.0
 40
1.0
 40
1.0
 40
1.0
 10
19.1289982979
 20
145.7463266633
 30
0.0
 10
19.2563915187
 20
145.7776381207
 30
0.0
 10
19.5063290627
 20
145.8224713171
 30
0.0
 10
19.8683554966
 20
145.8384278907
 30
0.0
 10
20.1880809197
 20
145.8016430454
 30
0.0
 10
20.3786354936
 20
145.7350695637
 30
0.0
 10
20.4570853348
 20
145.6897752318
 30
0.0
  0
SPLINE
  5
2E0
100
AcDbEntity
  8
0
100
AcDbSpline
 62
7
  6
BYLAYER
 70
0
 71
3
 72
11
 73
7
 74
0
 42
0.0000001
 43
0.0000001
 44
0.0000000001
 40
0.0
 40
0.0
 40
0.0
 40
0.0
 40
0.2874699071
 40
0.5473404022
 40
0.7820646845
 40
1.0
 40
1.0
 40
1.0
 40
1.0
 10
36.4784352272
 20
136.0564513323
 30
0.0
 10
36.5802886784
 20
136.1152560988
 30
0.0
 10
36.7831209845
 20
136.2130417124
 30
0.0
 10
37.0944670893
 20
136.2962455467
 30
0.0
 10
37.389019043
 20
136.3040906985
 30
0.0
 10
37.5711968813
 20
136.2554598961
 30
0.0
 10
37.6525517657
 20
136.2189737202
 30
0.0
  0
SPLINE
  5
2E1
100
AcDbEntity
  8
0
100
AcDbSpline
 62
7
  6
BYLAYER
 70
0
 71
3
 72
11
 73
7
 74
0
 42
0.0000001
 43
0.0000001
 44
0.0000000001
 40
0.0
 40
0.0
 40
0.0
 40
0.0
 40
0.2897052857
 40
0.5490919933
 40
0.7822182543
 40
1.0
 40
1.0
 40
1.0
 40
1.0
 10
27.2862443176
 20
97.6814021741
 30
0.0
 10
27.1107265847
 20
97.782735092
 30
0.0
 10
26.7922930858
 20
98.0020589353
 30
0.0
 10
26.4117201801
 20
98.4020185572
 30
0.0
 10
26.1709819423
 20
98.844471809
 30
0.0
 10
26.1146795832
 20
99.1620251027
 30
0.0
 10
26.1146796259
 20
99.3143787896
 30
0.0
  0
SPLINE
  5
2E2
100
AcDbEntity
  8
0
100
AcDbSpline
 62
7
  6
BYLAYER
 70
0
 71
3
 72
9
 73
5
 74
0
 42
0.0000001
 43
0.0000001
 44
0.0000000001
 40
0.0
 40
0.0
 40
0.0
 40
0.0
 40
0.4844690277
 40
1.0
 40
1.0
 40
1.0
 40
1.0
 10
92.0149476218
 20
94.2222340348
 30
0.0
 10
92.0145526892
 20
94.27045713
 30
0.0
 10
91.9691663996
 20
94.3683638962
 30
0.0
 10
91.8840443364
 20
94.4289948758
 30
0.0
 10
91.8353397238
 20
94.4451584275
 30
0.0
  0
SPLINE
  5
2E3
100
AcDbEntity
  8
0
100
AcDbSpline
 62
7
  6
BYLAYER
 70
0
 71
3
 72
11
 73
7
 74
0
 42
0.0000001
 43
0.0000001
 44
0.0000000001
 40
0.0
 40
0.0
 40
0.0
 40
0.0
 40
0.244239709
 40
0.4998038421
 40
0.7554695573
 40
1.0
 40
1.0
 40
1.0
 40
1.0
 10
82.0635183461
 20
89.523098963
 30
0.0
 10
81.9015997375
 20
89.5768347317
 30
0.0
 10
81.5597205867
 20
89.6564197003
 30
0.0
 10
81.0316599126
 20
89.6959959708
 30
0.0
 10
80.503295617
 20
89.6577887162
 30
0.0
 10
80.1609313426
 20
89.579120822
 30
0.0
 10
79.9986501825
 20
89.5258354924
 30
0.0
  0
SPLINE
  5
2E4
100
AcDbEntity
  8
0
100
AcDbSpline
 62
7
  6
BYLAYER
 70
0
 71
3
 72
11
 73
7
 74
0
 42
0.0000001
 43
0.0000001
 44
0.0000000001
 40
0.0
 40
0.0
 40
0.0
 40
0.0
 40
0.2447933159
 40
0.5008717978
 40
0.7564980862
 40
1.0
 40
1.0
 40
1.0
 40
1.0
 10
79.0376714266
 20
80.9814216261
 30
0.0
 10
79.3560325981
 20
80.8760866764
 30
0.0
 10
80.0285054895
 20
80.7214871459
 30
0.0
 10
81.0660723264
 20
80.6494772411
 30
0.0
 10
82.1009942305
 20
80.7331719475
 30
0.0
 10
82.769237089
 20
80.8956009417
 30
0.0
 10
83.0844299013
 20
81.0047772209
 30
0.0
  0
SPLINE
  5
2E5
100
AcDbEntity
  8
0
100
AcDbSpline
 62
7
  6
BYLAYER
 70
0
 71
3
 72
17
 73
13
 74
0
 42
0.0000001
 43
0.0000001
 44
0.0000000001
 40
0.0
 40
0.0
 40
0.0
 40
0.0
 40
0.128688448
 40
0.2702796817
 40
0.4174325464
 40
0.5617749928
 40
0.6954478191
 40
0.8127119577
 40
0.8646769781
 40
0.912510124
 40
0.9571398159
 40
1.0
 40
1.0
 40
1.0
 40
1.0
 10
79.0819875251
 20
86.9654423925
 30
0.0
 10
79.2855515695
 20
87.0829694468
 30
0.0
 10
79.7464575048
 20
87.2731377027
 30
0.0
 10
80.4976332782
 20
87.4234305506
 30
0.0
 10
81.2921406688
 20
87.4454244418
 30
0.0
 10
82.0651329167
 20
87.3368058789
 30
0.0
 10
82.753950806
 20
87.106732932
 30
0.0
 10
83.2330242276
 20
86.815115142
 30
0.0
 10
83.514167277
 20
86.5329510304
 30
0.0
 10
83.6635282214
 20
86.3132725769
 30
0.0
 10
83.7555647999
 20
86.0815558461
 30
0.0
 10
83.7765127207
 20
85.9210665252
 30
0.0
 10
83.7764816242
 20
85.8427805032
 30
0.0
  0
SPLINE
  5
2E6
100
AcDbEntity
  8
0
100
AcDbSpline
 62
7
  6
BYLAYER
 70
0
 71
3
 72
9
 73
5
 74
0
 42
0.0000001
 43
0.0000001
 44
0.0000000001
 40
0.0
 40
0.0
 40
0.0
 40
0.0
 40
0.2278769457
 40
1.0
 40
1.0
 40
1.0
 40
1.0
 10
106.5043895598
 20
87.7784523615
 30
0.0
 10
106.5479591867
 20
87.7798385004
 30
0.0
 10
106.7387185956
 20
87.8013108019
 30
0.0
 10
106.9200839122
 20
87.8776535439
 30
0.0
 10
107.0479987503
 20
87.9515047693
 30
0.0
  0
SPLINE
  5
2E7
100
AcDbEntity
  8
0
100
AcDbSpline
 62
7
  6
BYLAYER
 70
0
 71
3
 72
11
 73
7
 74
0
 42
0.0000001
 43
0.0000001
 44
0.0000000001
 40
0.0
 40
0.0
 40
0.0
 40
0.0
 40
0.2317708998
 40
0.4879208716
 40
0.7505069047
 40
1.0
 40
1.0
 40
1.0
 40
1.0
 10
43.1252666435
 20
134.2171224392
 30
0.0
 10
42.7021768405
 20
133.9728528856
 30
0.0
 10
41.8892488272
 20
133.3218750673
 30
0.0
 10
40.8875529942
 20
132.0854926884
 30
0.0
 10
40.1194371355
 20
130.6494734212
 30
0.0
 10
39.8019763355
 20
129.6073811991
 30
0.0
 10
39.7116265719
 20
129.0893031726
 30
0.0
  0
SPLINE
  5
2E8
100
AcDbEntity
  8
0
100
AcDbSpline
 62
7
  6
BYLAYER
 70
0
 71
3
 72
9
 73
5
 74
0
 42
0.0000001
 43
0.0000001
 44
0.0000000001
 40
0.0
 40
0.0
 40
0.0
 40
0.0
 40
0.4499598415
 40
1.0
 40
1.0
 40
1.0
 40
1.0
 10
93.4137292375
 20
98.8125215201
 30
0.0
 10
93.4137292289
 20
98.8294851809
 30
0.0
 10
93.4287234672
 20
98.8672028627
 30
0.0
 10
93.4594943862
 20
98.890945562
 30
0.0
 10
93.4774529458
 20
98.9013138793
 30
0.0
  0
SPLINE
  5
2E9
100
AcDbEntity
  8
0
100
AcDbSpline
 62
7
  6
BYLAYER
 70
0
 71
3
 72
9
 73
5
 74
0
 42
0.0000001
 43
0.0000001
 44
0.0000000001
 40
0.0
 40
0.0
 40
0.0
 40
0.0
 40
0.4499598415
 40
1.0
 40
1.0
 40
1.0
 40
1.0
 10
91.8227456038
 20
97.8939721739
 30
0.0
 10
91.8227455952
 20
97.9109358347
 30
0.0
 10
91.8377398335
 20
97.9486535164
 30
0.0
 10
91.8685107524
 20
97.9723962158
 30
0.0
 10
91.8864693121
 20
97.9827645331
 30
0.0
  0
SPLINE
  5
2EA
100
AcDbEntity
  8
0
100
AcDbSpline
 62
7
  6
BYLAYER
 70
0
 71
3
 72
11
 73
7
 74
0
 42
0.0000001
 43
0.0000001
 44
0.0000000001
 40
0.0
 40
0.0
 40
0.0
 40
0.0
 40
0.2503011258
 40
0.5128480473
 40
0.7685560954
 40
1.0
 40
1.0
 40
1.0
 40
1.0
 10
40.0127144481
 20
129.2488567754
 30
0.0
 10
40.1002563662
 20
129.7180212255
 30
0.0
 10
40.3961357089
 20
130.6591635544
 30
0.0
 10
41.0986051654
 20
131.9545498517
 30
0.0
 10
42.0079848139
 20
133.0681332313
 30
0.0
 10
42.7430840175
 20
133.6545483029
 30
0.0
 10
43.1252666435
 20
133.8752002278
 30
0.0
  0
SPLINE
  5
2EB
100
AcDbEntity
  8
0
100
AcDbSpline
 62
7
  6
BYLAYER
 70
0
 71
3
 72
11
 73
7
 74
0
 42
0.0000001
 43
0.0000001
 44
0.0000000001
 40
0.0
 40
0.0
 40
0.0
 40
0.0
 40
0.2177648073
 40
0.4508950352
 40
0.7103684932
 40
1.0
 40
1.0
 40
1.0
 40
1.0
 10
78.2765969143
 20
85.842780132
 30
0.0
 10
78.2766385161
 20
85.9475134383
 30
0.0
 10
78.3151784826
 20
86.1658380849
 30
0.0
 10
78.4807761196
 20
86.4700477031
 30
0.0
 10
78.7424567133
 20
86.7449660928
 30
0.0
 10
78.961352273
 20
86.895794013
 30
0.0
 10
79.0819875251
 20
86.9654423925
 30
0.0
  0
SPLINE
  5
2EC
100
AcDbEntity
  8
0
100
AcDbSpline
 62
7
  6
BYLAYER
 70
0
 71
3
 72
9
 73
5
 74
0
 42
0.0000001
 43
0.0000001
 44
0.0000000001
 40
0.0
 40
0.0
 40
0.0
 40
0.0
 40
0.2613841905
 40
1.0
 40
1.0
 40
1.0
 40
1.0
 10
43.1252666435
 20
133.8752002278
 30
0.0
 10
43.1844978629
 20
133.9093971841
 30
0.0
 10
43.4141923275
 20
134.0346834754
 30
0.0
 10
43.6567724022
 20
134.1372838306
 30
0.0
 10
43.8412370761
 20
134.1949473758
 30
0.0
  0
SPLINE
  5
2ED
100
AcDbEntity
  8
0
100
AcDbSpline
 62
7
  6
BYLAYER
 70
0
 71
3
 72
11
 73
7
 74
0
 42
0.0000001
 43
0.0000001
 44
0.0000000001
 40
0.0
 40
0.0
 40
0.0
 40
0.0
 40
0.2177648073
 40
0.4508950352
 40
0.7103684932
 40
1.0
 40
1.0
 40
1.0
 40
1.0
 10
32.3144647797
 20
112.3784291758
 30
0.0
 10
32.3145063816
 20
112.4831624821
 30
0.0
 10
32.3530463481
 20
112.7014871287
 30
0.0
 10
32.518643985
 20
113.0056967469
 30
0.0
 10
32.7803245788
 20
113.2806151366
 30
0.0
 10
32.9992201385
 20
113.4314430568
 30
0.0
 10
33.1198553905
 20
113.5010914364
 30
0.0
  0
SPLINE
  5
2EE
100
AcDbEntity
  8
0
100
AcDbSpline
 62
7
  6
BYLAYER
 70
0
 71
3
 72
11
 73
7
 74
0
 42
0.0000001
 43
0.0000001
 44
0.0000000001
 40
0.0
 40
0.0
 40
0.0
 40
0.0
 40
0.2280989337
 40
0.4780922496
 40
0.7394421774
 40
1.0
 40
1.0
 40
1.0
 40
1.0
 10
33.1198553905
 20
113.5010914364
 30
0.0
 10
33.3038279749
 20
113.6073074235
 30
0.0
 10
33.7167683988
 20
113.7835796867
 30
0.0
 10
34.3911091308
 20
113.936800251
 30
0.0
 10
35.1111734714
 20
113.9843554348
 30
0.0
 10
35.5977667493
 20
113.9425636809
 30
0.0
 10
35.8370395196
 20
113.9021454109
 30
0.0
  0
SPLINE
  5
2EF
100
AcDbEntity
  8
0
100
AcDbSpline
 62
7
  6
BYLAYER
 70
0
 71
3
 72
9
 73
5
 74
0
 42
0.0000001
 43
0.0000001
 44
0.0000000001
 40
0.0
 40
0.0
 40
0.0
 40
0.0
 40
0.5146146115
 40
1.0
 40
1.0
 40
1.0
 40
1.0
 10
102.6356211119
 20
108.0677265535
 30
0.0
 10
105.8275798719
 20
109.9105938024
 30
0.0
 10
111.8736396974
 20
113.7729101399
 30
0.0
 10
117.4922171613
 20
118.2415942558
 30
0.0
 10
120.0781829214
 20
120.5649936161
 30
0.0
  0
SPLINE
  5
2F0
100
AcDbEntity
  8
0
100
AcDbSpline
 62
7
  6
BYLAYER
 70
0
 71
3
 72
9
 73
5
 74
0
 42
0.0000001
 43
0.0000001
 44
0.0000000001
 40
0.0
 40
0.0
 40
0.0
 40
0.0
 40
0.5116360786
 40
1.0
 40
1.0
 40
1.0
 40
1.0
 10
81.414811817
 20
98.1557451556
 30
0.0
 10
85.1591116903
 20
99.5568069812
 30
0.0
 10
92.3795380837
 20
102.5665243131
 30
0.0
 10
99.3308641807
 20
106.1597356388
 30
0.0
 10
102.6356211119
 20
108.0677265535
 30
0.0
  0
SPLINE
  5
2F1
100
AcDbEntity
  8
0
100
AcDbSpline
 62
7
  6
BYLAYER
 70
0
 71
3
 72
9
 73
5
 74
0
 42
0.0000001
 43
0.0000001
 44
0.0000000001
 40
0.0
 40
0.0
 40
0.0
 40
0.0
 40
0.2431107764
 40
1.0
 40
1.0
 40
1.0
 40
1.0
 10
79.9986501825
 20
97.6908596637
 30
0.0
 10
80.0418799014
 20
97.7050542247
 30
0.0
 10
80.2211299242
 20
97.7590355135
 30
0.0
 10
80.4053790143
 20
97.7960228518
 30
0.0
 10
80.5457214435
 20
97.8152912692
 30
0.0
  0
SPLINE
  5
2F2
100
AcDbEntity
  8
0
100
AcDbSpline
 62
7
  6
BYLAYER
 70
0
 71
3
 72
10
 73
6
 74
0
 42
0.0000001
 43
0.0000001
 44
0.0000000001
 40
0.0
 40
0.0
 40
0.0
 40
0.0
 40
0.4634228915
 40
0.7224892078
 40
1.0
 40
1.0
 40
1.0
 40
1.0
 10
47.3745035906
 20
134.5989280578
 30
0.0
 10
47.0300784165
 20
134.6213628714
 30
0.0
 10
46.4839471619
 20
134.546122066
 30
0.0
 10
45.7830791321
 20
134.2928293818
 30
0.0
 10
45.4255937165
 20
134.111160851
 30
0.0
 10
45.246595819
 20
134.0078169836
 30
0.0
  0
SPLINE
  5
2F3
100
AcDbEntity
  8
0
100
AcDbSpline
 62
7
  6
BYLAYER
 70
0
 71
3
 72
9
 73
5
 74
0
 42
0.0000001
 43
0.0000001
 44
0.0000000001
 40
0.0
 40
0.0
 40
0.0
 40
0.0
 40
0.2662369009
 40
1.0
 40
1.0
 40
1.0
 40
1.0
 10
41.4437370226
 20
121.1368970897
 30
0.0
 10
41.4691208937
 20
121.1111288573
 30
0.0
 10
41.5602300843
 20
121.0104342025
 30
0.0
 10
41.6329705623
 20
120.8918465848
 30
0.0
 10
41.6681298984
 20
120.798563307
 30
0.0
  0
SPLINE
  5
2F4
100
AcDbEntity
  8
0
100
AcDbSpline
 62
7
  6
BYLAYER
 70
0
 71
3
 72
13
 73
9
 74
0
 42
0.0000001
 43
0.0000001
 44
0.0000000001
 40
0.0
 40
0.0
 40
0.0
 40
0.0
 40
0.1142231475
 40
0.2375548935
 40
0.499998393
 40
0.762442772
 40
0.8857755457
 40
1.0
 40
1.0
 40
1.0
 40
1.0
 10
41.3705747055
 20
134.121724642
 30
0.0
 10
41.1968622513
 20
134.0214323084
 30
0.0
 10
40.8536229354
 20
133.7807756881
 30
0.0
 10
40.2109699192
 20
133.1794026618
 30
0.0
 10
39.5322107473
 20
132.252188703
 30
0.0
 10
39.0686043337
 20
131.2007551509
 30
0.0
 10
38.8691274312
 20
130.343508855
 30
0.0
 10
38.8323318879
 20
129.925922575
 30
0.0
 10
38.8323318879
 20
129.7253347151
 30
0.0
  0
SPLINE
  5
2F5
100
AcDbEntity
  8
0
100
AcDbSpline
 62
7
  6
BYLAYER
 70
0
 71
3
 72
15
 73
11
 74
0
 42
0.0000001
 43
0.0000001
 44
0.0000000001
 40
0.0
 40
0.0
 40
0.0
 40
0.0
 40
0.1012667075
 40
0.2160800025
 40
0.3425812502
 40
0.4771199676
 40
0.6150343558
 40
0.7512537971
 40
0.8809495408
 40
1.0
 40
1.0
 40
1.0
 40
1.0
 10
38.7031073357
 20
129.6430703414
 30
0.0
 10
38.6479318555
 20
129.8066067028
 30
0.0
 10
38.5836473528
 20
130.1740425719
 30
0.0
 10
38.609511734
 20
130.7604655579
 30
0.0
 10
38.7478416016
 20
131.3888091865
 30
0.0
 10
38.9913110555
 20
132.0260623566
 30
0.0
 10
39.3269235727
 20
132.6387731646
 30
0.0
 10
39.7368634184
 20
133.1944257118
 30
0.0
 10
40.1991613927
 20
133.6631704148
 30
0.0
 10
40.5441847286
 20
133.9143791965
 30
0.0
 10
40.7199041647
 20
134.0158302546
 30
0.0
  0
SPLINE
  5
2F6
100
AcDbEntity
  8
0
100
AcDbSpline
 62
7
  6
BYLAYER
 70
0
 71
3
 72
9
 73
5
 74
0
 42
0.0000001
 43
0.0000001
 44
0.0000000001
 40
0.0
 40
0.0
 40
0.0
 40
0.0
 40
0.4882964006
 40
1.0
 40
1.0
 40
1.0
 40
1.0
 10
59.0635198484
 20
133.223521847
 30
0.0
 10
62.4048802831
 20
135.1526456782
 30
0.0
 10
69.4355186791
 20
138.7838831314
 30
0.0
 10
76.7396032521
 20
141.8212077406
 30
0.0
 10
80.527906873
 20
143.2341320817
 30
0.0
  0
SPLINE
  5
2F7
100
AcDbEntity
  8
0
100
AcDbSpline
 62
7
  6
BYLAYER
 70
0
 71
3
 72
9
 73
5
 74
0
 42
0.0000001
 43
0.0000001
 44
0.0000000001
 40
0.0
 40
0.0
 40
0.0
 40
0.0
 40
0.4855596387
 40
1.0
 40
1.0
 40
1.0
 40
1.0
 10
41.7245651593
 20
120.8311460256
 30
0.0
 10
44.2999252965
 20
123.1327897712
 30
0.0
 10
49.8878159362
 20
127.560843292
 30
0.0
 10
55.8943555608
 20
131.3938149144
 30
0.0
 10
59.0635198484
 20
133.223521847
 30
0.0
  0
SPLINE
  5
2F8
100
AcDbEntity
  8
0
100
AcDbSpline
 62
7
  6
BYLAYER
 70
0
 71
3
 72
9
 73
5
 74
0
 42
0.0000001
 43
0.0000001
 44
0.0000000001
 40
0.0
 40
0.0
 40
0.0
 40
0.0
 40
0.2367258392
 40
1.0
 40
1.0
 40
1.0
 40
1.0
 10
120.3931687353
 20
120.8210883636
 30
0.0
 10
120.4048993999
 20
120.849637787
 30
0.0
 10
120.4613662185
 20
120.9674004282
 30
0.0
 10
120.5434818667
 20
121.071841467
 30
0.0
 10
120.613698676
 20
121.1423660808
 30
0.0
  0
SPLINE
  5
2F9
100
AcDbEntity
  8
0
100
AcDbSpline
 62
7
  6
BYLAYER
 70
0
 71
3
 72
9
 73
5
 74
0
 42
0.0000001
 43
0.0000001
 44
0.0000000001
 40
0.0
 40
0.0
 40
0.0
 40
0.0
 40
0.5863576078
 40
1.0
 40
1.0
 40
1.0
 40
1.0
 10
35.874904431
 20
126.7900526689
 30
0.0
 10
35.8637760758
 20
126.8013495291
 30
0.0
 10
35.8429722147
 20
126.8199917107
 30
0.0
 10
35.8120790236
 20
126.8214490017
 30
0.0
 10
35.8023810081
 20
126.8158733844
 30
0.0
  0
SPLINE
  5
2FA
100
AcDbEntity
  8
0
100
AcDbSpline
 62
7
  6
BYLAYER
 70
0
 71
3
 72
9
 73
5
 74
0
 42
0.0000001
 43
0.0000001
 44
0.0000000001
 40
0.0
 40
0.0
 40
0.0
 40
0.0
 40
0.2400418119
 40
1.0
 40
1.0
 40
1.0
 40
1.0
 10
44.5264149941
 20
134.6878901702
 30
0.0
 10
44.4746025012
 20
134.6841280076
 30
0.0
 10
44.2592895888
 20
134.6613048869
 30
0.0
 10
44.0472530638
 20
134.6110398039
 30
0.0
 10
43.8905539622
 20
134.5610914835
 30
0.0
  0
SPLINE
  5
2FB
100
AcDbEntity
  8
0
100
AcDbSpline
 62
7
  6
BYLAYER
 70
0
 71
3
 72
9
 73
5
 74
0
 42
0.0000001
 43
0.0000001
 44
0.0000000001
 40
0.0
 40
0.0
 40
0.0
 40
0.0
 40
0.2442912623
 40
1.0
 40
1.0
 40
1.0
 40
1.0
 10
43.8905539622
 20
134.5610914835
 30
0.0
 10
43.8590609951
 20
134.5510530034
 30
0.0
 10
43.7307765954
 20
134.5079938899
 30
0.0
 10
43.6050748042
 20
134.457337862
 30
0.0
 10
43.5117891491
 20
134.4154653991
 30
0.0
  0
SPLINE
  5
2FC
100
AcDbEntity
  8
0
100
AcDbSpline
 62
7
  6
BYLAYER
 70
0
 71
3
 72
9
 73
5
 74
0
 42
0.0000001
 43
0.0000001
 44
0.0000000001
 40
0.0
 40
0.0
 40
0.0
 40
0.0
 40
0.2448106657
 40
1.0
 40
1.0
 40
1.0
 40
1.0
 10
43.5117891491
 20
134.4154653991
 30
0.0
 10
43.4794380464
 20
134.4009441916
 30
0.0
 10
43.3480961291
 20
134.3398431616
 30
0.0
 10
43.2200001831
 20
134.2718165473
 30
0.0
 10
43.1252666435
 20
134.2171224392
 30
0.0
  0
SPLINE
  5
2FD
100
AcDbEntity
  8
0
100
AcDbSpline
 62
7
  6
BYLAYER
 70
0
 71
3
 72
9
 73
5
 74
0
 42
0.0000001
 43
0.0000001
 44
0.0000000001
 40
0.0
 40
0.0
 40
0.0
 40
0.0
 40
0.4999975881
 40
1.0
 40
1.0
 40
1.0
 40
1.0
 10
92.805638873
 20
98.5134441588
 30
0.0
 10
92.8512883684
 20
98.53979975
 30
0.0
 10
92.9594342109
 20
98.5606704625
 30
0.0
 10
93.0675801969
 20
98.5398004144
 30
0.0
 10
93.1132303228
 20
98.5134448982
 30
0.0
  0
SPLINE
  5
2FE
100
AcDbEntity
  8
0
100
AcDbSpline
 62
7
  6
BYLAYER
 70
0
 71
3
 72
11
 73
7
 74
0
 42
0.0000001
 43
0.0000001
 44
0.0000000001
 40
0.0
 40
0.0
 40
0.0
 40
0.0
 40
0.2279214403
 40
0.4748297905
 40
0.7346314396
 40
1.0
 40
1.0
 40
1.0
 40
1.0
 10
45.246595819
 20
134.0078169836
 30
0.0
 10
44.9224517451
 20
133.8206734324
 30
0.0
 10
44.2835983118
 20
133.3661434796
 30
0.0
 10
43.4132850963
 20
132.5255683814
 30
0.0
 10
42.6224954339
 20
131.5302727355
 30
0.0
 10
42.1712965526
 20
130.7923659452
 30
0.0
 10
41.9669279332
 20
130.4074750535
 30
0.0
  0
SPLINE
  5
2FF
100
AcDbEntity
  8
0
100
AcDbSpline
 62
7
  6
BYLAYER
 70
0
 71
3
 72
10
 73
6
 74
0
 42
0.0000001
 43
0.0000001
 44
0.0000000001
 40
0.0
 40
0.0
 40
0.0
 40
0.0
 40
0.5277971701
 40
0.7679490792
 40
1.0
 40
1.0
 40
1.0
 40
1.0
 10
135.3680927906
 20
111.1905838793
 30
0.0
 10
135.5391697904
 20
111.3552158462
 30
0.0
 10
135.7584786575
 20
111.6352081266
 30
0.0
 10
135.9125834045
 20
112.0610312629
 30
0.0
 10
135.9380021972
 20
112.2742757583
 30
0.0
 10
135.9380107256
 20
112.3786622257
 30
0.0
  0
SPLINE
  5
300
100
AcDbEntity
  8
0
100
AcDbSpline
 62
7
  6
BYLAYER
 70
0
 71
3
 72
15
 73
11
 74
0
 42
0.0000001
 43
0.0000001
 44
0.0000000001
 40
0.0
 40
0.0
 40
0.0
 40
0.0
 40
0.149599861
 40
0.2998694576
 40
0.4456372513
 40
0.5822460448
 40
0.7061266655
 40
0.8156104056
 40
0.9119046861
 40
1.0
 40
1.0
 40
1.0
 40
1.0
 10
126.2883269189
 20
113.9140474689
 30
0.0
 10
126.4935498326
 20
113.9452350669
 30
0.0
 10
126.9097160302
 20
113.9792072193
 30
0.0
 10
127.5289996835
 20
113.9491454739
 30
0.0
 10
128.1213305951
 20
113.8401502544
 30
0.0
 10
128.6571090225
 20
113.6576038709
 30
0.0
 10
129.1102695292
 20
113.4098983528
 30
0.0
 10
129.4589761488
 20
113.1068428002
 30
0.0
 10
129.6842693314
 20
112.7588314572
 30
0.0
 10
129.738279598
 20
112.500888255
 30
0.0
 10
129.7382310431
 20
112.3786505049
 30
0.0
  0
SPLINE
  5
301
100
AcDbEntity
  8
0
100
AcDbSpline
 62
7
  6
BYLAYER
 70
0
 71
3
 72
9
 73
5
 74
0
 42
0.0000001
 43
0.0000001
 44
0.0000000001
 40
0.0
 40
0.0
 40
0.0
 40
0.0
 40
0.2567453257
 40
1.0
 40
1.0
 40
1.0
 40
1.0
 10
81.4685033956
 20
97.8204996556
 30
0.0
 10
81.5203104907
 20
97.8140018554
 30
0.0
 10
81.721469354
 20
97.7841024648
 30
0.0
 10
81.9200601432
 20
97.7357324664
 30
0.0
 10
82.0635183461
 20
97.6881231343
 30
0.0
  0
SPLINE
  5
302
100
AcDbEntity
  8
0
100
AcDbSpline
 62
7
  6
BYLAYER
 70
0
 71
3
 72
10
 73
6
 74
0
 42
0.0000001
 43
0.0000001
 44
0.0000000001
 40
0.0
 40
0.0
 40
0.0
 40
0.0
 40
0.5249101761
 40
0.7713917267
 40
1.0
 40
1.0
 40
1.0
 40
1.0
 10
42.4425464493
 20
130.6699261861
 30
0.0
 10
42.805985201
 20
131.287122306
 30
0.0
 10
43.4405371105
 20
132.1426792386
 30
0.0
 10
44.4424253586
 20
133.0728590002
 30
0.0
 10
44.9764458878
 20
133.4458962584
 30
0.0
 10
45.246595819
 20
133.6018664629
 30
0.0
  0
SPLINE
  5
303
100
AcDbEntity
  8
0
100
AcDbSpline
 62
7
  6
BYLAYER
 70
0
 71
3
 72
9
 73
5
 74
0
 42
0.0000001
 43
0.0000001
 44
0.0000000001
 40
0.0
 40
0.0
 40
0.0
 40
0.0
 40
0.4999216648
 40
1.0
 40
1.0
 40
1.0
 40
1.0
 10
97.7299791382
 20
97.521789537
 30
0.0
 10
97.7296669076
 20
97.5702558557
 30
0.0
 10
97.6970628038
 20
97.6659937499
 30
0.0
 10
97.6305404643
 20
97.7425170684
 30
0.0
 10
97.5885531385
 20
97.7667579139
 30
0.0
  0
SPLINE
  5
304
100
AcDbEntity
  8
0
100
AcDbSpline
 62
7
  6
BYLAYER
 70
0
 71
3
 72
9
 73
5
 74
0
 42
0.0000001
 43
0.0000001
 44
0.0000000001
 40
0.0
 40
0.0
 40
0.0
 40
0.0
 40
0.499998676
 40
1.0
 40
1.0
 40
1.0
 40
1.0
 10
94.7042139565
 20
99.1870435192
 30
0.0
 10
94.6585641717
 20
99.2133988386
 30
0.0
 10
94.5504183173
 20
99.2342690836
 30
0.0
 10
94.4422723432
 20
99.213398568
 30
0.0
 10
94.3966225067
 20
99.1870427799
 30
0.0
  0
SPLINE
  5
305
100
AcDbEntity
  8
0
100
AcDbSpline
 62
7
  6
BYLAYER
 70
0
 71
3
 72
9
 73
5
 74
0
 42
0.0000001
 43
0.0000001
 44
0.0000000001
 40
0.0
 40
0.0
 40
0.0
 40
0.0
 40
0.2599173966
 40
1.0
 40
1.0
 40
1.0
 40
1.0
 10
45.246595819
 20
133.6018664629
 30
0.0
 10
45.3125452466
 20
133.6399421554
 30
0.0
 10
45.56935698
 20
133.7809467723
 30
0.0
 10
45.8388713712
 20
133.8994986902
 30
0.0
 10
46.0438931404
 20
133.9700851978
 30
0.0
  0
SPLINE
  5
306
100
AcDbEntity
  8
0
100
AcDbSpline
 62
7
  6
BYLAYER
 70
0
 71
3
 72
9
 73
5
 74
0
 42
0.0000001
 43
0.0000001
 44
0.0000000001
 40
0.0
 40
0.0
 40
0.0
 40
0.0
 40
0.25510712
 40
1.0
 40
1.0
 40
1.0
 40
1.0
 10
46.146791248
 20
134.0038871442
 30
0.0
 10
46.1766584068
 20
134.0132235999
 30
0.0
 10
46.2941929774
 20
134.0483325847
 30
0.0
 10
46.4135631175
 20
134.0773671133
 30
0.0
 10
46.5031956034
 20
134.0951086868
 30
0.0
  0
SPLINE
  5
307
100
AcDbEntity
  8
0
100
AcDbSpline
 62
7
  6
BYLAYER
 70
0
 71
3
 72
9
 73
5
 74
0
 42
0.0000001
 43
0.0000001
 44
0.0000000001
 40
0.0
 40
0.0
 40
0.0
 40
0.0
 40
0.4999975881
 40
1.0
 40
1.0
 40
1.0
 40
1.0
 10
94.3966225067
 20
99.431993505
 30
0.0
 10
94.4422720022
 20
99.4583490962
 30
0.0
 10
94.5504178447
 20
99.4792198087
 30
0.0
 10
94.6585638306
 20
99.4583497606
 30
0.0
 10
94.7042139565
 20
99.4319942444
 30
0.0
  0
SPLINE
  5
308
100
AcDbEntity
  8
0
100
AcDbSpline
 62
7
  6
BYLAYER
 70
0
 71
3
 72
33
 73
29
 74
0
 42
0.0000001
 43
0.0000001
 44
0.0000000001
 40
0.0
 40
0.0
 40
0.0
 40
0.0
 40
0.1234170731
 40
0.246975549
 40
0.3707118222
 40
0.4326629964
 40
0.4946818877
 40
0.5567814883
 40
0.618979613
 40
0.6813018606
 40
0.7437874375
 40
0.7751103762
 40
0.8065022558
 40
0.8379810187
 40
0.8695741233
 40
0.8854267974
 40
0.9013277265
 40
0.9172894443
 40
0.9333310994
 40
0.949484709
 40
0.9576207305
 40
0.9658122615
 40
0.9740811622
 40
0.9824688353
 40
0.98673355
 40
0.9910754203
 40
0.9955450441
 40
1.0
 40
1.0
 40
1.0
 40
1.0
 10
135.3680927906
 20
111.1905838793
 30
0.0
 10
135.357467952
 20
110.6336618617
 30
0.0
 10
135.3353687515
 20
109.5191953394
 30
0.0
 10
135.2987974142
 20
107.8464449018
 30
0.0
 10
135.2648304549
 20
106.4511237699
 30
0.0
 10
135.2348851492
 20
105.3335411344
 30
0.0
 10
135.2107831717
 20
104.4940905667
 30
0.0
 10
135.1847371907
 20
103.6535827281
 30
0.0
 10
135.1563201073
 20
102.8117812501
 30
0.0
 10
135.124917481
 20
101.9683420823
 30
0.0
 10
135.0955219128
 20
101.2642802136
 30
0.0
 10
135.0692876015
 20
100.6998163862
 30
0.0
 10
135.0479111907
 20
100.2752250195
 30
0.0
 10
135.0244145967
 20
99.8495239865
 30
0.0
 10
135.0025446476
 20
99.4939788199
 30
0.0
 10
134.983114869
 20
99.2087334247
 30
0.0
 10
134.9673216998
 20
98.993956554
 30
0.0
 10
134.9500127572
 20
98.778439751
 30
0.0
 10
134.9307005177
 20
98.5619476867
 30
0.0
 10
134.9123275408
 20
98.380839527
 30
0.0
 10
134.8954943967
 20
98.2352096427
 30
0.0
 10
134.8813876203
 20
98.1250884472
 30
0.0
 10
134.8652288555
 20
98.0141226876
 30
0.0
 10
134.8492348549
 20
97.9209841758
 30
0.0
 10
134.8335912835
 20
97.8459990724
 30
0.0
 10
134.8194456179
 20
97.7883216179
 30
0.0
 10
134.8013163863
 20
97.7325708751
 30
0.0
 10
134.7832664248
 20
97.6927208499
 30
0.0
 10
134.766475057
 20
97.6816605248
 30
0.0
  0
SPLINE
  5
309
100
AcDbEntity
  8
0
100
AcDbSpline
 62
7
  6
BYLAYER
 70
0
 71
3
 72
9
 73
5
 74
0
 42
0.0000001
 43
0.0000001
 44
0.0000000001
 40
0.0
 40
0.0
 40
0.0
 40
0.0
 40
0.4999216648
 40
1.0
 40
1.0
 40
1.0
 40
1.0
 10
96.1389955044
 20
96.6032401908
 30
0.0
 10
96.1386832739
 20
96.6517065094
 30
0.0
 10
96.1060791701
 20
96.7474444037
 30
0.0
 10
96.0395568306
 20
96.8239677222
 30
0.0
 10
95.9975695048
 20
96.8482085677
 30
0.0
  0
SPLINE
  5
30A
100
AcDbEntity
  8
0
100
AcDbSpline
 62
7
  6
BYLAYER
 70
0
 71
3
 72
36
 73
32
 74
0
 42
0.0000001
 43
0.0000001
 44
0.0000000001
 40
0.0
 40
0.0
 40
0.0
 40
0.0
 40
0.1268495704
 40
0.2535443292
 40
0.3800438767
 40
0.4432022725
 40
0.5062859126
 40
0.5692802207
 40
0.6321651312
 40
0.6949116688
 40
0.7574751694
 40
0.7886667103
 40
0.8197801642
 40
0.8507946494
 40
0.8816779159
 40
0.897054749
 40
0.912375359
 40
0.9276245679
 40
0.9427788803
 40
0.9577982787
 40
0.9726033964
 40
0.9798731092
 40
0.983455228
 40
0.9869868922
 40
0.9904470968
 40
0.9937955331
 40
0.9954038627
 40
0.9969433171
 40
0.9983925194
 40
0.9991247507
 40
1.0
 40
1.0
 40
1.0
 40
1.0
 10
83.0844299013
 20
81.0047772209
 30
0.0
 10
83.1021076532
 20
80.4647365671
 30
0.0
 10
83.1383003808
 20
79.3853420383
 30
0.0
 10
83.1960515349
 20
77.7675317973
 30
0.0
 10
83.2476958896
 20
76.4209797373
 30
0.0
 10
83.291796973
 20
75.3453017981
 30
0.0
 10
83.326486361
 20
74.5399745416
 30
0.0
 10
83.3631145296
 20
73.7358990172
 30
0.0
 10
83.4021052167
 20
72.9333715784
 30
0.0
 10
83.444066975
 20
72.1328309913
 30
0.0
 10
83.4822990985
 20
71.467287677
 30
0.0
 10
83.5156271058
 20
70.9364403081
 30
0.0
 10
83.5422742012
 20
70.5398280493
 30
0.0
 10
83.5710266969
 20
70.1446788485
 30
0.0
 10
83.597314123
 20
69.8165656297
 30
0.0
 10
83.6203028534
 20
69.5552636803
 30
0.0
 10
83.6387144698
 20
69.3604149461
 30
0.0
 10
83.6586284493
 20
69.1666661165
 30
0.0
 10
83.6805054531
 20
68.9744166897
 30
0.0
 10
83.705129703
 20
68.7844059282
 30
0.0
 10
83.7291652994
 20
68.6282036313
 30
0.0
 10
83.7495607697
 20
68.5208152289
 30
0.0
 10
83.7627609339
 20
68.4609807578
 30
0.0
 10
83.7736397676
 20
68.4172656822
 30
0.0
 10
83.7859562764
 20
68.374959178
 30
0.0
 10
83.7981087524
 20
68.3411923348
 30
0.0
 10
83.8100299074
 20
68.3161259986
 30
0.0
 10
83.8204247115
 20
68.2996217331
 30
0.0
 10
83.8317432585
 20
68.28767963
 30
0.0
 10
83.8448398252
 20
68.2840702049
 30
0.0
 10
83.8516589454
 20
68.2864245937
 30
0.0
 10
83.8549987776
 20
68.2880814461
 30
0.0
  0
SPLINE
  5
30B
100
AcDbEntity
  8
0
100
AcDbSpline
 62
7
  6
BYLAYER
 70
0
 71
3
 72
9
 73
5
 74
0
 42
0.0000001
 43
0.0000001
 44
0.0000000001
 40
0.0
 40
0.0
 40
0.0
 40
0.0
 40
0.2348586591
 40
1.0
 40
1.0
 40
1.0
 40
1.0
 10
42.1222599424
 20
134.4242453981
 30
0.0
 10
42.0601574701
 20
134.4106245299
 30
0.0
 10
41.7984614487
 20
134.3402481638
 30
0.0
 10
41.5499562226
 20
134.225289991
 30
0.0
 10
41.3705747055
 20
134.121724642
 30
0.0
  0
SPLINE
  5
30C
100
AcDbEntity
  8
0
100
AcDbSpline
 62
7
  6
BYLAYER
 70
0
 71
3
 72
16
 73
12
 74
0
 42
0.0000001
 43
0.0000001
 44
0.0000000001
 40
0.0
 40
0.0
 40
0.0
 40
0.0
 40
0.1287289499
 40
0.2703809051
 40
0.4175877857
 40
0.5619875769
 40
0.6957092994
 40
0.8130250587
 40
0.9124247926
 40
0.9571145752
 40
1.0
 40
1.0
 40
1.0
 40
1.0
 10
107.0479987503
 20
87.9515047693
 30
0.0
 10
107.1812256406
 20
88.0284228912
 30
0.0
 10
107.4398449247
 20
88.2274489507
 30
0.0
 10
107.7708869943
 20
88.6040155197
 30
0.0
 10
108.0433420835
 20
89.047224986
 30
0.0
 10
108.2348149601
 20
89.5207492841
 30
0.0
 10
108.3296686028
 20
89.9870261324
 30
0.0
 10
108.3203911484
 20
90.4097818402
 30
0.0
 10
108.216404582
 20
90.7132364293
 30
0.0
 10
108.0764623178
 20
90.8899313617
 30
0.0
 10
107.9923313855
 20
90.9543776196
 30
0.0
 10
107.9479681438
 20
90.9800382526
 30
0.0
  0
SPLINE
  5
30D
100
AcDbEntity
  8
0
100
AcDbSpline
 62
7
  6
BYLAYER
 70
0
 71
3
 72
9
 73
5
 74
0
 42
0.0000001
 43
0.0000001
 44
0.0000000001
 40
0.0
 40
0.0
 40
0.0
 40
0.0
 40
0.499998676
 40
1.0
 40
1.0
 40
1.0
 40
1.0
 10
93.1132303228
 20
98.268494173
 30
0.0
 10
93.067580538
 20
98.2948494924
 30
0.0
 10
92.9594346835
 20
98.3157197374
 30
0.0
 10
92.8512887095
 20
98.2948492218
 30
0.0
 10
92.805638873
 20
98.2684934337
 30
0.0
  0
ELLIPSE
  5
30E
100
AcDbEntity
  8
0
100
AcDbEllipse
 62
7
  6
BYLAYER
 10
91.1331624312
 20
145.5609113216
 30
0.0
 11
0.763673206
 21
0.6846559222
 31
0.0
 40
0.6997281943
 41
0.225139979
 42
1.010525196
  0
ELLIPSE
  5
30F
100
AcDbEntity
  8
0
100
AcDbEllipse
 62
7
  6
BYLAYER
 10
36.2480925449
 20
113.9145999216
 30
0.0
 11
0.3358504148
 21
0.9573753633
 31
0.0
 40
0.4094542675
 41
0.7084044525
 42
2.270474133
  0
ELLIPSE
  5
310
100
AcDbEntity
  8
0
100
AcDbEllipse
 62
7
  6
BYLAYER
 10
106.9888717382
 20
90.8574563883
 30
0.0
 11
0.0988691362
 21
0.1738563123
 31
0.0
 40
0.5816464525
 41
0.7815958852
 42
2.352392212
  0
ELLIPSE
  5
311
100
AcDbEntity
  8
0
100
AcDbEllipse
 62
7
  6
BYLAYER
 10
81.026559877
 20
444.168683608
 30
0.0
 11
2.8162618344
 21
375.8841622347
 31
0.0
 40
0.0075569566
 41
-3.1458803729
 42
-2.8808804796
  0
ELLIPSE
  5
312
100
AcDbEntity
  8
0
100
AcDbEllipse
 62
7
  6
BYLAYER
 10
125.8073061542
 20
125.5422379921
 30
0.0
 11
0.3358504148
 21
0.9573753633
 31
0.0
 40
0.4094542675
 41
5.4295200791
 42
6.9915897596
  0
ELLIPSE
  5
313
100
AcDbEntity
  8
0
100
AcDbEllipse
 62
7
  6
BYLAYER
 10
30.1146596664
 20
473.5620179334
 30
0.0
 11
2.8162618344
 21
375.8841622347
 31
0.0
 40
0.0075569566
 41
-3.4108802662
 42
-3.1458803729
  0
ELLIPSE
  5
314
100
AcDbEntity
  8
0
100
AcDbEllipse
 62
7
  6
BYLAYER
 10
70.9242537705
 20
93.8947618128
 30
0.0
 11
0.763673206
 21
0.6846559222
 31
0.0
 40
0.6997281943
 41
1.010525196
 42
2.5725948765
  0
ELLIPSE
  5
315
100
AcDbEntity
  8
0
100
AcDbEllipse
 62
7
  6
BYLAYER
 10
107.7103215888
 20
89.0388255017
 30
0.0
 11
0.8898222261
 21
1.5647068111
 31
0.0
 40
0.5816464525
 41
1.5113235414
 42
6.2793962517
  0
ELLIPSE
  5
316
100
AcDbEntity
  8
0
100
AcDbEllipse
 62
7
  6
BYLAYER
 10
108.4030794127
 20
91.673944696
 30
0.0
 11
0.0988691362
 21
0.1738563123
 31
0.0
 40
0.5816464525
 41
-0.7892004416
 42
0.7815958852
  0
ENDSEC
  0
SECTION
  2
OBJECTS
  0
DICTIONARY
  5
C
100
AcDbDictionary
280
0
281
1
  3
ACAD_GROUP
350
D
  3
ACAD_MLINESTYLE
350
17
  3
ACAD_LAYOUT
350
1A
  3
ACAD_PLOTSETTINGS
350
19
  3
ACAD_PLOTSTYLENAME
350
E
  0
DICTIONARY
  5
D
102
{ACAD_REACTORS
330
C
102
}
100
AcDbDictionary
280
0
281
1
  0
ACDBDICTIONARYWDFLT
  5
E
102
{ACAD_REACTORS
330
C
102
}
100
AcDbDictionary
281
1
  3
Normal
350
F
100
AcDbDictionaryWithDefault
340
F
  0
DICTIONARY
  5
17
102
{ACAD_REACTORS
330
C
102
}
100
AcDbDictionary
280
0
281
1
  3
Standard
350
18
  0
DICTIONARY
  5
19
102
{ACAD_REACTORS
330
C
102
}
100
AcDbDictionary
281
1
  0
DICTIONARY
  5
1A
102
{ACAD_REACTORS
330
C
102
}
100
AcDbDictionary
281
1
  3
Model
350
317
  3
Layout1
350
318
  0
ACDBPLACEHOLDER
  5
F
102
{ACAD_REACTORS
330
E
102
}
  0
MLINESTYLE
  5
18
102
{ACAD_REACTORS
330
17
102
}
100
AcDbMlineStyle
  2
STANDARD
 70
0
  3

 62
256
 51
90.0
 52
90.0
 71
2
 49
0.5
 62
256
  6
BYLAYER
 49
-0.5
 62
256
  6
BYLAYER
  0
LAYOUT
  5
317
102
{ACAD_REACTORS
330
1A
102
}
100
AcDbPlotSettings
  1

  2
none_device
  4

  6

 40
0.0
 41
0.0
 42
0.0
 43
0.0
 44
210.0
 45
297.0
 46
0.0
 47
0.0
 48
0.0
 49
0.0
140
0.0
141
0.0
142
1.0
143
1.0
 70
1024
 72
1
 73
0
 74
0
  7

 75
0
147
1.0
148
0.0
149
0.0
100
AcDbLayout
  1
Model
 70
0
 71
0
 10
0.0
 20
0.0
 11
210.0
 21
297.0
 12
0.0
 22
0.0
 32
0.0
 14
0.0
 24
0.0
 34
0.0
 15
0.0
 25
0.0
 35
0.0
146
0.0
 13
0.0
 23
0.0
 33
0.0
 16
1.0
 26
0.0
 36
0.0
 17
0.0
 27
1.0
 37
0.0
 76
0
330
210
345
0
346
0
  0
LAYOUT
  5
318
102
{ACAD_REACTORS
330
1A
102
}
100
AcDbPlotSettings
  1

  2
none_device
  4

  6

 40
0.0
 41
0.0
 42
0.0
 43
0.0
 44
210.0
 45
297.0
 46
0.0
 47
0.0
 48
0.0
 49
0.0
140
0.0
141
0.0
142
1.0
143
1.0
 70
0
 72
1
 73
0
 74
0
  7

 75
0
147
1.0
148
0.0
149
0.0
100
AcDbLayout
  1
Layout1
 70
0
 71
1
 10
0.0
 20
0.0
 11
210.0
 21
297.0
 12
0.0
 22
0.0
 32
0.0
 14
0.0
 24
0.0
 34
0.0
 15
0.0
 25
0.0
 35
0.0
146
0.0
 13
0.0
 23
0.0
 33
0.0
 16
1.0
 26
0.0
 36
0.0
 17
0.0
 27
1.0
 37
0.0
 76
0
330
211
345
0
346
0
  0
ENDSEC
  0
EOF
