999
DXF file: C:\Users\sesa63760\Dev\_Creo\CAD\MCADID0004024_3D-CAD\drw0001_7.dxf
999
Pro/ENGINEER 2019471 by Parametric Technology Corporation
  0
SECTION
  2
HEADER
  9
$ACADVER
  1
AC1024
  9
$DWGCODEPAGE
  3
ANSI_1252
  9
$EXTMAX
 10
50.3404040404
 20
71.1957142857
 30
0.0
  9
$EXTMIN
 10
0.0
 20
0.0
 30
0.0
  9
$LIMMIN
 10
0.0
 20
0.0
  9
$LIMMAX
 10
50.3404040404
 20
71.1957142857
  9
$VIEWCTR
 10
25.1702020202
 20
35.5978571429
  9
$VIEWSIZE
 40
71.1957142857
  9
$CLAYER
  8
0
  9
$LTSCALE
 40
4.6409058201
  9
$CELTYPE
  6
BYLAYER
  9
$DIMSCALE
 40
1.0
  9
$DIMASZ
 40
0.5992905243
  9
$DIMEXO
 40
1.0
  9
$DIMDLI
 40
3.2064440212
  9
$DIMEXE
 40
1.0
  9
$DIMCEN
 40
0.7594209524
  9
$DIMLFAC
 40
1.0
  9
$DIMBLK
  1
_FILLED
  9
$DIMALT
 70
0
  9
$DIMALTF
 40
0.0393700787
  9
$DIMTXT
 40
0.839006734
  9
$DIMTOL
 70
1
  9
$DIMLIM
 70
0
  9
$DIMTFAC
 40
1.0
  9
$DIMTP
 40
0.01
  9
$DIMTM
 40
0.01
  9
$DIMGAP
 40
0.625
  9
$DIMDSEP
 70
46
  9
$AUNITS
 70
0
  9
$PDMODE
 70
3
  9
$PDSIZE
 40
0.3125
  9
$HANDSEED
  5
337
  9
$TILEMODE
 70
1
  9
$MEASUREMENT
 70
1
  9
$INSUNITS
 70
4
  0
ENDSEC
  0
SECTION
  2
CLASSES
  0
CLASS
  1
ACDBDICTIONARYWDFLT
  2
AcDbDictionaryWithDefault
  3
AutoCAD 2000
 90
0
 91
1
280
0
281
0
  0
CLASS
  1
ACDBPLACEHOLDER
  2
AcDbPlaceHolder
  3
AutoCAD 2000
 90
0
 91
1
280
0
281
0
  0
CLASS
  1
LAYOUT
  2
AcDbLayout
  3
AutoCAD 2000
 90
0
 91
0
280
0
281
0
  0
ENDSEC
  0
SECTION
  2
TABLES
  0
TABLE
  2
VPORT
  5
8
100
AcDbSymbolTable
 70
2
  0
VPORT
  5
1F4
100
AcDbSymbolTableRecord
100
AcDbViewportTableRecord
  2
*ACTIVE
 70
0
 10
0.0
 20
0.0
 11
1.0
 21
1.0
 12
25.1702020202
 22
35.5978571429
 13
0.0
 23
0.0
 14
1.0
 24
1.0
 15
0.0
 25
0.0
 16
0.0
 26
0.0
 36
1.0
 17
0.0
 27
0.0
 37
0.0
 40
71.1957142857
 41
0.7070707071
 42
50.0
 43
0.0
 44
0.0
 50
0.0
 51
0.0
 71
0
 72
100
 73
1
 74
1
 75
0
 76
0
 77
0
 78
0
  0
ENDTAB
  0
TABLE
  2
LTYPE
  5
5
100
AcDbSymbolTable
 70
6
  0
LTYPE
  5
14
100
AcDbSymbolTableRecord
100
AcDbLinetypeTableRecord
  2
BYBLOCK
 70
0
  3

 72
65
 73
0
 40
0.0
  0
LTYPE
  5
15
100
AcDbSymbolTableRecord
100
AcDbLinetypeTableRecord
  2
BYLAYER
 70
0
  3

 72
65
 73
0
 40
0.0
  0
LTYPE
  5
16
100
AcDbSymbolTableRecord
100
AcDbLinetypeTableRecord
  2
CONTINUOUS
 70
64
  3
Solid line
 72
65
 73
0
 40
0.0
  0
LTYPE
  5
1F5
100
AcDbSymbolTableRecord
100
AcDbLinetypeTableRecord
  2
CENTER
 70
64
  3
____ _ ____ _ ____ _ ____ _ ____ _ ____ _ ____
 72
65
 73
4
 40
0.6
 49
0.375
 74
0
 49
-0.075
 74
0
 49
0.075
 74
0
 49
-0.075
 74
0
  0
LTYPE
  5
1F6
100
AcDbSymbolTableRecord
100
AcDbLinetypeTableRecord
  2
HIDDEN
 70
64
  3
- - - - - - - - - - - - - - - - - - - -
 72
65
 73
2
 40
0.2
 49
0.1
 74
0
 49
-0.1
 74
0
  0
LTYPE
  5
1F7
100
AcDbSymbolTableRecord
100
AcDbLinetypeTableRecord
  2
PHANTOM
 70
64
  3
_____ _ _ _____ _ _ _____ _ _ _____
 72
65
 73
6
 40
0.8
 49
0.45
 74
0
 49
-0.05
 74
0
 49
0.1
 74
0
 49
-0.05
 74
0
 49
0.1
 74
0
 49
-0.05
 74
0
  0
LTYPE
  5
1F8
100
AcDbSymbolTableRecord
100
AcDbLinetypeTableRecord
  2
DOT
 70
64
  3
. . . . . . . . . . . . . . . . . . . .
 72
65
 73
2
 40
0.2
 49
0.1
 74
0
 49
-0.1
 74
0
  0
LTYPE
  5
1F9
100
AcDbSymbolTableRecord
100
AcDbLinetypeTableRecord
  2
DASHED
 70
64
  3
- - - - - - - - - - - - - - - - - - - -
 72
65
 73
2
 40
0.2
 49
0.1
 74
0
 49
-0.1
 74
0
  0
ENDTAB
  0
TABLE
  2
LAYER
  5
2
100
AcDbSymbolTable
 70
36
  0
LAYER
  5
10
100
AcDbSymbolTableRecord
100
AcDbLayerTableRecord
  2
0
 70
0
 62
7
  6
CONTINUOUS
370
-3
390
F
  0
LAYER
  5
1FA
100
AcDbSymbolTableRecord
100
AcDbLayerTableRecord
  2
DEFAULT_1
 70
0
 62
7
  6
CENTER
370
-3
390
F
  0
LAYER
  5
1FB
100
AcDbSymbolTableRecord
100
AcDbLayerTableRecord
  2
DEFAULT_2
 70
0
 62
7
  6
HIDDEN
370
-3
390
F
  0
LAYER
  5
1FC
100
AcDbSymbolTableRecord
100
AcDbLayerTableRecord
  2
DEFAULT_3
 70
0
 62
7
  6
PHANTOM
370
-3
390
F
  0
LAYER
  5
1FD
100
AcDbSymbolTableRecord
100
AcDbLayerTableRecord
  2
00_COMPONENTS
 70
0
 62
7
  6
CONTINUOUS
370
-3
390
F
  0
LAYER
  5
1FE
100
AcDbSymbolTableRecord
100
AcDbLayerTableRecord
  2
01_1_DEFAULT_DATUMS
 70
0
 62
7
  6
CONTINUOUS
370
-3
390
F
  0
LAYER
  5
1FF
100
AcDbSymbolTableRecord
100
AcDbLayerTableRecord
  2
01_PLANES
 70
0
 62
7
  6
CONTINUOUS
370
-3
390
F
  0
LAYER
  5
200
100
AcDbSymbolTableRecord
100
AcDbLayerTableRecord
  2
02_COORD_SYS
 70
0
 62
7
  6
CONTINUOUS
370
-3
390
F
  0
LAYER
  5
201
100
AcDbSymbolTableRecord
100
AcDbLayerTableRecord
  2
03_AXES
 70
0
 62
7
  6
CONTINUOUS
370
-3
390
F
  0
LAYER
  5
202
100
AcDbSymbolTableRecord
100
AcDbLayerTableRecord
  2
04_POINTS
 70
0
 62
7
  6
CONTINUOUS
370
-3
390
F
  0
LAYER
  5
203
100
AcDbSymbolTableRecord
100
AcDbLayerTableRecord
  2
05_CURVES
 70
0
 62
7
  6
CONTINUOUS
370
-3
390
F
  0
LAYER
  5
204
100
AcDbSymbolTableRecord
100
AcDbLayerTableRecord
  2
06_SURFS
 70
0
 62
7
  6
CONTINUOUS
370
-3
390
F
  0
LAYER
  5
205
100
AcDbSymbolTableRecord
100
AcDbLayerTableRecord
  2
07_COSMETICS
 70
0
 62
7
  6
CONTINUOUS
370
-3
390
F
  0
LAYER
  5
206
100
AcDbSymbolTableRecord
100
AcDbLayerTableRecord
  2
10_NOTES
 70
0
 62
7
  6
CONTINUOUS
370
-3
390
F
  0
LAYER
  5
207
100
AcDbSymbolTableRecord
100
AcDbLayerTableRecord
  2
11_NOTES_PUB
 70
0
 62
7
  6
CONTINUOUS
370
-3
390
F
  0
LAYER
  5
208
100
AcDbSymbolTableRecord
100
AcDbLayerTableRecord
  2
13_REF_GTOL
 70
0
 62
7
  6
CONTINUOUS
370
-3
390
F
  0
LAYER
  5
209
100
AcDbSymbolTableRecord
100
AcDbLayerTableRecord
  2
16_MISC
 70
0
 62
7
  6
CONTINUOUS
370
-3
390
F
  0
LAYER
  5
20A
100
AcDbSymbolTableRecord
100
AcDbLayerTableRecord
  2
17_NO_PRINT
 70
0
 62
7
  6
CONTINUOUS
370
-3
390
F
  0
LAYER
  5
20B
100
AcDbSymbolTableRecord
100
AcDbLayerTableRecord
  2
18_DATUM_CAMS_JOINTS
 70
0
 62
7
  6
CONTINUOUS
370
-3
390
F
  0
LAYER
  5
20C
100
AcDbSymbolTableRecord
100
AcDbLayerTableRecord
  2
19_DATUM_FUNCTIONAL
 70
0
 62
7
  6
CONTINUOUS
370
-3
390
F
  0
LAYER
  5
20D
100
AcDbSymbolTableRecord
100
AcDbLayerTableRecord
  2
20_DATUM_KINEMATIC_SCHEME
 70
0
 62
7
  6
CONTINUOUS
370
-3
390
F
  0
ENDTAB
  0
TABLE
  2
STYLE
  5
3
100
AcDbSymbolTable
 70
1
  0
STYLE
  5
11
100
AcDbSymbolTableRecord
100
AcDbTextStyleTableRecord
  2
STANDARD
 70
0
 40
0.0
 41
1.0
 50
0.0
 71
0
 42
0.2
  3
ARIAL.TTF
  4

  0
STYLE
  5
20E
100
AcDbSymbolTableRecord
100
AcDbTextStyleTableRecord
  2
TEXTSTYLE_1
 70
0
 40
0.0
 41
0.8
 50
0.0
 71
0
 42
0.2
  3
gdt
  4

  0
ENDTAB
  0
TABLE
  2
VIEW
  5
6
100
AcDbSymbolTable
 70
0
  0
ENDTAB
  0
TABLE
  2
UCS
  5
7
100
AcDbSymbolTable
 70
0
  0
ENDTAB
  0
TABLE
  2
APPID
  5
9
100
AcDbSymbolTable
 70
1
  0
APPID
  5
20F
100
AcDbSymbolTableRecord
100
AcDbRegAppTableRecord
  2
ACAD
 70
0
  0
ENDTAB
  0
TABLE
  2
BLOCK_RECORD
  5
1
100
AcDbSymbolTable
 70
0
  0
BLOCK_RECORD
  5
210
100
AcDbSymbolTableRecord
100
AcDbBlockTableRecord
  2
*Model_Space
  0
BLOCK_RECORD
  5
211
100
AcDbSymbolTableRecord
100
AcDbBlockTableRecord
  2
*Paper_Space
  0
BLOCK_RECORD
  5
212
100
AcDbSymbolTableRecord
100
AcDbBlockTableRecord
  2
_FILLED
  0
ENDTAB
  0
TABLE
  2
DIMSTYLE
  5
A
100
AcDbSymbolTable
 70
1
100
AcDbDimStyleTable
 71
0
  0
DIMSTYLE
105
213
100
AcDbSymbolTableRecord
100
AcDbDimStyleTableRecord
  2
STANDARD
 70
0
  3

  4

 40
1.0
 41
0.5992905243
 42
1.0
 43
0.38
 44
1.0
 45
0.0
 46
0.0
 47
0.01
 48
0.01
140
0.839006734
141
0.09
142
0.0
143
25.4
144
1.0
145
0.0
146
1.0
147
0.625
 71
1
 72
0
 73
0
 74
0
 75
0
 76
0
 77
1
 78
8
 79
2
170
0
171
1
172
0
173
0
174
0
175
0
176
0
177
0
178
0
270
2
179
2
271
2
272
2
273
2
274
2
275
0
280
0
281
0
282
0
283
1
284
8
285
0
286
0
287
3
288
0
340
11
278
46
341
212
342
212
343
212
344
212
  0
ENDTAB
  0
ENDSEC
  0
SECTION
  2
BLOCKS
  0
BLOCK
  5
20
100
AcDbEntity
  8
0
100
AcDbBlockBegin
  2
*Model_Space
 70
0
 10
0.0
 20
0.0
 30
0.0
  3
*Model_Space
  1

  0
ENDBLK
  5
21
100
AcDbEntity
  8
0
100
AcDbBlockEnd
  0
BLOCK
  5
1C
100
AcDbEntity
  8
0
100
AcDbBlockBegin
  2
*Paper_Space
 70
0
 10
0.0
 20
0.0
 30
0.0
  3
*Paper_Space
  1

  0
ENDBLK
  5
1D
100
AcDbEntity
  8
0
100
AcDbBlockEnd
  0
BLOCK
  5
214
100
AcDbEntity
  8
0
100
AcDbBlockBegin
  2
_FILLED
 70
64
 10
0.0
 20
0.0
  3
_FILLED
  1

  0
SOLID
  5
215
100
AcDbEntity
  8
0
  6
BYBLOCK
 62
0
100
AcDbTrace
 10
0.0
 20
0.0
 11
-1.0
 21
0.25
 12
-1.0
 22
-0.25
 13
-1.0
 23
-0.25
  0
ENDBLK
  5
216
100
AcDbEntity
  8
0
  6
BYBLOCK
 62
0
100
AcDbBlockEnd
  0
ENDSEC
  0
SECTION
  2
ENTITIES
  0
LINE
  5
217
100
AcDbEntity
  8
0
100
AcDbLine
 62
7
  6
BYLAYER
 10
30.3780930932
 20
5.2721428571
 11
20.1365799981
 21
5.2721428571
  0
LINE
  5
218
100
AcDbEntity
  8
0
100
AcDbLine
 62
7
  6
BYLAYER
 10
30.6073365456
 20
6.5721428571
 11
19.9073365456
 21
6.5721428571
  0
LINE
  5
219
100
AcDbEntity
  8
0
100
AcDbLine
 62
7
  6
BYLAYER
 10
19.9073365456
 20
6.8721428571
 11
30.6073365456
 21
6.8721428571
  0
LINE
  5
21A
100
AcDbEntity
  8
0
100
AcDbLine
 62
7
  6
BYLAYER
 10
31.6073365456
 20
7.8721428571
 11
18.9073365456
 21
7.8721428571
  0
LINE
  5
21B
100
AcDbEntity
  8
0
100
AcDbLine
 62
7
  6
BYLAYER
 10
19.4573365457
 20
65.8721428571
 11
19.2573365457
 21
65.6721428571
  0
LINE
  5
21C
100
AcDbEntity
  8
0
100
AcDbLine
 62
7
  6
BYLAYER
 10
19.9073365456
 20
6.8721428571
 11
18.9073365457
 21
7.8721428571
  0
LINE
  5
21D
100
AcDbEntity
  8
0
100
AcDbLine
 62
7
  6
BYLAYER
 10
18.9884411703
 20
57.8186195175
 11
18.9638226656
 21
57.8004668191
  0
LINE
  5
21E
100
AcDbEntity
  8
0
100
AcDbLine
 62
7
  6
BYLAYER
 10
18.9073365456
 20
13.0221428571
 11
31.6073365456
 21
13.0221428571
  0
LINE
  5
21F
100
AcDbEntity
  8
0
100
AcDbLine
 62
7
  6
BYLAYER
 10
30.6073365456
 20
14.0221428571
 11
19.9073365456
 21
14.0221428571
  0
LINE
  5
220
100
AcDbEntity
  8
0
100
AcDbLine
 62
7
  6
BYLAYER
 10
19.9073365456
 20
14.4721428571
 11
19.7573365456
 21
14.4721428571
  0
LINE
  5
221
100
AcDbEntity
  8
0
100
AcDbLine
 62
7
  6
BYLAYER
 10
19.1623049071
 20
57.6048472329
 11
19.1342529302
 21
57.5721428571
  0
LINE
  5
222
100
AcDbEntity
  8
0
100
AcDbLine
 62
7
  6
BYLAYER
 10
19.9073365456
 20
15.4721428571
 11
19.7573365456
 21
15.4721428571
  0
LINE
  5
223
100
AcDbEntity
  8
0
100
AcDbLine
 62
7
  6
BYLAYER
 10
17.9282515648
 20
57.6277994302
 11
17.8994552313
 21
57.5721428571
  0
LINE
  5
224
100
AcDbEntity
  8
0
100
AcDbLine
 62
7
  6
BYLAYER
 10
19.9073365456
 20
21.105155559
 11
30.6073365456
 21
21.105155559
  0
LINE
  5
225
100
AcDbEntity
  8
0
100
AcDbLine
 62
7
  6
BYLAYER
 10
30.4733619494
 20
21.605155559
 11
20.0413111419
 21
21.605155559
  0
LINE
  5
226
100
AcDbEntity
  8
0
100
AcDbLine
 62
7
  6
BYLAYER
 10
31.0573175473
 20
22.6721428571
 11
19.457355544
 21
22.6721428571
  0
LINE
  5
227
100
AcDbEntity
  8
0
100
AcDbLine
 62
7
  6
BYLAYER
 10
31.2573365456
 20
22.8721428571
 11
19.2573365456
 21
22.8721428571
  0
LINE
  5
228
100
AcDbEntity
  8
0
100
AcDbLine
 62
7
  6
BYLAYER
 10
19.4573365456
 20
22.6721428571
 11
19.2573365456
 21
22.8721428571
  0
LINE
  5
229
100
AcDbEntity
  8
0
100
AcDbLine
 62
7
  6
BYLAYER
 10
17.5980030096
 20
54.8157775016
 11
17.4523365456
 21
54.2721428571
  0
LINE
  5
22A
100
AcDbEntity
  8
0
100
AcDbLine
 62
7
  6
BYLAYER
 10
31.5508504257
 20
54.7438188952
 11
31.5262319693
 21
54.7256659818
  0
LINE
  5
22B
100
AcDbEntity
  8
0
100
AcDbLine
 62
7
  6
BYLAYER
 10
30.6073365456
 20
14.0221428571
 11
31.6073365456
 21
13.0221428571
  0
LINE
  5
22C
100
AcDbEntity
  8
0
100
AcDbLine
 62
7
  6
BYLAYER
 10
20.1365616206
 20
5.2721428571
 11
19.9073365456
 21
6.5721428571
  0
LINE
  5
22D
100
AcDbEntity
  8
0
100
AcDbLine
 62
7
  6
BYLAYER
 10
16.7573365456
 20
54.2721428571
 11
16.7573365456
 21
51.2721428571
  0
LINE
  5
22E
100
AcDbEntity
  8
0
100
AcDbLine
 62
7
  6
BYLAYER
 10
16.7573365456
 20
58.2721428571
 11
16.7573365456
 21
61.2721428571
  0
LINE
  5
22F
100
AcDbEntity
  8
0
100
AcDbLine
 62
7
  6
BYLAYER
 10
17.1903492475
 20
53.6516355725
 11
17.1903492475
 21
51.8926501417
  0
LINE
  5
230
100
AcDbEntity
  8
0
100
AcDbLine
 62
7
  6
BYLAYER
 10
17.1903492475
 20
58.8926501417
 11
17.1903492475
 21
60.6516354934
  0
LINE
  5
231
100
AcDbEntity
  8
0
100
AcDbLine
 62
7
  6
BYLAYER
 10
18.9073365456
 20
13.0221428571
 11
18.9073365456
 21
7.8721428571
  0
LINE
  5
232
100
AcDbEntity
  8
0
100
AcDbLine
 62
7
  6
BYLAYER
 10
31.3523681842
 20
54.9394384813
 11
31.3804201611
 21
54.9721428571
  0
LINE
  5
233
100
AcDbEntity
  8
0
100
AcDbLine
 62
7
  6
BYLAYER
 10
19.2573365456
 20
65.6721428571
 11
19.2573365456
 21
61.2721428571
  0
LINE
  5
234
100
AcDbEntity
  8
0
100
AcDbLine
 62
7
  6
BYLAYER
 10
19.2573365456
 20
57.5721428571
 11
19.2573365456
 21
54.9721428571
  0
LINE
  5
235
100
AcDbEntity
  8
0
100
AcDbLine
 62
7
  6
BYLAYER
 10
19.2573365456
 20
51.2721428571
 11
19.2573365456
 21
22.8721428571
  0
LINE
  5
236
100
AcDbEntity
  8
0
100
AcDbLine
 62
7
  6
BYLAYER
 10
19.7573365456
 20
15.4720530467
 11
19.7573365456
 21
14.4722327543
  0
LINE
  5
237
100
AcDbEntity
  8
0
100
AcDbLine
 62
7
  6
BYLAYER
 10
19.9073365456
 20
21.105155559
 11
19.9073365456
 21
15.4721428571
  0
LINE
  5
238
100
AcDbEntity
  8
0
100
AcDbLine
 62
7
  6
BYLAYER
 10
19.9073365456
 20
14.4721428571
 11
19.9073365456
 21
14.0221428571
  0
LINE
  5
239
100
AcDbEntity
  8
0
100
AcDbLine
 62
7
  6
BYLAYER
 10
19.9073365456
 20
6.8721428571
 11
19.9073365456
 21
6.5721428571
  0
LINE
  5
23A
100
AcDbEntity
  8
0
100
AcDbLine
 62
7
  6
BYLAYER
 10
20.0073365456
 20
66.0721428571
 11
20.0073365456
 21
65.8721428571
  0
LINE
  5
23B
100
AcDbEntity
  8
0
100
AcDbLine
 62
7
  6
BYLAYER
 10
32.5864215265
 20
54.9164862841
 11
32.61521786
 21
54.9721428571
  0
LINE
  5
23C
100
AcDbEntity
  8
0
100
AcDbLine
 62
7
  6
BYLAYER
 10
29.8573365456
 20
22.6721428571
 11
30.4733619494
 21
21.605155559
  0
LINE
  5
23D
100
AcDbEntity
  8
0
100
AcDbLine
 62
7
  6
BYLAYER
 10
24.5344949309
 20
65.8721428571
 11
24.5344949309
 21
66.0721428571
  0
LINE
  5
23E
100
AcDbEntity
  8
0
100
AcDbLine
 62
7
  6
BYLAYER
 10
24.8243238438
 20
53.6516355682
 11
24.8243238438
 21
51.892650225
  0
LINE
  5
23F
100
AcDbEntity
  8
0
100
AcDbLine
 62
7
  6
BYLAYER
 10
24.8243238438
 20
58.892650146
 11
24.8243238438
 21
60.6516355683
  0
LINE
  5
240
100
AcDbEntity
  8
0
100
AcDbLine
 62
7
  6
BYLAYER
 10
25.5171441668
 20
53.5975404045
 11
25.5171441668
 21
51.9467454158
  0
LINE
  5
241
100
AcDbEntity
  8
0
100
AcDbLine
 62
7
  6
BYLAYER
 10
25.5171441668
 20
58.9467453098
 11
25.5171441668
 21
60.5975404354
  0
LINE
  5
242
100
AcDbEntity
  8
0
100
AcDbLine
 62
7
  6
BYLAYER
 10
17.5980030096
 20
57.7285082127
 11
17.4523365456
 21
58.2721428571
  0
LINE
  5
243
100
AcDbEntity
  8
0
100
AcDbLine
 62
7
  6
BYLAYER
 10
25.9801781604
 20
66.0721428571
 11
25.9801781604
 21
65.8721428571
  0
LINE
  5
244
100
AcDbEntity
  8
0
100
AcDbLine
 62
7
  6
BYLAYER
 10
32.9166700817
 20
57.7285082127
 11
33.0623365456
 21
58.2721428571
  0
LINE
  5
245
100
AcDbEntity
  8
0
100
AcDbLine
 62
7
  6
BYLAYER
 10
17.9281817383
 20
54.9164793401
 11
17.8994552313
 21
54.9721428571
  0
LINE
  5
246
100
AcDbEntity
  8
0
100
AcDbLine
 62
7
  6
BYLAYER
 10
20.6573365456
 20
22.6721428571
 11
20.0413111419
 21
21.605155559
  0
LINE
  5
247
100
AcDbEntity
  8
0
100
AcDbLine
 62
7
  6
BYLAYER
 10
30.5073365456
 20
66.0721428571
 11
30.5073365456
 21
65.8721428571
  0
LINE
  5
248
100
AcDbEntity
  8
0
100
AcDbLine
 62
7
  6
BYLAYER
 10
30.6073365456
 20
21.105155559
 11
30.6073365456
 21
14.0221428571
  0
LINE
  5
249
100
AcDbEntity
  8
0
100
AcDbLine
 62
7
  6
BYLAYER
 10
30.6073365456
 20
6.8721428571
 11
30.6073365456
 21
6.5721428571
  0
LINE
  5
24A
100
AcDbEntity
  8
0
100
AcDbLine
 62
7
  6
BYLAYER
 10
31.2573365456
 20
65.6721428571
 11
31.2573365456
 21
61.2721428571
  0
LINE
  5
24B
100
AcDbEntity
  8
0
100
AcDbLine
 62
7
  6
BYLAYER
 10
31.2573365456
 20
57.5721428571
 11
31.2573365456
 21
54.9721428571
  0
LINE
  5
24C
100
AcDbEntity
  8
0
100
AcDbLine
 62
7
  6
BYLAYER
 10
31.2573365456
 20
51.2721428571
 11
31.2573365456
 21
22.8721428571
  0
LINE
  5
24D
100
AcDbEntity
  8
0
100
AcDbLine
 62
7
  6
BYLAYER
 10
31.6073365456
 20
13.0221428571
 11
31.6073365456
 21
7.8721428571
  0
LINE
  5
24E
100
AcDbEntity
  8
0
100
AcDbLine
 62
7
  6
BYLAYER
 10
33.4975289245
 20
53.5975404033
 11
33.4975289245
 21
51.9467452801
  0
LINE
  5
24F
100
AcDbEntity
  8
0
100
AcDbLine
 62
7
  6
BYLAYER
 10
33.4975289245
 20
58.9467453109
 11
33.4975289245
 21
60.5975402977
  0
LINE
  5
250
100
AcDbEntity
  8
0
100
AcDbLine
 62
7
  6
BYLAYER
 10
33.7573365456
 20
51.2721428571
 11
33.7573365456
 21
54.2721428571
  0
LINE
  5
251
100
AcDbEntity
  8
0
100
AcDbLine
 62
7
  6
BYLAYER
 10
33.7573365456
 20
58.2721428571
 11
33.7573365456
 21
61.2721428571
  0
LINE
  5
252
100
AcDbEntity
  8
0
100
AcDbLine
 62
7
  6
BYLAYER
 10
19.1623643134
 20
54.9394536444
 11
19.1342529302
 21
54.9721428571
  0
LINE
  5
253
100
AcDbEntity
  8
0
100
AcDbLine
 62
7
  6
BYLAYER
 10
30.3781114707
 20
5.2721428571
 11
30.6073365456
 21
6.5721428571
  0
LINE
  5
254
100
AcDbEntity
  8
0
100
AcDbLine
 62
7
  6
BYLAYER
 10
19.9073365456
 20
14.0221428571
 11
18.9073365457
 21
13.0221428571
  0
LINE
  5
255
100
AcDbEntity
  8
0
100
AcDbLine
 62
7
  6
BYLAYER
 10
18.9884737736
 20
54.7256936256
 11
18.9638226656
 21
54.7438188952
  0
LINE
  5
256
100
AcDbEntity
  8
0
100
AcDbLine
 62
7
  6
BYLAYER
 10
32.9166700817
 20
54.8157775016
 11
33.0623365456
 21
54.2721428571
  0
LINE
  5
257
100
AcDbEntity
  8
0
100
AcDbLine
 62
7
  6
BYLAYER
 10
31.0573365456
 20
22.6721428571
 11
31.2573365456
 21
22.8721428571
  0
LINE
  5
258
100
AcDbEntity
  8
0
100
AcDbLine
 62
7
  6
BYLAYER
 10
33.7573365456
 20
51.2721428571
 11
16.7573365456
 21
51.2721428571
  0
LINE
  5
259
100
AcDbEntity
  8
0
100
AcDbLine
 62
7
  6
BYLAYER
 10
32.586491353
 20
57.6278063742
 11
32.61521786
 21
57.5721428571
  0
LINE
  5
25A
100
AcDbEntity
  8
0
100
AcDbLine
 62
7
  6
BYLAYER
 10
16.7573365456
 20
54.2721428571
 11
33.7573365456
 21
54.2721428571
  0
LINE
  5
25B
100
AcDbEntity
  8
0
100
AcDbLine
 62
7
  6
BYLAYER
 10
18.9638226656
 20
54.7438188952
 11
19.0030098631
 21
54.7438188952
  0
LINE
  5
25C
100
AcDbEntity
  8
0
100
AcDbLine
 62
7
  6
BYLAYER
 10
31.5116640379
 20
54.7438188952
 11
31.5508504257
 21
54.7438188952
  0
LINE
  5
25D
100
AcDbEntity
  8
0
100
AcDbLine
 62
7
  6
BYLAYER
 10
17.6415497099
 20
54.9721428571
 11
18.7785207459
 21
54.9721428571
  0
LINE
  5
25E
100
AcDbEntity
  8
0
100
AcDbLine
 62
7
  6
BYLAYER
 10
18.80085708
 20
54.9721428571
 11
19.1342529301
 21
54.9721428571
  0
LINE
  5
25F
100
AcDbEntity
  8
0
100
AcDbLine
 62
7
  6
BYLAYER
 10
19.1891887558
 20
54.9721428571
 11
19.5392845833
 21
54.9721428571
  0
LINE
  5
260
100
AcDbEntity
  8
0
100
AcDbLine
 62
7
  6
BYLAYER
 10
20.1088982339
 20
54.9721428571
 11
20.4838313157
 21
54.9721428571
  0
LINE
  5
261
100
AcDbEntity
  8
0
100
AcDbLine
 62
7
  6
BYLAYER
 10
21.1940845615
 20
54.9721428571
 11
21.5818024337
 21
54.9721428571
  0
LINE
  5
262
100
AcDbEntity
  8
0
100
AcDbLine
 62
7
  6
BYLAYER
 10
22.4098671511
 20
54.9721428571
 11
22.7979082424
 21
54.9721428571
  0
LINE
  5
263
100
AcDbEntity
  8
0
100
AcDbLine
 62
7
  6
BYLAYER
 10
23.71716975
 20
54.9721428571
 11
24.0930621003
 21
54.9721428571
  0
LINE
  5
264
100
AcDbEntity
  8
0
100
AcDbLine
 62
7
  6
BYLAYER
 10
25.0739745769
 20
54.9721428571
 11
25.4406985144
 21
54.9721428571
  0
LINE
  5
265
100
AcDbEntity
  8
0
100
AcDbLine
 62
7
  6
BYLAYER
 10
26.421610991
 20
54.9721428571
 11
26.7975033413
 21
54.9721428571
  0
LINE
  5
266
100
AcDbEntity
  8
0
100
AcDbLine
 62
7
  6
BYLAYER
 10
27.7167648489
 20
54.9721428571
 11
28.1048059402
 21
54.9721428571
  0
LINE
  5
267
100
AcDbEntity
  8
0
100
AcDbLine
 62
7
  6
BYLAYER
 10
28.9328706576
 20
54.9721428571
 11
29.3205885298
 21
54.9721428571
  0
LINE
  5
268
100
AcDbEntity
  8
0
100
AcDbLine
 62
7
  6
BYLAYER
 10
30.0308417756
 20
54.9721428571
 11
30.4057748574
 21
54.9721428571
  0
LINE
  5
269
100
AcDbEntity
  8
0
100
AcDbLine
 62
7
  6
BYLAYER
 10
30.975388508
 20
54.9721428571
 11
31.3254861415
 21
54.9721428571
  0
LINE
  5
26A
100
AcDbEntity
  8
0
100
AcDbLine
 62
7
  6
BYLAYER
 10
31.3804201612
 20
54.9721428571
 11
31.7138160113
 21
54.9721428571
  0
LINE
  5
26B
100
AcDbEntity
  8
0
100
AcDbLine
 62
7
  6
BYLAYER
 10
31.7361523454
 20
54.9721428571
 11
32.8731233814
 21
54.9721428571
  0
LINE
  5
26C
100
AcDbEntity
  8
0
100
AcDbLine
 62
7
  6
BYLAYER
 10
31.3523087779
 20
57.6048320699
 11
31.3804201611
 21
57.5721428571
  0
LINE
  5
26D
100
AcDbEntity
  8
0
100
AcDbLine
 62
7
  6
BYLAYER
 10
32.8731233814
 20
57.5721428571
 11
31.7361523454
 21
57.5721428571
  0
LINE
  5
26E
100
AcDbEntity
  8
0
100
AcDbLine
 62
7
  6
BYLAYER
 10
31.7138160113
 20
57.5721428571
 11
31.3804201612
 21
57.5721428571
  0
LINE
  5
26F
100
AcDbEntity
  8
0
100
AcDbLine
 62
7
  6
BYLAYER
 10
31.3254861415
 20
57.5721428571
 11
30.975388508
 21
57.5721428571
  0
LINE
  5
270
100
AcDbEntity
  8
0
100
AcDbLine
 62
7
  6
BYLAYER
 10
30.4057748574
 20
57.5721428571
 11
30.0308417756
 21
57.5721428571
  0
LINE
  5
271
100
AcDbEntity
  8
0
100
AcDbLine
 62
7
  6
BYLAYER
 10
29.3205885298
 20
57.5721428571
 11
28.9328706576
 21
57.5721428571
  0
LINE
  5
272
100
AcDbEntity
  8
0
100
AcDbLine
 62
7
  6
BYLAYER
 10
28.1048059402
 20
57.5721428571
 11
27.7167648489
 21
57.5721428571
  0
LINE
  5
273
100
AcDbEntity
  8
0
100
AcDbLine
 62
7
  6
BYLAYER
 10
26.7975033413
 20
57.5721428571
 11
26.421610991
 21
57.5721428571
  0
LINE
  5
274
100
AcDbEntity
  8
0
100
AcDbLine
 62
7
  6
BYLAYER
 10
25.4406985144
 20
57.5721428571
 11
25.0739745769
 21
57.5721428571
  0
LINE
  5
275
100
AcDbEntity
  8
0
100
AcDbLine
 62
7
  6
BYLAYER
 10
24.0930621003
 20
57.5721428571
 11
23.71716975
 21
57.5721428571
  0
LINE
  5
276
100
AcDbEntity
  8
0
100
AcDbLine
 62
7
  6
BYLAYER
 10
22.7979082424
 20
57.5721428571
 11
22.4098671511
 21
57.5721428571
  0
LINE
  5
277
100
AcDbEntity
  8
0
100
AcDbLine
 62
7
  6
BYLAYER
 10
21.5818024337
 20
57.5721428571
 11
21.1940845615
 21
57.5721428571
  0
LINE
  5
278
100
AcDbEntity
  8
0
100
AcDbLine
 62
7
  6
BYLAYER
 10
20.4838313157
 20
57.5721428571
 11
20.1088982339
 21
57.5721428571
  0
LINE
  5
279
100
AcDbEntity
  8
0
100
AcDbLine
 62
7
  6
BYLAYER
 10
19.5392845833
 20
57.5721428571
 11
19.1891887558
 21
57.5721428571
  0
LINE
  5
27A
100
AcDbEntity
  8
0
100
AcDbLine
 62
7
  6
BYLAYER
 10
19.1342529301
 20
57.5721428571
 11
18.80085708
 21
57.5721428571
  0
LINE
  5
27B
100
AcDbEntity
  8
0
100
AcDbLine
 62
7
  6
BYLAYER
 10
18.7785207459
 20
57.5721428571
 11
17.6415497099
 21
57.5721428571
  0
LINE
  5
27C
100
AcDbEntity
  8
0
100
AcDbLine
 62
7
  6
BYLAYER
 10
18.9638226656
 20
57.8004668191
 11
19.0030090534
 21
57.8004668191
  0
LINE
  5
27D
100
AcDbEntity
  8
0
100
AcDbLine
 62
7
  6
BYLAYER
 10
31.5116632282
 20
57.8004668191
 11
31.5508504257
 21
57.8004668191
  0
LINE
  5
27E
100
AcDbEntity
  8
0
100
AcDbLine
 62
7
  6
BYLAYER
 10
33.7573365456
 20
58.2721428571
 11
16.7573365456
 21
58.2721428571
  0
LINE
  5
27F
100
AcDbEntity
  8
0
100
AcDbLine
 62
7
  6
BYLAYER
 10
31.5508504257
 20
57.8004668191
 11
31.5261988768
 21
57.8185915389
  0
LINE
  5
280
100
AcDbEntity
  8
0
100
AcDbLine
 62
7
  6
BYLAYER
 10
30.6073365456
 20
6.8721428571
 11
31.6073365456
 21
7.8721428571
  0
LINE
  5
281
100
AcDbEntity
  8
0
100
AcDbLine
 62
7
  6
BYLAYER
 10
16.7573365456
 20
61.2721428571
 11
33.7573365456
 21
61.2721428571
  0
LINE
  5
282
100
AcDbEntity
  8
0
100
AcDbLine
 62
7
  6
BYLAYER
 10
31.0573365456
 20
65.8721428571
 11
31.2573365456
 21
65.6721428571
  0
LINE
  5
283
100
AcDbEntity
  8
0
100
AcDbLine
 62
7
  6
BYLAYER
 10
19.2573365456
 20
65.6721428571
 11
31.2573365456
 21
65.6721428571
  0
LINE
  5
284
100
AcDbEntity
  8
0
100
AcDbLine
 62
7
  6
BYLAYER
 10
19.4573365456
 20
65.8721428571
 11
31.0573149573
 21
65.8721428571
  0
LINE
  5
285
100
AcDbEntity
  8
0
100
AcDbLine
 62
7
  6
BYLAYER
 10
20.0073365456
 20
66.0721428571
 11
24.5344949309
 21
66.0721428571
  0
LINE
  5
286
100
AcDbEntity
  8
0
100
AcDbLine
 62
7
  6
BYLAYER
 10
25.9801781604
 20
66.0721428571
 11
30.5073365456
 21
66.0721428571
  0
LINE
  5
287
100
AcDbEntity
  8
0
100
AcDbLine
 62
7
  6
BYLAYER
 10
20.2073365456
 20
66.2721428571
 11
30.3073041855
 21
66.2721428571
  0
ARC
  5
288
100
AcDbEntity
  8
0
100
AcDbCircle
 62
7
  6
BYLAYER
 10
-44.4366968738
 20
-29.9593567778
 40
113.4612998621
100
AcDbArc
 50
50.667249289
 51
50.8225880301
  0
ARC
  5
289
100
AcDbEntity
  8
0
100
AcDbCircle
 62
7
  6
BYLAYER
 10
-32.8009086633
 20
-5.5541122725
 40
87.4489159111
100
AcDbArc
 50
46.2086201844
 51
46.4252159931
  0
ARC
  5
28A
100
AcDbEntity
  8
0
100
AcDbCircle
 62
7
  6
BYLAYER
 10
-20.253270416
 20
-6.7692932659
 40
81.0265759868
100
AcDbArc
 50
52.8347129549
 51
53.0114258138
  0
ARC
  5
28B
100
AcDbEntity
  8
0
100
AcDbCircle
 62
7
  6
BYLAYER
 10
-8.5169597232
 20
5.0906195407
 40
65.1677808623
100
AcDbArc
 50
53.9820619598
 51
54.144470553
  0
ARC
  5
28C
100
AcDbEntity
  8
0
100
AcDbCircle
 62
7
  6
BYLAYER
 10
-1.105603294
 20
13.5734423274
 40
54.5145145982
100
AcDbArc
 50
54.2220592801
 51
54.3396608561
  0
ARC
  5
28D
100
AcDbEntity
  8
0
100
AcDbCircle
 62
7
  6
BYLAYER
 10
-7.8366050711
 20
19.6976929207
 40
52.7870088502
100
AcDbArc
 50
45.8481029646
 51
46.2050346806
  0
ARC
  5
28E
100
AcDbEntity
  8
0
100
AcDbCircle
 62
7
  6
BYLAYER
 10
4.0093649938
 20
31.9695883176
 40
36.5049045041
100
AcDbArc
 50
44.5350624705
 51
45.0399966509
  0
ARC
  5
28F
100
AcDbEntity
  8
0
100
AcDbCircle
 62
7
  6
BYLAYER
 10
11.3280523771
 20
39.7690689176
 40
26.5135297298
100
AcDbArc
 50
42.1807212681
 51
42.8501206372
  0
ARC
  5
290
100
AcDbEntity
  8
0
100
AcDbCircle
 62
7
  6
BYLAYER
 10
16.3857185512
 20
45.3034763963
 40
19.6508522562
100
AcDbArc
 50
38.6332142619
 51
39.4905967142
  0
ARC
  5
291
100
AcDbEntity
  8
0
100
AcDbCircle
 62
7
  6
BYLAYER
 10
23.8648337282
 20
36.8993543435
 40
16.7797362171
100
AcDbArc
 50
84.3488932487
 51
86.72195461
  0
ARC
  5
292
100
AcDbEntity
  8
0
100
AcDbCircle
 62
7
  6
BYLAYER
 10
23.8648397179
 20
43.8993970917
 40
16.7796931175
100
AcDbArc
 50
84.3488992387
 51
86.7219666669
  0
ARC
  5
293
100
AcDbEntity
  8
0
100
AcDbCircle
 62
7
  6
BYLAYER
 10
20.0266278909
 20
49.3979182395
 40
14.736889496
100
AcDbArc
 50
33.6885214511
 51
34.5081427247
  0
ARC
  5
294
100
AcDbEntity
  8
0
100
AcDbCircle
 62
7
  6
BYLAYER
 10
22.5139743565
 20
53.0536091204
 40
9.2529598038
100
AcDbArc
 50
10.9019551144
 51
11.9666733956
  0
ARC
  5
295
100
AcDbEntity
  8
0
100
AcDbCircle
 62
7
  6
BYLAYER
 10
24.0974297128
 20
54.7612946666
 40
8.0773359718
100
AcDbArc
 50
0.3001730172
 51
1.4958005794
  0
ARC
  5
296
100
AcDbEntity
  8
0
100
AcDbCircle
 62
7
  6
BYLAYER
 10
17.8006068455
 20
54.0066350325
 40
6.672963769
100
AcDbArc
 50
95.2471598807
 51
98.9946865504
  0
ARC
  5
297
100
AcDbEntity
  8
0
100
AcDbCircle
 62
7
  6
BYLAYER
 10
17.7957919273
 20
47.0451872896
 40
6.6341329316
100
AcDbArc
 50
95.2361996491
 51
99.0056692872
  0
ARC
  5
298
100
AcDbEntity
  8
0
100
AcDbCircle
 62
7
  6
BYLAYER
 10
20.9073365456
 20
21.105155559
 40
1.0
100
AcDbArc
 50
150.0
 51
180.0
  0
ARC
  5
299
100
AcDbEntity
  8
0
100
AcDbCircle
 62
7
  6
BYLAYER
 10
-43.9852106961
 20
141.9514734212
 40
112.7480468454
100
AcDbArc
 50
309.1768171065
 51
309.3331383831
  0
ARC
  5
29A
100
AcDbEntity
  8
0
100
AcDbCircle
 62
7
  6
BYLAYER
 10
-32.8009086608
 20
118.0983979843
 40
87.4489159076
100
AcDbArc
 50
313.5747840068
 51
313.7913798155
  0
ARC
  5
29B
100
AcDbEntity
  8
0
100
AcDbCircle
 62
7
  6
BYLAYER
 10
-19.9397369955
 20
118.8988564139
 40
80.5066745177
100
AcDbArc
 50
306.9879247707
 51
307.1657760912
  0
ARC
  5
29C
100
AcDbEntity
  8
0
100
AcDbCircle
 62
7
  6
BYLAYER
 10
-8.3285407187
 20
107.1932114996
 40
64.8463189186
100
AcDbArc
 50
305.8553995392
 51
306.0186076766
  0
ARC
  5
29D
100
AcDbEntity
  8
0
100
AcDbCircle
 62
7
  6
BYLAYER
 10
-1.2672030899
 20
99.1945230424
 40
54.7904620087
100
AcDbArc
 50
305.661276455
 51
305.7782867066
  0
ARC
  5
29E
100
AcDbEntity
  8
0
100
AcDbCircle
 62
7
  6
BYLAYER
 10
-7.8007498408
 20
92.8094291438
 40
52.7353686671
100
AcDbArc
 50
313.7947905591
 51
314.1520717954
  0
ARC
  5
29F
100
AcDbEntity
  8
0
100
AcDbCircle
 62
7
  6
BYLAYER
 10
4.0346960334
 20
80.5495535347
 40
36.4692134604
100
AcDbArc
 50
314.9597562673
 51
315.4651846109
  0
ARC
  5
2A0
100
AcDbEntity
  8
0
100
AcDbCircle
 62
7
  6
BYLAYER
 10
11.347150479
 20
72.7577071522
 40
26.4876202294
100
AcDbArc
 50
317.1495519642
 51
317.8196061299
  0
ARC
  5
2A1
100
AcDbEntity
  8
0
100
AcDbCircle
 62
7
  6
BYLAYER
 10
16.4006240688
 20
67.2287123792
 40
19.6316561699
100
AcDbArc
 50
320.5089840978
 51
321.3672049254
  0
ARC
  5
2A2
100
AcDbEntity
  8
0
100
AcDbCircle
 62
7
  6
BYLAYER
 10
23.8648337265
 20
75.6449313708
 40
16.7797362172
100
AcDbArc
 50
273.2780453958
 51
275.651106757
  0
ARC
  5
2A3
100
AcDbEntity
  8
0
100
AcDbCircle
 62
7
  6
BYLAYER
 10
23.864839842
 20
68.6448870542
 40
16.7796915446
100
AcDbArc
 50
273.2780332161
 51
275.6511008668
  0
ARC
  5
2A4
100
AcDbEntity
  8
0
100
AcDbCircle
 62
7
  6
BYLAYER
 10
20.0260097026
 20
63.1467480711
 40
14.7376149773
100
AcDbArc
 50
325.4920083376
 51
326.3115804631
  0
ARC
  5
2A5
100
AcDbEntity
  8
0
100
AcDbCircle
 62
7
  6
BYLAYER
 10
22.517946326
 20
59.4898423871
 40
9.248901185
100
AcDbArc
 50
348.0332802615
 51
349.0984662002
  0
ARC
  5
2A6
100
AcDbEntity
  8
0
100
AcDbCircle
 62
7
  6
BYLAYER
 10
24.8822824967
 20
59.8809769744
 40
8.3177223887
100
AcDbArc
 50
345.0022547687
 51
347.4396707516
  0
ARC
  5
2A7
100
AcDbEntity
  8
0
100
AcDbCircle
 62
7
  6
BYLAYER
 10
24.1009538857
 20
57.7829061983
 40
8.073810785
100
AcDbArc
 50
358.5041485142
 51
359.7002993274
  0
ARC
  5
2A8
100
AcDbEntity
  8
0
100
AcDbCircle
 62
7
  6
BYLAYER
 10
17.7992908639
 20
58.527116718
 40
6.6623536077
100
AcDbArc
 50
261.0023283164
 51
264.7558252603
  0
ARC
  5
2A9
100
AcDbEntity
  8
0
100
AcDbCircle
 62
7
  6
BYLAYER
 10
17.7942169382
 20
65.4864912107
 40
6.6214346052
100
AcDbArc
 50
260.9907149306
 51
264.7674161252
  0
ARC
  5
2AA
100
AcDbEntity
  8
0
100
AcDbCircle
 62
7
  6
BYLAYER
 10
20.2073365456
 20
66.0721428571
 40
0.2
100
AcDbArc
 50
90.0
 51
180.0
  0
ARC
  5
2AB
100
AcDbEntity
  8
0
100
AcDbCircle
 62
7
  6
BYLAYER
 10
94.20417392
 20
-29.0450004397
 40
112.280475212
100
AcDbArc
 50
129.1765956937
 51
129.3335674019
  0
ARC
  5
2AC
100
AcDbEntity
  8
0
100
AcDbCircle
 62
7
  6
BYLAYER
 10
83.3155817573
 20
-5.5541122753
 40
87.448915915
100
AcDbArc
 50
133.5747840069
 51
133.7913798156
  0
ARC
  5
2AD
100
AcDbEntity
  8
0
100
AcDbCircle
 62
7
  6
BYLAYER
 10
70.280406038
 20
-6.1241142988
 40
80.2179060207
100
AcDbArc
 50
126.9876855896
 51
127.1661773708
  0
ARC
  5
2AE
100
AcDbEntity
  8
0
100
AcDbCircle
 62
7
  6
BYLAYER
 10
59.0315635774
 20
5.0907138166
 40
65.1676638947
100
AcDbArc
 50
125.8555344377
 51
126.017937545
  0
ARC
  5
2AF
100
AcDbEntity
  8
0
100
AcDbCircle
 62
7
  6
BYLAYER
 10
51.6199712421
 20
13.5738654183
 40
54.5139929486
100
AcDbArc
 50
125.66033662
 51
125.7779405085
  0
ARC
  5
2B0
100
AcDbEntity
  8
0
100
AcDbCircle
 62
7
  6
BYLAYER
 10
58.315423079
 20
19.7348564184
 40
52.7353688786
100
AcDbArc
 50
133.79479056
 51
134.1520717949
  0
ARC
  5
2B1
100
AcDbEntity
  8
0
100
AcDbCircle
 62
7
  6
BYLAYER
 10
46.4799771609
 20
31.9947320776
 40
36.4692136054
100
AcDbArc
 50
134.9597562685
 51
135.4651846101
  0
ARC
  5
2B2
100
AcDbEntity
  8
0
100
AcDbCircle
 62
7
  6
BYLAYER
 10
39.16752269
 20
39.786578491
 40
26.4876203347
100
AcDbArc
 50
137.1495519659
 51
137.8196061289
  0
ARC
  5
2B3
100
AcDbEntity
  8
0
100
AcDbCircle
 62
7
  6
BYLAYER
 10
34.1140490826
 20
45.3155732865
 40
19.6316562472
100
AcDbArc
 50
140.5089840999
 51
141.3672049241
  0
ARC
  5
2B4
100
AcDbEntity
  8
0
100
AcDbCircle
 62
7
  6
BYLAYER
 10
30.4886634386
 20
49.3975376094
 40
14.7376150376
100
AcDbArc
 50
145.4920083393
 51
146.3115804614
  0
ARC
  5
2B5
100
AcDbEntity
  8
0
100
AcDbCircle
 62
7
  6
BYLAYER
 10
27.9967267444
 20
53.0544433315
 40
9.2489011636
100
AcDbArc
 50
168.0332802607
 51
169.0984662019
  0
ARC
  5
2B6
100
AcDbEntity
  8
0
100
AcDbCircle
 62
7
  6
BYLAYER
 10
25.6323905946
 20
52.6633087399
 40
8.3177223887
100
AcDbArc
 50
165.0022547691
 51
167.4396707521
  0
ARC
  5
2B7
100
AcDbEntity
  8
0
100
AcDbCircle
 62
7
  6
BYLAYER
 10
24.8918185436
 20
52.6656473186
 40
8.3079060004
100
AcDbArc
 50
12.5588890392
 51
14.9991854396
  0
ARC
  5
2B8
100
AcDbEntity
  8
0
100
AcDbCircle
 62
7
  6
BYLAYER
 10
25.5858454777
 20
52.6754631685
 40
8.2696174542
100
AcDbArc
 50
163.8755262806
 51
165.0001444052
  0
ARC
  5
2B9
100
AcDbEntity
  8
0
100
AcDbCircle
 62
7
  6
BYLAYER
 10
24.9335938915
 20
52.6767905451
 40
8.2646700332
100
AcDbArc
 50
14.9995189729
 51
16.1248103413
  0
ARC
  5
2BA
100
AcDbEntity
  8
0
100
AcDbCircle
 62
7
  6
BYLAYER
 10
26.4137191863
 20
54.7613795163
 40
8.0738107656
100
AcDbArc
 50
178.5041485133
 51
179.7002993294
  0
ARC
  5
2BB
100
AcDbEntity
  8
0
100
AcDbCircle
 62
7
  6
BYLAYER
 10
34.137824569
 20
54.3710196881
 40
2.5074060138
100
AcDbArc
 50
255.2049770681
 51
261.2718953287
  0
ARC
  5
2BC
100
AcDbEntity
  8
0
100
AcDbCircle
 62
7
  6
BYLAYER
 10
34.1321234091
 20
51.2006498181
 40
2.4794746697
100
AcDbArc
 50
98.6939101303
 51
104.8292376165
  0
ARC
  5
2BD
100
AcDbEntity
  8
0
100
AcDbCircle
 62
7
  6
BYLAYER
 10
29.6073365456
 20
21.105155559
 40
1.0
100
AcDbArc
 50
0.0
 51
30.0
  0
ARC
  5
2BE
100
AcDbEntity
  8
0
100
AcDbCircle
 62
7
  6
BYLAYER
 10
93.9726399449
 20
141.3062752741
 40
111.9148209341
100
AcDbArc
 50
230.6662802385
 51
230.8237660495
  0
ARC
  5
2BF
100
AcDbEntity
  8
0
100
AcDbCircle
 62
7
  6
BYLAYER
 10
83.3155817534
 20
118.0983979858
 40
87.4489159095
100
AcDbArc
 50
226.2086201845
 51
226.4252159932
  0
ARC
  5
2C0
100
AcDbEntity
  8
0
100
AcDbCircle
 62
7
  6
BYLAYER
 10
69.7370911489
 20
117.9495972968
 40
79.3168695435
100
AcDbArc
 50
232.8328914813
 51
233.0134132252
  0
ARC
  5
2C1
100
AcDbEntity
  8
0
100
AcDbCircle
 62
7
  6
BYLAYER
 10
58.8427916159
 20
107.1926340623
 40
64.8456036019
100
AcDbArc
 50
233.9813940205
 51
234.1446097652
  0
ARC
  5
2C2
100
AcDbEntity
  8
0
100
AcDbCircle
 62
7
  6
BYLAYER
 10
51.7807274724
 20
99.1929304143
 40
54.7884983399
100
AcDbArc
 50
234.2217141303
 51
234.3387273953
  0
ARC
  5
2C3
100
AcDbEntity
  8
0
100
AcDbCircle
 62
7
  6
BYLAYER
 10
58.3512781215
 20
92.8465927515
 40
52.7870087915
100
AcDbArc
 50
225.8481029645
 51
226.205034681
  0
ARC
  5
2C4
100
AcDbEntity
  8
0
100
AcDbCircle
 62
7
  6
BYLAYER
 10
46.5053080667
 20
80.5746973663
 40
36.5049044609
100
AcDbArc
 50
224.5350624705
 51
225.0399966514
  0
ARC
  5
2C5
100
AcDbEntity
  8
0
100
AcDbCircle
 62
7
  6
BYLAYER
 10
39.1866206916
 20
72.7752167762
 40
26.5135296994
100
AcDbArc
 50
222.180721268
 51
222.8501206379
  0
ARC
  5
2C6
100
AcDbEntity
  8
0
100
AcDbCircle
 62
7
  6
BYLAYER
 10
34.1289545221
 20
67.2408093035
 40
19.6508522331
100
AcDbArc
 50
218.6332142618
 51
219.490596715
  0
ARC
  5
2C7
100
AcDbEntity
  8
0
100
AcDbCircle
 62
7
  6
BYLAYER
 10
30.488045171
 20
63.1463674551
 40
14.7368894606
100
AcDbArc
 50
213.6885214505
 51
214.508142726
  0
ARC
  5
2C8
100
AcDbEntity
  8
0
100
AcDbCircle
 62
7
  6
BYLAYER
 10
28.0006987647
 20
59.4906765999
 40
9.2529598343
100
AcDbArc
 50
190.9019551161
 51
191.9666733938
  0
ARC
  5
2C9
100
AcDbEntity
  8
0
100
AcDbCircle
 62
7
  6
BYLAYER
 10
25.622854533
 20
59.8786383922
 40
8.3079059853
100
AcDbArc
 50
192.5588890375
 51
194.9991854422
  0
ARC
  5
2CA
100
AcDbEntity
  8
0
100
AcDbCircle
 62
7
  6
BYLAYER
 10
24.9288276343
 20
59.8688225398
 40
8.2696174326
100
AcDbArc
 50
343.8755262802
 51
345.0001444078
  0
ARC
  5
2CB
100
AcDbEntity
  8
0
100
AcDbCircle
 62
7
  6
BYLAYER
 10
25.5810791839
 20
59.8674951646
 40
8.2646700166
100
AcDbArc
 50
194.9995189706
 51
196.1248103413
  0
ARC
  5
2CC
100
AcDbEntity
  8
0
100
AcDbCircle
 62
7
  6
BYLAYER
 10
26.4172434046
 20
57.7829910481
 40
8.0773359979
100
AcDbArc
 50
180.3001730191
 51
181.4958005774
  0
ARC
  5
2CD
100
AcDbEntity
  8
0
100
AcDbCircle
 62
7
  6
BYLAYER
 10
34.1386362437
 20
58.1693676938
 40
2.5113823787
100
AcDbArc
 50
98.7329121313
 51
104.7902154508
  0
ARC
  5
2CE
100
AcDbEntity
  8
0
100
AcDbCircle
 62
7
  6
BYLAYER
 10
34.1311291067
 20
61.3388604442
 40
2.474603807
100
AcDbArc
 50
255.1647183942
 51
261.3121338802
  0
ARC
  5
2CF
100
AcDbEntity
  8
0
100
AcDbCircle
 62
7
  6
BYLAYER
 10
30.3073365456
 20
66.0721428571
 40
0.2
100
AcDbArc
 50
0.0
 51
90.0
  0
LINE
  5
2D0
100
AcDbEntity
  8
0
100
AcDbLine
 62
7
  6
BYLAYER
 10
24.3268596691
 20
54.7438188952
 11
24.0930621004
 21
54.9721428571
  0
LINE
  5
2D1
100
AcDbEntity
  8
0
100
AcDbLine
 62
7
  6
BYLAYER
 10
24.5895631769
 20
54.5014239864
 11
24.3268596691
 21
54.7438188952
  0
LINE
  5
2D2
100
AcDbEntity
  8
0
100
AcDbLine
 62
7
  6
BYLAYER
 10
26.1878134222
 20
54.7438188952
 11
25.9251099158
 21
54.5014239874
  0
LINE
  5
2D3
100
AcDbEntity
  8
0
100
AcDbLine
 62
7
  6
BYLAYER
 10
26.1878134222
 20
54.7438188952
 11
26.4216109909
 21
54.9721428571
  0
SPLINE
  5
2D4
100
AcDbEntity
  8
0
100
AcDbSpline
 62
7
  6
BYLAYER
 70
0
 71
3
 72
11
 73
7
 74
0
 42
0.0000001
 43
0.0000001
 44
0.0000000001
 40
0.0
 40
0.0
 40
0.0
 40
0.0
 40
0.2512965522
 40
0.5015884568
 40
0.7510379025
 40
1.0
 40
1.0
 40
1.0
 40
1.0
 10
33.4975289245
 20
51.9467454166
 30
0.0
 10
33.1732303228
 20
51.8437162193
 30
0.0
 10
32.5201236479
 20
51.6556282359
 30
0.0
 10
31.5254599658
 20
51.4396302626
 30
0.0
 10
30.5197125294
 20
51.3033449923
 30
0.0
 10
29.8444469648
 20
51.2721432645
 30
0.0
 10
29.5073366034
 20
51.2721457749
 30
0.0
  0
SPLINE
  5
2D5
100
AcDbEntity
  8
0
100
AcDbSpline
 62
7
  6
BYLAYER
 70
0
 71
3
 72
11
 73
7
 74
0
 42
0.0000001
 43
0.0000001
 44
0.0000000001
 40
0.0
 40
0.0
 40
0.0
 40
0.0
 40
0.2512099071
 40
0.5014743377
 40
0.7509613715
 40
1.0
 40
1.0
 40
1.0
 40
1.0
 10
24.8243238438
 20
51.892650146
 30
0.0
 10
24.5136547997
 20
51.7973114539
 30
0.0
 10
23.8881526154
 20
51.6236871439
 30
0.0
 10
22.9363430507
 20
51.4253166619
 30
0.0
 10
21.9747367577
 20
51.300579107
 30
0.0
 10
21.3294965355
 20
51.2721452765
 30
0.0
 10
21.0073365329
 20
51.2721457773
 30
0.0
  0
SPLINE
  5
2D6
100
AcDbEntity
  8
0
100
AcDbSpline
 62
7
  6
BYLAYER
 70
0
 71
3
 72
11
 73
7
 74
0
 42
0.0000001
 43
0.0000001
 44
0.0000000001
 40
0.0
 40
0.0
 40
0.0
 40
0.0
 40
0.2489621357
 40
0.4984115847
 40
0.7487034744
 40
1.0
 40
1.0
 40
1.0
 40
1.0
 10
29.5073366034
 20
51.2721457749
 30
0.0
 10
29.1702261807
 20
51.2721432625
 30
0.0
 10
28.4949605412
 20
51.3033449978
 30
0.0
 10
27.4892130395
 20
51.4396302716
 30
0.0
 10
26.4945493856
 20
51.6556282652
 30
0.0
 10
25.8414427432
 20
51.8437162265
 30
0.0
 10
25.5171441668
 20
51.9467454158
 30
0.0
  0
SPLINE
  5
2D7
100
AcDbEntity
  8
0
100
AcDbSpline
 62
7
  6
BYLAYER
 70
0
 71
3
 72
11
 73
7
 74
0
 42
0.0000001
 43
0.0000001
 44
0.0000000001
 40
0.0
 40
0.0
 40
0.0
 40
0.0
 40
0.2490353388
 40
0.4985183554
 40
0.7487844341
 40
1.0
 40
1.0
 40
1.0
 40
1.0
 10
21.0073365329
 20
51.2721457773
 30
0.0
 10
20.6851808504
 20
51.2721451509
 30
0.0
 10
20.0399512955
 20
51.3005898804
 30
0.0
 10
19.0783486209
 20
51.4253000312
 30
0.0
 10
18.1265415576
 20
51.6237030482
 30
0.0
 10
17.5010252272
 20
51.7973093202
 30
0.0
 10
17.1903492475
 20
51.8926501417
 30
0.0
  0
SPLINE
  5
2D8
100
AcDbEntity
  8
0
100
AcDbSpline
 62
7
  6
BYLAYER
 70
0
 71
3
 72
11
 73
7
 74
0
 42
0.0000001
 43
0.0000001
 44
0.0000000001
 40
0.0
 40
0.0
 40
0.0
 40
0.0
 40
0.2512099072
 40
0.5014743377
 40
0.7509613715
 40
1.0
 40
1.0
 40
1.0
 40
1.0
 10
17.1903492475
 20
53.6516355725
 30
0.0
 10
17.5010182817
 20
53.7469742898
 30
0.0
 10
18.1265204712
 20
53.920598569
 30
0.0
 10
19.0783300269
 20
54.1189690572
 30
0.0
 10
20.0399363155
 20
54.2437065942
 30
0.0
 10
20.6851765324
 20
54.2721404371
 30
0.0
 10
21.0073365329
 20
54.2721399369
 30
0.0
  0
SPLINE
  5
2D9
100
AcDbEntity
  8
0
100
AcDbSpline
 62
7
  6
BYLAYER
 70
0
 71
3
 72
11
 73
7
 74
0
 42
0.0000001
 43
0.0000001
 44
0.0000000001
 40
0.0
 40
0.0
 40
0.0
 40
0.0
 40
0.2490353388
 40
0.4985183554
 40
0.7487844343
 40
1.0
 40
1.0
 40
1.0
 40
1.0
 10
21.0073365329
 20
54.2721399369
 30
0.0
 10
21.3294922175
 20
54.2721405641
 30
0.0
 10
21.9747217771
 20
54.2436958444
 30
0.0
 10
22.936324459
 20
54.1189856868
 30
0.0
 10
23.888131521
 20
53.9205826409
 30
0.0
 10
24.5136478697
 20
53.7469764152
 30
0.0
 10
24.8243238438
 20
53.6516355682
 30
0.0
  0
SPLINE
  5
2DA
100
AcDbEntity
  8
0
100
AcDbSpline
 62
7
  6
BYLAYER
 70
0
 71
3
 72
11
 73
7
 74
0
 42
0.0000001
 43
0.0000001
 44
0.0000000001
 40
0.0
 40
0.0
 40
0.0
 40
0.0
 40
0.2512962977
 40
0.5015883224
 40
0.7510379622
 40
1.0
 40
1.0
 40
1.0
 40
1.0
 10
25.5171441668
 20
53.5975404045
 30
0.0
 10
25.8414424008
 20
53.7005694923
 30
0.0
 10
26.4945541532
 20
53.8886406873
 30
0.0
 10
27.4892167263
 20
54.1046337849
 30
0.0
 10
28.4949583233
 20
54.2409745974
 30
0.0
 10
29.1702262907
 20
54.2721405655
 30
0.0
 10
29.5073365329
 20
54.2721399369
 30
0.0
  0
SPLINE
  5
2DB
100
AcDbEntity
  8
0
100
AcDbSpline
 62
7
  6
BYLAYER
 70
0
 71
3
 72
11
 73
7
 74
0
 42
0.0000001
 43
0.0000001
 44
0.0000000001
 40
0.0
 40
0.0
 40
0.0
 40
0.0
 40
0.2489620757
 40
0.498411719
 40
0.7487037294
 40
1.0
 40
1.0
 40
1.0
 40
1.0
 10
29.5073365329
 20
54.2721399369
 30
0.0
 10
29.8444468285
 20
54.2721405659
 30
0.0
 10
30.5197148575
 20
54.2409746203
 30
0.0
 10
31.5254564967
 20
54.1046337765
 30
0.0
 10
32.5201190075
 20
53.888640613
 30
0.0
 10
33.1732307233
 20
53.7005694807
 30
0.0
 10
33.4975289245
 20
53.5975404033
 30
0.0
  0
LINE
  5
2DC
100
AcDbEntity
  8
0
100
AcDbLine
 62
7
  6
BYLAYER
 10
24.5895625983
 20
58.0428612743
 11
24.3268596691
 21
57.8004668191
  0
LINE
  5
2DD
100
AcDbEntity
  8
0
100
AcDbLine
 62
7
  6
BYLAYER
 10
26.1878134222
 20
57.8004668191
 11
25.9251104933
 21
58.042861274
  0
LINE
  5
2DE
100
AcDbEntity
  8
0
100
AcDbLine
 62
7
  6
BYLAYER
 10
24.3268596691
 20
57.8004668191
 11
24.0930621004
 21
57.5721428571
  0
LINE
  5
2DF
100
AcDbEntity
  8
0
100
AcDbLine
 62
7
  6
BYLAYER
 10
26.1878134222
 20
57.8004668191
 11
26.4216109909
 21
57.5721428571
  0
SPLINE
  5
2E0
100
AcDbEntity
  8
0
100
AcDbSpline
 62
7
  6
BYLAYER
 70
0
 71
3
 72
11
 73
7
 74
0
 42
0.0000001
 43
0.0000001
 44
0.0000000001
 40
0.0
 40
0.0
 40
0.0
 40
0.0
 40
0.2512099072
 40
0.5014743377
 40
0.7509613715
 40
1.0
 40
1.0
 40
1.0
 40
1.0
 10
17.1903492475
 20
60.6516355726
 30
0.0
 10
17.5010182897
 20
60.7469742639
 30
0.0
 10
18.1265204679
 20
60.9205985794
 30
0.0
 10
19.0783300277
 20
61.1189690547
 30
0.0
 10
20.0399363153
 20
61.2437065948
 30
0.0
 10
20.6851765324
 20
61.2721404371
 30
0.0
 10
21.0073365329
 20
61.2721399369
 30
0.0
  0
SPLINE
  5
2E1
100
AcDbEntity
  8
0
100
AcDbSpline
 62
7
  6
BYLAYER
 70
0
 71
3
 72
11
 73
7
 74
0
 42
0.0000001
 43
0.0000001
 44
0.0000000001
 40
0.0
 40
0.0
 40
0.0
 40
0.0
 40
0.2490353388
 40
0.4985183554
 40
0.7487844342
 40
1.0
 40
1.0
 40
1.0
 40
1.0
 10
21.0073365329
 20
61.2721399369
 30
0.0
 10
21.3294922175
 20
61.2721405641
 30
0.0
 10
21.9747217775
 20
61.2436958461
 30
0.0
 10
22.9363244576
 20
61.1189856814
 30
0.0
 10
23.8881315255
 20
60.9205826568
 30
0.0
 10
24.5136478621
 20
60.7469763907
 30
0.0
 10
24.8243238438
 20
60.6516355683
 30
0.0
  0
SPLINE
  5
2E2
100
AcDbEntity
  8
0
100
AcDbSpline
 62
7
  6
BYLAYER
 70
0
 71
3
 72
11
 73
7
 74
0
 42
0.0000001
 43
0.0000001
 44
0.0000000001
 40
0.0
 40
0.0
 40
0.0
 40
0.0
 40
0.2512965524
 40
0.5015884569
 40
0.7510379025
 40
1.0
 40
1.0
 40
1.0
 40
1.0
 10
25.5171441668
 20
60.5975402984
 30
0.0
 10
25.841442778
 20
60.7005694988
 30
0.0
 10
26.4945494664
 20
60.8886575047
 30
0.0
 10
27.4892131817
 20
61.1046554679
 30
0.0
 10
28.4949606501
 20
61.2409407029
 30
0.0
 10
29.1702262324
 20
61.2721424533
 30
0.0
 10
29.5073366034
 20
61.2721399394
 30
0.0
  0
SPLINE
  5
2E3
100
AcDbEntity
  8
0
100
AcDbSpline
 62
7
  6
BYLAYER
 70
0
 71
3
 72
11
 73
7
 74
0
 42
0.0000001
 43
0.0000001
 44
0.0000000001
 40
0.0
 40
0.0
 40
0.0
 40
0.0
 40
0.2512962975
 40
0.5015883224
 40
0.7510379622
 40
1.0
 40
1.0
 40
1.0
 40
1.0
 10
33.4975289245
 20
58.9467453109
 30
0.0
 10
33.1732306886
 20
58.8437162226
 30
0.0
 10
32.520118929
 20
58.6556450372
 30
0.0
 10
31.5254563517
 20
58.4396519325
 30
0.0
 10
30.5197147496
 20
58.3033111037
 30
0.0
 10
29.8444467771
 20
58.2721451481
 30
0.0
 10
29.5073365329
 20
58.2721457773
 30
0.0
  0
SPLINE
  5
2E4
100
AcDbEntity
  8
0
100
AcDbSpline
 62
7
  6
BYLAYER
 70
0
 71
3
 72
11
 73
7
 74
0
 42
0.0000001
 43
0.0000001
 44
0.0000000001
 40
0.0
 40
0.0
 40
0.0
 40
0.0
 40
0.2489621356
 40
0.4984115847
 40
0.7487034747
 40
1.0
 40
1.0
 40
1.0
 40
1.0
 10
29.5073366034
 20
61.2721399394
 30
0.0
 10
29.8444470165
 20
61.2721424483
 30
0.0
 10
30.5197126383
 20
61.2409407356
 30
0.0
 10
31.5254601079
 20
61.1046554265
 30
0.0
 10
32.5201237287
 20
60.8886574227
 30
0.0
 10
33.1732303575
 20
60.700569484
 30
0.0
 10
33.4975289245
 20
60.5975402977
 30
0.0
  0
SPLINE
  5
2E5
100
AcDbEntity
  8
0
100
AcDbSpline
 62
7
  6
BYLAYER
 70
0
 71
3
 72
11
 73
7
 74
0
 42
0.0000001
 43
0.0000001
 44
0.0000000001
 40
0.0
 40
0.0
 40
0.0
 40
0.0
 40
0.2489620758
 40
0.498411719
 40
0.7487037292
 40
1.0
 40
1.0
 40
1.0
 40
1.0
 10
29.5073365329
 20
58.2721457773
 30
0.0
 10
29.1702262393
 20
58.2721451492
 30
0.0
 10
28.4949582154
 20
58.3033111071
 30
0.0
 10
27.4892165813
 20
58.4396519346
 30
0.0
 10
26.4945540747
 20
58.655645091
 30
0.0
 10
25.8414423662
 20
58.8437162331
 30
0.0
 10
25.5171441668
 20
58.9467453098
 30
0.0
  0
SPLINE
  5
2E6
100
AcDbEntity
  8
0
100
AcDbSpline
 62
7
  6
BYLAYER
 70
0
 71
3
 72
11
 73
7
 74
0
 42
0.0000001
 43
0.0000001
 44
0.0000000001
 40
0.0
 40
0.0
 40
0.0
 40
0.0
 40
0.2512099071
 40
0.5014743377
 40
0.7509613715
 40
1.0
 40
1.0
 40
1.0
 40
1.0
 10
24.8243238438
 20
58.892650146
 30
0.0
 10
24.5136548076
 20
58.7973114282
 30
0.0
 10
23.8881526121
 20
58.6236871542
 30
0.0
 10
22.9363430516
 20
58.4253166595
 30
0.0
 10
21.9747367575
 20
58.3005791076
 30
0.0
 10
21.3294965355
 20
58.2721452765
 30
0.0
 10
21.0073365329
 20
58.2721457773
 30
0.0
  0
SPLINE
  5
2E7
100
AcDbEntity
  8
0
100
AcDbSpline
 62
7
  6
BYLAYER
 70
0
 71
3
 72
11
 73
7
 74
0
 42
0.0000001
 43
0.0000001
 44
0.0000000001
 40
0.0
 40
0.0
 40
0.0
 40
0.0
 40
0.2490353388
 40
0.4985183554
 40
0.7487844342
 40
1.0
 40
1.0
 40
1.0
 40
1.0
 10
21.0073365329
 20
58.2721457773
 30
0.0
 10
20.6851808504
 20
58.272145151
 30
0.0
 10
20.0399512959
 20
58.3005898821
 30
0.0
 10
19.0783486195
 20
58.4253000257
 30
0.0
 10
18.1265415622
 20
58.6237030643
 30
0.0
 10
17.5010252196
 20
58.7973092954
 30
0.0
 10
17.1903492475
 20
58.8926501417
 30
0.0
  0
SPLINE
  5
2E8
100
AcDbEntity
  8
0
100
AcDbSpline
 62
7
  6
BYLAYER
 70
0
 71
3
 72
42
 73
38
 74
0
 42
0.0000001
 43
0.0000001
 44
0.0000000001
 40
0.0
 40
0.0
 40
0.0
 40
0.0
 40
0.007830741
 40
0.015695291
 40
0.0235246052
 40
0.0313425214
 40
0.0391584887
 40
0.0469725099
 40
0.0625940508
 40
0.0782174776
 40
0.0938398251
 40
0.1250811119
 40
0.1563241249
 40
0.1875677554
 40
0.2188116904
 40
0.2500557686
 40
0.3125420224
 40
0.3750291748
 40
0.4375166848
 40
0.5000043809
 40
0.5624920582
 40
0.6249796157
 40
0.6874667259
 40
0.7499529772
 40
0.7811970661
 40
0.8124410145
 40
0.8436847327
 40
0.8749278003
 40
0.9061693074
 40
0.937404762
 40
0.953027777
 40
0.9608414124
 40
0.9686566544
 40
0.9764753123
 40
0.9843046226
 40
0.9921690963
 40
1.0
 40
1.0
 40
1.0
 40
1.0
 10
24.5344949309
 20
66.0721428571
 30
0.0
 10
24.5344949309
 20
66.0760907723
 30
0.0
 10
24.5363945296
 20
66.0840300607
 30
0.0
 10
24.5427536733
 20
66.0941916861
 30
0.0
 10
24.5512285054
 20
66.1025713163
 30
0.0
 10
24.560623357
 20
66.1097855734
 30
0.0
 10
24.5706300092
 20
66.1161030056
 30
0.0
 10
24.5844639546
 20
66.1236607614
 30
0.0
 10
24.6025137804
 20
66.1316133609
 30
0.0
 10
24.6247525268
 20
66.1396221972
 30
0.0
 10
24.6548429612
 20
66.1489781379
 30
0.0
 10
24.693048272
 20
66.15862885
 30
0.0
 10
24.7393926673
 20
66.1679118334
 30
0.0
 10
24.7860306373
 20
66.1755699348
 30
0.0
 10
24.8328622337
 20
66.1819207725
 30
0.0
 10
24.8954759056
 20
66.1889824717
 30
0.0
 10
24.9739734617
 20
66.1955778414
 30
0.0
 10
25.068347448
 20
66.2008096079
 30
0.0
 10
25.1628187752
 20
66.2037921443
 30
0.0
 10
25.2573310625
 20
66.2047510672
 30
0.0
 10
25.3518433809
 20
66.2037854743
 30
0.0
 10
25.4463143499
 20
66.2008044035
 30
0.0
 10
25.5406909292
 20
66.1956107973
 30
0.0
 10
25.6191850446
 20
66.1889747169
 30
0.0
 10
25.6818000078
 20
66.1819256931
 30
0.0
 10
25.7286309898
 20
66.1755686603
 30
0.0
 10
25.7752702414
 20
66.1679220048
 30
0.0
 10
25.8216136758
 20
66.1586175154
 30
0.0
 10
25.8674517828
 20
66.1470739438
 30
0.0
 10
25.9049094662
 20
66.1347173653
 30
0.0
 10
25.9301605899
 20
66.1235758772
 30
0.0
 10
25.9440354675
 20
66.1160931538
 30
0.0
 10
25.95405351
 20
66.1097916091
 30
0.0
 10
25.9634432407
 20
66.1025703892
 30
0.0
 10
25.9719187497
 20
66.0941915977
 30
0.0
 10
25.9782789234
 20
66.0840303028
 30
0.0
 10
25.9801781604
 20
66.0760908543
 30
0.0
 10
25.9801781604
 20
66.0721428571
 30
0.0
  0
SPLINE
  5
2E9
100
AcDbEntity
  8
0
100
AcDbSpline
 62
7
  6
BYLAYER
 70
0
 71
3
 72
21
 73
17
 74
0
 42
0.0000001
 43
0.0000001
 44
0.0000000001
 40
0.0
 40
0.0
 40
0.0
 40
0.0
 40
0.0012557054
 40
0.0049153365
 40
0.0109709807
 40
0.0194147283
 40
0.0434289923
 40
0.0767259993
 40
0.1188945594
 40
0.1695020463
 40
0.228025558
 40
0.2939037739
 40
0.4452197532
 40
0.6177907376
 40
0.8052225768
 40
1.0
 40
1.0
 40
1.0
 40
1.0
 10
19.7573365517
 20
14.4722404886
 30
0.0
 10
19.7573383229
 20
14.472450011
 30
0.0
 10
19.7574506987
 20
14.4732650582
 30
0.0
 10
19.7575786139
 20
14.4750900107
 30
0.0
 10
19.7578699414
 20
14.4781069783
 30
0.0
 10
19.7584267499
 20
14.484508779
 30
0.0
 10
19.759393518
 20
14.4954385196
 30
0.0
 10
19.7607966056
 20
14.5119784043
 30
0.0
 10
19.7625094712
 20
14.5329454976
 30
0.0
 10
19.7644651588
 20
14.5581158791
 30
0.0
 10
19.7665894608
 20
14.5872410928
 30
0.0
 10
19.7696820286
 20
14.6331441161
 30
0.0
 10
19.7734308157
 20
14.6980752457
 30
0.0
 10
19.7770848673
 20
14.7833203614
 30
0.0
 10
19.7795328539
 20
14.8758641163
 30
0.0
 10
19.7801109706
 20
14.9396418545
 30
0.0
 10
19.7801109706
 20
14.9721428571
 30
0.0
  0
SPLINE
  5
2EA
100
AcDbEntity
  8
0
100
AcDbSpline
 62
7
  6
BYLAYER
 70
0
 71
3
 72
32
 73
28
 74
0
 42
0.0000001
 43
0.0000001
 44
0.0000000001
 40
0.0
 40
0.0
 40
0.0
 40
0.0
 40
0.0000761726
 40
0.0003041873
 40
0.0006837964
 40
0.001214745
 40
0.0027296374
 40
0.0048468171
 40
0.0075642357
 40
0.010879845
 40
0.0147915968
 40
0.0192974432
 40
0.0300832291
 40
0.0432192353
 40
0.0586695101
 40
0.0763867454
 40
0.0963234995
 40
0.118432382
 40
0.1689670301
 40
0.2274859368
 40
0.2934110412
 40
0.3661335611
 40
0.4449230601
 40
0.5290198516
 40
0.6176408686
 40
0.8051514983
 40
1.0
 40
1.0
 40
1.0
 40
1.0
 10
19.9073586326
 20
14.4721428571
 30
0.0
 10
19.9073713464
 20
14.472142833
 30
0.0
 10
19.9073499113
 20
14.4722240291
 30
0.0
 10
19.907387055
 20
14.4723079928
 30
0.0
 10
19.9073909643
 20
14.4725138685
 30
0.0
 10
19.9074387385
 20
14.4729066543
 30
0.0
 10
19.907498108
 20
14.4736059155
 30
0.0
 10
19.9076010004
 20
14.4746573607
 30
0.0
 10
19.9077268706
 20
14.4760131648
 30
0.0
 10
19.9078814927
 20
14.4776653479
 30
0.0
 10
19.9080622687
 20
14.4796155199
 30
0.0
 10
19.9083569689
 20
14.482807085
 30
0.0
 10
19.9087897344
 20
14.4875321681
 30
0.0
 10
19.9093840805
 20
14.4940767567
 30
0.0
 10
19.9100735266
 20
14.5017744074
 30
0.0
 10
19.9108494343
 20
14.5106039431
 30
0.0
 10
19.9117033092
 20
14.5205422753
 30
0.0
 10
19.9129928124
 20
14.5359408344
 30
0.0
 10
19.9147404754
 20
14.5577632025
 30
0.0
 10
19.9169189434
 20
14.5868874355
 30
0.0
 10
19.9191823453
 20
14.619718505
 30
0.0
 10
19.9214480404
 20
14.65594011
 30
0.0
 10
19.9236299141
 20
14.6952050239
 30
0.0
 10
19.9256365813
 20
14.7371362378
 30
0.0
 10
19.9280198927
 20
14.7972148027
 30
0.0
 10
19.9301432859
 20
14.8758006339
 30
0.0
 10
19.9307522743
 20
14.9396209638
 30
0.0
 10
19.9307522743
 20
14.9721428571
 30
0.0
  0
SPLINE
  5
2EB
100
AcDbEntity
  8
0
100
AcDbSpline
 62
7
  6
BYLAYER
 70
0
 71
3
 72
32
 73
28
 74
0
 42
0.0000001
 43
0.0000001
 44
0.0000000001
 40
0.0
 40
0.0
 40
0.0
 40
0.0
 40
0.1948476591
 40
0.3823572735
 40
0.4709775847
 40
0.5550737365
 40
0.6338626778
 40
0.7065844846
 40
0.7725086138
 40
0.8310266307
 40
0.8815609595
 40
0.9036700416
 40
0.9236072134
 40
0.941325043
 40
0.9567760396
 40
0.9699128393
 40
0.9806994361
 40
0.9852056875
 40
0.9891178413
 40
0.9924338477
 40
0.9951516567
 40
0.9972692187
 40
0.9987844845
 40
0.9993156169
 40
0.9996954091
 40
0.9999236099
 40
1.0
 40
1.0
 40
1.0
 40
1.0
 10
19.9307522743
 20
14.9721428571
 30
0.0
 10
19.9307522743
 20
15.0046647029
 30
0.0
 10
19.9301396808
 20
15.0684848581
 30
0.0
 10
19.9280237126
 20
15.1470706047
 30
0.0
 10
19.9256508934
 20
15.2071493653
 30
0.0
 10
19.9236502555
 20
15.2490806732
 30
0.0
 10
19.9214733232
 20
15.2883456548
 30
0.0
 10
19.9192133127
 20
15.3245673371
 30
0.0
 10
19.9169580548
 20
15.3573986261
 30
0.0
 10
19.9147865858
 20
15.3865231043
 30
0.0
 10
19.9130402815
 20
15.408345487
 30
0.0
 10
19.9117474647
 20
15.4237438644
 30
0.0
 10
19.9108898969
 20
15.4336821114
 30
0.0
 10
19.9101093704
 20
15.4425115568
 30
0.0
 10
19.9094148082
 20
15.4502091238
 30
0.0
 10
19.9088152919
 20
15.4567536499
 30
0.0
 10
19.9083782391
 20
15.4614786888
 30
0.0
 10
19.9080801822
 20
15.4646702231
 30
0.0
 10
19.9078971113
 20
15.4666203877
 30
0.0
 10
19.9077403104
 20
15.4682725721
 30
0.0
 10
19.9076122764
 20
15.4696283668
 30
0.0
 10
19.9075075464
 20
15.470679844
 30
0.0
 10
19.907446166
 20
15.4713790466
 30
0.0
 10
19.9073974622
 20
15.4717718975
 30
0.0
 10
19.9073919451
 20
15.4719776598
 30
0.0
 10
19.9073553382
 20
15.4720618413
 30
0.0
 10
19.9073748267
 20
15.4721428672
 30
0.0
 10
19.9073620765
 20
15.4721428571
 30
0.0
  0
SPLINE
  5
2EC
100
AcDbEntity
  8
0
100
AcDbSpline
 62
7
  6
BYLAYER
 70
0
 71
3
 72
19
 73
15
 74
0
 42
0.0000001
 43
0.0000001
 44
0.0000000001
 40
0.0
 40
0.0
 40
0.0
 40
0.0
 40
0.1948044455
 40
0.3823519607
 40
0.7064927133
 40
0.8307272128
 40
0.8813280492
 40
0.9235837716
 40
0.9569519609
 40
0.9809180512
 40
0.9893000954
 40
0.9952765479
 40
0.9988442392
 40
1.0
 40
1.0
 40
1.0
 40
1.0
 10
19.7801109706
 20
14.9721428571
 30
0.0
 10
19.7801109706
 20
15.0046481271
 30
0.0
 10
19.7795212292
 20
15.0684489036
 30
0.0
 10
19.7764219554
 20
15.1863003923
 30
0.0
 10
19.7711635609
 20
15.2922892733
 30
0.0
 10
19.7653207182
 20
15.3753622444
 30
0.0
 10
19.7625108076
 20
15.4114571296
 30
0.0
 10
19.7607979076
 20
15.4324935404
 30
0.0
 10
19.7593984348
 20
15.4489359117
 30
0.0
 10
19.7584283359
 20
15.4601017251
 30
0.0
 10
19.7578748674
 20
15.4661452665
 30
0.0
 10
19.7575745416
 20
15.4696578782
 30
0.0
 10
19.7574609879
 20
15.4705001713
 30
0.0
 10
19.7573349243
 20
15.4722381616
 30
0.0
 10
19.7573365517
 20
15.472045317
 30
0.0
  0
ELLIPSE
  5
2ED
100
AcDbEntity
  8
0
100
AcDbEllipse
 62
7
  6
BYLAYER
 10
27.4859678391
 20
52.2345034855
 30
0.0
 11
-8.3407641102
 21
8.3431800856
 31
0.0
 40
0.0432740808
 41
-1.3427671642
 42
-1.2800332655
  0
ELLIPSE
  5
2EE
100
AcDbEntity
  8
0
100
AcDbEllipse
 62
7
  6
BYLAYER
 10
27.4143377956
 20
52.2345034855
 30
0.0
 11
-8.2591520102
 21
8.280949456
 31
0.0
 40
0.130674701
 41
-1.4291328006
 42
-1.3663989019
  0
ELLIPSE
  5
2EF
100
AcDbEntity
  8
0
100
AcDbEllipse
 62
7
  6
BYLAYER
 10
27.2733799571
 20
52.2345034855
 30
0.0
 11
-8.0966397925
 21
8.1575994357
 31
0.0
 40
0.2206788892
 41
-1.5151572918
 42
-1.452423393
  0
ELLIPSE
  5
2F0
100
AcDbEntity
  8
0
100
AcDbEllipse
 62
7
  6
BYLAYER
 10
27.0676248246
 20
52.2345034855
 30
0.0
 11
-7.8542953156
 21
7.9756280364
 31
0.0
 40
0.315182696
 41
-1.6004920422
 42
-1.5377581435
  0
ELLIPSE
  5
2F1
100
AcDbEntity
  8
0
100
AcDbEllipse
 62
7
  6
BYLAYER
 10
26.8036855373
 20
52.2345034855
 30
0.0
 11
-7.5325417863
 21
7.7397378658
 31
0.0
 40
0.4163458233
 41
-1.6845137139
 42
-1.6217798152
  0
ELLIPSE
  5
2F2
100
AcDbEntity
  8
0
100
AcDbEllipse
 62
7
  6
BYLAYER
 10
26.4900453211
 20
52.2345034855
 30
0.0
 11
-7.1283606482
 21
7.4592354443
 31
0.0
 40
0.5267450305
 41
-1.7658803759
 42
-1.7031464771
  0
ELLIPSE
  5
2F3
100
AcDbEntity
  8
0
100
AcDbEllipse
 62
7
  6
BYLAYER
 10
26.1367848305
 20
52.2345034855
 30
0.0
 11
-6.625298548
 21
7.1566971123
 31
0.0
 40
0.6495644904
 41
-1.8409316985
 42
-1.7781977998
  0
ELLIPSE
  5
2F4
100
AcDbEntity
  8
0
100
AcDbEllipse
 62
7
  6
BYLAYER
 10
25.7552581485
 20
52.2345034855
 30
0.0
 11
-5.9359147837
 21
6.9154930489
 31
0.0
 40
0.7886457323
 41
-1.8946098351
 42
-1.8318759364
  0
ELLIPSE
  5
2F5
100
AcDbEntity
  8
0
100
AcDbEllipse
 62
7
  6
BYLAYER
 10
25.3577278564
 20
52.2345034855
 30
0.0
 11
-3.6597916775
 21
7.6059430096
 31
0.0
 40
0.9421244918
 41
-1.7251497929
 42
-1.6624158942
  0
ELLIPSE
  5
2F6
100
AcDbEntity
  8
0
100
AcDbEllipse
 62
7
  6
BYLAYER
 10
23.0287052522
 20
52.2345034855
 30
0.0
 11
8.3407641102
 21
8.3431800856
 31
0.0
 40
0.0432740808
 41
1.2800332655
 42
1.3427671642
  0
ELLIPSE
  5
2F7
100
AcDbEntity
  8
0
100
AcDbEllipse
 62
7
  6
BYLAYER
 10
23.1003352957
 20
52.2345034855
 30
0.0
 11
8.2591520102
 21
8.280949456
 31
0.0
 40
0.130674701
 41
1.3663989019
 42
1.4291328006
  0
ELLIPSE
  5
2F8
100
AcDbEntity
  8
0
100
AcDbEllipse
 62
7
  6
BYLAYER
 10
23.2412931342
 20
52.2345034855
 30
0.0
 11
8.0966397925
 21
8.1575994357
 31
0.0
 40
0.2206788892
 41
1.452423393
 42
1.5151572918
  0
ELLIPSE
  5
2F9
100
AcDbEntity
  8
0
100
AcDbEllipse
 62
7
  6
BYLAYER
 10
23.4470482667
 20
52.2345034855
 30
0.0
 11
7.8542953156
 21
7.9756280364
 31
0.0
 40
0.315182696
 41
1.5377581435
 42
1.6004920422
  0
ELLIPSE
  5
2FA
100
AcDbEntity
  8
0
100
AcDbEllipse
 62
7
  6
BYLAYER
 10
23.710987554
 20
52.2345034855
 30
0.0
 11
7.5325417863
 21
7.7397378658
 31
0.0
 40
0.4163458233
 41
-4.661405492
 42
-4.5986715933
  0
ELLIPSE
  5
2FB
100
AcDbEntity
  8
0
100
AcDbEllipse
 62
7
  6
BYLAYER
 10
24.0246277702
 20
52.2345034855
 30
0.0
 11
7.1283606482
 21
7.4592354443
 31
0.0
 40
0.5267450305
 41
-4.58003883
 42
-4.5173049313
  0
ELLIPSE
  5
2FC
100
AcDbEntity
  8
0
100
AcDbEllipse
 62
7
  6
BYLAYER
 10
24.3778882608
 20
52.2345034855
 30
0.0
 11
6.625298548
 21
7.1566971123
 31
0.0
 40
0.6495644904
 41
-4.5049875074
 42
-4.4422536087
  0
ELLIPSE
  5
2FD
100
AcDbEntity
  8
0
100
AcDbEllipse
 62
7
  6
BYLAYER
 10
24.7594149428
 20
52.2345034855
 30
0.0
 11
5.9359147837
 21
6.9154930489
 31
0.0
 40
0.7886457323
 41
-4.4513093708
 42
-4.388575472
  0
ELLIPSE
  5
2FE
100
AcDbEntity
  8
0
100
AcDbEllipse
 62
7
  6
BYLAYER
 10
25.1569452349
 20
52.2345034855
 30
0.0
 11
3.6597916775
 21
7.6059430096
 31
0.0
 40
0.9421244918
 41
-4.620769413
 42
-4.5580355142
  0
ELLIPSE
  5
2FF
100
AcDbEntity
  8
0
100
AcDbEllipse
 62
7
  6
BYLAYER
 10
24.1969893695
 20
52.2345034855
 30
0.0
 11
6.8914584337
 21
7.3081770241
 31
0.0
 40
0.5863744367
 41
1.7418954058
 42
1.743704874
  0
ELLIPSE
  5
300
100
AcDbEntity
  8
0
100
AcDbEllipse
 62
7
  6
BYLAYER
 10
26.3176837218
 20
52.2345034855
 30
0.0
 11
-6.8914584337
 21
7.3081770241
 31
0.0
 40
0.5863744367
 41
-1.7437047822
 42
-1.7418954058
  0
ELLIPSE
  5
301
100
AcDbEntity
  8
0
100
AcDbEllipse
 62
7
  6
BYLAYER
 10
23.2412931342
 20
52.2345034855
 30
0.0
 11
8.0966397925
 21
8.1575994357
 31
0.0
 40
0.2206788892
 41
-1.0839078544
 42
-1.0211739557
  0
ELLIPSE
  5
302
100
AcDbEntity
  8
0
100
AcDbEllipse
 62
7
  6
BYLAYER
 10
23.1003352957
 20
52.2345034855
 30
0.0
 11
8.2591520102
 21
8.280949456
 31
0.0
 40
0.130674701
 41
-1.1699323455
 42
-1.1071984468
  0
ELLIPSE
  5
303
100
AcDbEntity
  8
0
100
AcDbEllipse
 62
7
  6
BYLAYER
 10
23.0287052522
 20
52.2345034855
 30
0.0
 11
8.3407641102
 21
8.3431800856
 31
0.0
 40
0.0432740808
 41
-1.256297982
 42
-1.1935640833
  0
ELLIPSE
  5
304
100
AcDbEntity
  8
0
100
AcDbEllipse
 62
7
  6
BYLAYER
 10
26.4900453211
 20
52.2345034855
 30
0.0
 11
-7.1283606482
 21
7.4592354443
 31
0.0
 40
0.5267450305
 41
0.7704508716
 42
0.8331847703
  0
ELLIPSE
  5
305
100
AcDbEntity
  8
0
100
AcDbEllipse
 62
7
  6
BYLAYER
 10
26.8036855373
 20
52.2345034855
 30
0.0
 11
-7.5325417863
 21
7.7397378658
 31
0.0
 40
0.4163458233
 41
0.8518175335
 42
0.9145514322
  0
ELLIPSE
  5
306
100
AcDbEntity
  8
0
100
AcDbEllipse
 62
7
  6
BYLAYER
 10
25.7552581485
 20
52.2345034855
 30
0.0
 11
-5.9359147837
 21
6.9154930489
 31
0.0
 40
0.7886457323
 41
0.6417214123
 42
0.704455311
  0
ELLIPSE
  5
307
100
AcDbEntity
  8
0
100
AcDbEllipse
 62
7
  6
BYLAYER
 10
27.0676248246
 20
52.2345034855
 30
0.0
 11
-7.8542953156
 21
7.9756280364
 31
0.0
 40
0.315182696
 41
0.9358392052
 42
0.9985731039
  0
ELLIPSE
  5
308
100
AcDbEntity
  8
0
100
AcDbEllipse
 62
7
  6
BYLAYER
 10
27.2733799571
 20
52.2345034855
 30
0.0
 11
-8.0966397925
 21
8.1575994357
 31
0.0
 40
0.2206788892
 41
1.0211739557
 42
1.0839078544
  0
ELLIPSE
  5
309
100
AcDbEntity
  8
0
100
AcDbEllipse
 62
7
  6
BYLAYER
 10
26.1367848305
 20
52.2345034855
 30
0.0
 11
-6.625298548
 21
7.1566971123
 31
0.0
 40
0.6495644904
 41
0.695399549
 42
0.7581334477
  0
ELLIPSE
  5
30A
100
AcDbEntity
  8
0
100
AcDbEllipse
 62
7
  6
BYLAYER
 10
27.4143377956
 20
52.2345034855
 30
0.0
 11
-8.2591520102
 21
8.280949456
 31
0.0
 40
0.130674701
 41
1.1071984468
 42
1.1699323455
  0
ELLIPSE
  5
30B
100
AcDbEntity
  8
0
100
AcDbEllipse
 62
7
  6
BYLAYER
 10
24.7594149428
 20
52.2345034855
 30
0.0
 11
5.9359147837
 21
6.9154930489
 31
0.0
 40
0.7886457323
 41
-0.704455311
 42
-0.6417214123
  0
ELLIPSE
  5
30C
100
AcDbEntity
  8
0
100
AcDbEllipse
 62
7
  6
BYLAYER
 10
24.3778882608
 20
52.2345034855
 30
0.0
 11
6.625298548
 21
7.1566971123
 31
0.0
 40
0.6495644904
 41
-0.7581334477
 42
-0.695399549
  0
ELLIPSE
  5
30D
100
AcDbEntity
  8
0
100
AcDbEllipse
 62
7
  6
BYLAYER
 10
24.0246277702
 20
52.2345034855
 30
0.0
 11
7.1283606482
 21
7.4592354443
 31
0.0
 40
0.5267450305
 41
-0.8331847703
 42
-0.7704508716
  0
ELLIPSE
  5
30E
100
AcDbEntity
  8
0
100
AcDbEllipse
 62
7
  6
BYLAYER
 10
27.4859678391
 20
52.2345034855
 30
0.0
 11
-8.3407641102
 21
8.3431800856
 31
0.0
 40
0.0432740808
 41
1.1935640833
 42
1.256297982
  0
ELLIPSE
  5
30F
100
AcDbEntity
  8
0
100
AcDbEllipse
 62
7
  6
BYLAYER
 10
23.710987554
 20
52.2345034855
 30
0.0
 11
7.5325417863
 21
7.7397378658
 31
0.0
 40
0.4163458233
 41
-0.9145514322
 42
-0.8518175335
  0
ELLIPSE
  5
310
100
AcDbEntity
  8
0
100
AcDbEllipse
 62
7
  6
BYLAYER
 10
23.4470482667
 20
52.2345034855
 30
0.0
 11
7.8542953156
 21
7.9756280364
 31
0.0
 40
0.315182696
 41
-0.9985731039
 42
-0.9358392052
  0
ELLIPSE
  5
311
100
AcDbEntity
  8
0
100
AcDbEllipse
 62
7
  6
BYLAYER
 10
24.1969893695
 20
60.3097822288
 30
0.0
 11
-6.8914584337
 21
7.3081770241
 31
0.0
 40
0.5863744367
 41
1.3978878714
 42
1.3996972478
  0
ELLIPSE
  5
312
100
AcDbEntity
  8
0
100
AcDbEllipse
 62
7
  6
BYLAYER
 10
26.3176837218
 20
60.3097822288
 30
0.0
 11
6.8914584337
 21
7.3081770241
 31
0.0
 40
0.5863744367
 41
4.8834880594
 42
4.8852975276
  0
ELLIPSE
  5
313
100
AcDbEntity
  8
0
100
AcDbEllipse
 62
7
  6
BYLAYER
 10
25.1569452349
 20
60.3097822288
 30
0.0
 11
-3.6597916775
 21
7.6059430096
 31
0.0
 40
0.9421244918
 41
1.4164428607
 42
1.4791767594
  0
ELLIPSE
  5
314
100
AcDbEntity
  8
0
100
AcDbEllipse
 62
7
  6
BYLAYER
 10
24.7594149428
 20
60.3097822288
 30
0.0
 11
-5.9359147837
 21
6.9154930489
 31
0.0
 40
0.7886457323
 41
1.2469828185
 42
1.3097167172
  0
ELLIPSE
  5
315
100
AcDbEntity
  8
0
100
AcDbEllipse
 62
7
  6
BYLAYER
 10
24.3778882608
 20
60.3097822288
 30
0.0
 11
-6.625298548
 21
7.1566971123
 31
0.0
 40
0.6495644904
 41
1.3006609551
 42
1.3633948538
  0
ELLIPSE
  5
316
100
AcDbEntity
  8
0
100
AcDbEllipse
 62
7
  6
BYLAYER
 10
24.0246277702
 20
60.3097822288
 30
0.0
 11
-7.1283606482
 21
7.4592354443
 31
0.0
 40
0.5267450305
 41
1.3757122777
 42
1.4384461764
  0
ELLIPSE
  5
317
100
AcDbEntity
  8
0
100
AcDbEllipse
 62
7
  6
BYLAYER
 10
23.710987554
 20
60.3097822288
 30
0.0
 11
-7.5325417863
 21
7.7397378658
 31
0.0
 40
0.4163458233
 41
1.4570789397
 42
1.5198128384
  0
ELLIPSE
  5
318
100
AcDbEntity
  8
0
100
AcDbEllipse
 62
7
  6
BYLAYER
 10
23.4470482667
 20
60.3097822288
 30
0.0
 11
-7.8542953156
 21
7.9756280364
 31
0.0
 40
0.315182696
 41
1.5411006114
 42
1.6038345101
  0
ELLIPSE
  5
319
100
AcDbEntity
  8
0
100
AcDbEllipse
 62
7
  6
BYLAYER
 10
23.2412931342
 20
60.3097822288
 30
0.0
 11
-8.0966397925
 21
8.1575994357
 31
0.0
 40
0.2206788892
 41
-4.6567499453
 42
-4.5940160466
  0
ELLIPSE
  5
31A
100
AcDbEntity
  8
0
100
AcDbEllipse
 62
7
  6
BYLAYER
 10
23.1003352957
 20
60.3097822288
 30
0.0
 11
-8.2591520102
 21
8.280949456
 31
0.0
 40
0.130674701
 41
-4.5707254542
 42
-4.5079915555
  0
ELLIPSE
  5
31B
100
AcDbEntity
  8
0
100
AcDbEllipse
 62
7
  6
BYLAYER
 10
23.0287052522
 20
60.3097822288
 30
0.0
 11
-8.3407641102
 21
8.3431800856
 31
0.0
 40
0.0432740808
 41
-4.4843598178
 42
-4.421625919
  0
ELLIPSE
  5
31C
100
AcDbEntity
  8
0
100
AcDbEllipse
 62
7
  6
BYLAYER
 10
25.3577278564
 20
60.3097822288
 30
0.0
 11
3.6597916775
 21
7.6059430096
 31
0.0
 40
0.9421244918
 41
-1.4791767594
 42
-1.4164428607
  0
ELLIPSE
  5
31D
100
AcDbEntity
  8
0
100
AcDbEllipse
 62
7
  6
BYLAYER
 10
25.7552581485
 20
60.3097822288
 30
0.0
 11
5.9359147837
 21
6.9154930489
 31
0.0
 40
0.7886457323
 41
-1.3097167172
 42
-1.2469828185
  0
ELLIPSE
  5
31E
100
AcDbEntity
  8
0
100
AcDbEllipse
 62
7
  6
BYLAYER
 10
26.1367848305
 20
60.3097822288
 30
0.0
 11
6.625298548
 21
7.1566971123
 31
0.0
 40
0.6495644904
 41
-1.3633948538
 42
-1.3006609551
  0
ELLIPSE
  5
31F
100
AcDbEntity
  8
0
100
AcDbEllipse
 62
7
  6
BYLAYER
 10
26.4900453211
 20
60.3097822288
 30
0.0
 11
7.1283606482
 21
7.4592354443
 31
0.0
 40
0.5267450305
 41
-1.4384461764
 42
-1.3757122777
  0
ELLIPSE
  5
320
100
AcDbEntity
  8
0
100
AcDbEllipse
 62
7
  6
BYLAYER
 10
26.8036855373
 20
60.3097822288
 30
0.0
 11
7.5325417863
 21
7.7397378658
 31
0.0
 40
0.4163458233
 41
-1.5198128384
 42
-1.4570789397
  0
ELLIPSE
  5
321
100
AcDbEntity
  8
0
100
AcDbEllipse
 62
7
  6
BYLAYER
 10
27.0676248246
 20
60.3097822288
 30
0.0
 11
7.8542953156
 21
7.9756280364
 31
0.0
 40
0.315182696
 41
-1.6038345101
 42
-1.5411006114
  0
ELLIPSE
  5
322
100
AcDbEntity
  8
0
100
AcDbEllipse
 62
7
  6
BYLAYER
 10
27.2733799571
 20
60.3097822288
 30
0.0
 11
8.0966397925
 21
8.1575994357
 31
0.0
 40
0.2206788892
 41
-1.6891692605
 42
-1.6264353618
  0
ELLIPSE
  5
323
100
AcDbEntity
  8
0
100
AcDbEllipse
 62
7
  6
BYLAYER
 10
27.4143377956
 20
60.3097822288
 30
0.0
 11
8.2591520102
 21
8.280949456
 31
0.0
 40
0.130674701
 41
-1.7751937517
 42
-1.712459853
  0
ELLIPSE
  5
324
100
AcDbEntity
  8
0
100
AcDbEllipse
 62
7
  6
BYLAYER
 10
27.4859678391
 20
60.3097822288
 30
0.0
 11
8.3407641102
 21
8.3431800856
 31
0.0
 40
0.0432740808
 41
-1.8615593881
 42
-1.7988254894
  0
ELLIPSE
  5
325
100
AcDbEntity
  8
0
100
AcDbEllipse
 62
7
  6
BYLAYER
 10
23.0287052522
 20
60.3097822288
 30
0.0
 11
-8.3407641102
 21
8.3431800856
 31
0.0
 40
0.0432740808
 41
-1.9480285703
 42
-1.8852946716
  0
ELLIPSE
  5
326
100
AcDbEntity
  8
0
100
AcDbEllipse
 62
7
  6
BYLAYER
 10
23.1003352957
 20
60.3097822288
 30
0.0
 11
-8.2591520102
 21
8.280949456
 31
0.0
 40
0.130674701
 41
-2.0343942068
 42
-1.9716603081
  0
ELLIPSE
  5
327
100
AcDbEntity
  8
0
100
AcDbEllipse
 62
7
  6
BYLAYER
 10
23.2412931342
 20
60.3097822288
 30
0.0
 11
-8.0966397925
 21
8.1575994357
 31
0.0
 40
0.2206788892
 41
-2.1204186979
 42
-2.0576847992
  0
ELLIPSE
  5
328
100
AcDbEntity
  8
0
100
AcDbEllipse
 62
7
  6
BYLAYER
 10
23.4470482667
 20
60.3097822288
 30
0.0
 11
-7.8542953156
 21
7.9756280364
 31
0.0
 40
0.315182696
 41
-2.2057534484
 42
-2.1430195497
  0
ELLIPSE
  5
329
100
AcDbEntity
  8
0
100
AcDbEllipse
 62
7
  6
BYLAYER
 10
23.710987554
 20
60.3097822288
 30
0.0
 11
-7.5325417863
 21
7.7397378658
 31
0.0
 40
0.4163458233
 41
-2.2897751201
 42
-2.2270412214
  0
ELLIPSE
  5
32A
100
AcDbEntity
  8
0
100
AcDbEllipse
 62
7
  6
BYLAYER
 10
24.0246277702
 20
60.3097822288
 30
0.0
 11
-7.1283606482
 21
7.4592354443
 31
0.0
 40
0.5267450305
 41
-2.371141782
 42
-2.3084078833
  0
ELLIPSE
  5
32B
100
AcDbEntity
  8
0
100
AcDbEllipse
 62
7
  6
BYLAYER
 10
24.3778882608
 20
60.3097822288
 30
0.0
 11
-6.625298548
 21
7.1566971123
 31
0.0
 40
0.6495644904
 41
-2.4461931046
 42
-2.3834592059
  0
ELLIPSE
  5
32C
100
AcDbEntity
  8
0
100
AcDbEllipse
 62
7
  6
BYLAYER
 10
24.7594149428
 20
60.3097822288
 30
0.0
 11
-5.9359147837
 21
6.9154930489
 31
0.0
 40
0.7886457323
 41
-2.4998712413
 42
-2.4371373426
  0
ELLIPSE
  5
32D
100
AcDbEntity
  8
0
100
AcDbEllipse
 62
7
  6
BYLAYER
 10
27.4859678391
 20
60.3097822288
 30
0.0
 11
8.3407641102
 21
8.3431800856
 31
0.0
 40
0.0432740808
 41
-4.3978906356
 42
-4.3351567369
  0
ELLIPSE
  5
32E
100
AcDbEntity
  8
0
100
AcDbEllipse
 62
7
  6
BYLAYER
 10
27.4143377956
 20
60.3097822288
 30
0.0
 11
8.2591520102
 21
8.280949456
 31
0.0
 40
0.130674701
 41
-4.3115249991
 42
-4.2487911004
  0
ELLIPSE
  5
32F
100
AcDbEntity
  8
0
100
AcDbEllipse
 62
7
  6
BYLAYER
 10
27.2733799571
 20
60.3097822288
 30
0.0
 11
8.0966397925
 21
8.1575994357
 31
0.0
 40
0.2206788892
 41
-4.225500508
 42
-4.1627666093
  0
ELLIPSE
  5
330
100
AcDbEntity
  8
0
100
AcDbEllipse
 62
7
  6
BYLAYER
 10
27.0676248246
 20
60.3097822288
 30
0.0
 11
7.8542953156
 21
7.9756280364
 31
0.0
 40
0.315182696
 41
-4.1401657575
 42
-4.0774318588
  0
ELLIPSE
  5
331
100
AcDbEntity
  8
0
100
AcDbEllipse
 62
7
  6
BYLAYER
 10
26.8036855373
 20
60.3097822288
 30
0.0
 11
7.5325417863
 21
7.7397378658
 31
0.0
 40
0.4163458233
 41
-4.0561440858
 42
-3.9934101871
  0
ELLIPSE
  5
332
100
AcDbEntity
  8
0
100
AcDbEllipse
 62
7
  6
BYLAYER
 10
26.4900453211
 20
60.3097822288
 30
0.0
 11
7.1283606482
 21
7.4592354443
 31
0.0
 40
0.5267450305
 41
-3.9747774239
 42
-3.9120435252
  0
ELLIPSE
  5
333
100
AcDbEntity
  8
0
100
AcDbEllipse
 62
7
  6
BYLAYER
 10
26.1367848305
 20
60.3097822288
 30
0.0
 11
6.625298548
 21
7.1566971123
 31
0.0
 40
0.6495644904
 41
-3.8997261013
 42
-3.8369922025
  0
ELLIPSE
  5
334
100
AcDbEntity
  8
0
100
AcDbEllipse
 62
7
  6
BYLAYER
 10
25.7552581485
 20
60.3097822288
 30
0.0
 11
5.9359147837
 21
6.9154930489
 31
0.0
 40
0.7886457323
 41
-3.8460479646
 42
-3.7833140659
  0
ENDSEC
  0
SECTION
  2
OBJECTS
  0
DICTIONARY
  5
C
100
AcDbDictionary
280
0
281
1
  3
ACAD_GROUP
350
D
  3
ACAD_MLINESTYLE
350
17
  3
ACAD_LAYOUT
350
1A
  3
ACAD_PLOTSETTINGS
350
19
  3
ACAD_PLOTSTYLENAME
350
E
  0
DICTIONARY
  5
D
102
{ACAD_REACTORS
330
C
102
}
100
AcDbDictionary
280
0
281
1
  0
ACDBDICTIONARYWDFLT
  5
E
102
{ACAD_REACTORS
330
C
102
}
100
AcDbDictionary
281
1
  3
Normal
350
F
100
AcDbDictionaryWithDefault
340
F
  0
DICTIONARY
  5
17
102
{ACAD_REACTORS
330
C
102
}
100
AcDbDictionary
280
0
281
1
  3
Standard
350
18
  0
DICTIONARY
  5
19
102
{ACAD_REACTORS
330
C
102
}
100
AcDbDictionary
281
1
  0
DICTIONARY
  5
1A
102
{ACAD_REACTORS
330
C
102
}
100
AcDbDictionary
281
1
  3
Model
350
335
  3
Layout1
350
336
  0
ACDBPLACEHOLDER
  5
F
102
{ACAD_REACTORS
330
E
102
}
  0
MLINESTYLE
  5
18
102
{ACAD_REACTORS
330
17
102
}
100
AcDbMlineStyle
  2
STANDARD
 70
0
  3

 62
256
 51
90.0
 52
90.0
 71
2
 49
0.5
 62
256
  6
BYLAYER
 49
-0.5
 62
256
  6
BYLAYER
  0
LAYOUT
  5
335
102
{ACAD_REACTORS
330
1A
102
}
100
AcDbPlotSettings
  1

  2
none_device
  4

  6

 40
0.0
 41
0.0
 42
0.0
 43
0.0
 44
210.0
 45
297.0
 46
0.0
 47
0.0
 48
0.0
 49
0.0
140
0.0
141
0.0
142
1.0
143
1.0
 70
1024
 72
1
 73
0
 74
0
  7

 75
0
147
1.0
148
0.0
149
0.0
100
AcDbLayout
  1
Model
 70
0
 71
0
 10
0.0
 20
0.0
 11
210.0
 21
297.0
 12
0.0
 22
0.0
 32
0.0
 14
0.0
 24
0.0
 34
0.0
 15
0.0
 25
0.0
 35
0.0
146
0.0
 13
0.0
 23
0.0
 33
0.0
 16
1.0
 26
0.0
 36
0.0
 17
0.0
 27
1.0
 37
0.0
 76
0
330
210
345
0
346
0
  0
LAYOUT
  5
336
102
{ACAD_REACTORS
330
1A
102
}
100
AcDbPlotSettings
  1

  2
none_device
  4

  6

 40
0.0
 41
0.0
 42
0.0
 43
0.0
 44
210.0
 45
297.0
 46
0.0
 47
0.0
 48
0.0
 49
0.0
140
0.0
141
0.0
142
1.0
143
1.0
 70
0
 72
1
 73
0
 74
0
  7

 75
0
147
1.0
148
0.0
149
0.0
100
AcDbLayout
  1
Layout1
 70
0
 71
1
 10
0.0
 20
0.0
 11
210.0
 21
297.0
 12
0.0
 22
0.0
 32
0.0
 14
0.0
 24
0.0
 34
0.0
 15
0.0
 25
0.0
 35
0.0
146
0.0
 13
0.0
 23
0.0
 33
0.0
 16
1.0
 26
0.0
 36
0.0
 17
0.0
 27
1.0
 37
0.0
 76
0
330
211
345
0
346
0
  0
ENDSEC
  0
EOF
