999
DXF file: C:\Users\sesa63760\Dev\_Creo\CAD\MCADID0003965_3D-CAD\drw0001_3.dxf
999
Pro/ENGINEER 2019471 by Parametric Technology Corporation
  0
SECTION
  2
HEADER
  9
$ACADVER
  1
AC1024
  9
$DWGCODEPAGE
  3
ANSI_1252
  9
$EXTMAX
 10
45.5063546856
 20
64.3589873411
 30
0.0
  9
$EXTMIN
 10
0.0
 20
0.0
 30
0.0
  9
$LIMMIN
 10
0.0
 20
0.0
  9
$LIMMAX
 10
45.5063546856
 20
64.3589873411
  9
$VIEWCTR
 10
22.7531773428
 20
32.1794936705
  9
$VIEWSIZE
 40
64.3589873411
  9
$CLAYER
  8
0
  9
$LTSCALE
 40
4.1952525082
  9
$CELTYPE
  6
BYLAYER
  9
$DIMSCALE
 40
1.0
  9
$DIMASZ
 40
0.5417423177
  9
$DIMEXO
 40
1.0
  9
$DIMDLI
 40
2.8985380965
  9
$DIMEXE
 40
1.0
  9
$DIMCEN
 40
0.686495865
  9
$DIMLFAC
 40
1.0
  9
$DIMBLK
  1
_FILLED
  9
$DIMALT
 70
0
  9
$DIMALTF
 40
0.0393700787
  9
$DIMTXT
 40
0.7584392448
  9
$DIMTOL
 70
1
  9
$DIMLIM
 70
0
  9
$DIMTFAC
 40
1.0
  9
$DIMTP
 40
0.01
  9
$DIMTM
 40
0.01
  9
$DIMGAP
 40
0.625
  9
$DIMDSEP
 70
46
  9
$AUNITS
 70
0
  9
$PDMODE
 70
3
  9
$PDSIZE
 40
0.3125
  9
$HANDSEED
  5
27D
  9
$TILEMODE
 70
1
  9
$MEASUREMENT
 70
1
  9
$INSUNITS
 70
4
  0
ENDSEC
  0
SECTION
  2
CLASSES
  0
CLASS
  1
ACDBDICTIONARYWDFLT
  2
AcDbDictionaryWithDefault
  3
AutoCAD 2000
 90
0
 91
1
280
0
281
0
  0
CLASS
  1
ACDBPLACEHOLDER
  2
AcDbPlaceHolder
  3
AutoCAD 2000
 90
0
 91
1
280
0
281
0
  0
CLASS
  1
LAYOUT
  2
AcDbLayout
  3
AutoCAD 2000
 90
0
 91
0
280
0
281
0
  0
ENDSEC
  0
SECTION
  2
TABLES
  0
TABLE
  2
VPORT
  5
8
100
AcDbSymbolTable
 70
2
  0
VPORT
  5
1F4
100
AcDbSymbolTableRecord
100
AcDbViewportTableRecord
  2
*ACTIVE
 70
0
 10
0.0
 20
0.0
 11
1.0
 21
1.0
 12
22.7531773428
 22
32.1794936705
 13
0.0
 23
0.0
 14
1.0
 24
1.0
 15
0.0
 25
0.0
 16
0.0
 26
0.0
 36
1.0
 17
0.0
 27
0.0
 37
0.0
 40
64.3589873411
 41
0.7070707071
 42
50.0
 43
0.0
 44
0.0
 50
0.0
 51
0.0
 71
0
 72
100
 73
1
 74
1
 75
0
 76
0
 77
0
 78
0
  0
ENDTAB
  0
TABLE
  2
LTYPE
  5
5
100
AcDbSymbolTable
 70
6
  0
LTYPE
  5
14
100
AcDbSymbolTableRecord
100
AcDbLinetypeTableRecord
  2
BYBLOCK
 70
0
  3

 72
65
 73
0
 40
0.0
  0
LTYPE
  5
15
100
AcDbSymbolTableRecord
100
AcDbLinetypeTableRecord
  2
BYLAYER
 70
0
  3

 72
65
 73
0
 40
0.0
  0
LTYPE
  5
16
100
AcDbSymbolTableRecord
100
AcDbLinetypeTableRecord
  2
CONTINUOUS
 70
64
  3
Solid line
 72
65
 73
0
 40
0.0
  0
LTYPE
  5
1F5
100
AcDbSymbolTableRecord
100
AcDbLinetypeTableRecord
  2
CENTER
 70
64
  3
____ _ ____ _ ____ _ ____ _ ____ _ ____ _ ____
 72
65
 73
4
 40
0.6
 49
0.375
 74
0
 49
-0.075
 74
0
 49
0.075
 74
0
 49
-0.075
 74
0
  0
LTYPE
  5
1F6
100
AcDbSymbolTableRecord
100
AcDbLinetypeTableRecord
  2
HIDDEN
 70
64
  3
- - - - - - - - - - - - - - - - - - - -
 72
65
 73
2
 40
0.2
 49
0.1
 74
0
 49
-0.1
 74
0
  0
LTYPE
  5
1F7
100
AcDbSymbolTableRecord
100
AcDbLinetypeTableRecord
  2
PHANTOM
 70
64
  3
_____ _ _ _____ _ _ _____ _ _ _____
 72
65
 73
6
 40
0.8
 49
0.45
 74
0
 49
-0.05
 74
0
 49
0.1
 74
0
 49
-0.05
 74
0
 49
0.1
 74
0
 49
-0.05
 74
0
  0
LTYPE
  5
1F8
100
AcDbSymbolTableRecord
100
AcDbLinetypeTableRecord
  2
DOT
 70
64
  3
. . . . . . . . . . . . . . . . . . . .
 72
65
 73
2
 40
0.2
 49
0.1
 74
0
 49
-0.1
 74
0
  0
LTYPE
  5
1F9
100
AcDbSymbolTableRecord
100
AcDbLinetypeTableRecord
  2
DASHED
 70
64
  3
- - - - - - - - - - - - - - - - - - - -
 72
65
 73
2
 40
0.2
 49
0.1
 74
0
 49
-0.1
 74
0
  0
ENDTAB
  0
TABLE
  2
LAYER
  5
2
100
AcDbSymbolTable
 70
36
  0
LAYER
  5
10
100
AcDbSymbolTableRecord
100
AcDbLayerTableRecord
  2
0
 70
0
 62
7
  6
CONTINUOUS
370
-3
390
F
  0
LAYER
  5
1FA
100
AcDbSymbolTableRecord
100
AcDbLayerTableRecord
  2
DEFAULT_1
 70
0
 62
7
  6
CENTER
370
-3
390
F
  0
LAYER
  5
1FB
100
AcDbSymbolTableRecord
100
AcDbLayerTableRecord
  2
DEFAULT_2
 70
0
 62
7
  6
HIDDEN
370
-3
390
F
  0
LAYER
  5
1FC
100
AcDbSymbolTableRecord
100
AcDbLayerTableRecord
  2
DEFAULT_3
 70
0
 62
7
  6
PHANTOM
370
-3
390
F
  0
LAYER
  5
1FD
100
AcDbSymbolTableRecord
100
AcDbLayerTableRecord
  2
00_COMPONENTS
 70
0
 62
7
  6
CONTINUOUS
370
-3
390
F
  0
LAYER
  5
1FE
100
AcDbSymbolTableRecord
100
AcDbLayerTableRecord
  2
01_1_DEFAULT_DATUMS
 70
0
 62
7
  6
CONTINUOUS
370
-3
390
F
  0
LAYER
  5
1FF
100
AcDbSymbolTableRecord
100
AcDbLayerTableRecord
  2
01_PLANES
 70
0
 62
7
  6
CONTINUOUS
370
-3
390
F
  0
LAYER
  5
200
100
AcDbSymbolTableRecord
100
AcDbLayerTableRecord
  2
02_COORD_SYS
 70
0
 62
7
  6
CONTINUOUS
370
-3
390
F
  0
LAYER
  5
201
100
AcDbSymbolTableRecord
100
AcDbLayerTableRecord
  2
03_AXES
 70
0
 62
7
  6
CONTINUOUS
370
-3
390
F
  0
LAYER
  5
202
100
AcDbSymbolTableRecord
100
AcDbLayerTableRecord
  2
04_POINTS
 70
0
 62
7
  6
CONTINUOUS
370
-3
390
F
  0
LAYER
  5
203
100
AcDbSymbolTableRecord
100
AcDbLayerTableRecord
  2
05_CURVES
 70
0
 62
7
  6
CONTINUOUS
370
-3
390
F
  0
LAYER
  5
204
100
AcDbSymbolTableRecord
100
AcDbLayerTableRecord
  2
06_SURFS
 70
0
 62
7
  6
CONTINUOUS
370
-3
390
F
  0
LAYER
  5
205
100
AcDbSymbolTableRecord
100
AcDbLayerTableRecord
  2
07_COSMETICS
 70
0
 62
7
  6
CONTINUOUS
370
-3
390
F
  0
LAYER
  5
206
100
AcDbSymbolTableRecord
100
AcDbLayerTableRecord
  2
10_NOTES
 70
0
 62
7
  6
CONTINUOUS
370
-3
390
F
  0
LAYER
  5
207
100
AcDbSymbolTableRecord
100
AcDbLayerTableRecord
  2
11_NOTES_PUB
 70
0
 62
7
  6
CONTINUOUS
370
-3
390
F
  0
LAYER
  5
208
100
AcDbSymbolTableRecord
100
AcDbLayerTableRecord
  2
13_REF_GTOL
 70
0
 62
7
  6
CONTINUOUS
370
-3
390
F
  0
LAYER
  5
209
100
AcDbSymbolTableRecord
100
AcDbLayerTableRecord
  2
16_MISC
 70
0
 62
7
  6
CONTINUOUS
370
-3
390
F
  0
LAYER
  5
20A
100
AcDbSymbolTableRecord
100
AcDbLayerTableRecord
  2
17_NO_PRINT
 70
0
 62
7
  6
CONTINUOUS
370
-3
390
F
  0
LAYER
  5
20B
100
AcDbSymbolTableRecord
100
AcDbLayerTableRecord
  2
18_DATUM_CAMS_JOINTS
 70
0
 62
7
  6
CONTINUOUS
370
-3
390
F
  0
LAYER
  5
20C
100
AcDbSymbolTableRecord
100
AcDbLayerTableRecord
  2
19_DATUM_FUNCTIONAL
 70
0
 62
7
  6
CONTINUOUS
370
-3
390
F
  0
LAYER
  5
20D
100
AcDbSymbolTableRecord
100
AcDbLayerTableRecord
  2
20_DATUM_KINEMATIC_SCHEME
 70
0
 62
7
  6
CONTINUOUS
370
-3
390
F
  0
ENDTAB
  0
TABLE
  2
STYLE
  5
3
100
AcDbSymbolTable
 70
1
  0
STYLE
  5
11
100
AcDbSymbolTableRecord
100
AcDbTextStyleTableRecord
  2
STANDARD
 70
0
 40
0.0
 41
1.0
 50
0.0
 71
0
 42
0.2
  3
ARIAL.TTF
  4

  0
STYLE
  5
20E
100
AcDbSymbolTableRecord
100
AcDbTextStyleTableRecord
  2
TEXTSTYLE_1
 70
0
 40
0.0
 41
0.8
 50
0.0
 71
0
 42
0.2
  3
gdt
  4

  0
ENDTAB
  0
TABLE
  2
VIEW
  5
6
100
AcDbSymbolTable
 70
0
  0
ENDTAB
  0
TABLE
  2
UCS
  5
7
100
AcDbSymbolTable
 70
0
  0
ENDTAB
  0
TABLE
  2
APPID
  5
9
100
AcDbSymbolTable
 70
1
  0
APPID
  5
20F
100
AcDbSymbolTableRecord
100
AcDbRegAppTableRecord
  2
ACAD
 70
0
  0
ENDTAB
  0
TABLE
  2
BLOCK_RECORD
  5
1
100
AcDbSymbolTable
 70
0
  0
BLOCK_RECORD
  5
210
100
AcDbSymbolTableRecord
100
AcDbBlockTableRecord
  2
*Model_Space
  0
BLOCK_RECORD
  5
211
100
AcDbSymbolTableRecord
100
AcDbBlockTableRecord
  2
*Paper_Space
  0
BLOCK_RECORD
  5
212
100
AcDbSymbolTableRecord
100
AcDbBlockTableRecord
  2
_FILLED
  0
ENDTAB
  0
TABLE
  2
DIMSTYLE
  5
A
100
AcDbSymbolTable
 70
1
100
AcDbDimStyleTable
 71
0
  0
DIMSTYLE
105
213
100
AcDbSymbolTableRecord
100
AcDbDimStyleTableRecord
  2
STANDARD
 70
0
  3

  4

 40
1.0
 41
0.5417423177
 42
1.0
 43
0.38
 44
1.0
 45
0.0
 46
0.0
 47
0.01
 48
0.01
140
0.7584392448
141
0.09
142
0.0
143
25.4
144
1.0
145
0.0
146
1.0
147
0.625
 71
1
 72
0
 73
0
 74
0
 75
0
 76
0
 77
1
 78
8
 79
2
170
0
171
1
172
0
173
0
174
0
175
0
176
0
177
0
178
0
270
2
179
2
271
2
272
2
273
2
274
2
275
0
280
0
281
0
282
0
283
1
284
8
285
0
286
0
287
3
288
0
340
11
278
46
341
212
342
212
343
212
344
212
  0
ENDTAB
  0
ENDSEC
  0
SECTION
  2
BLOCKS
  0
BLOCK
  5
20
100
AcDbEntity
  8
0
100
AcDbBlockBegin
  2
*Model_Space
 70
0
 10
0.0
 20
0.0
 30
0.0
  3
*Model_Space
  1

  0
ENDBLK
  5
21
100
AcDbEntity
  8
0
100
AcDbBlockEnd
  0
BLOCK
  5
1C
100
AcDbEntity
  8
0
100
AcDbBlockBegin
  2
*Paper_Space
 70
0
 10
0.0
 20
0.0
 30
0.0
  3
*Paper_Space
  1

  0
ENDBLK
  5
1D
100
AcDbEntity
  8
0
100
AcDbBlockEnd
  0
BLOCK
  5
214
100
AcDbEntity
  8
0
100
AcDbBlockBegin
  2
_FILLED
 70
64
 10
0.0
 20
0.0
  3
_FILLED
  1

  0
SOLID
  5
215
100
AcDbEntity
  8
0
  6
BYBLOCK
 62
0
100
AcDbTrace
 10
0.0
 20
0.0
 11
-1.0
 21
0.25
 12
-1.0
 22
-0.25
 13
-1.0
 23
-0.25
  0
ENDBLK
  5
216
100
AcDbEntity
  8
0
  6
BYBLOCK
 62
0
100
AcDbBlockEnd
  0
ENDSEC
  0
SECTION
  2
ENTITIES
  0
LINE
  5
217
100
AcDbEntity
  8
0
100
AcDbLine
 62
7
  6
BYLAYER
 10
8.5833762763
 20
7.5870432112
 11
8.3833762763
 21
7.7870432112
  0
LINE
  5
218
100
AcDbEntity
  8
0
100
AcDbLine
 62
7
  6
BYLAYER
 10
37.4333646775
 20
7.1870432112
 11
9.3333762763
 21
7.1870432112
  0
LINE
  5
219
100
AcDbEntity
  8
0
100
AcDbLine
 62
7
  6
BYLAYER
 10
37.6333762763
 20
7.3870432112
 11
24.3833762763
 21
7.3870432112
  0
LINE
  5
21A
100
AcDbEntity
  8
0
100
AcDbLine
 62
7
  6
BYLAYER
 10
22.3833762763
 20
7.3870432112
 11
9.1333762763
 21
7.3870432112
  0
LINE
  5
21B
100
AcDbEntity
  8
0
100
AcDbLine
 62
7
  6
BYLAYER
 10
38.1832577691
 20
7.5870432112
 11
8.5833762763
 21
7.5870432112
  0
LINE
  5
21C
100
AcDbEntity
  8
0
100
AcDbLine
 62
7
  6
BYLAYER
 10
38.3833762763
 20
7.7870432112
 11
8.3833762763
 21
7.7870432112
  0
LINE
  5
21D
100
AcDbEntity
  8
0
100
AcDbLine
 62
7
  6
BYLAYER
 10
18.0333762763
 20
55.5370432112
 11
17.3833762763
 21
54.8870432112
  0
LINE
  5
21E
100
AcDbEntity
  8
0
100
AcDbLine
 62
7
  6
BYLAYER
 10
41.3833762763
 20
12.1870432112
 11
5.3833762763
 21
12.1870432112
  0
LINE
  5
21F
100
AcDbEntity
  8
0
100
AcDbLine
 62
7
  6
BYLAYER
 10
5.3833762763
 20
17.1870432112
 11
5.3833762763
 21
12.1870432112
  0
LINE
  5
220
100
AcDbEntity
  8
0
100
AcDbLine
 62
7
  6
BYLAYER
 10
5.3833762763
 20
21.1870432112
 11
5.3833762763
 21
26.1870432112
  0
LINE
  5
221
100
AcDbEntity
  8
0
100
AcDbLine
 62
7
  6
BYLAYER
 10
5.9895940589
 20
16.53228263
 11
5.9895940589
 21
12.8418037923
  0
LINE
  5
222
100
AcDbEntity
  8
0
100
AcDbLine
 62
7
  6
BYLAYER
 10
5.9895940589
 20
21.8418037631
 11
5.9895940589
 21
25.5322826592
  0
LINE
  5
223
100
AcDbEntity
  8
0
100
AcDbLine
 62
7
  6
BYLAYER
 10
8.3833762763
 20
7.7870432112
 11
8.3833762763
 21
12.1870432112
  0
LINE
  5
224
100
AcDbEntity
  8
0
100
AcDbLine
 62
7
  6
BYLAYER
 10
8.3833762763
 20
17.1870432112
 11
8.3833762763
 21
21.1870432112
  0
LINE
  5
225
100
AcDbEntity
  8
0
100
AcDbLine
 62
7
  6
BYLAYER
 10
8.3833762763
 20
26.1870432112
 11
8.3833762763
 21
39.2370432112
  0
LINE
  5
226
100
AcDbEntity
  8
0
100
AcDbLine
 62
7
  6
BYLAYER
 10
9.1333762763
 20
7.3870432112
 11
9.1333762763
 21
7.5870432112
  0
LINE
  5
227
100
AcDbEntity
  8
0
100
AcDbLine
 62
7
  6
BYLAYER
 10
9.1333762763
 20
39.9870432112
 11
9.1333762763
 21
45.7870432112
  0
LINE
  5
228
100
AcDbEntity
  8
0
100
AcDbLine
 62
7
  6
BYLAYER
 10
9.1333762763
 20
39.9870432112
 11
8.3833762763
 21
39.2370432112
  0
LINE
  5
229
100
AcDbEntity
  8
0
100
AcDbLine
 62
7
  6
BYLAYER
 10
5.3833762763
 20
17.1870432112
 11
41.3833762763
 21
17.1870432112
  0
LINE
  5
22A
100
AcDbEntity
  8
0
100
AcDbLine
 62
7
  6
BYLAYER
 10
41.3833762763
 20
21.1870432112
 11
5.3833762763
 21
21.1870432112
  0
LINE
  5
22B
100
AcDbEntity
  8
0
100
AcDbLine
 62
7
  6
BYLAYER
 10
18.2334597268
 20
57.3217728467
 11
18.0333762763
 21
56.1870432112
  0
LINE
  5
22C
100
AcDbEntity
  8
0
100
AcDbLine
 62
7
  6
BYLAYER
 10
17.3833762763
 20
49.3870432112
 11
17.3833762763
 21
54.8870432112
  0
LINE
  5
22D
100
AcDbEntity
  8
0
100
AcDbLine
 62
7
  6
BYLAYER
 10
28.7333762763
 20
48.7370432112
 11
29.3833762763
 21
49.3870432112
  0
LINE
  5
22E
100
AcDbEntity
  8
0
100
AcDbLine
 62
7
  6
BYLAYER
 10
5.3833762763
 20
26.1870432112
 11
41.3833762763
 21
26.1870432112
  0
LINE
  5
22F
100
AcDbEntity
  8
0
100
AcDbLine
 62
7
  6
BYLAYER
 10
18.0333762763
 20
45.9870432112
 11
18.0333762763
 21
48.7370432112
  0
LINE
  5
230
100
AcDbEntity
  8
0
100
AcDbLine
 62
7
  6
BYLAYER
 10
18.0333762763
 20
55.5370432112
 11
18.0333762763
 21
56.1870432112
  0
LINE
  5
231
100
AcDbEntity
  8
0
100
AcDbLine
 62
7
  6
BYLAYER
 10
19.0155965199
 20
33.9870432112
 11
19.0155965199
 21
39.2370432112
  0
LINE
  5
232
100
AcDbEntity
  8
0
100
AcDbLine
 62
7
  6
BYLAYER
 10
22.3833762763
 20
7.311459379
 11
22.3833762763
 21
7.5870432112
  0
LINE
  5
233
100
AcDbEntity
  8
0
100
AcDbLine
 62
7
  6
BYLAYER
 10
22.7771584936
 20
16.532282628
 11
22.7771584936
 21
12.8418037943
  0
LINE
  5
234
100
AcDbEntity
  8
0
100
AcDbLine
 62
7
  6
BYLAYER
 10
22.7771584936
 20
21.841803802
 11
22.7771584936
 21
25.5322826203
  0
LINE
  5
235
100
AcDbEntity
  8
0
100
AcDbLine
 62
7
  6
BYLAYER
 10
23.8163889782
 20
16.5066734211
 11
23.8163889782
 21
12.8674130012
  0
LINE
  5
236
100
AcDbEntity
  8
0
100
AcDbLine
 62
7
  6
BYLAYER
 10
23.8163889782
 20
21.8674129838
 11
23.8163889782
 21
25.5066734385
  0
LINE
  5
237
100
AcDbEntity
  8
0
100
AcDbLine
 62
7
  6
BYLAYER
 10
24.3833762763
 20
7.311459379
 11
24.3833762763
 21
7.5870432112
  0
LINE
  5
238
100
AcDbEntity
  8
0
100
AcDbLine
 62
7
  6
BYLAYER
 10
19.0155965199
 20
33.9870432112
 11
27.7511560326
 21
33.9870432112
  0
LINE
  5
239
100
AcDbEntity
  8
0
100
AcDbLine
 62
7
  6
BYLAYER
 10
27.7511560326
 20
39.2370432112
 11
27.7511560326
 21
33.9870432112
  0
LINE
  5
23A
100
AcDbEntity
  8
0
100
AcDbLine
 62
7
  6
BYLAYER
 10
28.7333762763
 20
45.9870432112
 11
28.7333762763
 21
48.7370432112
  0
LINE
  5
23B
100
AcDbEntity
  8
0
100
AcDbLine
 62
7
  6
BYLAYER
 10
28.7333762763
 20
55.5370432112
 11
28.7333762763
 21
56.1870432112
  0
LINE
  5
23C
100
AcDbEntity
  8
0
100
AcDbLine
 62
7
  6
BYLAYER
 10
29.3833762763
 20
49.3870432112
 11
29.3833762763
 21
54.8870432112
  0
LINE
  5
23D
100
AcDbEntity
  8
0
100
AcDbLine
 62
7
  6
BYLAYER
 10
8.3833762763
 20
39.2370432112
 11
19.0155965199
 21
39.2370432112
  0
LINE
  5
23E
100
AcDbEntity
  8
0
100
AcDbLine
 62
7
  6
BYLAYER
 10
27.7511560326
 20
39.2370432112
 11
38.3833762763
 21
39.2370432112
  0
LINE
  5
23F
100
AcDbEntity
  8
0
100
AcDbLine
 62
7
  6
BYLAYER
 10
37.6333762763
 20
39.9870432112
 11
9.1333762763
 21
39.9870432112
  0
LINE
  5
240
100
AcDbEntity
  8
0
100
AcDbLine
 62
7
  6
BYLAYER
 10
18.0333762763
 20
48.7370432112
 11
17.3833762763
 21
49.3870432112
  0
LINE
  5
241
100
AcDbEntity
  8
0
100
AcDbLine
 62
7
  6
BYLAYER
 10
28.5332928257
 20
57.3217728467
 11
28.7333762763
 21
56.1870432112
  0
LINE
  5
242
100
AcDbEntity
  8
0
100
AcDbLine
 62
7
  6
BYLAYER
 10
37.6333762763
 20
7.3870432112
 11
37.6333762763
 21
7.5870432112
  0
LINE
  5
243
100
AcDbEntity
  8
0
100
AcDbLine
 62
7
  6
BYLAYER
 10
37.6333762763
 20
39.9870432112
 11
37.6333762763
 21
45.7870432112
  0
LINE
  5
244
100
AcDbEntity
  8
0
100
AcDbLine
 62
7
  6
BYLAYER
 10
9.1333762763
 20
45.7870432112
 11
37.6333762763
 21
45.7870432112
  0
LINE
  5
245
100
AcDbEntity
  8
0
100
AcDbLine
 62
7
  6
BYLAYER
 10
9.3334252935
 20
45.9870432112
 11
37.4333272591
 21
45.9870432112
  0
LINE
  5
246
100
AcDbEntity
  8
0
100
AcDbLine
 62
7
  6
BYLAYER
 10
38.3833762763
 20
7.7870432112
 11
38.3833762763
 21
12.1870432112
  0
LINE
  5
247
100
AcDbEntity
  8
0
100
AcDbLine
 62
7
  6
BYLAYER
 10
38.3833762763
 20
17.1870432112
 11
38.3833762763
 21
21.1870432112
  0
LINE
  5
248
100
AcDbEntity
  8
0
100
AcDbLine
 62
7
  6
BYLAYER
 10
38.3833762763
 20
26.1870432112
 11
38.3833762763
 21
39.2370432112
  0
LINE
  5
249
100
AcDbEntity
  8
0
100
AcDbLine
 62
7
  6
BYLAYER
 10
18.0333762763
 20
48.7370432112
 11
28.7333762763
 21
48.7370432112
  0
LINE
  5
24A
100
AcDbEntity
  8
0
100
AcDbLine
 62
7
  6
BYLAYER
 10
37.6333762763
 20
39.9870432112
 11
38.3833762763
 21
39.2370432112
  0
LINE
  5
24B
100
AcDbEntity
  8
0
100
AcDbLine
 62
7
  6
BYLAYER
 10
40.9503635744
 20
16.5066734223
 11
40.9503635744
 21
12.867413
  0
LINE
  5
24C
100
AcDbEntity
  8
0
100
AcDbLine
 62
7
  6
BYLAYER
 10
40.9503635744
 20
21.8674130049
 11
40.9503635744
 21
25.5066734174
  0
LINE
  5
24D
100
AcDbEntity
  8
0
100
AcDbLine
 62
7
  6
BYLAYER
 10
41.3833762763
 20
12.1870432112
 11
41.3833762763
 21
17.1870432112
  0
LINE
  5
24E
100
AcDbEntity
  8
0
100
AcDbLine
 62
7
  6
BYLAYER
 10
41.3833762763
 20
21.1870432112
 11
41.3833762763
 21
26.1870432112
  0
LINE
  5
24F
100
AcDbEntity
  8
0
100
AcDbLine
 62
7
  6
BYLAYER
 10
29.3833762763
 20
49.3870432112
 11
17.3833762763
 21
49.3870432112
  0
LINE
  5
250
100
AcDbEntity
  8
0
100
AcDbLine
 62
7
  6
BYLAYER
 10
28.7333762763
 20
55.5370432112
 11
29.3833762763
 21
54.8870432112
  0
LINE
  5
251
100
AcDbEntity
  8
0
100
AcDbLine
 62
7
  6
BYLAYER
 10
17.3833762763
 20
54.8870432112
 11
29.3833762763
 21
54.8870432112
  0
LINE
  5
252
100
AcDbEntity
  8
0
100
AcDbLine
 62
7
  6
BYLAYER
 10
28.7333762763
 20
55.5370432112
 11
18.0333762763
 21
55.5370432112
  0
LINE
  5
253
100
AcDbEntity
  8
0
100
AcDbLine
 62
7
  6
BYLAYER
 10
18.0333762763
 20
56.1870432112
 11
28.7333762763
 21
56.1870432112
  0
LINE
  5
254
100
AcDbEntity
  8
0
100
AcDbLine
 62
7
  6
BYLAYER
 10
18.2334597268
 20
57.3217728467
 11
28.5332928257
 21
57.3217728467
  0
LINE
  5
255
100
AcDbEntity
  8
0
100
AcDbLine
 62
7
  6
BYLAYER
 10
18.4304456971
 20
57.4870432112
 11
28.3363138052
 21
57.4870432112
  0
LINE
  5
256
100
AcDbEntity
  8
0
100
AcDbLine
 62
7
  6
BYLAYER
 10
38.1833762763
 20
7.5870432112
 11
38.3833762763
 21
7.7870432112
  0
ARC
  5
257
100
AcDbEntity
  8
0
100
AcDbCircle
 62
7
  6
BYLAYER
 10
21.4126003586
 20
98.3150684492
 40
76.4854379989
100
AcDbArc
 50
271.0222543298
 51
271.8009915233
  0
ARC
  5
258
100
AcDbEntity
  8
0
100
AcDbCircle
 62
7
  6
BYLAYER
 10
21.4126003572
 20
-59.940982027
 40
76.485437999
100
AcDbArc
 50
88.1990084755
 51
88.9777456691
  0
ARC
  5
259
100
AcDbEntity
  8
0
100
AcDbCircle
 62
7
  6
BYLAYER
 10
21.4126003572
 20
89.3150684492
 40
76.4854379989
100
AcDbArc
 50
271.0222543309
 51
271.8009915245
  0
ARC
  5
25A
100
AcDbEntity
  8
0
100
AcDbCircle
 62
7
  6
BYLAYER
 10
21.4126003586
 20
-50.9409820268
 40
76.4854379988
100
AcDbArc
 50
88.1990084767
 51
88.9777456702
  0
ARC
  5
25B
100
AcDbEntity
  8
0
100
AcDbCircle
 62
7
  6
BYLAYER
 10
6.7869032992
 20
-9.5294616657
 40
26.0739375485
100
AcDbArc
 50
91.7523082837
 51
93.0856505723
  0
ARC
  5
25C
100
AcDbEntity
  8
0
100
AcDbCircle
 62
7
  6
BYLAYER
 10
6.7869032992
 20
38.9035480881
 40
26.0739375485
100
AcDbArc
 50
266.9143494277
 51
268.2476917163
  0
ARC
  5
25D
100
AcDbEntity
  8
0
100
AcDbCircle
 62
7
  6
BYLAYER
 10
6.7869032967
 20
-0.5294616657
 40
26.0739375484
100
AcDbArc
 50
91.752308278
 51
93.0856505666
  0
ARC
  5
25E
100
AcDbEntity
  8
0
100
AcDbCircle
 62
7
  6
BYLAYER
 10
6.7869032967
 20
47.903548088
 40
26.0739375484
100
AcDbArc
 50
266.9143494334
 51
268.247691722
  0
ARC
  5
25F
100
AcDbEntity
  8
0
100
AcDbCircle
 62
7
  6
BYLAYER
 10
41.9553312966
 20
3.1878125779
 40
13.3567216905
100
AcDbArc
 50
92.4542423594
 51
94.3150465937
  0
ARC
  5
260
100
AcDbEntity
  8
0
100
AcDbCircle
 62
7
  6
BYLAYER
 10
41.9547295837
 20
35.1760998324
 40
13.3465312454
100
AcDbArc
 50
265.6842429626
 51
267.5464680974
  0
ARC
  5
261
100
AcDbEntity
  8
0
100
AcDbCircle
 62
7
  6
BYLAYER
 10
41.9535773086
 20
12.2174697829
 40
13.3270165891
100
AcDbArc
 50
92.4521683608
 51
94.3171205792
  0
ARC
  5
262
100
AcDbEntity
  8
0
100
AcDbCircle
 62
7
  6
BYLAYER
 10
41.9528295534
 20
26.1439732261
 40
13.3143527622
100
AcDbArc
 50
265.6819924195
 51
267.5487186273
  0
ARC
  5
263
100
AcDbEntity
  8
0
100
AcDbCircle
 62
7
  6
BYLAYER
 10
18.4304212775
 20
57.2870432112
 40
0.2
100
AcDbArc
 50
90.0
 51
170.0
  0
ARC
  5
264
100
AcDbEntity
  8
0
100
AcDbCircle
 62
7
  6
BYLAYER
 10
28.3363312751
 20
57.2870432112
 40
0.2
100
AcDbArc
 50
10.0
 51
90.0
  0
ARC
  5
265
100
AcDbEntity
  8
0
100
AcDbCircle
 62
7
  6
BYLAYER
 10
37.4333762763
 20
7.3870432112
 40
0.2
100
AcDbArc
 50
270.0
 51
360.0
  0
ARC
  5
266
100
AcDbEntity
  8
0
100
AcDbCircle
 62
7
  6
BYLAYER
 10
9.3333762763
 20
7.3870432112
 40
0.2
100
AcDbArc
 50
180.0
 51
270.0
  0
ARC
  5
267
100
AcDbEntity
  8
0
100
AcDbCircle
 62
7
  6
BYLAYER
 10
9.3333762763
 20
45.7870432112
 40
0.2
100
AcDbArc
 50
90.0
 51
180.0
  0
ARC
  5
268
100
AcDbEntity
  8
0
100
AcDbCircle
 62
7
  6
BYLAYER
 10
37.4333762763
 20
45.7870432112
 40
0.2
100
AcDbArc
 50
0.0
 51
90.0
  0
SPLINE
  5
269
100
AcDbEntity
  8
0
100
AcDbSpline
 62
7
  6
BYLAYER
 70
0
 71
3
 72
11
 73
7
 74
0
 42
0.0000001
 43
0.0000001
 44
0.0000000001
 40
0.0
 40
0.0
 40
0.0
 40
0.0
 40
0.2503022162
 40
0.500364675
 40
0.7502361736
 40
1.0
 40
1.0
 40
1.0
 40
1.0
 10
40.9503635744
 20
21.8674130049
 30
0.0
 10
40.2405455367
 20
21.7616379268
 30
0.0
 10
38.8185337591
 20
21.569918254
 30
0.0
 10
36.6779939694
 20
21.3530871888
 30
0.0
 10
34.5322082935
 20
21.217753304
 30
0.0
 10
33.0994942765
 20
21.1870433031
 30
0.0
 10
32.3833820089
 20
21.1870432433
 30
0.0
  0
SPLINE
  5
26A
100
AcDbEntity
  8
0
100
AcDbSpline
 62
7
  6
BYLAYER
 70
0
 71
3
 72
11
 73
7
 74
0
 42
0.0000001
 43
0.0000001
 44
0.0000000001
 40
0.0
 40
0.0
 40
0.0
 40
0.0
 40
0.2497638285
 40
0.499635328
 40
0.7496977854
 40
1.0
 40
1.0
 40
1.0
 40
1.0
 10
32.383382009
 20
26.187043179
 30
0.0
 10
33.0994942825
 20
26.1870431192
 30
0.0
 10
34.5322083082
 20
26.1563331207
 30
0.0
 10
36.6779939893
 20
26.0209992386
 30
0.0
 10
38.8185337707
 20
25.8041681522
 30
0.0
 10
40.2405455415
 20
25.6124484948
 30
0.0
 10
40.9503635744
 20
25.5066734174
 30
0.0
  0
SPLINE
  5
26B
100
AcDbEntity
  8
0
100
AcDbSpline
 62
7
  6
BYLAYER
 70
0
 71
3
 72
11
 73
7
 74
0
 42
0.0000001
 43
0.0000001
 44
0.0000000001
 40
0.0
 40
0.0
 40
0.0
 40
0.0
 40
0.249763827
 40
0.4996353251
 40
0.7496977817
 40
1.0
 40
1.0
 40
1.0
 40
1.0
 10
32.3833820089
 20
21.1870432433
 30
0.0
 10
31.6672687888
 20
21.1870431402
 30
0.0
 10
30.2345529064
 20
21.2177548586
 30
0.0
 10
28.0887643154
 20
21.3530869552
 30
0.0
 10
25.9482214822
 20
21.5699167394
 30
0.0
 10
24.5262079645
 20
21.7616377824
 30
0.0
 10
23.8163889782
 20
21.8674130011
 30
0.0
  0
SPLINE
  5
26C
100
AcDbEntity
  8
0
100
AcDbSpline
 62
7
  6
BYLAYER
 70
0
 71
3
 72
11
 73
7
 74
0
 42
0.0000001
 43
0.0000001
 44
0.0000000001
 40
0.0
 40
0.0
 40
0.0
 40
0.0
 40
0.2502929499
 40
0.5003528112
 40
0.7502281841
 40
1.0
 40
1.0
 40
1.0
 40
1.0
 10
22.7771584936
 20
21.841803802
 30
0.0
 10
22.0815783762
 20
21.7397712681
 30
0.0
 10
20.6881343101
 20
21.5550308696
 30
0.0
 10
18.5908065521
 20
21.3464803694
 30
0.0
 10
16.4885229294
 20
21.2165109589
 30
0.0
 10
15.0849419565
 20
21.1870433015
 30
0.0
 10
14.383382009
 20
21.1870432434
 30
0.0
  0
SPLINE
  5
26D
100
AcDbEntity
  8
0
100
AcDbSpline
 62
7
  6
BYLAYER
 70
0
 71
3
 72
11
 73
7
 74
0
 42
0.0000001
 43
0.0000001
 44
0.0000000001
 40
0.0
 40
0.0
 40
0.0
 40
0.0
 40
0.25030222
 40
0.5003646779
 40
0.7502361751
 40
1.0
 40
1.0
 40
1.0
 40
1.0
 10
23.8163889782
 20
25.5066734212
 30
0.0
 10
24.5262079693
 20
25.6124486406
 30
0.0
 10
25.948221494
 20
25.8041696989
 30
0.0
 10
28.0887643355
 20
26.0209994626
 30
0.0
 10
30.2345529212
 20
26.1563315607
 30
0.0
 10
31.6672687949
 20
26.1870432821
 30
0.0
 10
32.383382009
 20
26.187043179
 30
0.0
  0
SPLINE
  5
26E
100
AcDbEntity
  8
0
100
AcDbSpline
 62
7
  6
BYLAYER
 70
0
 71
3
 72
11
 73
7
 74
0
 42
0.0000001
 43
0.0000001
 44
0.0000000001
 40
0.0
 40
0.0
 40
0.0
 40
0.0
 40
0.2497718177
 40
0.4996471915
 40
0.7497070516
 40
1.0
 40
1.0
 40
1.0
 40
1.0
 10
14.383382009
 20
26.1870431789
 30
0.0
 10
15.0849419616
 20
26.1870431208
 30
0.0
 10
16.488522942
 20
26.1575754652
 30
0.0
 10
18.5908065693
 20
26.0276060574
 30
0.0
 10
20.6881343202
 20
25.8190555393
 30
0.0
 10
22.0815783803
 20
25.6343151536
 30
0.0
 10
22.7771584936
 20
25.5322826203
 30
0.0
  0
SPLINE
  5
26F
100
AcDbEntity
  8
0
100
AcDbSpline
 62
7
  6
BYLAYER
 70
0
 71
3
 72
11
 73
7
 74
0
 42
0.0000001
 43
0.0000001
 44
0.0000000001
 40
0.0
 40
0.0
 40
0.0
 40
0.0
 40
0.2502929535
 40
0.5003528138
 40
0.7502281856
 40
1.0
 40
1.0
 40
1.0
 40
1.0
 10
5.9895940589
 20
25.53228263
 30
0.0
 10
6.6851751293
 20
25.634315302
 30
0.0
 10
8.0786209512
 20
25.819057033
 30
0.0
 10
10.1759517563
 20
26.0276062156
 30
0.0
 10
12.2782382819
 20
26.1575739495
 30
0.0
 10
13.6818211147
 20
26.1870432805
 30
0.0
 10
14.383382009
 20
26.1870431789
 30
0.0
  0
SPLINE
  5
270
100
AcDbEntity
  8
0
100
AcDbSpline
 62
7
  6
BYLAYER
 70
0
 71
3
 72
11
 73
7
 74
0
 42
0.0000001
 43
0.0000001
 44
0.0000000001
 40
0.0
 40
0.0
 40
0.0
 40
0.0
 40
0.2497718163
 40
0.4996471889
 40
0.749707048
 40
1.0
 40
1.0
 40
1.0
 40
1.0
 10
14.383382009
 20
21.1870432434
 30
0.0
 10
13.6818211095
 20
21.1870431419
 30
0.0
 10
12.2782382692
 20
21.2165124704
 30
0.0
 10
10.175951739
 20
21.3464802026
 30
0.0
 10
8.078620941
 20
21.5550294025
 30
0.0
 10
6.6851751251
 20
21.739771121
 30
0.0
 10
5.9895940589
 20
21.8418037923
 30
0.0
  0
SPLINE
  5
271
100
AcDbEntity
  8
0
100
AcDbSpline
 62
7
  6
BYLAYER
 70
0
 71
3
 72
11
 73
7
 74
0
 42
0.0000001
 43
0.0000001
 44
0.0000000001
 40
0.0
 40
0.0
 40
0.0
 40
0.0
 40
0.25030222
 40
0.5003646779
 40
0.7502361751
 40
1.0
 40
1.0
 40
1.0
 40
1.0
 10
23.8163889782
 20
16.5066734211
 30
0.0
 10
24.5262079693
 20
16.6124486406
 30
0.0
 10
25.948221494
 20
16.8041696989
 30
0.0
 10
28.0887643355
 20
17.0209994626
 30
0.0
 10
30.2345529212
 20
17.1563315607
 30
0.0
 10
31.6672687949
 20
17.1870432821
 30
0.0
 10
32.3833820089
 20
17.1870431789
 30
0.0
  0
SPLINE
  5
272
100
AcDbEntity
  8
0
100
AcDbSpline
 62
7
  6
BYLAYER
 70
0
 71
3
 72
11
 73
7
 74
0
 42
0.0000001
 43
0.0000001
 44
0.0000000001
 40
0.0
 40
0.0
 40
0.0
 40
0.0
 40
0.2497718177
 40
0.4996471915
 40
0.7497070516
 40
1.0
 40
1.0
 40
1.0
 40
1.0
 10
14.383382009
 20
17.1870431789
 30
0.0
 10
15.0849419616
 20
17.1870431208
 30
0.0
 10
16.488522942
 20
17.1575754652
 30
0.0
 10
18.5908065693
 20
17.0276060574
 30
0.0
 10
20.6881343202
 20
16.8190555393
 30
0.0
 10
22.0815783803
 20
16.6343151536
 30
0.0
 10
22.7771584936
 20
16.5322826203
 30
0.0
  0
SPLINE
  5
273
100
AcDbEntity
  8
0
100
AcDbSpline
 62
7
  6
BYLAYER
 70
0
 71
3
 72
11
 73
7
 74
0
 42
0.0000001
 43
0.0000001
 44
0.0000000001
 40
0.0
 40
0.0
 40
0.0
 40
0.0
 40
0.249763827
 40
0.4996353251
 40
0.7496977817
 40
1.0
 40
1.0
 40
1.0
 40
1.0
 10
32.383382009
 20
12.1870432434
 30
0.0
 10
31.6672687889
 20
12.1870431402
 30
0.0
 10
30.2345529064
 20
12.2177548586
 30
0.0
 10
28.0887643154
 20
12.3530869552
 30
0.0
 10
25.9482214822
 20
12.5699167394
 30
0.0
 10
24.5262079645
 20
12.7616377825
 30
0.0
 10
23.8163889782
 20
12.8674130012
 30
0.0
  0
SPLINE
  5
274
100
AcDbEntity
  8
0
100
AcDbSpline
 62
7
  6
BYLAYER
 70
0
 71
3
 72
11
 73
7
 74
0
 42
0.0000001
 43
0.0000001
 44
0.0000000001
 40
0.0
 40
0.0
 40
0.0
 40
0.0
 40
0.2502929499
 40
0.5003528112
 40
0.7502281841
 40
1.0
 40
1.0
 40
1.0
 40
1.0
 10
22.7771584936
 20
12.841803802
 30
0.0
 10
22.0815783762
 20
12.7397712681
 30
0.0
 10
20.6881343101
 20
12.5550308696
 30
0.0
 10
18.5908065521
 20
12.3464803694
 30
0.0
 10
16.4885229294
 20
12.2165109589
 30
0.0
 10
15.0849419565
 20
12.1870433016
 30
0.0
 10
14.383382009
 20
12.1870432434
 30
0.0
  0
SPLINE
  5
275
100
AcDbEntity
  8
0
100
AcDbSpline
 62
7
  6
BYLAYER
 70
0
 71
3
 72
11
 73
7
 74
0
 42
0.0000001
 43
0.0000001
 44
0.0000000001
 40
0.0
 40
0.0
 40
0.0
 40
0.0
 40
0.2497638285
 40
0.499635328
 40
0.7496977854
 40
1.0
 40
1.0
 40
1.0
 40
1.0
 10
32.3833820089
 20
17.1870431789
 30
0.0
 10
33.0994942825
 20
17.1870431191
 30
0.0
 10
34.5322083081
 20
17.1563331207
 30
0.0
 10
36.6779939893
 20
17.0209992386
 30
0.0
 10
38.8185337707
 20
16.8041681522
 30
0.0
 10
40.2405455415
 20
16.6124484948
 30
0.0
 10
40.9503635744
 20
16.5066734174
 30
0.0
  0
SPLINE
  5
276
100
AcDbEntity
  8
0
100
AcDbSpline
 62
7
  6
BYLAYER
 70
0
 71
3
 72
11
 73
7
 74
0
 42
0.0000001
 43
0.0000001
 44
0.0000000001
 40
0.0
 40
0.0
 40
0.0
 40
0.0
 40
0.2503022162
 40
0.500364675
 40
0.7502361736
 40
1.0
 40
1.0
 40
1.0
 40
1.0
 10
40.9503635744
 20
12.8674130049
 30
0.0
 10
40.2405455367
 20
12.7616379268
 30
0.0
 10
38.8185337591
 20
12.5699182539
 30
0.0
 10
36.6779939694
 20
12.3530871888
 30
0.0
 10
34.5322082935
 20
12.217753304
 30
0.0
 10
33.0994942765
 20
12.1870433032
 30
0.0
 10
32.383382009
 20
12.1870432434
 30
0.0
  0
SPLINE
  5
277
100
AcDbEntity
  8
0
100
AcDbSpline
 62
7
  6
BYLAYER
 70
0
 71
3
 72
11
 73
7
 74
0
 42
0.0000001
 43
0.0000001
 44
0.0000000001
 40
0.0
 40
0.0
 40
0.0
 40
0.0
 40
0.2502929535
 40
0.5003528138
 40
0.7502281856
 40
1.0
 40
1.0
 40
1.0
 40
1.0
 10
5.9895940589
 20
16.53228263
 30
0.0
 10
6.6851751293
 20
16.634315302
 30
0.0
 10
8.0786209512
 20
16.819057033
 30
0.0
 10
10.1759517563
 20
17.0276062156
 30
0.0
 10
12.2782382819
 20
17.1575739496
 30
0.0
 10
13.6818211147
 20
17.1870432804
 30
0.0
 10
14.383382009
 20
17.1870431789
 30
0.0
  0
SPLINE
  5
278
100
AcDbEntity
  8
0
100
AcDbSpline
 62
7
  6
BYLAYER
 70
0
 71
3
 72
11
 73
7
 74
0
 42
0.0000001
 43
0.0000001
 44
0.0000000001
 40
0.0
 40
0.0
 40
0.0
 40
0.0
 40
0.2497718163
 40
0.4996471889
 40
0.749707048
 40
1.0
 40
1.0
 40
1.0
 40
1.0
 10
14.383382009
 20
12.1870432434
 30
0.0
 10
13.6818211095
 20
12.1870431419
 30
0.0
 10
12.2782382692
 20
12.2165124704
 30
0.0
 10
10.175951739
 20
12.3464802026
 30
0.0
 10
8.078620941
 20
12.5550294025
 30
0.0
 10
6.6851751251
 20
12.7397711209
 30
0.0
 10
5.9895940589
 20
12.8418037923
 30
0.0
  0
SPLINE
  5
279
100
AcDbEntity
  8
0
100
AcDbSpline
 62
7
  6
BYLAYER
 70
0
 71
3
 72
14
 73
10
 74
0
 42
0.0000001
 43
0.0000001
 44
0.0000000001
 40
0.0
 40
0.0
 40
0.0
 40
0.0
 40
0.1249383523
 40
0.2500893527
 40
0.3751342231
 40
0.5000544934
 40
0.6249820987
 40
0.7500393891
 40
1.0
 40
1.0
 40
1.0
 40
1.0
 10
22.3833762763
 20
7.311459379
 30
0.0
 10
22.4656554896
 20
7.2972993575
 30
0.0
 10
22.6319642473
 20
7.2782663007
 30
0.0
 10
22.8823403167
 20
7.2656139759
 30
0.0
 10
23.132873326
 20
7.256970972
 30
0.0
 10
23.3833824559
 20
7.2536195065
 30
0.0
 10
23.6339567085
 20
7.2564274437
 30
0.0
 10
23.9676827968
 20
7.2673709842
 30
0.0
 10
24.2187625924
 20
7.2831298264
 30
0.0
 10
24.3833762763
 20
7.311459379
 30
0.0
  0
SPLINE
  5
27A
100
AcDbEntity
  8
0
100
AcDbSpline
 62
7
  6
BYLAYER
 70
0
 71
3
 72
15
 73
11
 74
0
 42
0.0000001
 43
0.0000001
 44
0.0000000001
 40
0.0
 40
0.0
 40
0.0
 40
0.0
 40
0.1249934335
 40
0.249999141
 40
0.3749966361
 40
0.4999999968
 40
0.6250033601
 40
0.7500008568
 40
0.8750065644
 40
1.0
 40
1.0
 40
1.0
 40
1.0
 10
19.0155965199
 20
39.2370432112
 30
0.0
 10
19.3700203343
 20
39.3402462219
 30
0.0
 10
20.0853167693
 20
39.5255001272
 30
0.0
 10
21.174351642
 20
39.7314628455
 30
0.0
 10
22.2756063493
 20
39.8583626097
 30
0.0
 10
23.3833765312
 20
39.9012159806
 30
0.0
 10
24.4911468883
 20
39.8583659801
 30
0.0
 10
25.5924017733
 20
39.731466946
 30
0.0
 10
26.6814362852
 20
39.5255019377
 30
0.0
 10
27.3967322123
 20
39.3402462237
 30
0.0
 10
27.7511560326
 20
39.2370432112
 30
0.0
  0
ENDSEC
  0
SECTION
  2
OBJECTS
  0
DICTIONARY
  5
C
100
AcDbDictionary
280
0
281
1
  3
ACAD_GROUP
350
D
  3
ACAD_MLINESTYLE
350
17
  3
ACAD_LAYOUT
350
1A
  3
ACAD_PLOTSETTINGS
350
19
  3
ACAD_PLOTSTYLENAME
350
E
  0
DICTIONARY
  5
D
102
{ACAD_REACTORS
330
C
102
}
100
AcDbDictionary
280
0
281
1
  0
ACDBDICTIONARYWDFLT
  5
E
102
{ACAD_REACTORS
330
C
102
}
100
AcDbDictionary
281
1
  3
Normal
350
F
100
AcDbDictionaryWithDefault
340
F
  0
DICTIONARY
  5
17
102
{ACAD_REACTORS
330
C
102
}
100
AcDbDictionary
280
0
281
1
  3
Standard
350
18
  0
DICTIONARY
  5
19
102
{ACAD_REACTORS
330
C
102
}
100
AcDbDictionary
281
1
  0
DICTIONARY
  5
1A
102
{ACAD_REACTORS
330
C
102
}
100
AcDbDictionary
281
1
  3
Model
350
27B
  3
Layout1
350
27C
  0
ACDBPLACEHOLDER
  5
F
102
{ACAD_REACTORS
330
E
102
}
  0
MLINESTYLE
  5
18
102
{ACAD_REACTORS
330
17
102
}
100
AcDbMlineStyle
  2
STANDARD
 70
0
  3

 62
256
 51
90.0
 52
90.0
 71
2
 49
0.5
 62
256
  6
BYLAYER
 49
-0.5
 62
256
  6
BYLAYER
  0
LAYOUT
  5
27B
102
{ACAD_REACTORS
330
1A
102
}
100
AcDbPlotSettings
  1

  2
none_device
  4

  6

 40
0.0
 41
0.0
 42
0.0
 43
0.0
 44
210.0
 45
297.0
 46
0.0
 47
0.0
 48
0.0
 49
0.0
140
0.0
141
0.0
142
1.0
143
1.0
 70
1024
 72
1
 73
0
 74
0
  7

 75
0
147
1.0
148
0.0
149
0.0
100
AcDbLayout
  1
Model
 70
0
 71
0
 10
0.0
 20
0.0
 11
210.0
 21
297.0
 12
0.0
 22
0.0
 32
0.0
 14
0.0
 24
0.0
 34
0.0
 15
0.0
 25
0.0
 35
0.0
146
0.0
 13
0.0
 23
0.0
 33
0.0
 16
1.0
 26
0.0
 36
0.0
 17
0.0
 27
1.0
 37
0.0
 76
0
330
210
345
0
346
0
  0
LAYOUT
  5
27C
102
{ACAD_REACTORS
330
1A
102
}
100
AcDbPlotSettings
  1

  2
none_device
  4

  6

 40
0.0
 41
0.0
 42
0.0
 43
0.0
 44
210.0
 45
297.0
 46
0.0
 47
0.0
 48
0.0
 49
0.0
140
0.0
141
0.0
142
1.0
143
1.0
 70
0
 72
1
 73
0
 74
0
  7

 75
0
147
1.0
148
0.0
149
0.0
100
AcDbLayout
  1
Layout1
 70
0
 71
1
 10
0.0
 20
0.0
 11
210.0
 21
297.0
 12
0.0
 22
0.0
 32
0.0
 14
0.0
 24
0.0
 34
0.0
 15
0.0
 25
0.0
 35
0.0
146
0.0
 13
0.0
 23
0.0
 33
0.0
 16
1.0
 26
0.0
 36
0.0
 17
0.0
 27
1.0
 37
0.0
 76
0
330
211
345
0
346
0
  0
ENDSEC
  0
EOF
