999
DXF file: C:\Users\sesa63760\Dev\_Creo\CAD\MCADID0005863_3D-CAD\mcadid0005863_3d-simplified_1.dxf
999
Pro/ENGINEER 2019471 by Parametric Technology Corporation
  0
SECTION
  2
HEADER
  9
$ACADVER
  1
AC1024
  9
$DWGCODEPAGE
  3
ANSI_1252
  9
$EXTMAX
 10
80.9796056286
 20
114.528299389
 30
0.0
  9
$EXTMIN
 10
-0.0
 20
0.0
 30
0.0
  9
$LIMMIN
 10
-0.0
 20
0.0
  9
$LIMMAX
 10
80.9796056286
 20
114.528299389
  9
$VIEWCTR
 10
40.4898028143
 20
57.2641496945
  9
$VIEWSIZE
 40
114.528299389
  9
$CLAYER
  8
0
  9
$LTSCALE
 40
7.4655484046
  9
$CELTYPE
  6
BYLAYER
  9
$DIMSCALE
 40
1.0
  9
$DIMASZ
 40
0.9640429241
  9
$DIMEXO
 40
1.0
  9
$DIMDLI
 40
5.1580152614
  9
$DIMEXE
 40
1.0
  9
$DIMCEN
 40
1.2216351935
  9
$DIMLFAC
 40
1.0
  9
$DIMBLK
  1
_FILLED
  9
$DIMALT
 70
0
  9
$DIMALTF
 40
0.0393700787
  9
$DIMTXT
 40
1.3496600938
  9
$DIMTOL
 70
1
  9
$DIMLIM
 70
0
  9
$DIMTFAC
 40
1.0
  9
$DIMTP
 40
0.01
  9
$DIMTM
 40
0.01
  9
$DIMGAP
 40
0.625
  9
$DIMDSEP
 70
46
  9
$AUNITS
 70
0
  9
$PDMODE
 70
3
  9
$PDSIZE
 40
0.3125
  9
$HANDSEED
  5
2D5
  9
$TILEMODE
 70
1
  9
$MEASUREMENT
 70
1
  9
$INSUNITS
 70
4
  0
ENDSEC
  0
SECTION
  2
CLASSES
  0
CLASS
  1
ACDBDICTIONARYWDFLT
  2
AcDbDictionaryWithDefault
  3
AutoCAD 2000
 90
0
 91
1
280
0
281
0
  0
CLASS
  1
ACDBPLACEHOLDER
  2
AcDbPlaceHolder
  3
AutoCAD 2000
 90
0
 91
1
280
0
281
0
  0
CLASS
  1
LAYOUT
  2
AcDbLayout
  3
AutoCAD 2000
 90
0
 91
0
280
0
281
0
  0
ENDSEC
  0
SECTION
  2
TABLES
  0
TABLE
  2
VPORT
  5
8
100
AcDbSymbolTable
 70
2
  0
VPORT
  5
1F4
100
AcDbSymbolTableRecord
100
AcDbViewportTableRecord
  2
*ACTIVE
 70
0
 10
0.0
 20
0.0
 11
1.0
 21
1.0
 12
40.4898028143
 22
57.2641496945
 13
0.0
 23
0.0
 14
1.0
 24
1.0
 15
0.0
 25
0.0
 16
0.0
 26
0.0
 36
1.0
 17
0.0
 27
0.0
 37
0.0
 40
114.528299389
 41
0.7070707071
 42
50.0
 43
0.0
 44
0.0
 50
0.0
 51
0.0
 71
0
 72
100
 73
1
 74
1
 75
0
 76
0
 77
0
 78
0
  0
ENDTAB
  0
TABLE
  2
LTYPE
  5
5
100
AcDbSymbolTable
 70
6
  0
LTYPE
  5
14
100
AcDbSymbolTableRecord
100
AcDbLinetypeTableRecord
  2
BYBLOCK
 70
0
  3

 72
65
 73
0
 40
0.0
  0
LTYPE
  5
15
100
AcDbSymbolTableRecord
100
AcDbLinetypeTableRecord
  2
BYLAYER
 70
0
  3

 72
65
 73
0
 40
0.0
  0
LTYPE
  5
16
100
AcDbSymbolTableRecord
100
AcDbLinetypeTableRecord
  2
CONTINUOUS
 70
64
  3
Solid line
 72
65
 73
0
 40
0.0
  0
LTYPE
  5
1F5
100
AcDbSymbolTableRecord
100
AcDbLinetypeTableRecord
  2
CENTER
 70
64
  3
____ _ ____ _ ____ _ ____ _ ____ _ ____ _ ____
 72
65
 73
4
 40
0.6
 49
0.375
 74
0
 49
-0.075
 74
0
 49
0.075
 74
0
 49
-0.075
 74
0
  0
LTYPE
  5
1F6
100
AcDbSymbolTableRecord
100
AcDbLinetypeTableRecord
  2
HIDDEN
 70
64
  3
- - - - - - - - - - - - - - - - - - - -
 72
65
 73
2
 40
0.2
 49
0.1
 74
0
 49
-0.1
 74
0
  0
LTYPE
  5
1F7
100
AcDbSymbolTableRecord
100
AcDbLinetypeTableRecord
  2
PHANTOM
 70
64
  3
_____ _ _ _____ _ _ _____ _ _ _____
 72
65
 73
6
 40
0.8
 49
0.45
 74
0
 49
-0.05
 74
0
 49
0.1
 74
0
 49
-0.05
 74
0
 49
0.1
 74
0
 49
-0.05
 74
0
  0
LTYPE
  5
1F8
100
AcDbSymbolTableRecord
100
AcDbLinetypeTableRecord
  2
DOT
 70
64
  3
. . . . . . . . . . . . . . . . . . . .
 72
65
 73
2
 40
0.2
 49
0.1
 74
0
 49
-0.1
 74
0
  0
LTYPE
  5
1F9
100
AcDbSymbolTableRecord
100
AcDbLinetypeTableRecord
  2
DASHED
 70
64
  3
- - - - - - - - - - - - - - - - - - - -
 72
65
 73
2
 40
0.2
 49
0.1
 74
0
 49
-0.1
 74
0
  0
ENDTAB
  0
TABLE
  2
LAYER
  5
2
100
AcDbSymbolTable
 70
36
  0
LAYER
  5
10
100
AcDbSymbolTableRecord
100
AcDbLayerTableRecord
  2
0
 70
0
 62
7
  6
CONTINUOUS
370
-3
390
F
  0
LAYER
  5
1FA
100
AcDbSymbolTableRecord
100
AcDbLayerTableRecord
  2
DEFAULT_1
 70
0
 62
7
  6
CENTER
370
-3
390
F
  0
LAYER
  5
1FB
100
AcDbSymbolTableRecord
100
AcDbLayerTableRecord
  2
DEFAULT_2
 70
0
 62
7
  6
HIDDEN
370
-3
390
F
  0
LAYER
  5
1FC
100
AcDbSymbolTableRecord
100
AcDbLayerTableRecord
  2
DEFAULT_3
 70
0
 62
7
  6
PHANTOM
370
-3
390
F
  0
LAYER
  5
1FD
100
AcDbSymbolTableRecord
100
AcDbLayerTableRecord
  2
00_COMPONENTS
 70
0
 62
7
  6
CONTINUOUS
370
-3
390
F
  0
LAYER
  5
1FE
100
AcDbSymbolTableRecord
100
AcDbLayerTableRecord
  2
01_1_DEFAULT_DATUMS
 70
0
 62
7
  6
CONTINUOUS
370
-3
390
F
  0
LAYER
  5
1FF
100
AcDbSymbolTableRecord
100
AcDbLayerTableRecord
  2
01_PLANES
 70
0
 62
7
  6
CONTINUOUS
370
-3
390
F
  0
LAYER
  5
200
100
AcDbSymbolTableRecord
100
AcDbLayerTableRecord
  2
02_COORD_SYS
 70
0
 62
7
  6
CONTINUOUS
370
-3
390
F
  0
LAYER
  5
201
100
AcDbSymbolTableRecord
100
AcDbLayerTableRecord
  2
03_AXES
 70
0
 62
7
  6
CONTINUOUS
370
-3
390
F
  0
LAYER
  5
202
100
AcDbSymbolTableRecord
100
AcDbLayerTableRecord
  2
04_POINTS
 70
0
 62
7
  6
CONTINUOUS
370
-3
390
F
  0
LAYER
  5
203
100
AcDbSymbolTableRecord
100
AcDbLayerTableRecord
  2
05_CURVES
 70
0
 62
7
  6
CONTINUOUS
370
-3
390
F
  0
LAYER
  5
204
100
AcDbSymbolTableRecord
100
AcDbLayerTableRecord
  2
06_SURFS
 70
0
 62
7
  6
CONTINUOUS
370
-3
390
F
  0
LAYER
  5
205
100
AcDbSymbolTableRecord
100
AcDbLayerTableRecord
  2
07_COSMETICS
 70
0
 62
7
  6
CONTINUOUS
370
-3
390
F
  0
LAYER
  5
206
100
AcDbSymbolTableRecord
100
AcDbLayerTableRecord
  2
10_NOTES
 70
0
 62
7
  6
CONTINUOUS
370
-3
390
F
  0
LAYER
  5
207
100
AcDbSymbolTableRecord
100
AcDbLayerTableRecord
  2
11_NOTES_PUB
 70
0
 62
7
  6
CONTINUOUS
370
-3
390
F
  0
LAYER
  5
208
100
AcDbSymbolTableRecord
100
AcDbLayerTableRecord
  2
13_REF_GTOL
 70
0
 62
7
  6
CONTINUOUS
370
-3
390
F
  0
LAYER
  5
209
100
AcDbSymbolTableRecord
100
AcDbLayerTableRecord
  2
16_MISC
 70
0
 62
7
  6
CONTINUOUS
370
-3
390
F
  0
LAYER
  5
20A
100
AcDbSymbolTableRecord
100
AcDbLayerTableRecord
  2
17_NO_PRINT
 70
0
 62
7
  6
CONTINUOUS
370
-3
390
F
  0
LAYER
  5
20B
100
AcDbSymbolTableRecord
100
AcDbLayerTableRecord
  2
18_DATUM_CAMS_JOINTS
 70
0
 62
7
  6
CONTINUOUS
370
-3
390
F
  0
LAYER
  5
20C
100
AcDbSymbolTableRecord
100
AcDbLayerTableRecord
  2
19_DATUM_FUNCTIONAL
 70
0
 62
7
  6
CONTINUOUS
370
-3
390
F
  0
LAYER
  5
20D
100
AcDbSymbolTableRecord
100
AcDbLayerTableRecord
  2
20_DATUM_KINEMATIC_SCHEME
 70
0
 62
7
  6
CONTINUOUS
370
-3
390
F
  0
ENDTAB
  0
TABLE
  2
STYLE
  5
3
100
AcDbSymbolTable
 70
1
  0
STYLE
  5
11
100
AcDbSymbolTableRecord
100
AcDbTextStyleTableRecord
  2
STANDARD
 70
0
 40
0.0
 41
1.0
 50
0.0
 71
0
 42
0.2
  3
ARIAL.TTF
  4

  0
STYLE
  5
20E
100
AcDbSymbolTableRecord
100
AcDbTextStyleTableRecord
  2
TEXTSTYLE_1
 70
0
 40
0.0
 41
0.8
 50
0.0
 71
0
 42
0.2
  3
gdt
  4

  0
ENDTAB
  0
TABLE
  2
VIEW
  5
6
100
AcDbSymbolTable
 70
0
  0
ENDTAB
  0
TABLE
  2
UCS
  5
7
100
AcDbSymbolTable
 70
0
  0
ENDTAB
  0
TABLE
  2
APPID
  5
9
100
AcDbSymbolTable
 70
1
  0
APPID
  5
20F
100
AcDbSymbolTableRecord
100
AcDbRegAppTableRecord
  2
ACAD
 70
0
  0
ENDTAB
  0
TABLE
  2
BLOCK_RECORD
  5
1
100
AcDbSymbolTable
 70
0
  0
BLOCK_RECORD
  5
210
100
AcDbSymbolTableRecord
100
AcDbBlockTableRecord
  2
*Model_Space
  0
BLOCK_RECORD
  5
211
100
AcDbSymbolTableRecord
100
AcDbBlockTableRecord
  2
*Paper_Space
  0
BLOCK_RECORD
  5
212
100
AcDbSymbolTableRecord
100
AcDbBlockTableRecord
  2
_FILLED
  0
ENDTAB
  0
TABLE
  2
DIMSTYLE
  5
A
100
AcDbSymbolTable
 70
1
100
AcDbDimStyleTable
 71
0
  0
DIMSTYLE
105
213
100
AcDbSymbolTableRecord
100
AcDbDimStyleTableRecord
  2
STANDARD
 70
0
  3

  4

 40
1.0
 41
0.9640429241
 42
1.0
 43
0.38
 44
1.0
 45
0.0
 46
0.0
 47
0.01
 48
0.01
140
1.3496600938
141
0.09
142
0.0
143
25.4
144
1.0
145
0.0
146
1.0
147
0.625
 71
1
 72
0
 73
0
 74
0
 75
0
 76
0
 77
1
 78
8
 79
2
170
0
171
1
172
0
173
0
174
0
175
0
176
0
177
0
178
0
270
2
179
2
271
2
272
2
273
2
274
2
275
0
280
0
281
0
282
0
283
1
284
8
285
0
286
0
287
3
288
0
340
11
278
46
341
212
342
212
343
212
344
212
  0
ENDTAB
  0
ENDSEC
  0
SECTION
  2
BLOCKS
  0
BLOCK
  5
20
100
AcDbEntity
  8
0
100
AcDbBlockBegin
  2
*Model_Space
 70
0
 10
0.0
 20
0.0
 30
0.0
  3
*Model_Space
  1

  0
ENDBLK
  5
21
100
AcDbEntity
  8
0
100
AcDbBlockEnd
  0
BLOCK
  5
1C
100
AcDbEntity
  8
0
100
AcDbBlockBegin
  2
*Paper_Space
 70
0
 10
0.0
 20
0.0
 30
0.0
  3
*Paper_Space
  1

  0
ENDBLK
  5
1D
100
AcDbEntity
  8
0
100
AcDbBlockEnd
  0
BLOCK
  5
214
100
AcDbEntity
  8
0
100
AcDbBlockBegin
  2
_FILLED
 70
64
 10
0.0
 20
0.0
  3
_FILLED
  1

  0
SOLID
  5
215
100
AcDbEntity
  8
0
  6
BYBLOCK
 62
0
100
AcDbTrace
 10
0.0
 20
0.0
 11
-1.0
 21
0.25
 12
-1.0
 22
-0.25
 13
-1.0
 23
-0.25
  0
ENDBLK
  5
216
100
AcDbEntity
  8
0
  6
BYBLOCK
 62
0
100
AcDbBlockEnd
  0
ENDSEC
  0
SECTION
  2
ENTITIES
  0
LWPOLYLINE
  5
217
100
AcDbEntity
  8
0
100
AcDbPolyline
 62
7
  6
BYLAYER
 90
11
 70
0
 10
17.8224578316
 20
35.7610340375
 10
19.2488851787
 20
34.3492054635
 10
22.3491112606
 20
32.4541784417
 10
25.3518878368
 20
31.7383960016
 10
27.9246415207
 20
32.2914395494
 10
29.817171542
 20
34.0457166763
 10
30.853805998
 20
36.8210186613
 10
30.939531045
 20
40.3486665178
 10
30.0628896778
 20
44.2973376016
 10
28.3186736442
 20
48.2527828777
 10
25.8501627285
 20
51.8793209788
  0
LWPOLYLINE
  5
218
100
AcDbEntity
  8
0
100
AcDbPolyline
 62
7
  6
BYLAYER
 90
5
 70
0
 10
11.7810514634
 20
46.121558151
 10
11.1900807222
 20
48.7177019453
 10
11.243308657
 20
52.2928922855
 10
12.2507122228
 20
55.1409409792
 10
14.103574619
 20
56.984227516
  0
LINE
  5
219
100
AcDbEntity
  8
0
100
AcDbLine
 62
7
  6
BYLAYER
 10
11.2347128626
 20
48.7747300126
 11
11.8217208874
 21
46.1306594721
  0
LINE
  5
21A
100
AcDbEntity
  8
0
100
AcDbLine
 62
7
  6
BYLAYER
 10
12.8847139094
 20
36.9630735834
 11
12.8847139094
 21
37.4173734445
  0
LINE
  5
21B
100
AcDbEntity
  8
0
100
AcDbLine
 62
7
  6
BYLAYER
 10
13.7332455796
 20
36.9274845391
 11
13.7332455796
 21
36.473184678
  0
LINE
  5
21C
100
AcDbEntity
  8
0
100
AcDbLine
 62
7
  6
BYLAYER
 10
15.5612742513
 20
38.5975475025
 11
15.5490945218
 21
38.5588569514
  0
LINE
  5
21D
100
AcDbEntity
  8
0
100
AcDbLine
 62
7
  6
BYLAYER
 10
40.0030775718
 20
78.4557028234
 11
37.3935258382
 21
76.9490864208
  0
LINE
  5
21E
100
AcDbEntity
  8
0
100
AcDbLine
 62
7
  6
BYLAYER
 10
43.7574603677
 20
80.6232838026
 11
46.3670121121
 21
82.1299002114
  0
LWPOLYLINE
  5
21F
100
AcDbEntity
  8
0
100
AcDbPolyline
 62
7
  6
BYLAYER
 90
3
 70
0
 10
49.2298016835
 20
80.8861928035
 10
46.5937863252
 20
80.0724646328
 10
45.6189801908
 20
79.1683335241
  0
LINE
  5
220
100
AcDbEntity
  8
0
100
AcDbLine
 62
7
  6
BYLAYER
 10
19.1426832752
 20
47.8072588434
 11
18.6830775507
 21
48.0726199193
  0
LINE
  5
221
100
AcDbEntity
  8
0
100
AcDbLine
 62
7
  6
BYLAYER
 10
22.9256234309
 20
41.2549751802
 11
22.925627258
 21
40.7242644091
  0
LWPOLYLINE
  5
222
100
AcDbEntity
  8
0
100
AcDbPolyline
 62
7
  6
BYLAYER
 90
4
 70
0
 10
14.249602387
 20
56.831956981
 10
12.3570723656
 20
55.0776798541
 10
11.3204379097
 20
52.3023778691
 10
11.2347128626
 20
48.7747300126
  0
LINE
  5
223
100
AcDbEntity
  8
0
100
AcDbLine
 62
7
  6
BYLAYER
 10
15.6465926185
 20
38.426922012
 11
15.6593971373
 21
38.4275951679
  0
LINE
  5
224
100
AcDbEntity
  8
0
100
AcDbLine
 62
7
  6
BYLAYER
 10
51.8737276726
 20
79.5161252018
 11
49.264175884
 21
78.0095087674
  0
LINE
  5
225
100
AcDbEntity
  8
0
100
AcDbLine
 62
7
  6
BYLAYER
 10
55.6281104396
 20
81.6837061642
 11
58.2376621869
 21
83.1903225747
  0
LINE
  5
226
100
AcDbEntity
  8
0
100
AcDbLine
 62
7
  6
BYLAYER
 10
15.6594258651
 20
38.4275292946
 11
15.9379464294
 21
38.4842907124
  0
LINE
  5
227
100
AcDbEntity
  8
0
100
AcDbLine
 62
7
  6
BYLAYER
 10
13.0608977023
 20
42.9282890719
 11
13.2444983444
 21
43.1356716787
  0
LINE
  5
228
100
AcDbEntity
  8
0
100
AcDbLine
 62
7
  6
BYLAYER
 10
10.1963775009
 20
44.1741597091
 11
10.8870148022
 21
44.8021301909
  0
LINE
  5
229
100
AcDbEntity
  8
0
100
AcDbLine
 62
7
  6
BYLAYER
 10
18.2047768749
 20
59.3520436085
 11
14.103574619
 21
56.984227516
  0
LINE
  5
22A
100
AcDbEntity
  8
0
100
AcDbLine
 62
7
  6
BYLAYER
 10
52.5904692618
 20
79.1630643831
 11
50.0171342594
 21
77.6773575953
  0
LINE
  5
22B
100
AcDbEntity
  8
0
100
AcDbLine
 62
7
  6
BYLAYER
 10
56.3810687909
 20
81.3515549781
 11
58.9544038001
 21
82.8372617699
  0
LINE
  5
22C
100
AcDbEntity
  8
0
100
AcDbLine
 62
7
  6
BYLAYER
 10
22.771573312
 20
60.8172616929
 11
26.4838684574
 21
62.9605435008
  0
LINE
  5
22D
100
AcDbEntity
  8
0
100
AcDbLine
 62
7
  6
BYLAYER
 10
13.159085877
 20
39.8710686025
 11
14.3731463387
 21
40.1184894467
  0
LINE
  5
22E
100
AcDbEntity
  8
0
100
AcDbLine
 62
7
  6
BYLAYER
 10
14.0427240315
 20
41.0259824028
 11
13.9250456041
 21
41.0040207016
  0
LINE
  5
22F
100
AcDbEntity
  8
0
100
AcDbLine
 62
7
  6
BYLAYER
 10
13.0608977023
 20
40.041136525
 11
13.8822054653
 21
40.9688290587
  0
LINE
  5
230
100
AcDbEntity
  8
0
100
AcDbLine
 62
7
  6
BYLAYER
 10
13.159085877
 20
42.7582211495
 11
13.6396918236
 21
42.8561667896
  0
LINE
  5
231
100
AcDbEntity
  8
0
100
AcDbLine
 62
7
  6
BYLAYER
 10
15.5612376904
 20
38.597597217
 11
15.8804660754
 21
38.9581755563
  0
LINE
  5
232
100
AcDbEntity
  8
0
100
AcDbLine
 62
7
  6
BYLAYER
 10
11.1996747899
 20
45.0308507201
 11
10.8870148022
 21
44.8021301909
  0
LINE
  5
233
100
AcDbEntity
  8
0
100
AcDbLine
 62
7
  6
BYLAYER
 10
32.6608675434
 20
59.3943320942
 11
28.948572398
 21
57.2510502863
  0
LINE
  5
234
100
AcDbEntity
  8
0
100
AcDbLine
 62
7
  6
BYLAYER
 10
13.9250456041
 20
41.0040207016
 11
13.8822054653
 21
40.9688290587
  0
LINE
  5
235
100
AcDbEntity
  8
0
100
AcDbLine
 62
7
  6
BYLAYER
 10
15.6829823379
 20
48.3698283189
 11
11.7939112333
 21
46.1244854726
  0
LINE
  5
236
100
AcDbEntity
  8
0
100
AcDbLine
 62
7
  6
BYLAYER
 10
18.4121339295
 20
49.1949410896
 11
17.3382233513
 21
48.5749222292
  0
LINE
  5
237
100
AcDbEntity
  8
0
100
AcDbLine
 62
7
  6
BYLAYER
 10
11.6592922841
 20
45.2962094201
 11
11.1996747899
 21
45.0308507201
  0
LINE
  5
238
100
AcDbEntity
  8
0
100
AcDbLine
 62
7
  6
BYLAYER
 10
32.6608675434
 20
59.3943320942
 11
26.4838684574
 21
62.9605435008
  0
LINE
  5
239
100
AcDbEntity
  8
0
100
AcDbLine
 62
7
  6
BYLAYER
 10
13.9250456041
 20
41.0040207016
 11
14.8092997299
 21
41.5145420118
  0
LINE
  5
23A
100
AcDbEntity
  8
0
100
AcDbLine
 62
7
  6
BYLAYER
 10
14.4250433657
 20
40.1379940055
 11
15.3120412242
 21
40.650099401
  0
LINE
  5
23B
100
AcDbEntity
  8
0
100
AcDbLine
 62
7
  6
BYLAYER
 10
13.0089810875
 20
37.6920450095
 11
15.7985165458
 21
39.3025744437
  0
LINE
  5
23C
100
AcDbEntity
  8
0
100
AcDbLine
 62
7
  6
BYLAYER
 10
13.7332455796
 20
36.9274845391
 11
15.9389405284
 21
38.2009355101
  0
LINE
  5
23D
100
AcDbEntity
  8
0
100
AcDbLine
 62
7
  6
BYLAYER
 10
15.940531133
 20
37.7475539795
 11
13.7332455796
 21
36.473184678
  0
LINE
  5
23E
100
AcDbEntity
  8
0
100
AcDbLine
 62
7
  6
BYLAYER
 10
64.7060693441
 20
64.0911868574
 11
62.1327343119
 21
62.6054800523
  0
LINE
  5
23F
100
AcDbEntity
  8
0
100
AcDbLine
 62
7
  6
BYLAYER
 10
68.4966688591
 20
66.2796774443
 11
71.0700038667
 21
67.7653842351
  0
LINE
  5
240
100
AcDbEntity
  8
0
100
AcDbLine
 62
7
  6
BYLAYER
 10
23.7621099782
 20
39.9284554408
 11
22.687966318
 21
39.3083020113
  0
LINE
  5
241
100
AcDbEntity
  8
0
100
AcDbLine
 62
7
  6
BYLAYER
 10
17.0092683328
 20
36.0297237713
 11
16.5496508386
 21
35.7643650713
  0
LINE
  5
242
100
AcDbEntity
  8
0
100
AcDbLine
 62
7
  6
BYLAYER
 10
65.0303651946
 20
63.1491909318
 11
62.4208134467
 21
61.642574521
  0
LINE
  5
243
100
AcDbEntity
  8
0
100
AcDbLine
 62
7
  6
BYLAYER
 10
68.7847479607
 20
65.3167718938
 11
71.3942997503
 21
66.8233883287
  0
LINE
  5
244
100
AcDbEntity
  8
0
100
AcDbLine
 62
7
  6
BYLAYER
 10
21.6829554767
 20
37.9775079652
 11
17.793884372
 21
35.7321651189
  0
LINE
  5
245
100
AcDbEntity
  8
0
100
AcDbLine
 62
7
  6
BYLAYER
 10
14.3731463387
 20
40.1184894467
 11
14.4250433657
 21
40.1379940055
  0
LINE
  5
246
100
AcDbEntity
  8
0
100
AcDbLine
 62
7
  6
BYLAYER
 10
16.1952422475
 20
35.6079556759
 11
16.5496508386
 21
35.7643650713
  0
LINE
  5
247
100
AcDbEntity
  8
0
100
AcDbLine
 62
7
  6
BYLAYER
 10
15.3060837381
 20
35.3238360656
 11
16.1952422475
 21
35.6079556759
  0
LINE
  5
248
100
AcDbEntity
  8
0
100
AcDbLine
 62
7
  6
BYLAYER
 10
32.4547130793
 20
34.6702827684
 11
28.3535108235
 21
32.3024666759
  0
LINE
  5
249
100
AcDbEntity
  8
0
100
AcDbLine
 62
7
  6
BYLAYER
 10
50.1038984732
 20
43.9939597708
 11
33.3600392784
 21
34.3269458617
  0
LINE
  5
24A
100
AcDbEntity
  8
0
100
AcDbLine
 62
7
  6
BYLAYER
 10
65.0303652154
 20
47.3216102762
 11
62.4208134258
 21
45.8149938413
  0
LINE
  5
24B
100
AcDbEntity
  8
0
100
AcDbLine
 62
7
  6
BYLAYER
 10
68.7847479816
 20
49.4891912382
 11
71.3942997295
 21
50.995807649
  0
LINE
  5
24C
100
AcDbEntity
  8
0
100
AcDbLine
 62
7
  6
BYLAYER
 10
64.7060693292
 20
46.7122515886
 11
62.1327343268
 21
45.2265448007
  0
LINE
  5
24D
100
AcDbEntity
  8
0
100
AcDbLine
 62
7
  6
BYLAYER
 10
68.4966688583
 20
48.9007421836
 11
71.0700038675
 21
50.3864489754
  0
LWPOLYLINE
  5
24E
100
AcDbEntity
  8
0
100
AcDbPolyline
 62
7
  6
BYLAYER
 90
6
 70
0
 10
28.3535108235
 20
32.3024666759
 10
26.0395587134
 20
31.6283588682
 10
23.3226196013
 20
32.009963651
 10
21.8851834215
 20
32.5942485374
 10
19.0052115319
 20
34.485568681
 10
17.7804886534
 20
35.7188624956
  0
ARC
  5
24F
100
AcDbEntity
  8
0
100
AcDbCircle
 62
7
  6
BYLAYER
 10
152.1104202894
 20
68.7615813971
 40
109.3619980552
100
AcDbArc
 50
174.0030704869
 51
174.681510922
  0
ARC
  5
250
100
AcDbEntity
  8
0
100
AcDbCircle
 62
7
  6
BYLAYER
 10
122.454828937
 20
6.1227553118
 40
108.3679129869
100
AcDbArc
 50
136.5692193019
 51
136.8858882937
  0
ARC
  5
251
100
AcDbEntity
  8
0
100
AcDbCircle
 62
7
  6
BYLAYER
 10
115.4793667265
 20
3.0242774631
 40
107.5280239149
100
AcDbArc
 50
136.5679825656
 51
136.887125029
  0
ARC
  5
252
100
AcDbEntity
  8
0
100
AcDbCircle
 62
7
  6
BYLAYER
 10
148.544681088
 20
87.9333939867
 40
90.0473640364
100
AcDbArc
 50
196.3362104144
 51
196.9757280833
  0
ARC
  5
253
100
AcDbEntity
  8
0
100
AcDbCircle
 62
7
  6
BYLAYER
 10
154.6693767407
 20
91.5360166139
 40
89.7976517197
100
AcDbArc
 50
196.3353212054
 51
196.976617285
  0
ARC
  5
254
100
AcDbEntity
  8
0
100
AcDbCircle
 62
7
  6
BYLAYER
 10
-11.650278945
 20
38.7608972105
 40
87.6578887405
100
AcDbArc
 50
18.6711810041
 51
19.3223661671
  0
ARC
  5
255
100
AcDbEntity
  8
0
100
AcDbCircle
 62
7
  6
BYLAYER
 10
-18.0009762654
 20
35.0912569363
 40
87.6438892843
100
AcDbArc
 50
18.6711289926
 51
19.3224181713
  0
ARC
  5
256
100
AcDbEntity
  8
0
100
AcDbCircle
 62
7
  6
BYLAYER
 10
-4.2154287592
 20
83.7827020676
 40
78.2584896212
100
AcDbArc
 50
331.7257546548
 51
332.2311340976
  0
ARC
  5
257
100
AcDbEntity
  8
0
100
AcDbCircle
 62
7
  6
BYLAYER
 10
2.7363904907
 20
87.1440318501
 40
77.59254227
100
AcDbArc
 50
331.7235858988
 51
332.2333028501
  0
ARC
  5
258
100
AcDbEntity
  8
0
100
AcDbCircle
 62
7
  6
BYLAYER
 10
85.446541412
 20
148.2600232623
 40
72.9489192985
100
AcDbArc
 50
245.8731819521
 51
246.519560926
  0
ARC
  5
259
100
AcDbEntity
  8
0
100
AcDbCircle
 62
7
  6
BYLAYER
 10
78.9239181465
 20
144.2260920606
 40
72.5557455623
100
AcDbArc
 50
245.8714305942
 51
246.5213122811
  0
ARC
  5
25A
100
AcDbEntity
  8
0
100
AcDbCircle
 62
7
  6
BYLAYER
 10
122.3543577861
 20
16.1093926361
 40
66.8913483385
100
AcDbArc
 50
153.6350379404
 51
154.1962352266
  0
ARC
  5
25B
100
AcDbEntity
  8
0
100
AcDbCircle
 62
7
  6
BYLAYER
 10
29.1651857652
 20
23.2668269952
 40
66.6035600429
100
AcDbArc
 50
63.4318705971
 51
64.1191988263
  0
ARC
  5
25C
100
AcDbEntity
  8
0
100
AcDbCircle
 62
7
  6
BYLAYER
 10
128.3564918547
 20
19.9607118235
 40
66.4885235692
100
AcDbArc
 50
153.6333379047
 51
154.1979352662
  0
ARC
  5
25D
100
AcDbEntity
  8
0
100
AcDbCircle
 62
7
  6
BYLAYER
 10
22.8766404915
 20
19.7456758145
 40
66.4329563165
100
AcDbArc
 50
63.4309880383
 51
64.1200813879
  0
ARC
  5
25E
100
AcDbEntity
  8
0
100
AcDbCircle
 62
7
  6
BYLAYER
 10
48.9265654138
 20
60.9048464639
 40
23.8841231746
100
AcDbArc
 50
39.4754298008
 51
39.6148121629
  0
ARC
  5
25F
100
AcDbEntity
  8
0
100
AcDbCircle
 62
7
  6
BYLAYER
 10
49.2832088959
 20
61.1165882957
 40
23.5167274624
100
AcDbArc
 50
39.6148171187
 51
39.7781927905
  0
ARC
  5
260
100
AcDbEntity
  8
0
100
AcDbCircle
 62
7
  6
BYLAYER
 10
58.5660614043
 20
62.197255035
 40
14.281143684
100
AcDbArc
 50
0.0029976277
 51
0.6386735398
  0
ARC
  5
261
100
AcDbEntity
  8
0
100
AcDbCircle
 62
7
  6
BYLAYER
 10
55.1089590636
 20
68.2163188763
 40
14.2635698548
100
AcDbArc
 50
59.3496671742
 51
59.9995691093
  0
ARC
  5
262
100
AcDbEntity
  8
0
100
AcDbCircle
 62
7
  6
BYLAYER
 10
7.9263007257
 20
36.9633488696
 40
8.9154043631
100
AcDbArc
 50
30.4870360235
 51
30.6480897128
  0
ARC
  5
263
100
AcDbEntity
  8
0
100
AcDbCircle
 62
7
  6
BYLAYER
 10
7.9294685603
 20
36.9651976877
 40
8.9117365152
100
AcDbArc
 50
29.5430302157
 51
30.4871258533
  0
ARC
  5
264
100
AcDbEntity
  8
0
100
AcDbCircle
 62
7
  6
BYLAYER
 10
7.9348991895
 20
36.9682951569
 40
8.9054846547
100
AcDbArc
 50
29.3435740273
 51
29.5429206167
  0
ARC
  5
265
100
AcDbEntity
  8
0
100
AcDbCircle
 62
7
  6
BYLAYER
 10
8.1165674471
 20
37.0843392069
 40
8.6900415689
100
AcDbArc
 50
30.6012862374
 51
39.5401081825
  0
ARC
  5
266
100
AcDbEntity
  8
0
100
AcDbCircle
 62
7
  6
BYLAYER
 10
17.5013479385
 20
42.4043255623
 40
8.0971791765
100
AcDbArc
 50
219.4047058515
 51
219.6147771063
  0
ARC
  5
267
100
AcDbEntity
  8
0
100
AcDbCircle
 62
7
  6
BYLAYER
 10
17.3386833306
 20
42.305100704
 40
7.869607135
100
AcDbArc
 50
219.6148159784
 51
219.7900687631
  0
ARC
  5
268
100
AcDbEntity
  8
0
100
AcDbCircle
 62
7
  6
BYLAYER
 10
9.0885005256
 20
37.7112130661
 40
6.934005269
100
AcDbArc
 50
39.3683789668
 51
39.6147430193
  0
ARC
  5
269
100
AcDbEntity
  8
0
100
AcDbCircle
 62
7
  6
BYLAYER
 10
9.2508153828
 20
37.8101467606
 40
6.7068883103
100
AcDbArc
 50
39.6148011022
 51
39.8193139244
  0
SPLINE
  5
26A
100
AcDbEntity
  8
0
100
AcDbSpline
 62
7
  6
BYLAYER
 70
0
 71
3
 72
25
 73
21
 74
0
 42
0.0000001
 43
0.0000001
 44
0.0000000001
 40
0.0
 40
0.0
 40
0.0
 40
0.0
 40
0.0738331415
 40
0.1486565097
 40
0.2237747722
 40
0.2985355792
 40
0.3722691719
 40
0.4443428945
 40
0.5141702787
 40
0.5812327841
 40
0.6451037221
 40
0.7054739988
 40
0.7621838161
 40
0.8152569021
 40
0.8649375646
 40
0.9117233146
 40
0.934283519
 40
0.9564274604
 40
0.9782862645
 40
1.0
 40
1.0
 40
1.0
 40
1.0
 10
22.9008065193
 20
47.348123996
 30
0.0
 10
23.0303859081
 20
47.1915720264
 30
0.0
 10
23.2801269507
 20
46.8669680758
 30
0.0
 10
23.6219328032
 20
46.3540544983
 30
0.0
 10
23.9299679964
 20
45.8171996211
 30
0.0
 10
24.2001284826
 20
45.263661011
 30
0.0
 10
24.4288069186
 20
44.7007471125
 30
0.0
 10
24.6129611692
 20
44.1359679359
 30
0.0
 10
24.7501475025
 20
43.576817764
 30
0.0
 10
24.8385318691
 20
43.0306951433
 30
0.0
 10
24.8769116516
 20
42.5047950812
 30
0.0
 10
24.8646995775
 20
42.0060029229
 30
0.0
 10
24.8019287585
 20
41.540820546
 30
0.0
 10
24.6891385062
 20
41.1152791294
 30
0.0
 10
24.527467296
 20
40.735083911
 30
0.0
 10
24.350954305
 20
40.4569275613
 30
0.0
 10
24.1877914831
 20
40.2646922459
 30
0.0
 10
24.0563181715
 20
40.1366695447
 30
0.0
 10
23.9147844982
 20
40.0235855586
 30
0.0
 10
23.8138646245
 20
39.9583459212
 30
0.0
 10
23.7621050055
 20
39.9284640609
 30
0.0
  0
SPLINE
  5
26B
100
AcDbEntity
  8
0
100
AcDbSpline
 62
7
  6
BYLAYER
 70
0
 71
3
 72
9
 73
5
 74
0
 42
0.0000001
 43
0.0000001
 44
0.0000000001
 40
0.0
 40
0.0
 40
0.0
 40
0.0
 40
0.4584355262
 40
1.0
 40
1.0
 40
1.0
 40
1.0
 10
13.0609051411
 20
42.9282789869
 30
0.0
 10
13.0567227525
 20
42.9235630209
 30
0.0
 10
13.0503085355
 20
42.9108576031
 30
0.0
 10
13.0487545337
 20
42.8969952
 30
0.0
 10
13.0487545337
 20
42.8895488063
 30
0.0
  0
SPLINE
  5
26C
100
AcDbEntity
  8
0
100
AcDbSpline
 62
7
  6
BYLAYER
 70
0
 71
3
 72
14
 73
10
 74
0
 42
0.0000001
 43
0.0000001
 44
0.0000000001
 40
0.0
 40
0.0
 40
0.0
 40
0.0
 40
0.1247555817
 40
0.2617912541
 40
0.5462315417
 40
0.6811428956
 40
0.8030925357
 40
0.9089973398
 40
1.0
 40
1.0
 40
1.0
 40
1.0
 10
13.0487545337
 20
40.0023962594
 30
0.0
 10
13.0487545337
 20
39.9945815291
 30
0.0
 10
13.0507722015
 20
39.9781597595
 30
0.0
 10
13.0610108688
 20
39.94540507
 30
0.0
 10
13.0792276479
 20
39.9148663681
 30
0.0
 10
13.1030912948
 20
39.8905990877
 30
0.0
 10
13.1219317573
 20
39.8775816568
 30
0.0
 10
13.1407944928
 20
39.8703342668
 30
0.0
 10
13.1534959616
 20
39.8699403784
 30
0.0
 10
13.1590816806
 20
39.8710782346
 30
0.0
  0
SPLINE
  5
26D
100
AcDbEntity
  8
0
100
AcDbSpline
 62
7
  6
BYLAYER
 70
0
 71
3
 72
14
 73
10
 74
0
 42
0.0000001
 43
0.0000001
 44
0.0000000001
 40
0.0
 40
0.0
 40
0.0
 40
0.0
 40
0.1247555817
 40
0.2617912541
 40
0.5462315417
 40
0.6811428956
 40
0.8030925357
 40
0.9089973398
 40
1.0
 40
1.0
 40
1.0
 40
1.0
 10
13.0487545337
 20
42.8895488063
 30
0.0
 10
13.0487545337
 20
42.8817340761
 30
0.0
 10
13.0507722015
 20
42.8653123065
 30
0.0
 10
13.0610108688
 20
42.832557617
 30
0.0
 10
13.0792276479
 20
42.8020189151
 30
0.0
 10
13.1030912948
 20
42.7777516347
 30
0.0
 10
13.1219317573
 20
42.7647342037
 30
0.0
 10
13.1407944928
 20
42.7574868138
 30
0.0
 10
13.1534959616
 20
42.7570929254
 30
0.0
 10
13.1590816806
 20
42.7582307816
 30
0.0
  0
SPLINE
  5
26E
100
AcDbEntity
  8
0
100
AcDbSpline
 62
7
  6
BYLAYER
 70
0
 71
3
 72
13
 73
9
 74
0
 42
0.0000001
 43
0.0000001
 44
0.0000000001
 40
0.0
 40
0.0
 40
0.0
 40
0.0
 40
0.12058129
 40
0.2524741294
 40
0.5293077414
 40
0.6643123082
 40
0.7900094094
 40
1.0
 40
1.0
 40
1.0
 40
1.0
 10
15.5490945218
 20
38.5588569514
 30
0.0
 10
15.5490945218
 20
38.5518245403
 30
0.0
 10
15.5507341619
 20
38.5370822342
 30
0.0
 10
15.5592105821
 20
38.5073076823
 30
0.0
 10
15.5745725602
 20
38.4789909688
 30
0.0
 10
15.5950059009
 20
38.4550399177
 30
0.0
 10
15.6158456295
 20
38.4372326458
 30
0.0
 10
15.6344209496
 20
38.4282768716
 30
0.0
 10
15.6465926185
 20
38.426922012
 30
0.0
  0
SPLINE
  5
26F
100
AcDbEntity
  8
0
100
AcDbSpline
 62
7
  6
BYLAYER
 70
0
 71
3
 72
9
 73
5
 74
0
 42
0.0000001
 43
0.0000001
 44
0.0000000001
 40
0.0
 40
0.0
 40
0.0
 40
0.0
 40
0.4584355262
 40
1.0
 40
1.0
 40
1.0
 40
1.0
 10
13.0609051411
 20
40.0411264399
 30
0.0
 10
13.0567227525
 20
40.0364104739
 30
0.0
 10
13.0503085355
 20
40.0237050561
 30
0.0
 10
13.0487545337
 20
40.009842653
 30
0.0
 10
13.0487545337
 20
40.0023962594
 30
0.0
  0
SPLINE
  5
270
100
AcDbEntity
  8
0
100
AcDbSpline
 62
7
  6
BYLAYER
 70
0
 71
3
 72
11
 73
7
 74
0
 42
0.0000001
 43
0.0000001
 44
0.0000000001
 40
0.0
 40
0.0
 40
0.0
 40
0.0
 40
0.2177839466
 40
0.4509170841
 40
0.710307871
 40
1.0
 40
1.0
 40
1.0
 40
1.0
 10
13.0089824725
 20
37.6920426243
 30
0.0
 10
12.9891919949
 20
37.6806130524
 30
0.0
 10
12.9521589636
 20
37.6494858704
 30
0.0
 10
12.9127363808
 20
37.5850249158
 30
0.0
 10
12.889322954
 20
37.5055886632
 30
0.0
 10
12.8847139094
 20
37.447773198
 30
0.0
 10
12.8847139094
 20
37.4173734445
 30
0.0
  0
SPLINE
  5
271
100
AcDbEntity
  8
0
100
AcDbSpline
 62
7
  6
BYLAYER
 70
0
 71
3
 72
23
 73
19
 74
0
 42
0.0000001
 43
0.0000001
 44
0.0000000001
 40
0.0
 40
0.0
 40
0.0
 40
0.0
 40
0.0752524893
 40
0.1515729371
 40
0.2282161821
 40
0.3044900774
 40
0.3796796727
 40
0.4531017422
 40
0.52411326
 40
0.5921278619
 40
0.6566374926
 40
0.7172375014
 40
0.7736584765
 40
0.8258147758
 40
0.87385899
 40
0.9182476198
 40
0.9599142347
 40
1.0
 40
1.0
 40
1.0
 40
1.0
 10
14.4174570853
 20
42.0866130969
 30
0.0
 10
14.5192726582
 20
41.9636041166
 30
0.0
 10
14.7156221595
 20
41.708488231
 30
0.0
 10
14.9845913433
 20
41.3053868293
 30
0.0
 10
15.2272725377
 20
40.8834075165
 30
0.0
 10
15.4403501516
 20
40.4484061868
 30
0.0
 10
15.6209235566
 20
40.0062943925
 30
0.0
 10
15.7665692714
 20
39.5631924127
 30
0.0
 10
15.875367658
 20
39.1252661896
 30
0.0
 10
15.9459373112
 20
38.6986816467
 30
0.0
 10
15.9774851487
 20
38.2895304498
 30
0.0
 10
15.9698683916
 20
37.903738808
 30
0.0
 10
15.9236748725
 20
37.5469300025
 30
0.0
 10
15.8401797243
 20
37.2242316141
 30
0.0
 10
15.7213091846
 20
36.9401048494
 30
0.0
 10
15.5695120285
 20
36.6977033295
 30
0.0
 10
15.3871349086
 20
36.4996365047
 30
0.0
 10
15.245502475
 20
36.3970577353
 30
0.0
 10
15.1718393038
 20
36.3545285374
 30
0.0
  0
SPLINE
  5
272
100
AcDbEntity
  8
0
100
AcDbSpline
 62
7
  6
BYLAYER
 70
0
 71
3
 72
21
 73
17
 74
0
 42
0.0000001
 43
0.0000001
 44
0.0000000001
 40
0.0
 40
0.0
 40
0.0
 40
0.0
 40
0.0442615062
 40
0.089467344
 40
0.1362006761
 40
0.1850570183
 40
0.2365735796
 40
0.2910706613
 40
0.3487345228
 40
0.4096443209
 40
0.4737959632
 40
0.5411054779
 40
0.6114301766
 40
0.6845693707
 40
0.8382644233
 40
1.0
 40
1.0
 40
1.0
 40
1.0
 10
11.0218578828
 20
43.5425501154
 30
0.0
 10
11.0723227451
 20
43.5716858433
 30
0.0
 10
11.1786316901
 20
43.6234422266
 30
0.0
 10
11.3496393983
 20
43.6791087634
 30
0.0
 10
11.5324856629
 20
43.71261347
 30
0.0
 10
11.7263280582
 20
43.7233807237
 30
0.0
 10
11.9302610279
 20
43.7109874963
 30
0.0
 10
12.1431313878
 20
43.6752156078
 30
0.0
 10
12.3634270383
 20
43.6157597444
 30
0.0
 10
12.5895453704
 20
43.5328300972
 30
0.0
 10
12.8197727482
 20
43.426700666
 30
0.0
 10
13.0524257809
 20
43.2980051355
 30
0.0
 10
13.2857547051
 20
43.1474412331
 30
0.0
 10
13.6007289082
 20
42.915032704
 30
0.0
 10
13.9845939175
 20
42.5751884889
 30
0.0
 10
14.2658057653
 20
42.268572416
 30
0.0
 10
14.4021596907
 20
42.1050277401
 30
0.0
  0
SPLINE
  5
273
100
AcDbEntity
  8
0
100
AcDbSpline
 62
7
  6
BYLAYER
 70
0
 71
3
 72
16
 73
12
 74
0
 42
0.0000001
 43
0.0000001
 44
0.0000000001
 40
0.0
 40
0.0
 40
0.0
 40
0.0
 40
0.0496343577
 40
0.1002235533
 40
0.2053699599
 40
0.3176042318
 40
0.4381269013
 40
0.5673019268
 40
0.7047454936
 40
0.8494651696
 40
1.0
 40
1.0
 40
1.0
 40
1.0
 10
15.3060837381
 20
35.3238360656
 30
0.0
 10
15.2316896688
 20
35.3000643603
 30
0.0
 10
15.0783892381
 20
35.261199612
 30
0.0
 10
14.7574968671
 20
35.2183954524
 30
0.0
 10
14.3327839519
 20
35.2327986684
 30
0.0
 10
13.8118080634
 20
35.3510941075
 30
0.0
 10
13.2816497019
 20
35.5647227741
 30
0.0
 10
12.7513517922
 20
35.8677412815
 30
0.0
 10
12.2299056161
 20
36.2533989634
 30
0.0
 10
11.7267961283
 20
36.7137176003
 30
0.0
 10
11.4147274116
 20
37.0589104882
 30
0.0
 10
11.2636955173
 20
37.2413803866
 30
0.0
  0
SPLINE
  5
274
100
AcDbEntity
  8
0
100
AcDbSpline
 62
7
  6
BYLAYER
 70
0
 71
3
 72
22
 73
18
 74
0
 42
0.0000001
 43
0.0000001
 44
0.0000000001
 40
0.0
 40
0.0
 40
0.0
 40
0.0
 40
0.1437154046
 40
0.2163385651
 40
0.2887385574
 40
0.3603735853
 40
0.4307301293
 40
0.4993320433
 40
0.5657553472
 40
0.6296469206
 40
0.6907443864
 40
0.748895419
 40
0.8040769595
 40
0.8564152857
 40
0.9061986458
 40
0.9538642894
 40
1.0
 40
1.0
 40
1.0
 40
1.0
 10
11.244807882
 20
37.2642849849
 30
0.0
 10
11.014910914
 20
37.5441185656
 30
0.0
 10
10.69631923
 20
37.9889174156
 30
0.0
 10
10.3292920042
 20
38.617517438
 30
0.0
 10
10.0837824175
 20
39.1056197936
 30
0.0
 10
9.8719318392
 20
39.6030059856
 30
0.0
 10
9.6961229693
 20
40.104147778
 30
0.0
 10
9.558380906
 20
40.6034793266
 30
0.0
 10
9.4603336938
 20
41.095543022
 30
0.0
 10
9.4032219359
 20
41.5750422558
 30
0.0
 10
9.3879074414
 20
42.0369154749
 30
0.0
 10
9.4149477523
 20
42.4763742652
 30
0.0
 10
9.4846628676
 20
42.8888908885
 30
0.0
 10
9.5971595466
 20
43.2700974499
 30
0.0
 10
9.752378194
 20
43.6156108689
 30
0.0
 10
9.9496492818
 20
43.9206690814
 30
0.0
 10
10.1103587412
 20
44.0959460912
 30
0.0
 10
10.1963775009
 20
44.1741597091
 30
0.0
  0
SPLINE
  5
275
100
AcDbEntity
  8
0
100
AcDbSpline
 62
7
  6
BYLAYER
 70
0
 71
3
 72
13
 73
9
 74
0
 42
0.0000001
 43
0.0000001
 44
0.0000000001
 40
0.0
 40
0.0
 40
0.0
 40
0.0
 40
0.2702944645
 40
0.5238380229
 40
0.6457568477
 40
0.7652378421
 40
0.8830448745
 40
1.0
 40
1.0
 40
1.0
 40
1.0
 10
16.0495397248
 20
35.5238557647
 30
0.0
 10
16.2076609337
 20
35.4891351154
 30
0.0
 10
16.5194869265
 20
35.4433270251
 30
0.0
 10
16.9083813719
 20
35.4519125134
 30
0.0
 10
17.2011831928
 20
35.5008052756
 30
0.0
 10
17.4092281361
 20
35.5570630229
 30
0.0
 10
17.6076434126
 20
35.6332136923
 30
0.0
 10
17.7332206763
 20
35.6971410821
 30
0.0
 10
17.7938843719
 20
35.732165119
 30
0.0
  0
SPLINE
  5
276
100
AcDbEntity
  8
0
100
AcDbSpline
 62
7
  6
BYLAYER
 70
0
 71
3
 72
15
 73
11
 74
0
 42
0.0000001
 43
0.0000001
 44
0.0000000001
 40
0.0
 40
0.0
 40
0.0
 40
0.0
 40
0.1486058177
 40
0.2895003741
 40
0.4227225657
 40
0.5486426469
 40
0.6680011788
 40
0.7819384642
 40
0.8919873012
 40
1.0
 40
1.0
 40
1.0
 40
1.0
 10
22.9256226475
 20
40.7242670709
 30
0.0
 10
22.9256237486
 20
40.5679833972
 30
0.0
 10
22.9130441878
 20
40.2633145889
 30
0.0
 10
22.8530557903
 20
39.8221109142
 30
0.0
 10
22.7528755133
 20
39.4126154671
 30
0.0
 10
22.6132742257
 20
39.0387497145
 30
0.0
 10
22.4353166976
 20
38.7041506058
 30
0.0
 10
22.2203751185
 20
38.4122430431
 30
0.0
 10
21.9704659924
 20
38.166288917
 30
0.0
 10
21.7813302528
 20
38.0343044028
 30
0.0
 10
21.6829554766
 20
37.9775079653
 30
0.0
  0
SPLINE
  5
277
100
AcDbEntity
  8
0
100
AcDbSpline
 62
7
  6
BYLAYER
 70
0
 71
3
 72
19
 73
15
 74
0
 42
0.0000001
 43
0.0000001
 44
0.0000000001
 40
0.0
 40
0.0
 40
0.0
 40
0.0
 40
0.0475027474
 40
0.0956095395
 40
0.1448868531
 40
0.1958343532
 40
0.2488619529
 40
0.3042860228
 40
0.422984803
 40
0.4865481287
 40
0.5528695291
 40
0.693295631
 40
0.8429971709
 40
1.0
 40
1.0
 40
1.0
 40
1.0
 10
18.4121377617
 20
49.1949344399
 30
0.0
 10
18.483870357
 20
49.2363452581
 30
0.0
 10
18.6342814239
 20
49.309699383
 30
0.0
 10
18.8751456234
 20
49.3883146309
 30
0.0
 10
19.1301940877
 20
49.4354545198
 30
0.0
 10
19.3976127958
 20
49.4508235672
 30
0.0
 10
19.6756576109
 20
49.4345208969
 30
0.0
 10
20.0669318178
 20
49.3692799095
 30
0.0
 10
20.4636436581
 20
49.2405951353
 30
0.0
 10
20.8575427327
 20
49.0591790546
 30
0.0
 10
21.2702478905
 20
48.8306802097
 30
0.0
 10
21.7814067691
 20
48.4738908159
 30
0.0
 10
22.3652355857
 20
47.9550119375
 30
0.0
 10
22.7262530349
 20
47.5590116382
 30
0.0
 10
22.9008065193
 20
47.348123996
 30
0.0
  0
SPLINE
  5
278
100
AcDbEntity
  8
0
100
AcDbSpline
 62
7
  6
BYLAYER
 70
0
 71
3
 72
15
 73
11
 74
0
 42
0.0000001
 43
0.0000001
 44
0.0000000001
 40
0.0
 40
0.0
 40
0.0
 40
0.0
 40
0.1080127572
 40
0.21806165
 40
0.3319990073
 40
0.4513576276
 40
0.5772777375
 40
0.7105000912
 40
0.8513948522
 40
1.0
 40
1.0
 40
1.0
 40
1.0
 10
15.682982338
 20
48.3698283187
 30
0.0
 10
15.7813571543
 20
48.4266247794
 30
0.0
 10
15.9902276909
 20
48.5244275725
 30
0.0
 10
16.3281853185
 20
48.617876655
 30
0.0
 10
16.6884559002
 20
48.658065807
 30
0.0
 10
17.0672060471
 20
48.6448797332
 30
0.0
 10
17.4607838588
 20
48.578843305
 30
0.0
 10
17.8655071735
 20
48.4608518164
 30
0.0
 10
18.2775933472
 20
48.2921986505
 30
0.0
 10
18.5477334491
 20
48.1507584886
 30
0.0
 10
18.6830775506
 20
48.0726154524
 30
0.0
  0
SPLINE
  5
279
100
AcDbEntity
  8
0
100
AcDbSpline
 62
7
  6
BYLAYER
 70
0
 71
3
 72
13
 73
9
 74
0
 42
0.0000001
 43
0.0000001
 44
0.0000000001
 40
0.0
 40
0.0
 40
0.0
 40
0.0
 40
0.1169571383
 40
0.2347659386
 40
0.3542482635
 40
0.4761677546
 40
0.7297102452
 40
1.0
 40
1.0
 40
1.0
 40
1.0
 10
11.7939112333
 20
46.1244854724
 30
0.0
 10
11.7332565571
 20
46.0894666428
 30
0.0
 10
11.6151219365
 20
46.0126903763
 30
0.0
 10
11.4499870821
 20
45.8789581581
 30
0.0
 10
11.2972614369
 20
45.7269449013
 30
0.0
 10
11.1085362424
 20
45.497865801
 30
0.0
 10
10.906664826
 20
45.1654389804
 30
0.0
 10
10.7904177942
 20
44.8725479093
 30
0.0
 10
10.7414209285
 20
44.7182833961
 30
0.0
  0
SPLINE
  5
27A
100
AcDbEntity
  8
0
100
AcDbSpline
 62
7
  6
BYLAYER
 70
0
 71
3
 72
19
 73
15
 74
0
 42
0.0000001
 43
0.0000001
 44
0.0000000001
 40
0.0
 40
0.0
 40
0.0
 40
0.0
 40
0.062391684
 40
0.1288324836
 40
0.2703533745
 40
0.4174431196
 40
0.5617172598
 40
0.6953244085
 40
0.7563177584
 40
0.812797985
 40
0.8647366222
 40
0.9125504304
 40
0.9571578829
 40
1.0
 40
1.0
 40
1.0
 40
1.0
 10
13.7332455796
 20
36.9274845391
 30
0.0
 10
13.7332455796
 20
36.9523603727
 30
0.0
 10
13.7298563285
 20
37.0037618652
 30
0.0
 10
13.7109801093
 20
37.1100519293
 30
0.0
 10
13.6653252771
 20
37.244989044
 30
0.0
 10
13.5828174541
 20
37.3974601258
 30
0.0
 10
13.4780321626
 20
37.5316179588
 30
0.0
 10
13.3760803596
 20
37.6219090164
 30
0.0
 10
13.2904979769
 20
37.6742969823
 30
0.0
 10
13.2284999653
 20
37.7016944765
 30
0.0
 10
13.1680095284
 20
37.7177600385
 30
0.0
 10
13.1102098734
 20
37.7220273895
 30
0.0
 10
13.0563869613
 20
37.7141243531
 30
0.0
 10
13.0237742002
 20
37.7005852739
 30
0.0
 10
13.0089824725
 20
37.6920426243
 30
0.0
  0
SPLINE
  5
27B
100
AcDbEntity
  8
0
100
AcDbSpline
 62
7
  6
BYLAYER
 70
0
 71
3
 72
9
 73
5
 74
0
 42
0.0000001
 43
0.0000001
 44
0.0000000001
 40
0.0
 40
0.0
 40
0.0
 40
0.0
 40
0.5180960765
 40
1.0
 40
1.0
 40
1.0
 40
1.0
 10
12.8847139094
 20
36.9630735834
 30
0.0
 10
13.0206063585
 20
36.8616903396
 30
0.0
 10
13.2935031428
 20
36.6796695431
 30
0.0
 10
13.5872620295
 20
36.5328363881
 30
0.0
 10
13.7332455796
 20
36.473184678
 30
0.0
  0
SPLINE
  5
27C
100
AcDbEntity
  8
0
100
AcDbSpline
 62
7
  6
BYLAYER
 70
0
 71
3
 72
15
 73
11
 74
0
 42
0.0000001
 43
0.0000001
 44
0.0000000001
 40
0.0
 40
0.0
 40
0.0
 40
0.0
 40
0.1203655225
 40
0.2516978245
 40
0.3895264213
 40
0.5285383477
 40
0.6632762117
 40
0.7888168657
 40
0.9015244693
 40
1.0
 40
1.0
 40
1.0
 40
1.0
 10
14.5285993475
 20
40.3668869763
 30
0.0
 10
14.5285993475
 20
40.4019975197
 30
0.0
 10
14.5205137045
 20
40.4754985503
 30
0.0
 10
14.489290847
 20
40.5851753802
 30
0.0
 10
14.4401332142
 20
40.6940694221
 30
0.0
 10
14.3758383505
 20
40.7959177104
 30
0.0
 10
14.3000823056
 20
40.8849398338
 30
0.0
 10
14.2170617777
 20
40.9560991682
 30
0.0
 10
14.1313980016
 20
41.0054198445
 30
0.0
 10
14.0712729557
 20
41.0228045491
 30
0.0
 10
14.0427240315
 20
41.0259824028
 30
0.0
  0
SPLINE
  5
27D
100
AcDbEntity
  8
0
100
AcDbSpline
 62
7
  6
BYLAYER
 70
0
 71
3
 72
13
 73
9
 74
0
 42
0.0000001
 43
0.0000001
 44
0.0000000001
 40
0.0
 40
0.0
 40
0.0
 40
0.0
 40
0.12058129
 40
0.2524741294
 40
0.5293077414
 40
0.6643123082
 40
0.7900094094
 40
1.0
 40
1.0
 40
1.0
 40
1.0
 10
13.1901764787
 20
39.9207481085
 30
0.0
 10
13.1901764787
 20
39.9277805195
 30
0.0
 10
13.1885368387
 20
39.9425228257
 30
0.0
 10
13.1800604185
 20
39.9722973776
 30
0.0
 10
13.1646984403
 20
40.000614091
 30
0.0
 10
13.1442650997
 20
40.0245651422
 30
0.0
 10
13.1234253711
 20
40.0423724141
 30
0.0
 10
13.104850051
 20
40.0513281883
 30
0.0
 10
13.0926783821
 20
40.0526830479
 30
0.0
  0
SPLINE
  5
27E
100
AcDbEntity
  8
0
100
AcDbSpline
 62
7
  6
BYLAYER
 70
0
 71
3
 72
9
 73
5
 74
0
 42
0.0000001
 43
0.0000001
 44
0.0000000001
 40
0.0
 40
0.0
 40
0.0
 40
0.0
 40
0.5132448044
 40
1.0
 40
1.0
 40
1.0
 40
1.0
 10
13.0926783821
 20
40.0526830479
 30
0.0
 10
13.0867519293
 20
40.0533427365
 30
0.0
 10
13.0746739805
 20
40.0523066136
 30
0.0
 10
13.0646575069
 20
40.0453575222
 30
0.0
 10
13.0609051411
 20
40.0411264399
 30
0.0
  0
SPLINE
  5
27F
100
AcDbEntity
  8
0
100
AcDbSpline
 62
7
  6
BYLAYER
 70
0
 71
3
 72
11
 73
7
 74
0
 42
0.0000001
 43
0.0000001
 44
0.0000000001
 40
0.0
 40
0.0
 40
0.0
 40
0.0
 40
0.22248818
 40
0.4505877012
 40
0.7067133848
 40
1.0
 40
1.0
 40
1.0
 40
1.0
 10
13.1590816806
 20
42.7582307816
 30
0.0
 10
13.163691993
 20
42.7591699396
 30
0.0
 10
13.1727948351
 20
42.7629875032
 30
0.0
 10
13.1830620202
 20
42.7744085274
 30
0.0
 10
13.1890293451
 20
42.7900173686
 30
0.0
 10
13.1901764787
 20
42.8016984711
 30
0.0
 10
13.1901764787
 20
42.8079006554
 30
0.0
  0
SPLINE
  5
280
100
AcDbEntity
  8
0
100
AcDbSpline
 62
7
  6
BYLAYER
 70
0
 71
3
 72
13
 73
9
 74
0
 42
0.0000001
 43
0.0000001
 44
0.0000000001
 40
0.0
 40
0.0
 40
0.0
 40
0.0
 40
0.12058129
 40
0.2524741294
 40
0.5293077414
 40
0.6643123082
 40
0.7900094094
 40
1.0
 40
1.0
 40
1.0
 40
1.0
 10
13.1901764787
 20
42.8079006554
 30
0.0
 10
13.1901764787
 20
42.8149330665
 30
0.0
 10
13.1885368387
 20
42.8296753726
 30
0.0
 10
13.1800604185
 20
42.8594499245
 30
0.0
 10
13.1646984403
 20
42.887766638
 30
0.0
 10
13.1442650997
 20
42.9117176891
 30
0.0
 10
13.1234253711
 20
42.929524961
 30
0.0
 10
13.104850051
 20
42.9384807353
 30
0.0
 10
13.0926783821
 20
42.9398355949
 30
0.0
  0
SPLINE
  5
281
100
AcDbEntity
  8
0
100
AcDbSpline
 62
7
  6
BYLAYER
 70
0
 71
3
 72
9
 73
5
 74
0
 42
0.0000001
 43
0.0000001
 44
0.0000000001
 40
0.0
 40
0.0
 40
0.0
 40
0.0
 40
0.5132448044
 40
1.0
 40
1.0
 40
1.0
 40
1.0
 10
13.0926783821
 20
42.9398355949
 30
0.0
 10
13.0867519293
 20
42.9404952835
 30
0.0
 10
13.0746739805
 20
42.9394591606
 30
0.0
 10
13.0646575069
 20
42.9325100691
 30
0.0
 10
13.0609051411
 20
42.9282789869
 30
0.0
  0
SPLINE
  5
282
100
AcDbEntity
  8
0
100
AcDbSpline
 62
7
  6
BYLAYER
 70
0
 71
3
 72
17
 73
13
 74
0
 42
0.0000001
 43
0.0000001
 44
0.0000000001
 40
0.0
 40
0.0
 40
0.0
 40
0.0
 40
0.1323896813
 40
0.2786068704
 40
0.4293557251
 40
0.5748290053
 40
0.7061098192
 40
0.7646979989
 40
0.8182622383
 40
0.912040405
 40
0.9558060896
 40
1.0
 40
1.0
 40
1.0
 40
1.0
 10
15.6905164669
 20
38.4772088005
 30
0.0
 10
15.6905164669
 20
38.4864847358
 30
0.0
 10
15.6876939541
 20
38.5060254009
 30
0.0
 10
15.6773808136
 20
38.5344524428
 30
0.0
 10
15.6616253289
 20
38.5613564857
 30
0.0
 10
15.6419623729
 20
38.5841676299
 30
0.0
 10
15.6230899399
 20
38.5985922084
 30
0.0
 10
15.6075703796
 20
38.605847708
 30
0.0
 10
15.5936606079
 20
38.6097824728
 30
0.0
 10
15.5796685168
 20
38.6094997801
 30
0.0
 10
15.5679940928
 20
38.6040349322
 30
0.0
 10
15.5632918356
 20
38.5999136611
 30
0.0
 10
15.5612388236
 20
38.5975956383
 30
0.0
  0
SPLINE
  5
283
100
AcDbEntity
  8
0
100
AcDbSpline
 62
7
  6
BYLAYER
 70
0
 71
3
 72
23
 73
19
 74
0
 42
0.0000001
 43
0.0000001
 44
0.0000000001
 40
0.0
 40
0.0
 40
0.0
 40
0.0
 40
0.0738383392
 40
0.1486725296
 40
0.2237975382
 40
0.2985659881
 40
0.3723078206
 40
0.4443888126
 40
0.5142235647
 40
0.5812930499
 40
0.6451702255
 40
0.7055469736
 40
0.7622633463
 40
0.815342079
 40
0.8650274776
 40
0.9118180837
 40
0.9564770308
 40
1.0
 40
1.0
 40
1.0
 40
1.0
 10
11.6899717809
 20
37.7871062829
 30
0.0
 10
11.589460307
 20
37.9085397095
 30
0.0
 10
11.395737553
 20
38.1603379531
 30
0.0
 10
11.1305952817
 20
38.5582020132
 30
0.0
 10
10.8916499368
 20
38.9746442231
 30
0.0
 10
10.6820869318
 20
39.4040235257
 30
0.0
 10
10.5047029796
 20
39.8406777214
 30
0.0
 10
10.3618532189
 20
40.2787779396
 30
0.0
 10
10.2554328462
 20
40.7125098058
 30
0.0
 10
10.1868730142
 20
41.1361372213
 30
0.0
 10
10.1571093627
 20
41.544078657
 30
0.0
 10
10.1665788011
 20
41.9309920248
 30
0.0
 10
10.2152650719
 20
42.2918403084
 30
0.0
 10
10.3027479796
 20
42.6219253629
 30
0.0
 10
10.4281980517
 20
42.9168689477
 30
0.0
 10
10.5904231692
 20
43.1725806885
 30
0.0
 10
10.7875172862
 20
43.3850569078
 30
0.0
 10
10.9413943019
 20
43.4960862617
 30
0.0
 10
11.0218590673
 20
43.5425480639
 30
0.0
  0
SPLINE
  5
284
100
AcDbEntity
  8
0
100
AcDbSpline
 62
7
  6
BYLAYER
 70
0
 71
3
 72
35
 73
31
 74
0
 42
0.0000001
 43
0.0000001
 44
0.0000000001
 40
0.0
 40
0.0
 40
0.0
 40
0.0
 40
0.0739774788
 40
0.1093750118
 40
0.1434639998
 40
0.1761028079
 40
0.2071886921
 40
0.236669425
 40
0.2645504301
 40
0.2909040843
 40
0.31587967
 40
0.3397102698
 40
0.3627097865
 40
0.3852600287
 40
0.4077832963
 40
0.4307043482
 40
0.4544119581
 40
0.4792293995
 40
0.5054001615
 40
0.5330840108
 40
0.5623624086
 40
0.5932488506
 40
0.625697047
 40
0.6596112212
 40
0.6948554765
 40
0.7312596817
 40
0.7686269215
 40
0.8453346384
 40
0.9231163402
 40
1.0
 40
1.0
 40
1.0
 40
1.0
 10
11.2917207738
 20
37.2687369069
 30
0.0
 10
11.4883952556
 20
37.0325979162
 30
0.0
 10
11.7999819942
 20
36.699716911
 30
0.0
 10
12.2489288092
 20
36.3072240041
 30
0.0
 10
12.5875961027
 20
36.0510380928
 30
0.0
 10
12.929845121
 20
35.8312135835
 30
0.0
 10
13.2725037448
 20
35.6498471919
 30
0.0
 10
13.6123824971
 20
35.5087117979
 30
0.0
 10
13.9463370701
 20
35.4091921573
 30
0.0
 10
14.2712930163
 20
35.3523730579
 30
0.0
 10
14.5842196192
 20
35.3390320819
 30
0.0
 10
14.8820935672
 20
35.3695547695
 30
0.0
 10
15.1618652536
 20
35.4439646128
 30
0.0
 10
15.4204594711
 20
35.5617380326
 30
0.0
 10
15.6549637013
 20
35.7216343449
 30
0.0
 10
15.8627998771
 20
35.9218164107
 30
0.0
 10
16.0418930965
 20
36.1599453939
 30
0.0
 10
16.1906950216
 20
36.4333813478
 30
0.0
 10
16.3079936188
 20
36.7393350866
 30
0.0
 10
16.3928957191
 20
37.0748226886
 30
0.0
 10
16.4447856001
 20
37.4366627496
 30
0.0
 10
16.4632569086
 20
37.8214640795
 30
0.0
 10
16.4482085375
 20
38.2256145889
 30
0.0
 10
16.3998349466
 20
38.6453160859
 30
0.0
 10
16.3185914631
 20
39.0765990943
 30
0.0
 10
16.2052682184
 20
39.5153971236
 30
0.0
 10
16.0111834177
 20
40.1099697088
 30
0.0
 10
15.6956984391
 20
40.8440545859
 30
0.0
 10
15.2183522423
 20
41.6804099884
 30
0.0
 10
14.8381607141
 20
42.2004846702
 30
0.0
 10
14.6345115707
 20
42.4465243746
 30
0.0
  0
SPLINE
  5
285
100
AcDbEntity
  8
0
100
AcDbSpline
 62
7
  6
BYLAYER
 70
0
 71
3
 72
36
 73
32
 74
0
 42
0.0000001
 43
0.0000001
 44
0.0000000001
 40
0.0
 40
0.0
 40
0.0
 40
0.0
 40
0.0361021402
 40
0.0710134889
 40
0.1045705737
 40
0.1366783747
 40
0.1672713924
 40
0.1963247243
 40
0.2238710836
 40
0.2500040237
 40
0.2748834413
 40
0.2987421619
 40
0.321880092
 40
0.3446510563
 40
0.3674388719
 40
0.3906259611
 40
0.4145622507
 40
0.4395421509
 40
0.4657922805
 40
0.4934669336
 40
0.5226537776
 40
0.5533795185
 40
0.5856175513
 40
0.6192976565
 40
0.6543108585
 40
0.6905174033
 40
0.7277522858
 40
0.7658284997
 40
0.8436602596
 40
0.9223108636
 40
1.0
 40
1.0
 40
1.0
 40
1.0
 10
14.0634132131
 20
43.0635996254
 30
0.0
 10
13.9624284594
 20
43.1607892345
 30
0.0
 10
13.7579178133
 20
43.3459906055
 30
0.0
 10
13.4396147008
 20
43.5984441343
 30
0.0
 10
13.1170754309
 20
43.8191299579
 30
0.0
 10
12.7930792497
 20
44.0061344552
 30
0.0
 10
12.4703144588
 20
44.1579128322
 30
0.0
 10
12.1514400788
 20
44.2730980517
 30
0.0
 10
11.8391049557
 20
44.3506501284
 30
0.0
 10
11.5358955343
 20
44.3898107177
 30
0.0
 10
11.2443606134
 20
44.3900165882
 30
0.0
 10
10.9670518721
 20
44.3510770617
 30
0.0
 10
10.7065244555
 20
44.2730953219
 30
0.0
 10
10.4653270614
 20
44.1566230638
 30
0.0
 10
10.2458382721
 20
44.0027806273
 30
0.0
 10
10.0501893423
 20
43.8131057386
 30
0.0
 10
9.8800937925
 20
43.5895593995
 30
0.0
 10
9.736892256
 20
43.3343160382
 30
0.0
 10
9.6216665692
 20
43.0496947926
 30
0.0
 10
9.5351898206
 20
42.7381939198
 30
0.0
 10
9.4780775643
 20
42.4024523037
 30
0.0
 10
9.4507286099
 20
42.045294479
 30
0.0
 10
9.4532881929
 20
41.669717162
 30
0.0
 10
9.4857293327
 20
41.2788784875
 30
0.0
 10
9.5477434652
 20
40.8760725879
 30
0.0
 10
9.6387863068
 20
40.4647068633
 30
0.0
 10
9.7581066947
 20
40.0482623626
 30
0.0
 10
9.9549209606
 20
39.4869636247
 30
0.0
 10
10.2646550706
 20
38.7962452606
 30
0.0
 10
10.7233616109
 20
38.0095583086
 30
0.0
 10
11.0840332867
 20
37.5195978137
 30
0.0
 10
11.2763441672
 20
37.2872565127
 30
0.0
  0
SPLINE
  5
286
100
AcDbEntity
  8
0
100
AcDbSpline
 62
7
  6
BYLAYER
 70
0
 71
3
 72
9
 73
5
 74
0
 42
0.0000001
 43
0.0000001
 44
0.0000000001
 40
0.0
 40
0.0
 40
0.0
 40
0.0
 40
0.2540563906
 40
1.0
 40
1.0
 40
1.0
 40
1.0
 10
14.6345115707
 20
42.4465243746
 30
0.0
 10
14.5890973846
 20
42.5013917446
 30
0.0
 10
14.4074341307
 20
42.7149266861
 30
0.0
 10
14.2140901344
 20
42.9185853481
 30
0.0
 10
14.0634132131
 20
43.0635996254
 30
0.0
  0
SPLINE
  5
287
100
AcDbEntity
  8
0
100
AcDbSpline
 62
7
  6
BYLAYER
 70
0
 71
3
 72
25
 73
21
 74
0
 42
0.0000001
 43
0.0000001
 44
0.0000000001
 40
0.0
 40
0.0
 40
0.0
 40
0.0
 40
0.0755546183
 40
0.1520891266
 40
0.2288034024
 40
0.3049317367
 40
0.3797015773
 40
0.4523943173
 40
0.5223560062
 40
0.5890325806
 40
0.6520022953
 40
0.7110123227
 40
0.7660246014
 40
0.8172656253
 40
0.8652712597
 40
0.9109074135
 40
0.9332214718
 40
0.9553955153
 40
0.9775988502
 40
1.0
 40
1.0
 40
1.0
 40
1.0
 10
14.4490673766
 20
42.1094800097
 30
0.0
 10
14.5612672198
 20
41.9727323794
 30
0.0
 10
14.7767503095
 20
41.6887896096
 30
0.0
 10
15.0690989751
 20
41.2394149475
 30
0.0
 10
15.329324436
 20
40.7691380629
 30
0.0
 10
15.5534791304
 20
40.2851853499
 30
0.0
 10
15.7381481298
 20
39.7948505189
 30
0.0
 10
15.8805279417
 20
39.3055846688
 30
0.0
 10
15.9784589719
 20
38.8247783314
 30
0.0
 10
16.0304393812
 20
38.359666985
 30
0.0
 10
16.035631924
 20
37.9172016741
 30
0.0
 10
15.9938215828
 20
37.5039450164
 30
0.0
 10
15.9053861215
 20
37.1260134073
 30
0.0
 10
15.7711864577
 20
36.7890516594
 30
0.0
 10
15.5927142062
 20
36.4984418475
 30
0.0
 10
15.407142565
 20
36.2974737457
 30
0.0
 10
15.2409384083
 20
36.1669317716
 30
0.0
 10
15.1083018059
 20
36.0839609661
 30
0.0
 10
14.9673461461
 20
36.015675213
 30
0.0
 10
14.8688432781
 20
35.9803247817
 30
0.0
 10
14.8186349165
 20
35.9651726524
 30
0.0
  0
SPLINE
  5
288
100
AcDbEntity
  8
0
100
AcDbSpline
 62
7
  6
BYLAYER
 70
0
 71
3
 72
16
 73
12
 74
0
 42
0.0000001
 43
0.0000001
 44
0.0000000001
 40
0.0
 40
0.0
 40
0.0
 40
0.0
 40
0.0474664363
 40
0.0962112952
 40
0.1987583196
 40
0.3098455222
 40
0.4304640705
 40
0.5606979277
 40
0.6998982725
 40
0.8468784054
 40
1.0
 40
1.0
 40
1.0
 40
1.0
 10
14.8186349165
 20
35.9651726524
 30
0.0
 10
14.7593691379
 20
35.9472871307
 30
0.0
 10
14.6369144731
 20
35.918329299
 30
0.0
 10
14.3790040817
 20
35.888013068
 30
0.0
 10
14.0345927709
 20
35.9046499431
 30
0.0
 10
13.6086534658
 20
36.0064917514
 30
0.0
 10
13.1707943884
 20
36.1872576032
 30
0.0
 10
12.7295175205
 20
36.4429328625
 30
0.0
 10
12.2932748762
 20
36.7682091765
 30
0.0
 10
11.8707791318
 20
37.1564780325
 30
0.0
 10
11.6080840007
 20
37.4474524745
 30
0.0
 10
11.4807497212
 20
37.6012920043
 30
0.0
  0
SPLINE
  5
289
100
AcDbEntity
  8
0
100
AcDbSpline
 62
7
  6
BYLAYER
 70
0
 71
3
 72
14
 73
10
 74
0
 42
0.0000001
 43
0.0000001
 44
0.0000000001
 40
0.0
 40
0.0
 40
0.0
 40
0.0
 40
0.145349212
 40
0.284547337
 40
0.5438855124
 40
0.6648601869
 40
0.7806404174
 40
0.8920123018
 40
1.0
 40
1.0
 40
1.0
 40
1.0
 10
9.8795005215
 20
41.6427377778
 30
0.0
 10
9.8795005215
 20
41.737620235
 30
0.0
 10
9.885962435
 20
41.9234889808
 30
0.0
 10
9.9254897465
 20
42.2764989805
 30
0.0
 10
10.0048946602
 20
42.6086360517
 30
0.0
 10
10.1283489179
 20
42.9086109713
 30
0.0
 10
10.2379571715
 20
43.1082973063
 30
0.0
 10
10.3660548512
 20
43.2863218178
 30
0.0
 10
10.4644625652
 20
43.3910499109
 30
0.0
 10
10.516195007
 20
43.4389357394
 30
0.0
  0
SPLINE
  5
28A
100
AcDbEntity
  8
0
100
AcDbSpline
 62
7
  6
BYLAYER
 70
0
 71
3
 72
21
 73
17
 74
0
 42
0.0000001
 43
0.0000001
 44
0.0000000001
 40
0.0
 40
0.0
 40
0.0
 40
0.0
 40
0.0488369455
 40
0.0973170216
 40
0.1461944645
 40
0.1961931732
 40
0.2479566999
 40
0.3020146217
 40
0.3587635671
 40
0.4184721352
 40
0.4812804228
 40
0.5472240107
 40
0.6162401554
 40
0.6881835448
 40
0.8398573375
 40
1.0
 40
1.0
 40
1.0
 40
1.0
 10
10.516195007
 20
43.4389357394
 30
0.0
 10
10.5709387861
 20
43.4896089943
 30
0.0
 10
10.6876836374
 20
43.5827020861
 30
0.0
 10
10.8822736474
 20
43.6939673115
 30
0.0
 10
11.0932730422
 20
43.7748061995
 30
0.0
 10
11.31874644
 20
43.8245541961
 30
0.0
 10
11.5567647042
 20
43.8429760424
 30
0.0
 10
11.8053768439
 20
43.8300427795
 30
0.0
 10
12.0626417166
 20
43.7860647593
 30
0.0
 10
12.3265782942
 20
43.7114339706
 30
0.0
 10
12.5952071524
 20
43.6068671398
 30
0.0
 10
12.8664729268
 20
43.4731666872
 30
0.0
 10
13.1383372915
 20
43.3114211823
 30
0.0
 10
13.5052338042
 20
43.055534692
 30
0.0
 10
13.95087663
 20
42.6722076907
 30
0.0
 10
14.2741355043
 20
42.320925417
 30
0.0
 10
14.4301059305
 20
42.1324889871
 30
0.0
  0
SPLINE
  5
28B
100
AcDbEntity
  8
0
100
AcDbSpline
 62
7
  6
BYLAYER
 70
0
 71
3
 72
15
 73
11
 74
0
 42
0.0000001
 43
0.0000001
 44
0.0000000001
 40
0.0
 40
0.0
 40
0.0
 40
0.0
 40
0.1293672771
 40
0.2605099173
 40
0.3918460899
 40
0.52183356
 40
0.6489544628
 40
0.7718007184
 40
0.8891544134
 40
1.0
 40
1.0
 40
1.0
 40
1.0
 10
11.4807497212
 20
37.6012920043
 30
0.0
 10
11.3590475465
 20
37.7483270794
 30
0.0
 10
11.1260538787
 20
38.0546196472
 30
0.0
 10
10.8126849743
 20
38.5410998675
 30
0.0
 10
10.5371839761
 20
39.0510658614
 30
0.0
 10
10.3044232518
 20
39.5754274661
 30
0.0
 10
10.1185346053
 20
40.1049593191
 30
0.0
 10
9.9827609197
 20
40.6303593264
 30
0.0
 10
9.8995575182
 20
41.142314663
 30
0.0
 10
9.8795005215
 20
41.4791962987
 30
0.0
 10
9.8795005215
 20
41.6427377778
 30
0.0
  0
SPLINE
  5
28C
100
AcDbEntity
  8
0
100
AcDbSpline
 62
7
  6
BYLAYER
 70
0
 71
3
 72
9
 73
5
 74
0
 42
0.0000001
 43
0.0000001
 44
0.0000000001
 40
0.0
 40
0.0
 40
0.0
 40
0.0
 40
0.2540563983
 40
1.0
 40
1.0
 40
1.0
 40
1.0
 10
14.8181461178
 20
42.6165779754
 30
0.0
 10
14.7709259682
 20
42.673627229
 30
0.0
 10
14.5820386409
 20
42.895653731
 30
0.0
 10
14.3810060024
 20
43.1074111502
 30
0.0
 10
14.2243371929
 20
43.2581921324
 30
0.0
  0
SPLINE
  5
28D
100
AcDbEntity
  8
0
100
AcDbSpline
 62
7
  6
BYLAYER
 70
0
 71
3
 72
11
 73
7
 74
0
 42
0.0000001
 43
0.0000001
 44
0.0000000001
 40
0.0
 40
0.0
 40
0.0
 40
0.0
 40
0.22248818
 40
0.4505877012
 40
0.7067133848
 40
1.0
 40
1.0
 40
1.0
 40
1.0
 10
13.1590816806
 20
39.8710782346
 30
0.0
 10
13.163691993
 20
39.8720173926
 30
0.0
 10
13.1727948351
 20
39.8758349562
 30
0.0
 10
13.1830620202
 20
39.8872559805
 30
0.0
 10
13.1890293451
 20
39.9028648216
 30
0.0
 10
13.1901764787
 20
39.9145459241
 30
0.0
 10
13.1901764787
 20
39.9207481085
 30
0.0
  0
SPLINE
  5
28E
100
AcDbEntity
  8
0
100
AcDbSpline
 62
7
  6
BYLAYER
 70
0
 71
3
 72
19
 73
15
 74
0
 42
0.0000001
 43
0.0000001
 44
0.0000000001
 40
0.0
 40
0.0
 40
0.0
 40
0.0
 40
0.0475024755
 40
0.0956090279
 40
0.1448865275
 40
0.1958334134
 40
0.2488616733
 40
0.3042848989
 40
0.4229836987
 40
0.4865478023
 40
0.5528692466
 40
0.6932951343
 40
0.8429992409
 40
1.0
 40
1.0
 40
1.0
 40
1.0
 10
15.1718381193
 20
36.3545305889
 30
0.0
 10
15.1161983441
 20
36.3224031824
 30
0.0
 10
14.999516405
 20
36.2655201306
 30
0.0
 10
14.8126856263
 20
36.2045164945
 30
0.0
 10
14.6148406328
 20
36.1679726158
 30
0.0
 10
14.4074050332
 20
36.1560268105
 30
0.0
 10
14.1917270305
 20
36.1686955399
 30
0.0
 10
13.8882126606
 20
36.219278918
 30
0.0
 10
13.5804819346
 20
36.3191065584
 30
0.0
 10
13.2749382838
 20
36.4598417656
 30
0.0
 10
12.9547961717
 20
36.637079107
 30
0.0
 10
12.5582892477
 20
36.913847715
 30
0.0
 10
12.1054140388
 20
37.316344512
 30
0.0
 10
11.8253713755
 20
37.6235226032
 30
0.0
 10
11.6899717809
 20
37.7871062829
 30
0.0
  0
SPLINE
  5
28F
100
AcDbEntity
  8
0
100
AcDbSpline
 62
7
  6
BYLAYER
 70
0
 71
3
 72
11
 73
7
 74
0
 42
0.0000001
 43
0.0000001
 44
0.0000000001
 40
0.0
 40
0.0
 40
0.0
 40
0.0
 40
0.2177853238
 40
0.4509152369
 40
0.7102996252
 40
1.0
 40
1.0
 40
1.0
 40
1.0
 10
14.4250433658
 20
40.1379940054
 30
0.0
 10
14.4415362668
 20
40.1475175916
 30
0.0
 10
14.4723951105
 20
40.1734599023
 30
0.0
 10
14.5052476428
 20
40.2271757956
 30
0.0
 10
14.5247587275
 20
40.2933731742
 30
0.0
 10
14.5285993475
 20
40.3415530272
 30
0.0
 10
14.5285993475
 20
40.3668869763
 30
0.0
  0
SPLINE
  5
290
100
AcDbEntity
  8
0
100
AcDbSpline
 62
7
  6
BYLAYER
 70
0
 71
3
 72
20
 73
16
 74
0
 42
0.0000001
 43
0.0000001
 44
0.0000000001
 40
0.0
 40
0.0
 40
0.0
 40
0.0
 40
0.1585932751
 40
0.3075933649
 40
0.3781066498
 40
0.4458075763
 40
0.5726011235
 40
0.6319655187
 40
0.6888441971
 40
0.7435277079
 40
0.7963985466
 40
0.8479243807
 40
0.8986424631
 40
0.9491358392
 40
1.0
 40
1.0
 40
1.0
 40
1.0
 10
14.2243371929
 20
43.2581921324
 30
0.0
 10
14.0516173483
 20
43.4244209299
 30
0.0
 10
13.7002942351
 20
43.7304597165
 30
0.0
 10
13.2283669836
 20
44.055505491
 30
0.0
 10
12.8477559648
 20
44.2650624218
 30
0.0
 10
12.4838629005
 20
44.4329643315
 30
0.0
 10
12.1174576097
 20
44.5541203245
 30
0.0
 10
11.755448278
 20
44.6194464919
 30
0.0
 10
11.4973855677
 20
44.6395729035
 30
0.0
 10
11.2484337302
 20
44.6316744686
 30
0.0
 10
11.0100808634
 20
44.5957175362
 30
0.0
 10
10.7838273566
 20
44.5318213282
 30
0.0
 10
10.5711262149
 20
44.4403081447
 30
0.0
 10
10.3734142182
 20
44.3217712991
 30
0.0
 10
10.253261684
 20
44.2258796535
 30
0.0
 10
10.1963802199
 20
44.1741557008
 30
0.0
  0
SPLINE
  5
291
100
AcDbEntity
  8
0
100
AcDbSpline
 62
7
  6
BYLAYER
 70
0
 71
3
 72
19
 73
15
 74
0
 42
0.0000001
 43
0.0000001
 44
0.0000000001
 40
0.0
 40
0.0
 40
0.0
 40
0.0
 40
0.1570021645
 40
0.3067040945
 40
0.4471306283
 40
0.5134522992
 40
0.5770158524
 40
0.6957145636
 40
0.7511385831
 40
0.804166145
 40
0.8551136406
 40
0.9043907447
 40
0.952497486
 40
1.0
 40
1.0
 40
1.0
 40
1.0
 10
15.6883473797
 20
43.1840336265
 30
0.0
 10
15.5137945353
 20
43.3949204955
 30
0.0
 10
15.1527772907
 20
43.790920755
 30
0.0
 10
14.5689485551
 20
44.3098006057
 30
0.0
 10
14.0577887085
 20
44.6665929501
 30
0.0
 10
13.6450805364
 20
44.8950901534
 30
0.0
 10
13.2511819377
 20
45.0765094855
 30
0.0
 10
12.8544691719
 20
45.2051937687
 30
0.0
 10
12.463194708
 20
45.2704326931
 30
0.0
 10
12.1851500525
 20
45.2867358106
 30
0.0
 10
11.9177313354
 20
45.2713680333
 30
0.0
 10
11.6626840826
 20
45.2242244751
 30
0.0
 10
11.4218189067
 20
45.1456144577
 30
0.0
 10
11.2714096145
 20
45.0722569569
 30
0.0
 10
11.1996780651
 20
45.0308450472
 30
0.0
  0
SPLINE
  5
292
100
AcDbEntity
  8
0
100
AcDbSpline
 62
7
  6
BYLAYER
 70
0
 71
3
 72
22
 73
18
 74
0
 42
0.0000001
 43
0.0000001
 44
0.0000000001
 40
0.0
 40
0.0
 40
0.0
 40
0.0
 40
0.0462759142
 40
0.0923575046
 40
0.1392408453
 40
0.1878392013
 40
0.2389034997
 40
0.2929837144
 40
0.3504230146
 40
0.4113724404
 40
0.4758185122
 40
0.5436092153
 40
0.6144762275
 40
0.6880588118
 40
0.763922581
 40
0.841574234
 40
1.0
 40
1.0
 40
1.0
 40
1.0
 10
15.3060821511
 20
35.3238393412
 30
0.0
 10
15.405450146
 20
35.3555862825
 30
0.0
 10
15.5986898461
 20
35.436572004
 30
0.0
 10
15.8626670355
 20
35.6094557816
 30
0.0
 10
16.0951428747
 20
35.8304970529
 30
0.0
 10
16.2933333305
 20
36.0966162139
 30
0.0
 10
16.4553311578
 20
36.4044146638
 30
0.0
 10
16.5796934601
 20
36.7502850887
 30
0.0
 10
16.6653704545
 20
37.1304040944
 30
0.0
 10
16.7116789268
 20
37.5406762782
 30
0.0
 10
16.7182557001
 20
37.9767266411
 30
0.0
 10
16.6850901071
 20
38.433894649
 30
0.0
 10
16.6125933676
 20
38.9072768292
 30
0.0
 10
16.5015785684
 20
39.3917629033
 30
0.0
 10
16.3532329228
 20
39.8821508948
 30
0.0
 10
16.1062608842
 20
40.5408941711
 30
0.0
 10
15.8727904595
 20
41.0210817453
 30
0.0
 10
15.6977820208
 20
41.3323880847
 30
0.0
  0
SPLINE
  5
293
100
AcDbEntity
  8
0
100
AcDbSpline
 62
7
  6
BYLAYER
 70
0
 71
3
 72
25
 73
21
 74
0
 42
0.0000001
 43
0.0000001
 44
0.0000000001
 40
0.0
 40
0.0
 40
0.0
 40
0.0
 40
0.0738329985
 40
0.1486561008
 40
0.2237741785
 40
0.2985350056
 40
0.3722689335
 40
0.4443426094
 40
0.5141697824
 40
0.5812322132
 40
0.6451032142
 40
0.7054736344
 40
0.7621835835
 40
0.8152567539
 40
0.8649374603
 40
0.9117232373
 40
0.9342834602
 40
0.9564274162
 40
0.9782862422
 40
1.0
 40
1.0
 40
1.0
 40
1.0
 10
16.1479648739
 20
43.4493923265
 30
0.0
 10
16.2775440715
 20
43.2928405879
 30
0.0
 10
16.5272846518
 20
42.9682374656
 30
0.0
 10
16.8690898522
 20
42.4553250821
 30
0.0
 10
17.1771250378
 20
41.9184712444
 30
0.0
 10
17.447286182
 20
41.3649321112
 30
0.0
 10
17.6759653398
 20
40.8020172891
 30
0.0
 10
17.8601202629
 20
40.2372378183
 30
0.0
 10
17.9973066995
 20
39.6780883417
 30
0.0
 10
18.0856915336
 20
39.1319661693
 30
0.0
 10
18.1240719663
 20
38.6060655434
 30
0.0
 10
18.1118603049
 20
38.1072722084
 30
0.0
 10
18.04908971
 20
37.6420885778
 30
0.0
 10
17.9362995567
 20
37.2165461915
 30
0.0
 10
17.7746283773
 20
36.8363502488
 30
0.0
 10
17.5981149941
 20
36.558193707
 30
0.0
 10
17.4349522905
 20
36.3659579111
 30
0.0
 10
17.3034785843
 20
36.2379352702
 30
0.0
 10
17.161944834
 20
36.1248510084
 30
0.0
 10
17.0610247987
 20
36.0596112709
 30
0.0
 10
17.0092650576
 20
36.0297294443
 30
0.0
  0
SPLINE
  5
294
100
AcDbEntity
  8
0
100
AcDbSpline
 62
7
  6
BYLAYER
 70
0
 71
3
 72
25
 73
21
 74
0
 42
0.0000001
 43
0.0000001
 44
0.0000000001
 40
0.0
 40
0.0
 40
0.0
 40
0.0
 40
0.0217137578
 40
0.0435725838
 40
0.0657165398
 40
0.0882767627
 40
0.1350625397
 40
0.1847432461
 40
0.2378164165
 40
0.2945263656
 40
0.3548967858
 40
0.4187677868
 40
0.4858302176
 40
0.5556573906
 40
0.6277310665
 40
0.7014649944
 40
0.7762258215
 40
0.8513438992
 40
0.9261670015
 40
1.0
 40
1.0
 40
1.0
 40
1.0
 10
16.5496475634
 20
35.7643707442
 30
0.0
 10
16.6014073045
 20
35.7942525709
 30
0.0
 10
16.7023273398
 20
35.8594923084
 30
0.0
 10
16.8438610901
 20
35.9725765701
 30
0.0
 10
16.9753347963
 20
36.1005992111
 30
0.0
 10
17.1384974999
 20
36.2928350069
 30
0.0
 10
17.3150108831
 20
36.5709915488
 30
0.0
 10
17.4766820625
 20
36.9511874915
 30
0.0
 10
17.5894722158
 20
37.3767298778
 30
0.0
 10
17.6522428107
 20
37.8419135084
 30
0.0
 10
17.6644544721
 20
38.3407068434
 30
0.0
 10
17.6260740394
 20
38.8666074692
 30
0.0
 10
17.5376892053
 20
39.4127296417
 30
0.0
 10
17.4005027687
 20
39.9718791183
 30
0.0
 10
17.2163478456
 20
40.5366585891
 30
0.0
 10
16.9876686879
 20
41.0995734111
 30
0.0
 10
16.7175075436
 20
41.6531125444
 30
0.0
 10
16.409472358
 20
42.1899663821
 30
0.0
 10
16.0676671576
 20
42.7028787656
 30
0.0
 10
15.8179265773
 20
43.0274818879
 30
0.0
 10
15.6883473797
 20
43.1840336265
 30
0.0
  0
SPLINE
  5
295
100
AcDbEntity
  8
0
100
AcDbSpline
 62
7
  6
BYLAYER
 70
0
 71
3
 72
11
 73
7
 74
0
 42
0.0000001
 43
0.0000001
 44
0.0000000001
 40
0.0
 40
0.0
 40
0.0
 40
0.0
 40
0.2229244128
 40
0.4509113799
 40
0.7067565742
 40
1.0
 40
1.0
 40
1.0
 40
1.0
 10
15.6594508224
 20
38.4274733658
 30
0.0
 10
15.6640631312
 20
38.4284462312
 30
0.0
 10
15.6731339481
 20
38.4323325829
 30
0.0
 10
15.6834098265
 20
38.4437311854
 30
0.0
 10
15.6893717618
 20
38.459336314
 30
0.0
 10
15.6905164669
 20
38.4710080922
 30
0.0
 10
15.6905164669
 20
38.4772088005
 30
0.0
  0
SPLINE
  5
296
100
AcDbEntity
  8
0
100
AcDbSpline
 62
7
  6
BYLAYER
 70
0
 71
3
 72
15
 73
11
 74
0
 42
0.0000001
 43
0.0000001
 44
0.0000000001
 40
0.0
 40
0.0
 40
0.0
 40
0.0
 40
0.1293701092
 40
0.2605070034
 40
0.3918462069
 40
0.521833703
 40
0.6489540356
 40
0.7718041401
 40
0.8891501374
 40
1.0
 40
1.0
 40
1.0
 40
1.0
 10
20.7170076723
 20
46.2986315784
 30
0.0
 10
20.8848752543
 20
46.0958215417
 30
0.0
 10
21.2062443851
 20
45.6733597723
 30
0.0
 10
21.6384685377
 20
45.0023534623
 30
0.0
 10
22.0184765472
 20
44.2989680366
 30
0.0
 10
22.3395185804
 20
43.5757079958
 30
0.0
 10
22.5959287092
 20
42.8453217053
 30
0.0
 10
22.78318339
 20
42.1206418031
 30
0.0
 10
22.8979623143
 20
41.4145034668
 30
0.0
 10
22.9256210581
 20
40.949848666
 30
0.0
 10
22.9256226475
 20
40.7242670709
 30
0.0
  0
SPLINE
  5
297
100
AcDbEntity
  8
0
100
AcDbSpline
 62
7
  6
BYLAYER
 70
0
 71
3
 72
25
 73
21
 74
0
 42
0.0000001
 43
0.0000001
 44
0.0000000001
 40
0.0
 40
0.0
 40
0.0
 40
0.0
 40
0.0217138071
 40
0.0435725641
 40
0.0657165095
 40
0.0882769213
 40
0.1350626641
 40
0.1847430283
 40
0.2378160406
 40
0.2945262911
 40
0.3548970282
 40
0.4187678601
 40
0.4858300668
 40
0.5556572121
 40
0.6277311721
 40
0.701464955
 40
0.7762256584
 40
0.8513447474
 40
0.9261651408
 40
1.0
 40
1.0
 40
1.0
 40
1.0
 10
17.7938843719
 20
35.732165119
 30
0.0
 10
17.8519320679
 20
35.765678815
 30
0.0
 10
17.9651011722
 20
35.838862714
 30
0.0
 10
18.1238464412
 20
35.965665231
 30
0.0
 10
18.2712873308
 20
36.1092503908
 30
0.0
 10
18.4542691649
 20
36.3248455081
 30
0.0
 10
18.6522263416
 20
36.6367967832
 30
0.0
 10
18.8335477073
 20
37.0631792866
 30
0.0
 10
18.9600463029
 20
37.5404216429
 30
0.0
 10
19.0304386849
 20
38.062125281
 30
0.0
 10
19.0441263028
 20
38.6215210631
 30
0.0
 10
19.0010855417
 20
39.2113158742
 30
0.0
 10
18.9019669122
 20
39.8237888125
 30
0.0
 10
18.7481152944
 20
40.4508731637
 30
0.0
 10
18.5415820166
 20
41.0842697492
 30
0.0
 10
18.2851174043
 20
41.7155751539
 30
0.0
 10
17.9821348865
 20
42.3363702774
 30
0.0
 10
17.6366755922
 20
42.9384432559
 30
0.0
 10
17.2533467335
 20
43.5136754385
 30
0.0
 10
16.9732626974
 20
43.8777122607
 30
0.0
 10
16.8279365676
 20
44.0532887321
 30
0.0
  0
SPLINE
  5
298
100
AcDbEntity
  8
0
100
AcDbSpline
 62
7
  6
BYLAYER
 70
0
 71
3
 72
15
 73
11
 74
0
 42
0.0000001
 43
0.0000001
 44
0.0000000001
 40
0.0
 40
0.0
 40
0.0
 40
0.0
 40
0.1108500945
 40
0.2281962168
 40
0.3510463805
 40
0.4781664113
 40
0.6081544319
 40
0.739491771
 40
0.8706320709
 40
1.0
 40
1.0
 40
1.0
 40
1.0
 10
22.9256220368
 20
41.2549759851
 30
0.0
 10
22.9256250216
 20
41.4561200384
 30
0.0
 10
22.9009540039
 20
41.8704378924
 30
0.0
 10
22.7986110733
 20
42.5000785789
 30
0.0
 10
22.6316398437
 20
43.1462509443
 30
0.0
 10
22.4030084881
 20
43.7975130771
 30
0.0
 10
22.1167445932
 20
44.4424161522
 30
0.0
 10
21.7779070938
 20
45.0696075462
 30
0.0
 10
21.3925039672
 20
45.6679183217
 30
0.0
 10
21.1059504043
 20
46.0446166316
 30
0.0
 10
20.9562709669
 20
46.2254525728
 30
0.0
  0
SPLINE
  5
299
100
AcDbEntity
  8
0
100
AcDbSpline
 62
7
  6
BYLAYER
 70
0
 71
3
 72
11
 73
7
 74
0
 42
0.0000001
 43
0.0000001
 44
0.0000000001
 40
0.0
 40
0.0
 40
0.0
 40
0.0
 40
0.2654226625
 40
0.5219876773
 40
0.7674185833
 40
1.0
 40
1.0
 40
1.0
 40
1.0
 10
20.9562709669
 20
46.2254525728
 30
0.0
 10
20.8198561474
 20
46.3902628013
 30
0.0
 10
20.5392952855
 20
46.7044773622
 30
0.0
 10
20.0911170834
 20
47.1318416223
 30
0.0
 10
19.628184799
 20
47.5022234998
 30
0.0
 10
19.3050383311
 20
47.7135202818
 30
0.0
 10
19.1426832752
 20
47.8072551458
 30
0.0
  0
SPLINE
  5
29A
100
AcDbEntity
  8
0
100
AcDbSpline
 62
7
  6
BYLAYER
 70
0
 71
3
 72
19
 73
15
 74
0
 42
0.0000001
 43
0.0000001
 44
0.0000000001
 40
0.0
 40
0.0
 40
0.0
 40
0.0
 40
0.047502514
 40
0.0956092553
 40
0.1448863594
 40
0.195833855
 40
0.2488614169
 40
0.3042854364
 40
0.4229841476
 40
0.4865477008
 40
0.5528693717
 40
0.6932959055
 40
0.8429978355
 40
1.0
 40
1.0
 40
1.0
 40
1.0
 10
11.6592955593
 20
45.2962037472
 30
0.0
 10
11.7310271087
 20
45.3376156569
 30
0.0
 10
11.8814364009
 20
45.4109731577
 30
0.0
 10
12.1223015768
 20
45.4895831751
 30
0.0
 10
12.3773488296
 20
45.5367267333
 30
0.0
 10
12.6447675467
 20
45.5520945106
 30
0.0
 10
12.9228122022
 20
45.5357913931
 30
0.0
 10
13.3140866661
 20
45.4705524687
 30
0.0
 10
13.7107994319
 20
45.3418681855
 30
0.0
 10
14.1046980306
 20
45.1604488534
 30
0.0
 10
14.5174062027
 20
44.9319516501
 30
0.0
 10
15.0285660493
 20
44.5751593057
 30
0.0
 10
15.6123947848
 20
44.056279455
 30
0.0
 10
15.9734120295
 20
43.6602791955
 30
0.0
 10
16.1479648739
 20
43.4493923265
 30
0.0
  0
SPLINE
  5
29B
100
AcDbEntity
  8
0
100
AcDbSpline
 62
7
  6
BYLAYER
 70
0
 71
3
 72
11
 73
7
 74
0
 42
0.0000001
 43
0.0000001
 44
0.0000000001
 40
0.0
 40
0.0
 40
0.0
 40
0.0
 40
0.2325800134
 40
0.4780150728
 40
0.7345715043
 40
1.0
 40
1.0
 40
1.0
 40
1.0
 10
18.6830775506
 20
48.0726154524
 30
0.0
 10
18.8651552658
 20
47.9674900325
 30
0.0
 10
19.2275696569
 20
47.730528323
 30
0.0
 10
19.7467371832
 20
47.3151434265
 30
0.0
 10
20.2493721584
 20
46.8358604003
 30
0.0
 10
20.564015716
 20
46.4834695555
 30
0.0
 10
20.7170076723
 20
46.2986315784
 30
0.0
  0
SPLINE
  5
29C
100
AcDbEntity
  8
0
100
AcDbSpline
 62
7
  6
BYLAYER
 70
0
 71
3
 72
19
 73
15
 74
0
 42
0.0000001
 43
0.0000001
 44
0.0000000001
 40
0.0
 40
0.0
 40
0.0
 40
0.0
 40
0.1569986078
 40
0.3066953435
 40
0.4471181793
 40
0.5769104817
 40
0.6376876102
 40
0.6957230253
 40
0.7511452353
 40
0.8041717831
 40
0.855117365
 40
0.9043935906
 40
0.9524987045
 40
1.0
 40
1.0
 40
1.0
 40
1.0
 10
16.8279365676
 20
44.0532887321
 30
0.0
 10
16.6321754124
 20
44.2897985252
 30
0.0
 10
16.2273197944
 20
44.7338941545
 30
0.0
 10
15.5724604789
 20
45.3158844537
 30
0.0
 10
14.8974374037
 20
45.7870424232
 30
0.0
 10
14.3191918578
 20
46.0837644566
 30
0.0
 10
13.862165944
 20
46.2510744596
 30
0.0
 10
13.5326162015
 20
46.3395486435
 30
0.0
 10
13.2109301155
 20
46.3931710092
 30
0.0
 10
12.8991199194
 20
46.4114696442
 30
0.0
 10
12.5992090195
 20
46.394210744
 30
0.0
 10
12.3131696084
 20
46.3413705316
 30
0.0
 10
12.0430516215
 20
46.2531744983
 30
0.0
 10
11.8743569503
 20
46.1709306112
 30
0.0
 10
11.7939112333
 20
46.1244854724
 30
0.0
  0
SPLINE
  5
29D
100
AcDbEntity
  8
0
100
AcDbSpline
 62
7
  6
BYLAYER
 70
0
 71
3
 72
11
 73
7
 74
0
 42
0.0000001
 43
0.0000001
 44
0.0000000001
 40
0.0
 40
0.0
 40
0.0
 40
0.0
 40
0.2438669912
 40
0.4915240917
 40
0.7434623476
 40
1.0
 40
1.0
 40
1.0
 40
1.0
 10
71.3942997295
 20
66.8233883167
 30
0.0
 10
71.4669936431
 20
66.2045881041
 30
0.0
 10
71.5985041698
 20
64.9555392871
 30
0.0
 10
71.7456326918
 20
63.0615142352
 30
0.0
 10
71.8370204803
 20
61.1315320705
 30
0.0
 10
71.8572834486
 20
59.8323278797
 30
0.0
 10
71.8572834486
 20
59.1769001621
 30
0.0
  0
SPLINE
  5
29E
100
AcDbEntity
  8
0
100
AcDbSpline
 62
7
  6
BYLAYER
 70
0
 71
3
 72
10
 73
6
 74
0
 42
0.0000001
 43
0.0000001
 44
0.0000000001
 40
0.0
 40
0.0
 40
0.0
 40
0.0
 40
0.2518493837
 40
0.5024476465
 40
1.0
 40
1.0
 40
1.0
 40
1.0
 10
65.4932918459
 20
75.5790850211
 30
0.0
 10
65.9984189945
 20
74.9507040185
 30
0.0
 10
66.9870706907
 20
73.6815615606
 30
0.0
 10
68.8779638716
 20
71.0979861242
 30
0.0
 10
70.211574426
 20
69.1070606693
 30
0.0
 10
71.0700038667
 20
67.7653842351
 30
0.0
  0
SPLINE
  5
29F
100
AcDbEntity
  8
0
100
AcDbSpline
 62
7
  6
BYLAYER
 70
0
 71
3
 72
9
 73
5
 74
0
 42
0.0000001
 43
0.0000001
 44
0.0000000001
 40
0.0
 40
0.0
 40
0.0
 40
0.0
 40
0.5170819225
 40
1.0
 40
1.0
 40
1.0
 40
1.0
 10
46.3670121067
 20
82.1299002082
 30
0.0
 10
47.4659103181
 20
82.2966680102
 30
0.0
 10
49.5943635448
 20
82.5984490722
 30
0.0
 10
51.7313896135
 20
82.8350509435
 30
0.0
 10
52.7653167932
 20
82.9274131976
 30
0.0
  0
SPLINE
  5
2A0
100
AcDbEntity
  8
0
100
AcDbSpline
 62
7
  6
BYLAYER
 70
0
 71
3
 72
9
 73
5
 74
0
 42
0.0000001
 43
0.0000001
 44
0.0000000001
 40
0.0
 40
0.0
 40
0.0
 40
0.0
 40
0.5216732843
 40
1.0
 40
1.0
 40
1.0
 40
1.0
 10
52.7653167932
 20
82.9274131976
 30
0.0
 10
53.7144421572
 20
83.0122000079
 30
0.0
 10
55.5373180187
 20
83.1390238891
 30
0.0
 10
57.3639484258
 20
83.1855686769
 30
0.0
 10
58.2376621869
 20
83.1903225747
 30
0.0
  0
SPLINE
  5
2A1
100
AcDbEntity
  8
0
100
AcDbSpline
 62
7
  6
BYLAYER
 70
0
 71
3
 72
10
 73
6
 74
0
 42
0.0000001
 43
0.0000001
 44
0.0000000001
 40
0.0
 40
0.0
 40
0.0
 40
0.0
 40
0.5016775419
 40
0.7513518409
 40
1.0
 40
1.0
 40
1.0
 40
1.0
 10
58.9544037967
 20
82.8372617679
 30
0.0
 10
60.1055516524
 20
81.6771412393
 30
0.0
 10
61.7962853687
 20
79.9055695399
 30
0.0
 10
63.9491916058
 20
77.46016687
 30
0.0
 10
64.9857897203
 20
76.2104205642
 30
0.0
 10
65.4932918459
 20
75.5790850211
 30
0.0
  0
SPLINE
  5
2A2
100
AcDbEntity
  8
0
100
AcDbSpline
 62
7
  6
BYLAYER
 70
0
 71
3
 72
10
 73
6
 74
0
 42
0.0000001
 43
0.0000001
 44
0.0000000001
 40
0.0
 40
0.0
 40
0.0
 40
0.0
 40
0.2442240532
 40
0.4925992777
 40
1.0
 40
1.0
 40
1.0
 40
1.0
 10
71.8572834486
 20
59.1769001621
 30
0.0
 10
71.8572834486
 20
58.5095684104
 30
0.0
 10
71.8359217792
 20
57.1634728751
 30
0.0
 10
71.7120343935
 20
54.4335383199
 30
0.0
 10
71.5369579874
 20
52.3748994526
 30
0.0
 10
71.3942997295
 20
50.995807649
 30
0.0
  0
SPLINE
  5
2A3
100
AcDbEntity
  8
0
100
AcDbSpline
 62
7
  6
BYLAYER
 70
0
 71
3
 72
9
 73
5
 74
0
 42
0.0000001
 43
0.0000001
 44
0.0000000001
 40
0.0
 40
0.0
 40
0.0
 40
0.0
 40
0.2444368649
 40
1.0
 40
1.0
 40
1.0
 40
1.0
 10
65.1207754861
 20
48.4263671414
 30
0.0
 10
65.396354593
 20
48.4611951453
 30
0.0
 10
66.5231950437
 20
48.6081367537
 30
0.0
 10
67.6478966747
 20
48.7712007187
 30
0.0
 10
68.4966688617
 20
48.9007421856
 30
0.0
  0
SPLINE
  5
2A4
100
AcDbEntity
  8
0
100
AcDbSpline
 62
7
  6
BYLAYER
 70
0
 71
3
 72
9
 73
5
 74
0
 42
0.0000001
 43
0.0000001
 44
0.0000000001
 40
0.0
 40
0.0
 40
0.0
 40
0.0
 40
0.5216733033
 40
1.0
 40
1.0
 40
1.0
 40
1.0
 10
49.2297976528
 20
80.8861924546
 30
0.0
 10
48.2806736546
 20
80.8014058717
 30
0.0
 10
46.4578005051
 20
80.674582082
 30
0.0
 10
44.6311728018
 20
80.6280376948
 30
0.0
 10
43.7574603731
 20
80.6232838057
 30
0.0
  0
SPLINE
  5
2A5
100
AcDbEntity
  8
0
100
AcDbSpline
 62
7
  6
BYLAYER
 70
0
 71
3
 72
15
 73
11
 74
0
 42
0.0000001
 43
0.0000001
 44
0.0000000001
 40
0.0
 40
0.0
 40
0.0
 40
0.0
 40
0.1108410466
 40
0.2280578217
 40
0.3507094054
 40
0.4776259773
 40
0.6074737905
 40
0.7388131852
 40
0.870152484
 40
1.0
 40
1.0
 40
1.0
 40
1.0
 10
68.3217642625
 20
57.1356793928
 30
0.0
 10
68.3217642625
 20
57.7970813889
 30
0.0
 10
68.2425425258
 20
59.1587026181
 30
0.0
 10
67.9131482973
 20
61.22826157
 30
0.0
 10
67.3753631368
 20
63.3526867319
 30
0.0
 10
66.6383080725
 20
65.4959594835
 30
0.0
 10
65.7144430536
 20
67.6220675382
 30
0.0
 10
64.619350146
 20
69.6951070115
 30
0.0
 10
63.3716716229
 20
71.6798725289
 30
0.0
 10
62.4432144792
 20
72.933972171
 30
0.0
 10
61.9577725635
 20
73.537864413
 30
0.0
  0
SPLINE
  5
2A6
100
AcDbEntity
  8
0
100
AcDbSpline
 62
7
  6
BYLAYER
 70
0
 71
3
 72
15
 73
11
 74
0
 42
0.0000001
 43
0.0000001
 44
0.0000000001
 40
0.0
 40
0.0
 40
0.0
 40
0.0
 40
0.1077144474
 40
0.2184142184
 40
0.33341981
 40
0.4537842654
 40
0.5802669066
 40
0.7133468661
 40
0.8532841447
 40
1.0
 40
1.0
 40
1.0
 40
1.0
 10
65.2763121322
 20
49.3545330806
 30
0.0
 10
65.5215041032
 20
49.5447956902
 30
0.0
 10
65.9898083431
 20
49.9692960285
 30
0.0
 10
66.6023149019
 20
50.7132836131
 30
0.0
 10
67.1274371892
 20
51.5642942983
 30
0.0
 10
67.5613554778
 20
52.514977695
 30
0.0
 10
67.9012877971
 20
53.5577388876
 30
0.0
 10
68.1450273808
 20
54.6845565141
 30
0.0
 10
68.290928839
 20
55.8865833758
 30
0.0
 10
68.3217642625
 20
56.7129533621
 30
0.0
 10
68.3217642625
 20
57.1356793928
 30
0.0
  0
SPLINE
  5
2A7
100
AcDbEntity
  8
0
100
AcDbSpline
 62
7
  6
BYLAYER
 70
0
 71
3
 72
15
 73
11
 74
0
 42
0.0000001
 43
0.0000001
 44
0.0000000001
 40
0.0
 40
0.0
 40
0.0
 40
0.0
 40
0.1491363321
 40
0.2932607248
 40
0.4309986171
 40
0.5612444539
 40
0.6832502543
 40
0.7967301416
 40
0.9019803493
 40
1.0
 40
1.0
 40
1.0
 40
1.0
 10
61.9577725635
 20
73.537864413
 30
0.0
 10
61.4832904996
 20
74.1281226859
 30
0.0
 10
60.5046003463
 20
75.2530932904
 30
0.0
 10
58.9338112852
 20
76.780896971
 30
0.0
 10
57.3060048328
 20
78.1010564665
 30
0.0
 10
55.6482759306
 20
79.1912257345
 30
0.0
 10
53.9878124978
 20
80.0329934761
 30
0.0
 10
52.3510800226
 20
80.6115915631
 30
0.0
 10
50.7649906462
 20
80.915892845
 30
0.0
 10
49.7255768911
 20
80.9304814779
 30
0.0
 10
49.2298016835
 20
80.8861928035
 30
0.0
  0
SPLINE
  5
2A8
100
AcDbEntity
  8
0
100
AcDbSpline
 62
7
  6
BYLAYER
 70
0
 71
3
 72
10
 73
6
 74
0
 42
0.0000001
 43
0.0000001
 44
0.0000000001
 40
0.0
 40
0.0
 40
0.0
 40
0.0
 40
0.2442240532
 40
0.4925992777
 40
1.0
 40
1.0
 40
1.0
 40
1.0
 10
68.3217642625
 20
57.1356793928
 30
0.0
 10
68.3217642625
 20
57.8030111445
 30
0.0
 10
68.3431259319
 20
59.1491066798
 30
0.0
 10
68.4670133176
 20
61.879041235
 30
0.0
 10
68.6420897236
 20
63.9376801023
 30
0.0
 10
68.7847479816
 20
65.3167719058
 30
0.0
  0
SPLINE
  5
2A9
100
AcDbEntity
  8
0
100
AcDbSpline
 62
7
  6
BYLAYER
 70
0
 71
3
 72
10
 73
6
 74
0
 42
0.0000001
 43
0.0000001
 44
0.0000000001
 40
0.0
 40
0.0
 40
0.0
 40
0.0
 40
0.5016775424
 40
0.7513518315
 40
1.0
 40
1.0
 40
1.0
 40
1.0
 10
68.4966688591
 20
66.2796774443
 30
0.0
 10
67.3455194836
 20
67.4397995061
 30
0.0
 10
65.6547831948
 20
69.2113732378
 30
0.0
 10
63.501875981
 20
71.6567807462
 30
0.0
 10
62.4652754171
 20
72.9065277953
 30
0.0
 10
61.9577727053
 20
73.537864278
 30
0.0
  0
SPLINE
  5
2AA
100
AcDbEntity
  8
0
100
AcDbSpline
 62
7
  6
BYLAYER
 70
0
 71
3
 72
11
 73
7
 74
0
 42
0.0000001
 43
0.0000001
 44
0.0000000001
 40
0.0
 40
0.0
 40
0.0
 40
0.0
 40
0.2438669912
 40
0.4915240917
 40
0.7434623476
 40
1.0
 40
1.0
 40
1.0
 40
1.0
 10
68.7847479816
 20
49.4891912382
 30
0.0
 10
68.712054068
 20
50.1079914507
 30
0.0
 10
68.5805435413
 20
51.3570402678
 30
0.0
 10
68.4334150193
 20
53.2510653196
 30
0.0
 10
68.3420272308
 20
55.1810474843
 30
0.0
 10
68.3217642625
 20
56.4802516751
 30
0.0
 10
68.3217642625
 20
57.1356793928
 30
0.0
  0
SPLINE
  5
2AB
100
AcDbEntity
  8
0
100
AcDbSpline
 62
7
  6
BYLAYER
 70
0
 71
3
 72
10
 73
6
 74
0
 42
0.0000001
 43
0.0000001
 44
0.0000000001
 40
0.0
 40
0.0
 40
0.0
 40
0.0
 40
0.2518494
 40
0.5024476488
 40
1.0
 40
1.0
 40
1.0
 40
1.0
 10
61.9577727053
 20
73.537864278
 30
0.0
 10
61.4526463047
 20
74.1662445595
 30
0.0
 10
60.4639948084
 20
75.435384451
 30
0.0
 10
58.5731061489
 20
78.0189578968
 30
0.0
 10
57.2394970773
 20
80.0098803533
 30
0.0
 10
56.3810687944
 20
81.3515549801
 30
0.0
  0
SPLINE
  5
2AC
100
AcDbEntity
  8
0
100
AcDbSpline
 62
7
  6
BYLAYER
 70
0
 71
3
 72
9
 73
5
 74
0
 42
0.0000001
 43
0.0000001
 44
0.0000000001
 40
0.0
 40
0.0
 40
0.0
 40
0.0
 40
0.5170819124
 40
1.0
 40
1.0
 40
1.0
 40
1.0
 10
55.6281104396
 20
81.6837061642
 30
0.0
 10
54.5292108645
 20
81.5169381563
 30
0.0
 10
52.4007549211
 20
81.2151569674
 30
0.0
 10
50.2637261674
 20
80.9785547131
 30
0.0
 10
49.2297976528
 20
80.8861924546
 30
0.0
  0
SPLINE
  5
2AD
100
AcDbEntity
  8
0
100
AcDbSpline
 62
7
  6
BYLAYER
 70
0
 71
3
 72
10
 73
6
 74
0
 42
0.0000001
 43
0.0000001
 44
0.0000000001
 40
0.0
 40
0.0
 40
0.0
 40
0.0
 40
0.2442240532
 40
0.4925992777
 40
1.0
 40
1.0
 40
1.0
 40
1.0
 10
65.4933489136
 20
55.5027027773
 30
0.0
 10
65.4933489136
 20
54.8353710255
 30
0.0
 10
65.4719872442
 20
53.4892754902
 30
0.0
 10
65.3480998585
 20
50.759340935
 30
0.0
 10
65.1730234525
 20
48.7007020678
 30
0.0
 10
65.0303651946
 20
47.3216102642
 30
0.0
  0
SPLINE
  5
2AE
100
AcDbEntity
  8
0
100
AcDbSpline
 62
7
  6
BYLAYER
 70
0
 71
3
 72
9
 73
5
 74
0
 42
0.0000001
 43
0.0000001
 44
0.0000000001
 40
0.0
 40
0.0
 40
0.0
 40
0.0
 40
0.4826829999
 40
1.0
 40
1.0
 40
1.0
 40
1.0
 10
55.5938462776
 20
44.4076361351
 30
0.0
 10
56.650056799
 20
44.5019889937
 30
0.0
 10
58.8341135496
 20
44.7448089199
 30
0.0
 10
61.009239429
 20
45.0550745531
 30
0.0
 10
62.1327343268
 20
45.2265448007
 30
0.0
  0
SPLINE
  5
2AF
100
AcDbEntity
  8
0
100
AcDbSpline
 62
7
  6
BYLAYER
 70
0
 71
3
 72
11
 73
7
 74
0
 42
0.0000001
 43
0.0000001
 44
0.0000000001
 40
0.0
 40
0.0
 40
0.0
 40
0.0
 40
0.2438669912
 40
0.4915240917
 40
0.7434623476
 40
1.0
 40
1.0
 40
1.0
 40
1.0
 10
65.0303651946
 20
63.1491909318
 30
0.0
 10
65.1030591081
 20
62.5303907193
 30
0.0
 10
65.2345696348
 20
61.2813419023
 30
0.0
 10
65.3816981568
 20
59.3873168504
 30
0.0
 10
65.4730859454
 20
57.4573346857
 30
0.0
 10
65.4933489136
 20
56.1581304949
 30
0.0
 10
65.4933489136
 20
55.5027027773
 30
0.0
  0
SPLINE
  5
2B0
100
AcDbEntity
  8
0
100
AcDbSpline
 62
7
  6
BYLAYER
 70
0
 71
3
 72
10
 73
6
 74
0
 42
0.0000001
 43
0.0000001
 44
0.0000000001
 40
0.0
 40
0.0
 40
0.0
 40
0.0
 40
0.2518493837
 40
0.5024476465
 40
1.0
 40
1.0
 40
1.0
 40
1.0
 10
59.129357311
 20
71.9048876363
 30
0.0
 10
59.6344844596
 20
71.2765066336
 30
0.0
 10
60.6231361557
 20
70.0073641758
 30
0.0
 10
62.5140293367
 20
67.4237887393
 30
0.0
 10
63.8476398911
 20
65.4328632845
 30
0.0
 10
64.7060693318
 20
64.0911868503
 30
0.0
  0
SPLINE
  5
2B1
100
AcDbEntity
  8
0
100
AcDbSpline
 62
7
  6
BYLAYER
 70
0
 71
3
 72
10
 73
6
 74
0
 42
0.0000001
 43
0.0000001
 44
0.0000000001
 40
0.0
 40
0.0
 40
0.0
 40
0.0
 40
0.5016775419
 40
0.7513518409
 40
1.0
 40
1.0
 40
1.0
 40
1.0
 10
52.5904692618
 20
79.1630643831
 30
0.0
 10
53.7416171174
 20
78.0029438545
 30
0.0
 10
55.4323508338
 20
76.2313721551
 30
0.0
 10
57.5852570709
 20
73.7859694852
 30
0.0
 10
58.6218551854
 20
72.5362231794
 30
0.0
 10
59.129357311
 20
71.9048876363
 30
0.0
  0
SPLINE
  5
2B2
100
AcDbEntity
  8
0
100
AcDbSpline
 62
7
  6
BYLAYER
 70
0
 71
3
 72
9
 73
5
 74
0
 42
0.0000001
 43
0.0000001
 44
0.0000000001
 40
0.0
 40
0.0
 40
0.0
 40
0.0
 40
0.5216732843
 40
1.0
 40
1.0
 40
1.0
 40
1.0
 10
46.4013822583
 20
79.2532158128
 30
0.0
 10
47.3505076223
 20
79.3380026231
 30
0.0
 10
49.1733834838
 20
79.4648265042
 30
0.0
 10
51.0000138908
 20
79.511371292
 30
0.0
 10
51.8737276519
 20
79.5161251898
 30
0.0
  0
SPLINE
  5
2B3
100
AcDbEntity
  8
0
100
AcDbSpline
 62
7
  6
BYLAYER
 70
0
 71
3
 72
9
 73
5
 74
0
 42
0.0000001
 43
0.0000001
 44
0.0000000001
 40
0.0
 40
0.0
 40
0.0
 40
0.0
 40
0.5170819225
 40
1.0
 40
1.0
 40
1.0
 40
1.0
 10
40.0030775718
 20
78.4557028234
 30
0.0
 10
41.1019757832
 20
78.6224706254
 30
0.0
 10
43.2304290099
 20
78.9242516873
 30
0.0
 10
45.3674550786
 20
79.1608535586
 30
0.0
 10
46.4013822583
 20
79.2532158128
 30
0.0
  0
SPLINE
  5
2B4
100
AcDbEntity
  8
0
100
AcDbSpline
 62
7
  6
BYLAYER
 70
0
 71
3
 72
9
 73
5
 74
0
 42
0.0000001
 43
0.0000001
 44
0.0000000001
 40
0.0
 40
0.0
 40
0.0
 40
0.0
 40
0.2533383189
 40
1.0
 40
1.0
 40
1.0
 40
1.0
 10
36.9829717114
 20
76.5129969771
 30
0.0
 10
36.9325810807
 20
76.0330281028
 30
0.0
 10
36.7455454482
 20
74.1372752617
 30
0.0
 10
36.6125411187
 20
72.2357876247
 30
0.0
 10
36.555865957
 20
70.8145346002
 30
0.0
  0
SPLINE
  5
2B5
100
AcDbEntity
  8
0
100
AcDbSpline
 62
7
  6
BYLAYER
 70
0
 71
3
 72
9
 73
5
 74
0
 42
0.0000001
 43
0.0000001
 44
0.0000000001
 40
0.0
 40
0.0
 40
0.0
 40
0.0
 40
0.4792598216
 40
1.0
 40
1.0
 40
1.0
 40
1.0
 10
50.3671261581
 20
44.1465193277
 30
0.0
 10
51.2032899752
 20
44.1541805603
 30
0.0
 10
52.9478711962
 20
44.2040145535
 30
0.0
 10
54.6888773218
 20
44.3267938841
 30
0.0
 10
55.5938462776
 20
44.4076361351
 30
0.0
  0
SPLINE
  5
2B6
100
AcDbEntity
  8
0
100
AcDbSpline
 62
7
  6
BYLAYER
 70
0
 71
3
 72
15
 73
11
 74
0
 42
0.0000001
 43
0.0000001
 44
0.0000000001
 40
0.0
 40
0.0
 40
0.0
 40
0.0
 40
0.1214977242
 40
0.2393439369
 40
0.3559133541
 40
0.4737685985
 40
0.5953083997
 40
0.7225805659
 40
0.8571403581
 40
1.0
 40
1.0
 40
1.0
 40
1.0
 10
42.8658671486
 20
77.2119954187
 30
0.0
 10
42.4889136473
 20
77.1783214611
 30
0.0
 10
41.7497985718
 20
77.0532453878
 30
0.0
 10
40.6999725629
 20
76.6795493273
 30
0.0
 10
39.7446999467
 20
76.1271330044
 30
0.0
 10
38.8968114994
 20
75.4034774793
 30
0.0
 10
38.1663901663
 20
74.5184682283
 30
0.0
 10
37.5609909404
 20
73.4837298323
 30
0.0
 10
37.0861810008
 20
72.3119411122
 30
0.0
 10
36.8660527727
 20
71.4737882652
 30
0.0
 10
36.7768505654
 20
71.0378254551
 30
0.0
  0
SPLINE
  5
2B7
100
AcDbEntity
  8
0
100
AcDbSpline
 62
7
  6
BYLAYER
 70
0
 71
3
 72
15
 73
11
 74
0
 42
0.0000001
 43
0.0000001
 44
0.0000000001
 40
0.0
 40
0.0
 40
0.0
 40
0.0
 40
0.1491363321
 40
0.2932607248
 40
0.4309986171
 40
0.5612444539
 40
0.6832502543
 40
0.7967301416
 40
0.9019803493
 40
1.0
 40
1.0
 40
1.0
 40
1.0
 10
55.5938380286
 20
69.8636670282
 30
0.0
 10
55.1193559646
 20
70.4539253011
 30
0.0
 10
54.1406658114
 20
71.5788959056
 30
0.0
 10
52.5698767503
 20
73.1066995862
 30
0.0
 10
50.9420702979
 20
74.4268590817
 30
0.0
 10
49.2843413957
 20
75.5170283497
 30
0.0
 10
47.6238779629
 20
76.3587960913
 30
0.0
 10
45.9871454877
 20
76.9373941783
 30
0.0
 10
44.4010561113
 20
77.2416954601
 30
0.0
 10
43.3616423562
 20
77.256284093
 30
0.0
 10
42.8658671486
 20
77.2119954187
 30
0.0
  0
SPLINE
  5
2B8
100
AcDbEntity
  8
0
100
AcDbSpline
 62
7
  6
BYLAYER
 70
0
 71
3
 72
10
 73
6
 74
0
 42
0.0000001
 43
0.0000001
 44
0.0000000001
 40
0.0
 40
0.0
 40
0.0
 40
0.0
 40
0.2442240532
 40
0.4925992777
 40
1.0
 40
1.0
 40
1.0
 40
1.0
 10
61.9578297276
 20
53.4614820079
 30
0.0
 10
61.9578297276
 20
54.1288137597
 30
0.0
 10
61.979191397
 20
55.4749092949
 30
0.0
 10
62.1030787827
 20
58.2048438502
 30
0.0
 10
62.2781551887
 20
60.2634827174
 30
0.0
 10
62.4208134467
 20
61.642574521
 30
0.0
  0
SPLINE
  5
2B9
100
AcDbEntity
  8
0
100
AcDbSpline
 62
7
  6
BYLAYER
 70
0
 71
3
 72
10
 73
6
 74
0
 42
0.0000001
 43
0.0000001
 44
0.0000000001
 40
0.0
 40
0.0
 40
0.0
 40
0.0
 40
0.5016775424
 40
0.7513518315
 40
1.0
 40
1.0
 40
1.0
 40
1.0
 10
62.1327343242
 20
62.6054800594
 30
0.0
 10
60.9815849487
 20
63.7656021212
 30
0.0
 10
59.2908486598
 20
65.5371758529
 30
0.0
 10
57.137941446
 20
67.9825833614
 30
0.0
 10
56.1013408821
 20
69.2323304104
 30
0.0
 10
55.5938381704
 20
69.8636668932
 30
0.0
  0
SPLINE
  5
2BA
100
AcDbEntity
  8
0
100
AcDbSpline
 62
7
  6
BYLAYER
 70
0
 71
3
 72
9
 73
5
 74
0
 42
0.0000001
 43
0.0000001
 44
0.0000000001
 40
0.0
 40
0.0
 40
0.0
 40
0.0
 40
0.5170819124
 40
1.0
 40
1.0
 40
1.0
 40
1.0
 10
49.2641759047
 20
78.0095087794
 30
0.0
 10
48.1652763296
 20
77.8427407714
 30
0.0
 10
46.0368203862
 20
77.5409595825
 30
0.0
 10
43.8997916324
 20
77.3043573283
 30
0.0
 10
42.8658631178
 20
77.2119950697
 30
0.0
  0
SPLINE
  5
2BB
100
AcDbEntity
  8
0
100
AcDbSpline
 62
7
  6
BYLAYER
 70
0
 71
3
 72
10
 73
6
 74
0
 42
0.0000001
 43
0.0000001
 44
0.0000000001
 40
0.0
 40
0.0
 40
0.0
 40
0.0
 40
0.2518494
 40
0.5024476488
 40
1.0
 40
1.0
 40
1.0
 40
1.0
 10
55.5938381704
 20
69.8636668932
 30
0.0
 10
55.0887117697
 20
70.4920471747
 30
0.0
 10
54.1000602735
 20
71.7611870662
 30
0.0
 10
52.2091716139
 20
74.344760512
 30
0.0
 10
50.8755625423
 20
76.3356829685
 30
0.0
 10
50.0171342594
 20
77.6773575953
 30
0.0
  0
SPLINE
  5
2BC
100
AcDbEntity
  8
0
100
AcDbSpline
 62
7
  6
BYLAYER
 70
0
 71
3
 72
9
 73
5
 74
0
 42
0.0000001
 43
0.0000001
 44
0.0000000001
 40
0.0
 40
0.0
 40
0.0
 40
0.0
 40
0.5216733033
 40
1.0
 40
1.0
 40
1.0
 40
1.0
 10
42.8658631178
 20
77.2119950697
 30
0.0
 10
41.9167391196
 20
77.1272084868
 30
0.0
 10
40.0938659702
 20
77.0003846971
 30
0.0
 10
38.2672382669
 20
76.95384031
 30
0.0
 10
37.3935258382
 20
76.9490864208
 30
0.0
  0
SPLINE
  5
2BD
100
AcDbEntity
  8
0
100
AcDbSpline
 62
7
  6
BYLAYER
 70
0
 71
3
 72
11
 73
7
 74
0
 42
0.0000001
 43
0.0000001
 44
0.0000000001
 40
0.0
 40
0.0
 40
0.0
 40
0.0
 40
0.2438669912
 40
0.4915240917
 40
0.7434623476
 40
1.0
 40
1.0
 40
1.0
 40
1.0
 10
62.4208134467
 20
45.8149938533
 30
0.0
 10
62.3481195331
 20
46.4337940659
 30
0.0
 10
62.2166090064
 20
47.6828428829
 30
0.0
 10
62.0694804844
 20
49.5768679348
 30
0.0
 10
61.9780926959
 20
51.5068500995
 30
0.0
 10
61.9578297276
 20
52.8060542903
 30
0.0
 10
61.9578297276
 20
53.4614820079
 30
0.0
  0
SPLINE
  5
2BE
100
AcDbEntity
  8
0
100
AcDbSpline
 62
7
  6
BYLAYER
 70
0
 71
3
 72
15
 73
11
 74
0
 42
0.0000001
 43
0.0000001
 44
0.0000000001
 40
0.0
 40
0.0
 40
0.0
 40
0.0
 40
0.1108410466
 40
0.2280578217
 40
0.3507094054
 40
0.4776259773
 40
0.6074737905
 40
0.7388131852
 40
0.870152484
 40
1.0
 40
1.0
 40
1.0
 40
1.0
 10
61.9578297276
 20
53.4614820079
 30
0.0
 10
61.9578297276
 20
54.122884004
 30
0.0
 10
61.8786079908
 20
55.4845052333
 30
0.0
 10
61.5492137624
 20
57.5540641851
 30
0.0
 10
61.0114286019
 20
59.678489347
 30
0.0
 10
60.2743735376
 20
61.8217620987
 30
0.0
 10
59.3505085187
 20
63.9478701534
 30
0.0
 10
58.2554156111
 20
66.0209096267
 30
0.0
 10
57.007737088
 20
68.0056751441
 30
0.0
 10
56.0792799443
 20
69.2597747861
 30
0.0
 10
55.5938380286
 20
69.8636670282
 30
0.0
  0
SPLINE
  5
2BF
100
AcDbEntity
  8
0
100
AcDbSpline
 62
7
  6
BYLAYER
 70
0
 71
3
 72
19
 73
15
 74
0
 42
0.0000001
 43
0.0000001
 44
0.0000000001
 40
0.0
 40
0.0
 40
0.0
 40
0.0
 40
0.05832637
 40
0.1153407993
 40
0.1714215027
 40
0.2270239953
 40
0.2826290299
 40
0.3387072941
 40
0.3957091235
 40
0.454049013
 40
0.5760164888
 40
0.7069811369
 40
0.8481861117
 40
1.0
 40
1.0
 40
1.0
 40
1.0
 10
55.593846374
 20
44.4076361326
 30
0.0
 10
55.8309342845
 20
44.4288156376
 30
0.0
 10
56.2980986746
 20
44.4939468448
 30
0.0
 10
56.978234417
 20
44.6631992682
 30
0.0
 10
57.6253681069
 20
44.9023403639
 30
0.0
 10
58.2363707911
 20
45.2101837987
 30
0.0
 10
58.808439589
 20
45.5854476915
 30
0.0
 10
59.3390608336
 20
46.0262510797
 30
0.0
 10
59.8257634327
 20
46.5306977896
 30
0.0
 10
60.4221051409
 20
47.2957429326
 30
0.0
 10
61.045816232
 20
48.4119971369
 30
0.0
 10
61.5754176682
 20
49.9379881113
 30
0.0
 10
61.8926574905
 20
51.6445204029
 30
0.0
 10
61.9578297276
 20
52.8419240194
 30
0.0
 10
61.9578297276
 20
53.4614820079
 30
0.0
  0
SPLINE
  5
2C0
100
AcDbEntity
  8
0
100
AcDbSpline
 62
7
  6
BYLAYER
 70
0
 71
3
 72
11
 73
7
 74
0
 42
0.0000001
 43
0.0000001
 44
0.0000000001
 40
0.0
 40
0.0
 40
0.0
 40
0.0
 40
0.266771253
 40
0.5217107587
 40
0.7657365448
 40
1.0
 40
1.0
 40
1.0
 40
1.0
 10
51.8610206658
 20
44.91118507
 30
0.0
 10
52.1808696774
 20
44.8045556977
 30
0.0
 10
52.8155137401
 20
44.6220106801
 30
0.0
 10
53.7680001915
 20
44.4423309974
 30
0.0
 10
54.6930851154
 20
44.364514002
 30
0.0
 10
55.2989505816
 20
44.381292453
 30
0.0
 10
55.593846374
 20
44.4076361326
 30
0.0
  0
SPLINE
  5
2C1
100
AcDbEntity
  8
0
100
AcDbSpline
 62
7
  6
BYLAYER
 70
0
 71
3
 72
9
 73
5
 74
0
 42
0.0000001
 43
0.0000001
 44
0.0000000001
 40
0.0
 40
0.0
 40
0.0
 40
0.0
 40
0.2410414286
 40
1.0
 40
1.0
 40
1.0
 40
1.0
 10
60.3519290325
 20
81.4636762615
 30
0.0
 10
60.509621638
 20
81.405583169
 30
0.0
 10
61.158079073
 20
81.1490437883
 30
0.0
 10
61.7825859826
 20
80.8334493851
 30
0.0
 10
62.2408368882
 20
80.5688790846
 30
0.0
  0
SPLINE
  5
2C2
100
AcDbEntity
  8
0
100
AcDbSpline
 62
7
  6
BYLAYER
 70
0
 71
3
 72
15
 73
11
 74
0
 42
0.0000001
 43
0.0000001
 44
0.0000000001
 40
0.0
 40
0.0
 40
0.0
 40
0.0
 40
0.1293641279
 40
0.2605083619
 40
0.3918432291
 40
0.5218304874
 40
0.6489497517
 40
0.7718021532
 40
0.8891495613
 40
1.0
 40
1.0
 40
1.0
 40
1.0
 10
67.3992816674
 20
76.1113999944
 30
0.0
 10
67.813335777
 20
75.6111585055
 30
0.0
 10
68.6060374247
 20
74.5690721409
 30
0.0
 10
69.6722069717
 20
72.9139517525
 30
0.0
 10
70.6095377796
 20
71.1789071448
 30
0.0
 10
71.4014529387
 20
69.3949032122
 30
0.0
 10
72.0339317517
 20
67.5932784801
 30
0.0
 10
72.4958433698
 20
65.8057270538
 30
0.0
 10
72.7789834953
 20
64.0638984088
 30
0.0
 10
72.8471767653
 20
62.917739773
 30
0.0
 10
72.8471958567
 20
62.361302435
 30
0.0
  0
SPLINE
  5
2C3
100
AcDbEntity
  8
0
100
AcDbSpline
 62
7
  6
BYLAYER
 70
0
 71
3
 72
10
 73
6
 74
0
 42
0.0000001
 43
0.0000001
 44
0.0000000001
 40
0.0
 40
0.0
 40
0.0
 40
0.0
 40
0.2729698476
 40
0.5305522353
 40
1.0
 40
1.0
 40
1.0
 40
1.0
 10
72.8472050688
 20
62.1980022027
 30
0.0
 10
72.8472194245
 20
61.7756581879
 30
0.0
 10
72.8104061857
 20
60.9537216327
 30
0.0
 10
72.5838432685
 20
59.4223525431
 30
0.0
 10
72.2303123494
 20
58.3367014423
 30
0.0
 10
71.9016855573
 20
57.6889578582
 30
0.0
  0
SPLINE
  5
2C4
100
AcDbEntity
  8
0
100
AcDbSpline
 62
7
  6
BYLAYER
 70
0
 71
3
 72
11
 73
7
 74
0
 42
0.0000001
 43
0.0000001
 44
0.0000000001
 40
0.0
 40
0.0
 40
0.0
 40
0.0
 40
0.2591352813
 40
0.5105677537
 40
0.756659661
 40
1.0
 40
1.0
 40
1.0
 40
1.0
 10
30.7799595563
 20
33.6266420447
 30
0.0
 10
31.013069178
 20
33.632994794
 30
0.0
 10
31.472174604
 20
33.6707100772
 30
0.0
 10
32.1409662472
 20
33.8072724042
 30
0.0
 10
32.7739294285
 20
34.0222134661
 30
0.0
 10
33.1703974874
 20
34.2174505188
 30
0.0
 10
33.3600379188
 20
34.3269482166
 30
0.0
  0
SPLINE
  5
2C5
100
AcDbEntity
  8
0
100
AcDbSpline
 62
7
  6
BYLAYER
 70
0
 71
3
 72
11
 73
7
 74
0
 42
0.0000001
 43
0.0000001
 44
0.0000000001
 40
0.0
 40
0.0
 40
0.0
 40
0.0
 40
0.2430635681
 40
0.4889954855
 40
0.74050865
 40
1.0
 40
1.0
 40
1.0
 40
1.0
 10
18.3601077913
 20
60.3077443911
 30
0.0
 10
18.1663937268
 20
60.1958945924
 30
0.0
 10
17.791380438
 20
59.944284903
 30
0.0
 10
17.2794476162
 20
59.4916346378
 30
0.0
 10
16.819857473
 20
58.9658100004
 30
0.0
 10
16.5548187695
 20
58.5758222264
 30
0.0
 10
16.4317797036
 20
58.3711544483
 30
0.0
  0
SPLINE
  5
2C6
100
AcDbEntity
  8
0
100
AcDbSpline
 62
7
  6
BYLAYER
 70
0
 71
3
 72
11
 73
7
 74
0
 42
0.0000001
 43
0.0000001
 44
0.0000000001
 40
0.0
 40
0.0
 40
0.0
 40
0.0
 40
0.2326830685
 40
0.4781199337
 40
0.7346294195
 40
1.0
 40
1.0
 40
1.0
 40
1.0
 10
62.3822540512
 20
80.4872229277
 30
0.0
 10
62.8270809143
 20
80.2304030693
 30
0.0
 10
63.7125356548
 20
79.6520913466
 30
0.0
 10
64.9817410062
 20
78.6393627634
 30
0.0
 10
66.2112700605
 20
77.471565237
 30
0.0
 10
66.9816473086
 20
76.6131974141
 30
0.0
 10
67.3564512202
 20
76.162995921
 30
0.0
  0
SPLINE
  5
2C7
100
AcDbEntity
  8
0
100
AcDbSpline
 62
7
  6
BYLAYER
 70
0
 71
3
 72
20
 73
16
 74
0
 42
0.0000001
 43
0.0000001
 44
0.0000000001
 40
0.0
 40
0.0
 40
0.0
 40
0.0
 40
0.047496928
 40
0.0955978622
 40
0.144869607
 40
0.1958105431
 40
0.2488326101
 40
0.3042493631
 40
0.3622804391
 40
0.4230510853
 40
0.4866077655
 40
0.5529214645
 40
0.6933309526
 40
0.8430175762
 40
1.0
 40
1.0
 40
1.0
 40
1.0
 10
18.204780942
 20
59.3520365642
 30
0.0
 10
18.3958331823
 20
59.4623535627
 30
0.0
 10
18.7964878919
 20
59.6576748754
 30
0.0
 10
19.4380159125
 20
59.8671452357
 30
0.0
 10
20.117360714
 20
59.9926270641
 30
0.0
 10
20.8296492471
 20
60.0336464391
 30
0.0
 10
21.5701920139
 20
59.9901428189
 30
0.0
 10
22.3342143862
 20
59.8628473678
 30
0.0
 10
23.1168529743
 20
59.6526522494
 30
0.0
 10
23.9132282813
 20
59.3612263325
 30
0.0
 10
24.7183174681
 20
58.9903835714
 30
0.0
 10
25.8174621109
 20
58.3818662632
 30
0.0
 10
27.1790347601
 20
57.4314800086
 30
0.0
 10
28.734062351
 20
56.0494255167
 30
0.0
 10
29.6956607248
 20
54.9946543464
 30
0.0
 10
30.1605870439
 20
54.4329513498
 30
0.0
  0
SPLINE
  5
2C8
100
AcDbEntity
  8
0
100
AcDbSpline
 62
7
  6
BYLAYER
 70
0
 71
3
 72
19
 73
15
 74
0
 42
0.0000001
 43
0.0000001
 44
0.0000000001
 40
0.0
 40
0.0
 40
0.0
 40
0.0
 40
0.1562698334
 40
0.305475315
 40
0.4457042867
 40
0.5756309353
 40
0.6365822446
 40
0.6948505099
 40
0.7505373626
 40
0.8038344169
 40
0.8550179495
 40
0.9044593252
 40
0.9526114888
 40
1.0
 40
1.0
 40
1.0
 40
1.0
 10
25.8501627285
 20
51.8793209788
 30
0.0
 10
25.4009613556
 20
52.422025805
 30
0.0
 10
24.4723810371
 20
53.4425360106
 30
0.0
 10
22.9720116636
 20
54.7847812237
 30
0.0
 10
21.4248437341
 20
55.8789955222
 30
0.0
 10
20.098745162
 20
56.5767089215
 30
0.0
 10
19.0486277204
 20
56.9784279976
 30
0.0
 10
18.2898430333
 20
57.1967757595
 30
0.0
 10
17.5477657299
 20
57.3369248296
 30
0.0
 10
16.8269117352
 20
57.3980372942
 30
0.0
 10
16.1317112888
 20
57.3792510168
 30
0.0
 10
15.4665124586
 20
57.2806166263
 30
0.0
 10
14.8358456235
 20
57.1022977786
 30
0.0
 10
14.4392935319
 20
56.9302302988
 30
0.0
 10
14.249602387
 20
56.831956981
 30
0.0
  0
SPLINE
  5
2C9
100
AcDbEntity
  8
0
100
AcDbSpline
 62
7
  6
BYLAYER
 70
0
 71
3
 72
20
 73
16
 74
0
 42
0.0000001
 43
0.0000001
 44
0.0000000001
 40
0.0
 40
0.0
 40
0.0
 40
0.0
 40
0.1569824238
 40
0.3066690474
 40
0.4470785355
 40
0.5133922345
 40
0.5769489147
 40
0.6377195609
 40
0.6957506369
 40
0.7511673899
 40
0.8041894569
 40
0.855130393
 40
0.9044021378
 40
0.952503072
 40
1.0
 40
1.0
 40
1.0
 40
1.0
 10
26.0593847881
 20
52.0651352574
 30
0.0
 10
25.594458469
 20
52.6268382539
 30
0.0
 10
24.6328600952
 20
53.6816094243
 30
0.0
 10
23.0778325042
 20
55.0636639162
 30
0.0
 10
21.7162598551
 20
56.0140501708
 30
0.0
 10
20.6171152123
 20
56.6225674789
 30
0.0
 10
19.8120260254
 20
56.9934102401
 30
0.0
 10
19.0156507184
 20
57.2848361569
 30
0.0
 10
18.2330121304
 20
57.4950312753
 30
0.0
 10
17.4689897581
 20
57.6223267264
 30
0.0
 10
16.7284469913
 20
57.6658303467
 30
0.0
 10
16.0161584582
 20
57.6248109716
 30
0.0
 10
15.3368136567
 20
57.4993291432
 30
0.0
 10
14.6952856361
 20
57.289858783
 30
0.0
 10
14.2946309264
 20
57.0945374702
 30
0.0
 10
14.1035786862
 20
56.9842204717
 30
0.0
  0
SPLINE
  5
2CA
100
AcDbEntity
  8
0
100
AcDbSpline
 62
7
  6
BYLAYER
 70
0
 71
3
 72
23
 73
19
 74
0
 42
0.0000001
 43
0.0000001
 44
0.0000000001
 40
0.0
 40
0.0
 40
0.0
 40
0.0
 40
0.0435229362
 40
0.0881818087
 40
0.1349723891
 40
0.184657801
 40
0.2377366131
 40
0.2944529448
 40
0.3548296541
 40
0.4187068635
 40
0.4857763861
 40
0.5556111166
 40
0.6276921261
 40
0.7014339436
 40
0.776202439
 40
0.8513275281
 40
0.9261614241
 40
1.0
 40
1.0
 40
1.0
 40
1.0
 10
33.3600379188
 20
34.3269482166
 30
0.0
 10
33.6508769257
 20
34.4948776051
 30
0.0
 10
34.2070486939
 20
34.8962030972
 30
0.0
 10
34.9194375531
 20
35.6641845572
 30
0.0
 10
35.5057997554
 20
36.5884398422
 30
0.0
 10
35.9592334806
 20
37.6545020877
 30
0.0
 10
36.2754313496
 20
38.8475823346
 30
0.0
 10
36.451408941
 20
40.1518525715
 30
0.0
 10
36.4856382248
 20
41.5503343804
 30
0.0
 10
36.3780582305
 20
43.0248218271
 30
0.0
 10
36.1302489329
 20
44.5560051831
 30
0.0
 10
35.7455989568
 20
46.1237114286
 30
0.0
 10
35.2292751741
 20
47.707206344
 30
0.0
 10
34.5881280062
 20
49.2854748235
 30
0.0
 10
33.8306700715
 20
50.8374485619
 30
0.0
 10
32.9670131345
 20
52.3426603846
 30
0.0
 10
32.0086687149
 20
53.7807242963
 30
0.0
 10
31.3084654224
 20
54.6908374801
 30
0.0
 10
30.9451697675
 20
55.1297548948
 30
0.0
  0
SPLINE
  5
2CB
100
AcDbEntity
  8
0
100
AcDbSpline
 62
7
  6
BYLAYER
 70
0
 71
3
 72
23
 73
19
 74
0
 42
0.0000001
 43
0.0000001
 44
0.0000000001
 40
0.0
 40
0.0
 40
0.0
 40
0.0
 40
0.0738383392
 40
0.1486725296
 40
0.2237975382
 40
0.2985659881
 40
0.3723078206
 40
0.4443888126
 40
0.5142235647
 40
0.5812930499
 40
0.6451702255
 40
0.7055469736
 40
0.7622633463
 40
0.815342079
 40
0.8650274776
 40
0.9118180837
 40
0.9564770308
 40
1.0
 40
1.0
 40
1.0
 40
1.0
 10
30.1605870439
 20
54.4329513498
 30
0.0
 10
30.5057168035
 20
54.0159811501
 30
0.0
 10
31.1709093927
 20
53.1513727235
 30
0.0
 10
32.0813376736
 20
51.7852129989
 30
0.0
 10
32.901812653
 20
50.3552608324
 30
0.0
 10
33.6213964655
 20
48.8808861186
 30
0.0
 10
34.2304859398
 20
47.3815313505
 30
0.0
 10
34.7209941543
 20
45.8772113241
 30
0.0
 10
35.0864135064
 20
44.3878910605
 30
0.0
 10
35.3218297968
 20
42.9332668025
 30
0.0
 10
35.424030287
 20
41.5325040413
 30
0.0
 10
35.3915147455
 20
40.2039460915
 30
0.0
 10
35.2243389965
 20
38.9648887322
 30
0.0
 10
34.9239458796
 20
37.8314641477
 30
0.0
 10
34.4931835837
 20
36.8187060553
 30
0.0
 10
33.9361455298
 20
35.9406597165
 30
0.0
 10
33.2593765738
 20
35.2110726983
 30
0.0
 10
32.7310036887
 20
34.8298273265
 30
0.0
 10
32.4547090122
 20
34.6702898127
 30
0.0
  0
SPLINE
  5
2CC
100
AcDbEntity
  8
0
100
AcDbSpline
 62
7
  6
BYLAYER
 70
0
 71
3
 72
23
 73
19
 74
0
 42
0.0000001
 43
0.0000001
 44
0.0000000001
 40
0.0
 40
0.0
 40
0.0
 40
0.0
 40
0.0435229692
 40
0.0881819163
 40
0.1349725224
 40
0.184657921
 40
0.2377366537
 40
0.2944530264
 40
0.3548297745
 40
0.4187069501
 40
0.4857764353
 40
0.5556111874
 40
0.6276921794
 40
0.7014340119
 40
0.7762024618
 40
0.8513274704
 40
0.9261616608
 40
1.0
 40
1.0
 40
1.0
 40
1.0
 10
28.3535067563
 20
32.3024737202
 30
0.0
 10
28.6298014328
 20
32.4620112341
 30
0.0
 10
29.158174318
 20
32.8432566058
 30
0.0
 10
29.8349432739
 20
33.572843624
 30
0.0
 10
30.3919813279
 20
34.4508899628
 30
0.0
 10
30.8227436238
 20
35.4636480553
 30
0.0
 10
31.1231367406
 20
36.5970726397
 30
0.0
 10
31.2903124897
 20
37.8361299991
 30
0.0
 10
31.3228280312
 20
39.1646879489
 30
0.0
 10
31.220627541
 20
40.5654507101
 30
0.0
 10
30.9852112506
 20
42.020074968
 30
0.0
 10
30.6197918985
 20
43.5093952317
 30
0.0
 10
30.129283684
 20
45.013715258
 30
0.0
 10
29.5201942097
 20
46.5130700261
 30
0.0
 10
28.8006103972
 20
47.9874447399
 30
0.0
 10
27.9801354178
 20
49.4173969064
 30
0.0
 10
27.0697071369
 20
50.783556631
 30
0.0
 10
26.4045145477
 20
51.6481650576
 30
0.0
 10
26.0593847881
 20
52.0651352574
 30
0.0
  0
SPLINE
  5
2CD
100
AcDbEntity
  8
0
100
AcDbSpline
 62
7
  6
BYLAYER
 70
0
 71
3
 72
13
 73
9
 74
0
 42
0.0000001
 43
0.0000001
 44
0.0000000001
 40
0.0
 40
0.0
 40
0.0
 40
0.0
 40
0.2705990965
 40
0.5242533617
 40
0.6461138855
 40
0.7654971066
 40
0.8831828249
 40
1.0
 40
1.0
 40
1.0
 40
1.0
 10
22.771573312
 20
60.8172616929
 30
0.0
 10
22.3718002399
 20
60.907560157
 30
0.0
 10
21.5832706293
 20
61.0279910716
 30
0.0
 10
20.5991177873
 20
61.0109347062
 30
0.0
 10
19.8582956151
 20
60.8899114906
 30
0.0
 10
19.3322315062
 20
60.7490562426
 30
0.0
 10
18.8306429364
 20
60.5575298604
 30
0.0
 10
18.5133298104
 20
60.3962142296
 30
0.0
 10
18.3601077913
 20
60.3077443911
 30
0.0
  0
SPLINE
  5
2CE
100
AcDbEntity
  8
0
100
AcDbSpline
 62
7
  6
BYLAYER
 70
0
 71
3
 72
14
 73
10
 74
0
 42
0.0000001
 43
0.0000001
 44
0.0000000001
 40
0.0
 40
0.0
 40
0.0
 40
0.0
 40
0.1397483641
 40
0.2761086631
 40
0.4084643092
 40
0.5362987364
 40
0.6593023972
 40
0.7774190463
 40
1.0
 40
1.0
 40
1.0
 40
1.0
 10
28.948572398
 20
57.2510502863
 30
0.0
 10
28.6284657594
 20
57.3525039384
 30
0.0
 10
28.000013136
 20
57.5659463566
 30
0.0
 10
27.0862184315
 20
57.9252275128
 30
0.0
 10
26.218912487
 20
58.3211473995
 30
0.0
 10
25.4057326188
 20
58.7543724931
 30
0.0
 10
24.6522286532
 20
59.2230068925
 30
0.0
 10
23.7500435144
 20
59.8779498288
 30
0.0
 10
23.1401161424
 20
60.429671555
 30
0.0
 10
22.771573312
 20
60.8172616929
 30
0.0
  0
SPLINE
  5
2CF
100
AcDbEntity
  8
0
100
AcDbSpline
 62
7
  6
BYLAYER
 70
0
 71
3
 72
9
 73
5
 74
0
 42
0.0000001
 43
0.0000001
 44
0.0000000001
 40
0.0
 40
0.0
 40
0.0
 40
0.0
 40
0.2548097217
 40
1.0
 40
1.0
 40
1.0
 40
1.0
 10
30.9451697675
 20
55.1297548948
 30
0.0
 10
30.7873397459
 20
55.320438004
 30
0.0
 10
30.1563866915
 20
56.0590951962
 30
0.0
 10
29.4789784824
 20
56.7584090552
 30
0.0
 10
28.948572398
 20
57.2510502863
 30
0.0
  0
SPLINE
  5
2D0
100
AcDbEntity
  8
0
100
AcDbSpline
 62
7
  6
BYLAYER
 70
0
 71
3
 72
11
 73
7
 74
0
 42
0.0000001
 43
0.0000001
 44
0.0000000001
 40
0.0
 40
0.0
 40
0.0
 40
0.0
 40
0.2764005523
 40
0.5362825608
 40
0.7776929346
 40
1.0
 40
1.0
 40
1.0
 40
1.0
 10
32.6608675434
 20
59.3943320941
 30
0.0
 10
32.1743249722
 20
59.8462328894
 30
0.0
 10
31.1869181699
 20
60.6780791984
 30
0.0
 10
29.6301185739
 20
61.7188663337
 30
0.0
 10
28.0700332943
 20
62.4969848363
 30
0.0
 10
27.0048205649
 20
62.8428738066
 30
0.0
 10
26.4838684574
 20
62.9605435008
 30
0.0
  0
SPLINE
  5
2D1
100
AcDbEntity
  8
0
100
AcDbSpline
 62
7
  6
BYLAYER
 70
0
 71
3
 72
15
 73
11
 74
0
 42
0.0000001
 43
0.0000001
 44
0.0000000001
 40
0.0
 40
0.0
 40
0.0
 40
0.0
 40
0.129218386
 40
0.2601603298
 40
0.3912918855
 40
0.5211273734
 40
0.6481917996
 40
0.7711247108
 40
0.8887205628
 40
1.0
 40
1.0
 40
1.0
 40
1.0
 10
67.3626551849
 20
76.0891124576
 30
0.0
 10
67.7746758205
 20
75.5888551156
 30
0.0
 10
68.5638435324
 20
74.547744146
 30
0.0
 10
69.6268084791
 20
72.8959086196
 30
0.0
 10
70.5632604401
 20
71.1655441555
 30
0.0
 10
71.3571529228
 20
69.3865589471
 30
0.0
 10
71.9948690114
 20
67.5892533096
 30
0.0
 10
72.4655190355
 20
65.8042808304
 30
0.0
 10
72.7610132682
 20
64.0622768849
 30
0.0
 10
72.8401068592
 20
62.9145248449
 30
0.0
 10
72.8463178484
 20
62.3564430203
 30
0.0
  0
SPLINE
  5
2D2
100
AcDbEntity
  8
0
100
AcDbSpline
 62
7
  6
BYLAYER
 70
0
 71
3
 72
11
 73
7
 74
0
 42
0.0000001
 43
0.0000001
 44
0.0000000001
 40
0.0
 40
0.0
 40
0.0
 40
0.0
 40
0.2332368442
 40
0.47883455
 40
0.7351501377
 40
1.0
 40
1.0
 40
1.0
 40
1.0
 10
62.3804892959
 20
80.4871897943
 30
0.0
 10
62.8231500017
 20
80.2248920767
 30
0.0
 10
63.7036366112
 20
79.6376203635
 30
0.0
 10
64.9655800103
 20
78.6158203522
 30
0.0
 10
66.1873259082
 20
77.4433190382
 30
0.0
 10
66.9531128407
 20
76.5840139246
 30
0.0
 10
67.3256621921
 20
76.1339166115
 30
0.0
  0
ENDSEC
  0
SECTION
  2
OBJECTS
  0
DICTIONARY
  5
C
100
AcDbDictionary
280
0
281
1
  3
ACAD_GROUP
350
D
  3
ACAD_MLINESTYLE
350
17
  3
ACAD_LAYOUT
350
1A
  3
ACAD_PLOTSETTINGS
350
19
  3
ACAD_PLOTSTYLENAME
350
E
  0
DICTIONARY
  5
D
102
{ACAD_REACTORS
330
C
102
}
100
AcDbDictionary
280
0
281
1
  0
ACDBDICTIONARYWDFLT
  5
E
102
{ACAD_REACTORS
330
C
102
}
100
AcDbDictionary
281
1
  3
Normal
350
F
100
AcDbDictionaryWithDefault
340
F
  0
DICTIONARY
  5
17
102
{ACAD_REACTORS
330
C
102
}
100
AcDbDictionary
280
0
281
1
  3
Standard
350
18
  0
DICTIONARY
  5
19
102
{ACAD_REACTORS
330
C
102
}
100
AcDbDictionary
281
1
  0
DICTIONARY
  5
1A
102
{ACAD_REACTORS
330
C
102
}
100
AcDbDictionary
281
1
  3
Model
350
2D3
  3
Layout1
350
2D4
  0
ACDBPLACEHOLDER
  5
F
102
{ACAD_REACTORS
330
E
102
}
  0
MLINESTYLE
  5
18
102
{ACAD_REACTORS
330
17
102
}
100
AcDbMlineStyle
  2
STANDARD
 70
0
  3

 62
256
 51
90.0
 52
90.0
 71
2
 49
0.5
 62
256
  6
BYLAYER
 49
-0.5
 62
256
  6
BYLAYER
  0
LAYOUT
  5
2D3
102
{ACAD_REACTORS
330
1A
102
}
100
AcDbPlotSettings
  1

  2
none_device
  4

  6

 40
0.0
 41
0.0
 42
0.0
 43
0.0
 44
210.0
 45
297.0
 46
0.0
 47
0.0
 48
0.0
 49
0.0
140
0.0
141
0.0
142
1.0
143
1.0
 70
1024
 72
1
 73
0
 74
0
  7

 75
0
147
1.0
148
0.0
149
0.0
100
AcDbLayout
  1
Model
 70
0
 71
0
 10
0.0
 20
0.0
 11
210.0
 21
297.0
 12
0.0
 22
0.0
 32
0.0
 14
0.0
 24
0.0
 34
0.0
 15
0.0
 25
0.0
 35
0.0
146
0.0
 13
0.0
 23
0.0
 33
0.0
 16
1.0
 26
0.0
 36
0.0
 17
0.0
 27
1.0
 37
0.0
 76
0
330
210
345
0
346
0
  0
LAYOUT
  5
2D4
102
{ACAD_REACTORS
330
1A
102
}
100
AcDbPlotSettings
  1

  2
none_device
  4

  6

 40
0.0
 41
0.0
 42
0.0
 43
0.0
 44
210.0
 45
297.0
 46
0.0
 47
0.0
 48
0.0
 49
0.0
140
0.0
141
0.0
142
1.0
143
1.0
 70
0
 72
1
 73
0
 74
0
  7

 75
0
147
1.0
148
0.0
149
0.0
100
AcDbLayout
  1
Layout1
 70
0
 71
1
 10
0.0
 20
0.0
 11
210.0
 21
297.0
 12
0.0
 22
0.0
 32
0.0
 14
0.0
 24
0.0
 34
0.0
 15
0.0
 25
0.0
 35
0.0
146
0.0
 13
0.0
 23
0.0
 33
0.0
 16
1.0
 26
0.0
 36
0.0
 17
0.0
 27
1.0
 37
0.0
 76
0
330
211
345
0
346
0
  0
ENDSEC
  0
EOF
