999
DXF file: C:\Users\sesa63760\Dev\_Creo\CAD\MCADID0005857_3D-CAD\mcadid0005857_3d-simplified_1.dxf
999
Pro/ENGINEER 2019471 by Parametric Technology Corporation
  0
SECTION
  2
HEADER
  9
$ACADVER
  1
AC1024
  9
$DWGCODEPAGE
  3
ANSI_1252
  9
$EXTMAX
 10
75.5682870897
 20
106.8751488839
 30
0.0
  9
$EXTMIN
 10
0.0
 20
0.0
 30
0.0
  9
$LIMMIN
 10
0.0
 20
0.0
  9
$LIMMAX
 10
75.5682870897
 20
106.8751488839
  9
$VIEWCTR
 10
37.7841435448
 20
53.437574442
  9
$VIEWSIZE
 40
106.8751488839
  9
$CLAYER
  8
0
  9
$LTSCALE
 40
6.9666763717
  9
$CELTYPE
  6
BYLAYER
  9
$DIMSCALE
 40
1.0
  9
$DIMASZ
 40
0.8996224654
  9
$DIMEXO
 40
1.0
  9
$DIMDLI
 40
4.8133400386
  9
$DIMEXE
 40
1.0
  9
$DIMCEN
 40
1.1400015881
  9
$DIMLFAC
 40
1.0
  9
$DIMBLK
  1
_FILLED
  9
$DIMALT
 70
0
  9
$DIMALTF
 40
0.0393700787
  9
$DIMTXT
 40
1.2594714515
  9
$DIMTOL
 70
1
  9
$DIMLIM
 70
0
  9
$DIMTFAC
 40
1.0
  9
$DIMTP
 40
0.01
  9
$DIMTM
 40
0.01
  9
$DIMGAP
 40
0.625
  9
$DIMDSEP
 70
46
  9
$AUNITS
 70
0
  9
$PDMODE
 70
3
  9
$PDSIZE
 40
0.3125
  9
$HANDSEED
  5
2D6
  9
$TILEMODE
 70
1
  9
$MEASUREMENT
 70
1
  9
$INSUNITS
 70
4
  0
ENDSEC
  0
SECTION
  2
CLASSES
  0
CLASS
  1
ACDBDICTIONARYWDFLT
  2
AcDbDictionaryWithDefault
  3
AutoCAD 2000
 90
0
 91
1
280
0
281
0
  0
CLASS
  1
ACDBPLACEHOLDER
  2
AcDbPlaceHolder
  3
AutoCAD 2000
 90
0
 91
1
280
0
281
0
  0
CLASS
  1
LAYOUT
  2
AcDbLayout
  3
AutoCAD 2000
 90
0
 91
0
280
0
281
0
  0
ENDSEC
  0
SECTION
  2
TABLES
  0
TABLE
  2
VPORT
  5
8
100
AcDbSymbolTable
 70
2
  0
VPORT
  5
1F4
100
AcDbSymbolTableRecord
100
AcDbViewportTableRecord
  2
*ACTIVE
 70
0
 10
0.0
 20
0.0
 11
1.0
 21
1.0
 12
37.7841435448
 22
53.437574442
 13
0.0
 23
0.0
 14
1.0
 24
1.0
 15
0.0
 25
0.0
 16
0.0
 26
0.0
 36
1.0
 17
0.0
 27
0.0
 37
0.0
 40
106.8751488839
 41
0.7070707071
 42
50.0
 43
0.0
 44
0.0
 50
0.0
 51
0.0
 71
0
 72
100
 73
1
 74
1
 75
0
 76
0
 77
0
 78
0
  0
ENDTAB
  0
TABLE
  2
LTYPE
  5
5
100
AcDbSymbolTable
 70
6
  0
LTYPE
  5
14
100
AcDbSymbolTableRecord
100
AcDbLinetypeTableRecord
  2
BYBLOCK
 70
0
  3

 72
65
 73
0
 40
0.0
  0
LTYPE
  5
15
100
AcDbSymbolTableRecord
100
AcDbLinetypeTableRecord
  2
BYLAYER
 70
0
  3

 72
65
 73
0
 40
0.0
  0
LTYPE
  5
16
100
AcDbSymbolTableRecord
100
AcDbLinetypeTableRecord
  2
CONTINUOUS
 70
64
  3
Solid line
 72
65
 73
0
 40
0.0
  0
LTYPE
  5
1F5
100
AcDbSymbolTableRecord
100
AcDbLinetypeTableRecord
  2
CENTER
 70
64
  3
____ _ ____ _ ____ _ ____ _ ____ _ ____ _ ____
 72
65
 73
4
 40
0.6
 49
0.375
 74
0
 49
-0.075
 74
0
 49
0.075
 74
0
 49
-0.075
 74
0
  0
LTYPE
  5
1F6
100
AcDbSymbolTableRecord
100
AcDbLinetypeTableRecord
  2
HIDDEN
 70
64
  3
- - - - - - - - - - - - - - - - - - - -
 72
65
 73
2
 40
0.2
 49
0.1
 74
0
 49
-0.1
 74
0
  0
LTYPE
  5
1F7
100
AcDbSymbolTableRecord
100
AcDbLinetypeTableRecord
  2
PHANTOM
 70
64
  3
_____ _ _ _____ _ _ _____ _ _ _____
 72
65
 73
6
 40
0.8
 49
0.45
 74
0
 49
-0.05
 74
0
 49
0.1
 74
0
 49
-0.05
 74
0
 49
0.1
 74
0
 49
-0.05
 74
0
  0
LTYPE
  5
1F8
100
AcDbSymbolTableRecord
100
AcDbLinetypeTableRecord
  2
DOT
 70
64
  3
. . . . . . . . . . . . . . . . . . . .
 72
65
 73
2
 40
0.2
 49
0.1
 74
0
 49
-0.1
 74
0
  0
LTYPE
  5
1F9
100
AcDbSymbolTableRecord
100
AcDbLinetypeTableRecord
  2
DASHED
 70
64
  3
- - - - - - - - - - - - - - - - - - - -
 72
65
 73
2
 40
0.2
 49
0.1
 74
0
 49
-0.1
 74
0
  0
ENDTAB
  0
TABLE
  2
LAYER
  5
2
100
AcDbSymbolTable
 70
36
  0
LAYER
  5
10
100
AcDbSymbolTableRecord
100
AcDbLayerTableRecord
  2
0
 70
0
 62
7
  6
CONTINUOUS
370
-3
390
F
  0
LAYER
  5
1FA
100
AcDbSymbolTableRecord
100
AcDbLayerTableRecord
  2
DEFAULT_1
 70
0
 62
7
  6
CENTER
370
-3
390
F
  0
LAYER
  5
1FB
100
AcDbSymbolTableRecord
100
AcDbLayerTableRecord
  2
DEFAULT_2
 70
0
 62
7
  6
HIDDEN
370
-3
390
F
  0
LAYER
  5
1FC
100
AcDbSymbolTableRecord
100
AcDbLayerTableRecord
  2
DEFAULT_3
 70
0
 62
7
  6
PHANTOM
370
-3
390
F
  0
LAYER
  5
1FD
100
AcDbSymbolTableRecord
100
AcDbLayerTableRecord
  2
00_COMPONENTS
 70
0
 62
7
  6
CONTINUOUS
370
-3
390
F
  0
LAYER
  5
1FE
100
AcDbSymbolTableRecord
100
AcDbLayerTableRecord
  2
01_1_DEFAULT_DATUMS
 70
0
 62
7
  6
CONTINUOUS
370
-3
390
F
  0
LAYER
  5
1FF
100
AcDbSymbolTableRecord
100
AcDbLayerTableRecord
  2
01_PLANES
 70
0
 62
7
  6
CONTINUOUS
370
-3
390
F
  0
LAYER
  5
200
100
AcDbSymbolTableRecord
100
AcDbLayerTableRecord
  2
02_COORD_SYS
 70
0
 62
7
  6
CONTINUOUS
370
-3
390
F
  0
LAYER
  5
201
100
AcDbSymbolTableRecord
100
AcDbLayerTableRecord
  2
03_AXES
 70
0
 62
7
  6
CONTINUOUS
370
-3
390
F
  0
LAYER
  5
202
100
AcDbSymbolTableRecord
100
AcDbLayerTableRecord
  2
04_POINTS
 70
0
 62
7
  6
CONTINUOUS
370
-3
390
F
  0
LAYER
  5
203
100
AcDbSymbolTableRecord
100
AcDbLayerTableRecord
  2
05_CURVES
 70
0
 62
7
  6
CONTINUOUS
370
-3
390
F
  0
LAYER
  5
204
100
AcDbSymbolTableRecord
100
AcDbLayerTableRecord
  2
06_SURFS
 70
0
 62
7
  6
CONTINUOUS
370
-3
390
F
  0
LAYER
  5
205
100
AcDbSymbolTableRecord
100
AcDbLayerTableRecord
  2
07_COSMETICS
 70
0
 62
7
  6
CONTINUOUS
370
-3
390
F
  0
LAYER
  5
206
100
AcDbSymbolTableRecord
100
AcDbLayerTableRecord
  2
10_NOTES
 70
0
 62
7
  6
CONTINUOUS
370
-3
390
F
  0
LAYER
  5
207
100
AcDbSymbolTableRecord
100
AcDbLayerTableRecord
  2
11_NOTES_PUB
 70
0
 62
7
  6
CONTINUOUS
370
-3
390
F
  0
LAYER
  5
208
100
AcDbSymbolTableRecord
100
AcDbLayerTableRecord
  2
13_REF_GTOL
 70
0
 62
7
  6
CONTINUOUS
370
-3
390
F
  0
LAYER
  5
209
100
AcDbSymbolTableRecord
100
AcDbLayerTableRecord
  2
16_MISC
 70
0
 62
7
  6
CONTINUOUS
370
-3
390
F
  0
LAYER
  5
20A
100
AcDbSymbolTableRecord
100
AcDbLayerTableRecord
  2
17_NO_PRINT
 70
0
 62
7
  6
CONTINUOUS
370
-3
390
F
  0
LAYER
  5
20B
100
AcDbSymbolTableRecord
100
AcDbLayerTableRecord
  2
18_DATUM_CAMS_JOINTS
 70
0
 62
7
  6
CONTINUOUS
370
-3
390
F
  0
LAYER
  5
20C
100
AcDbSymbolTableRecord
100
AcDbLayerTableRecord
  2
19_DATUM_FUNCTIONAL
 70
0
 62
7
  6
CONTINUOUS
370
-3
390
F
  0
LAYER
  5
20D
100
AcDbSymbolTableRecord
100
AcDbLayerTableRecord
  2
20_DATUM_KINEMATIC_SCHEME
 70
0
 62
7
  6
CONTINUOUS
370
-3
390
F
  0
ENDTAB
  0
TABLE
  2
STYLE
  5
3
100
AcDbSymbolTable
 70
1
  0
STYLE
  5
11
100
AcDbSymbolTableRecord
100
AcDbTextStyleTableRecord
  2
STANDARD
 70
0
 40
0.0
 41
1.0
 50
0.0
 71
0
 42
0.2
  3
ARIAL.TTF
  4

  0
STYLE
  5
20E
100
AcDbSymbolTableRecord
100
AcDbTextStyleTableRecord
  2
TEXTSTYLE_1
 70
0
 40
0.0
 41
0.8
 50
0.0
 71
0
 42
0.2
  3
gdt
  4

  0
ENDTAB
  0
TABLE
  2
VIEW
  5
6
100
AcDbSymbolTable
 70
0
  0
ENDTAB
  0
TABLE
  2
UCS
  5
7
100
AcDbSymbolTable
 70
0
  0
ENDTAB
  0
TABLE
  2
APPID
  5
9
100
AcDbSymbolTable
 70
1
  0
APPID
  5
20F
100
AcDbSymbolTableRecord
100
AcDbRegAppTableRecord
  2
ACAD
 70
0
  0
ENDTAB
  0
TABLE
  2
BLOCK_RECORD
  5
1
100
AcDbSymbolTable
 70
0
  0
BLOCK_RECORD
  5
210
100
AcDbSymbolTableRecord
100
AcDbBlockTableRecord
  2
*Model_Space
  0
BLOCK_RECORD
  5
211
100
AcDbSymbolTableRecord
100
AcDbBlockTableRecord
  2
*Paper_Space
  0
BLOCK_RECORD
  5
212
100
AcDbSymbolTableRecord
100
AcDbBlockTableRecord
  2
_FILLED
  0
ENDTAB
  0
TABLE
  2
DIMSTYLE
  5
A
100
AcDbSymbolTable
 70
1
100
AcDbDimStyleTable
 71
0
  0
DIMSTYLE
105
213
100
AcDbSymbolTableRecord
100
AcDbDimStyleTableRecord
  2
STANDARD
 70
0
  3

  4

 40
1.0
 41
0.8996224654
 42
1.0
 43
0.38
 44
1.0
 45
0.0
 46
0.0
 47
0.01
 48
0.01
140
1.2594714515
141
0.09
142
0.0
143
25.4
144
1.0
145
0.0
146
1.0
147
0.625
 71
1
 72
0
 73
0
 74
0
 75
0
 76
0
 77
1
 78
8
 79
2
170
0
171
1
172
0
173
0
174
0
175
0
176
0
177
0
178
0
270
2
179
2
271
2
272
2
273
2
274
2
275
0
280
0
281
0
282
0
283
1
284
8
285
0
286
0
287
3
288
0
340
11
278
46
341
212
342
212
343
212
344
212
  0
ENDTAB
  0
ENDSEC
  0
SECTION
  2
BLOCKS
  0
BLOCK
  5
20
100
AcDbEntity
  8
0
100
AcDbBlockBegin
  2
*Model_Space
 70
0
 10
0.0
 20
0.0
 30
0.0
  3
*Model_Space
  1

  0
ENDBLK
  5
21
100
AcDbEntity
  8
0
100
AcDbBlockEnd
  0
BLOCK
  5
1C
100
AcDbEntity
  8
0
100
AcDbBlockBegin
  2
*Paper_Space
 70
0
 10
0.0
 20
0.0
 30
0.0
  3
*Paper_Space
  1

  0
ENDBLK
  5
1D
100
AcDbEntity
  8
0
100
AcDbBlockEnd
  0
BLOCK
  5
214
100
AcDbEntity
  8
0
100
AcDbBlockBegin
  2
_FILLED
 70
64
 10
0.0
 20
0.0
  3
_FILLED
  1

  0
SOLID
  5
215
100
AcDbEntity
  8
0
  6
BYBLOCK
 62
0
100
AcDbTrace
 10
0.0
 20
0.0
 11
-1.0
 21
0.25
 12
-1.0
 22
-0.25
 13
-1.0
 23
-0.25
  0
ENDBLK
  5
216
100
AcDbEntity
  8
0
  6
BYBLOCK
 62
0
100
AcDbBlockEnd
  0
ENDSEC
  0
SECTION
  2
ENTITIES
  0
LINE
  5
217
100
AcDbEntity
  8
0
100
AcDbLine
 62
7
  6
BYLAYER
 10
12.2569387002
 20
34.1493250602
 11
12.2569387002
 21
34.6036249213
  0
LINE
  5
218
100
AcDbEntity
  8
0
100
AcDbLine
 62
7
  6
BYLAYER
 10
13.1054703703
 20
34.1137360159
 11
13.1054703703
 21
33.6594361548
  0
LINE
  5
219
100
AcDbEntity
  8
0
100
AcDbLine
 62
7
  6
BYLAYER
 10
14.9334990421
 20
35.7837989793
 11
14.9213193126
 21
35.7451084282
  0
LINE
  5
21A
100
AcDbEntity
  8
0
100
AcDbLine
 62
7
  6
BYLAYER
 10
15.0188174093
 20
35.6131734888
 11
15.0316219281
 21
35.6138466447
  0
LINE
  5
21B
100
AcDbEntity
  8
0
100
AcDbLine
 62
7
  6
BYLAYER
 10
18.514908066
 20
44.9935103202
 11
18.0553023415
 21
45.2588713961
  0
LINE
  5
21C
100
AcDbEntity
  8
0
100
AcDbLine
 62
7
  6
BYLAYER
 10
22.2978482217
 20
38.441226657
 11
22.2978520488
 21
37.9105158859
  0
LINE
  5
21D
100
AcDbEntity
  8
0
100
AcDbLine
 62
7
  6
BYLAYER
 10
44.0069511781
 20
70.6484145217
 11
42.4957800328
 21
69.7759446621
  0
LINE
  5
21E
100
AcDbEntity
  8
0
100
AcDbLine
 62
7
  6
BYLAYER
 10
48.1526106941
 20
73.041897872
 11
49.6637819122
 21
73.9143677736
  0
LINE
  5
21F
100
AcDbEntity
  8
0
100
AcDbLine
 62
7
  6
BYLAYER
 10
15.0316506559
 20
35.6137807714
 11
15.3101712202
 21
35.6705421892
  0
LINE
  5
220
100
AcDbEntity
  8
0
100
AcDbLine
 62
7
  6
BYLAYER
 10
12.4331224931
 20
40.1145405487
 11
12.6167231352
 21
40.3219231555
  0
LINE
  5
221
100
AcDbEntity
  8
0
100
AcDbLine
 62
7
  6
BYLAYER
 10
9.5686022917
 20
41.3604111859
 11
10.259239593
 21
41.9883816677
  0
LINE
  5
222
100
AcDbEntity
  8
0
100
AcDbLine
 62
7
  6
BYLAYER
 10
12.5313106678
 20
37.0573200793
 11
13.7453711295
 21
37.3047409235
  0
LINE
  5
223
100
AcDbEntity
  8
0
100
AcDbLine
 62
7
  6
BYLAYER
 10
13.4149488223
 20
38.2122338796
 11
13.2972703949
 21
38.1902721784
  0
LINE
  5
224
100
AcDbEntity
  8
0
100
AcDbLine
 62
7
  6
BYLAYER
 10
12.4331224931
 20
37.2273880018
 11
13.2544302561
 21
38.1550805355
  0
LINE
  5
225
100
AcDbEntity
  8
0
100
AcDbLine
 62
7
  6
BYLAYER
 10
10.5718995807
 20
42.2171021969
 11
10.259239593
 21
41.9883816677
  0
LINE
  5
226
100
AcDbEntity
  8
0
100
AcDbLine
 62
7
  6
BYLAYER
 10
51.8798929299
 20
71.3517158274
 11
50.368721714
 21
70.479245927
  0
LINE
  5
227
100
AcDbEntity
  8
0
100
AcDbLine
 62
7
  6
BYLAYER
 10
56.0255524477
 20
73.7451991788
 11
57.5367235916
 21
74.6176690376
  0
LINE
  5
228
100
AcDbEntity
  8
0
100
AcDbLine
 62
7
  6
BYLAYER
 10
52.3307752136
 20
71.12800183
 11
50.8976394066
 21
70.300585425
  0
LINE
  5
229
100
AcDbEntity
  8
0
100
AcDbLine
 62
7
  6
BYLAYER
 10
56.5544700879
 20
73.5665386465
 11
57.9876059278
 21
74.3939550705
  0
LINE
  5
22A
100
AcDbEntity
  8
0
100
AcDbLine
 62
7
  6
BYLAYER
 10
22.857682529
 20
52.6923466254
 11
26.5699776744
 21
54.8356284332
  0
LINE
  5
22B
100
AcDbEntity
  8
0
100
AcDbLine
 62
7
  6
BYLAYER
 10
20.576988235
 20
51.3421349084
 11
16.4757859792
 21
48.974318816
  0
LINE
  5
22C
100
AcDbEntity
  8
0
100
AcDbLine
 62
7
  6
BYLAYER
 10
12.5313106678
 20
39.9444726263
 11
13.0119166144
 21
40.0424182664
  0
LINE
  5
22D
100
AcDbEntity
  8
0
100
AcDbLine
 62
7
  6
BYLAYER
 10
14.9334624812
 20
35.7838486938
 11
15.2526908662
 21
36.1444270331
  0
LINE
  5
22E
100
AcDbEntity
  8
0
100
AcDbLine
 62
7
  6
BYLAYER
 10
15.0552071287
 20
45.5560797957
 11
11.166136024
 21
43.3107369494
  0
LINE
  5
22F
100
AcDbEntity
  8
0
100
AcDbLine
 62
7
  6
BYLAYER
 10
31.3192079079
 20
52.0937211097
 11
26.5699776744
 21
54.8356284332
  0
LINE
  5
230
100
AcDbEntity
  8
0
100
AcDbLine
 62
7
  6
BYLAYER
 10
13.2972703949
 20
38.1902721784
 11
13.2544302561
 21
38.1550805355
  0
LINE
  5
231
100
AcDbEntity
  8
0
100
AcDbLine
 62
7
  6
BYLAYER
 10
17.7843587203
 20
46.3811925664
 11
16.7104481421
 21
45.761173706
  0
LINE
  5
232
100
AcDbEntity
  8
0
100
AcDbLine
 62
7
  6
BYLAYER
 10
11.0315170749
 20
42.4824608969
 11
10.5718995807
 21
42.2171021969
  0
LINE
  5
233
100
AcDbEntity
  8
0
100
AcDbLine
 62
7
  6
BYLAYER
 10
31.3192079079
 20
52.0937211097
 11
27.6069127625
 21
49.9504393019
  0
LINE
  5
234
100
AcDbEntity
  8
0
100
AcDbLine
 62
7
  6
BYLAYER
 10
13.2972703949
 20
38.1902721784
 11
14.1815245207
 21
38.7007934886
  0
LINE
  5
235
100
AcDbEntity
  8
0
100
AcDbLine
 62
7
  6
BYLAYER
 10
13.7972681565
 20
37.3242454823
 11
14.684266015
 21
37.8363508778
  0
LINE
  5
236
100
AcDbEntity
  8
0
100
AcDbLine
 62
7
  6
BYLAYER
 10
12.3812058783
 20
34.8782964863
 11
15.1707413366
 21
36.4888259205
  0
LINE
  5
237
100
AcDbEntity
  8
0
100
AcDbLine
 62
7
  6
BYLAYER
 10
13.1054703703
 20
34.1137360159
 11
15.3111653192
 21
35.3871869869
  0
LINE
  5
238
100
AcDbEntity
  8
0
100
AcDbLine
 62
7
  6
BYLAYER
 10
60.4486669404
 20
61.0292969448
 11
59.0155311012
 21
60.2018805213
  0
LINE
  5
239
100
AcDbEntity
  8
0
100
AcDbLine
 62
7
  6
BYLAYER
 10
64.6723618152
 20
63.4678337617
 11
66.1054976218
 21
64.2952501664
  0
LINE
  5
23A
100
AcDbEntity
  8
0
100
AcDbLine
 62
7
  6
BYLAYER
 10
15.3127559238
 20
34.9338054563
 11
13.1054703703
 21
33.6594361548
  0
LINE
  5
23B
100
AcDbEntity
  8
0
100
AcDbLine
 62
7
  6
BYLAYER
 10
60.671397089
 20
60.4150330324
 11
59.1602259437
 21
59.5425631729
  0
LINE
  5
23C
100
AcDbEntity
  8
0
100
AcDbLine
 62
7
  6
BYLAYER
 10
64.817056605
 20
62.8085163828
 11
66.3282278231
 21
63.6809862844
  0
LINE
  5
23D
100
AcDbEntity
  8
0
100
AcDbLine
 62
7
  6
BYLAYER
 10
23.134334769
 20
37.1147069176
 11
22.0601911088
 21
36.4945534881
  0
LINE
  5
23E
100
AcDbEntity
  8
0
100
AcDbLine
 62
7
  6
BYLAYER
 10
16.3814931236
 20
33.2159752481
 11
15.9218756294
 21
32.9506165481
  0
LINE
  5
23F
100
AcDbEntity
  8
0
100
AcDbLine
 62
7
  6
BYLAYER
 10
21.0551802674
 20
35.163759442
 11
17.1661091628
 21
32.9184165957
  0
LINE
  5
240
100
AcDbEntity
  8
0
100
AcDbLine
 62
7
  6
BYLAYER
 10
13.7453711295
 20
37.3047409235
 11
13.7972681565
 21
37.3242454823
  0
LINE
  5
241
100
AcDbEntity
  8
0
100
AcDbLine
 62
7
  6
BYLAYER
 10
28.8269513008
 20
37.052694422
 11
24.7257490449
 21
34.6848783296
  0
LINE
  5
242
100
AcDbEntity
  8
0
100
AcDbLine
 62
7
  6
BYLAYER
 10
15.5674670383
 20
32.7942071527
 11
15.9218756294
 21
32.9506165481
  0
LINE
  5
243
100
AcDbEntity
  8
0
100
AcDbLine
 62
7
  6
BYLAYER
 10
60.6713971254
 20
49.9177461028
 11
59.1602259073
 21
49.0452762012
  0
LINE
  5
244
100
AcDbEntity
  8
0
100
AcDbLine
 62
7
  6
BYLAYER
 10
64.8170566414
 20
52.3112294532
 11
66.3282277867
 21
53.1836993128
  0
LINE
  5
245
100
AcDbEntity
  8
0
100
AcDbLine
 62
7
  6
BYLAYER
 10
60.4486669243
 20
49.4705568426
 11
59.0155311173
 21
48.6431404376
  0
LINE
  5
246
100
AcDbEntity
  8
0
100
AcDbLine
 62
7
  6
BYLAYER
 10
64.6723617986
 20
51.9090936591
 11
66.1054976384
 21
52.7365100831
  0
LINE
  5
247
100
AcDbEntity
  8
0
100
AcDbLine
 62
7
  6
BYLAYER
 10
14.6783085289
 20
32.5100875424
 11
15.5674670383
 21
32.7942071527
  0
ARC
  5
248
100
AcDbEntity
  8
0
100
AcDbCircle
 62
7
  6
BYLAYER
 10
76.5466055219
 20
80.663097414
 40
41.656303337
100
AcDbArc
 50
230.6069232106
 51
231.0659450044
  0
ARC
  5
249
100
AcDbEntity
  8
0
100
AcDbCircle
 62
7
  6
BYLAYER
 10
88.2432288457
 20
64.213834444
 40
41.2593996556
100
AcDbArc
 50
168.0000344496
 51
170.1765367333
  0
ARC
  5
24A
100
AcDbEntity
  8
0
100
AcDbCircle
 62
7
  6
BYLAYER
 10
72.5907337466
 20
46.6342035117
 40
35.9803860424
100
AcDbArc
 50
132.7816910532
 51
133.364108706
  0
ARC
  5
24B
100
AcDbEntity
  8
0
100
AcDbCircle
 62
7
  6
BYLAYER
 10
66.432526421
 20
43.9045412361
 40
35.2462387148
100
AcDbArc
 50
132.7756253801
 51
133.3701743745
  0
ARC
  5
24C
100
AcDbEntity
  8
0
100
AcDbCircle
 62
7
  6
BYLAYER
 10
87.2832394531
 20
66.0600192092
 40
28.8683412124
100
AcDbArc
 50
191.7081193369
 51
193.0478568024
  0
ARC
  5
24D
100
AcDbEntity
  8
0
100
AcDbCircle
 62
7
  6
BYLAYER
 10
92.7932080512
 20
69.2937418568
 40
28.7179943448
100
AcDbArc
 50
191.7046122212
 51
193.0513639155
  0
ARC
  5
24E
100
AcDbEntity
  8
0
100
AcDbCircle
 62
7
  6
BYLAYER
 10
36.0116748781
 20
61.92087677
 40
27.4258463338
100
AcDbArc
 50
333.0017673161
 51
334.045476597
  0
ARC
  5
24F
100
AcDbEntity
  8
0
100
AcDbCircle
 62
7
  6
BYLAYER
 10
42.0425374174
 20
65.0005371059
 40
27.0080064687
100
AcDbArc
 50
332.9936934897
 51
334.0535504151
  0
ARC
  5
250
100
AcDbEntity
  8
0
100
AcDbCircle
 62
7
  6
BYLAYER
 10
65.2605649113
 20
70.7133959508
 40
26.9430074045
100
AcDbArc
 50
236.4464274045
 51
237.7858349812
  0
ARC
  5
251
100
AcDbEntity
  8
0
100
AcDbCircle
 62
7
  6
BYLAYER
 10
35.9674113649
 20
51.8049568935
 40
26.1614281708
100
AcDbArc
 50
19.2149703625
 51
20.6460052798
  0
ARC
  5
252
100
AcDbEntity
  8
0
100
AcDbCircle
 62
7
  6
BYLAYER
 10
41.6474857651
 20
55.0793382187
 40
26.1367055686
100
AcDbArc
 50
19.2142935229
 51
20.6466821207
  0
ARC
  5
253
100
AcDbEntity
  8
0
100
AcDbCircle
 62
7
  6
BYLAYER
 10
64.3446850629
 20
97.5014256011
 40
25.1707421998
100
AcDbArc
 50
250.7003857014
 51
251.9712098029
  0
ARC
  5
254
100
AcDbEntity
  8
0
100
AcDbCircle
 62
7
  6
BYLAYER
 10
58.5990760417
 20
93.9726475023
 40
24.8933454951
100
AcDbArc
 50
250.6933047474
 51
251.9782907506
  0
ARC
  5
255
100
AcDbEntity
  8
0
100
AcDbCircle
 62
7
  6
BYLAYER
 10
49.588639789
 20
58.0325562744
 40
18.3912479937
100
AcDbArc
 50
62.8267407994
 51
64.3948607021
  0
ARC
  5
256
100
AcDbEntity
  8
0
100
AcDbCircle
 62
7
  6
BYLAYER
 10
32.2791511728
 20
54.0419523505
 40
18.3324850263
100
AcDbArc
 50
255.1109208091
 51
255.2346415779
  0
ARC
  5
257
100
AcDbEntity
  8
0
100
AcDbCircle
 62
7
  6
BYLAYER
 10
43.9939555438
 20
54.8918555369
 40
18.2514385527
100
AcDbArc
 50
62.8207343777
 51
64.4008671315
  0
ARC
  5
258
100
AcDbEntity
  8
0
100
AcDbCircle
 62
7
  6
BYLAYER
 10
75.2484158097
 20
43.0293915905
 40
17.176167267
100
AcDbArc
 50
159.4976350922
 51
160.9232989394
  0
ARC
  5
259
100
AcDbEntity
  8
0
100
AcDbCircle
 62
7
  6
BYLAYER
 10
80.6878377342
 20
46.3735719358
 40
16.9451311649
100
AcDbArc
 50
159.4879155756
 51
160.9330184674
  0
ARC
  5
25A
100
AcDbEntity
  8
0
100
AcDbCircle
 62
7
  6
BYLAYER
 10
53.6173033818
 20
61.0519190789
 40
14.3396591273
100
AcDbArc
 50
39.3704507368
 51
39.6147435618
  0
ARC
  5
25B
100
AcDbEntity
  8
0
100
AcDbCircle
 62
7
  6
BYLAYER
 10
53.9886318431
 20
61.2758123992
 40
13.9532027939
100
AcDbArc
 50
39.614760702
 51
39.9045177355
  0
ARC
  5
25C
100
AcDbEntity
  8
0
100
AcDbCircle
 62
7
  6
BYLAYER
 10
17.5495662011
 20
40.3107421451
 40
13.9310437919
100
AcDbArc
 50
39.6017042333
 51
43.7853018297
  0
ARC
  5
25D
100
AcDbEntity
  8
0
100
AcDbCircle
 62
7
  6
BYLAYER
 10
7.2985255099
 20
34.1496003425
 40
8.9154043707
100
AcDbArc
 50
30.4870360236
 51
30.6480897127
  0
ARC
  5
25E
100
AcDbEntity
  8
0
100
AcDbCircle
 62
7
  6
BYLAYER
 10
7.3016933512
 20
34.1514491646
 40
8.911736515
100
AcDbArc
 50
29.5430302157
 51
30.4871258533
  0
ARC
  5
25F
100
AcDbEntity
  8
0
100
AcDbCircle
 62
7
  6
BYLAYER
 10
7.3071239822
 20
34.1545466349
 40
8.9054846524
100
AcDbArc
 50
29.3435740273
 51
29.5429206167
  0
ARC
  5
260
100
AcDbEntity
  8
0
100
AcDbCircle
 62
7
  6
BYLAYER
 10
7.4887922379
 20
34.2705906837
 40
8.6900415689
100
AcDbArc
 50
30.6012862374
 51
39.5401081825
  0
ARC
  5
261
100
AcDbEntity
  8
0
100
AcDbCircle
 62
7
  6
BYLAYER
 10
59.3281743046
 20
61.8330434277
 40
8.6485908361
100
AcDbArc
 50
0.0040920101
 51
1.0209975075
  0
ARC
  5
262
100
AcDbEntity
  8
0
100
AcDbCircle
 62
7
  6
BYLAYER
 10
57.3109058601
 20
65.4052232796
 40
8.6037432421
100
AcDbArc
 50
58.9190356188
 51
59.9986500449
  0
ARC
  5
263
100
AcDbEntity
  8
0
100
AcDbCircle
 62
7
  6
BYLAYER
 10
16.8735727275
 20
39.5905770377
 40
8.0971791742
100
AcDbArc
 50
219.4047058515
 51
219.6147771064
  0
ARC
  5
264
100
AcDbEntity
  8
0
100
AcDbCircle
 62
7
  6
BYLAYER
 10
16.7109081186
 20
39.4913521785
 40
7.8696071315
100
AcDbArc
 50
219.6148159784
 51
219.7900687632
  0
ARC
  5
265
100
AcDbEntity
  8
0
100
AcDbCircle
 62
7
  6
BYLAYER
 10
8.4607253166
 20
34.8974645431
 40
6.9340052686
100
AcDbArc
 50
39.3683789668
 51
39.6147430193
  0
ARC
  5
266
100
AcDbEntity
  8
0
100
AcDbCircle
 62
7
  6
BYLAYER
 10
8.6230401727
 20
34.9963982367
 40
6.7068883114
100
AcDbArc
 50
39.6148011022
 51
39.8193139244
  0
ARC
  5
267
100
AcDbEntity
  8
0
100
AcDbCircle
 62
7
  6
BYLAYER
 10
52.0958158443
 20
68.5769489339
 40
4.6050981542
100
AcDbArc
 50
140.9562563105
 51
142.2156591514
  0
SPLINE
  5
268
100
AcDbEntity
  8
0
100
AcDbSpline
 62
7
  6
BYLAYER
 70
0
 71
3
 72
25
 73
21
 74
0
 42
0.0000001
 43
0.0000001
 44
0.0000000001
 40
0.0
 40
0.0
 40
0.0
 40
0.0
 40
0.0738331415
 40
0.1486565097
 40
0.2237747722
 40
0.2985355792
 40
0.3722691719
 40
0.4443428945
 40
0.5141702787
 40
0.5812327841
 40
0.6451037221
 40
0.7054739988
 40
0.7621838161
 40
0.8152569021
 40
0.8649375646
 40
0.9117233146
 40
0.934283519
 40
0.9564274604
 40
0.9782862645
 40
1.0
 40
1.0
 40
1.0
 40
1.0
 10
22.27303131
 20
44.5343754728
 30
0.0
 10
22.4026106989
 20
44.3778235032
 30
0.0
 10
22.6523517415
 20
44.0532195526
 30
0.0
 10
22.994157594
 20
43.5403059751
 30
0.0
 10
23.3021927872
 20
43.0034510979
 30
0.0
 10
23.5723532733
 20
42.4499124878
 30
0.0
 10
23.8010317094
 20
41.8869985893
 30
0.0
 10
23.9851859599
 20
41.3222194127
 30
0.0
 10
24.1223722932
 20
40.7630692408
 30
0.0
 10
24.2107566599
 20
40.2169466201
 30
0.0
 10
24.2491364423
 20
39.691046558
 30
0.0
 10
24.2369243683
 20
39.1922543997
 30
0.0
 10
24.1741535493
 20
38.7270720228
 30
0.0
 10
24.061363297
 20
38.3015306062
 30
0.0
 10
23.8996920867
 20
37.9213353878
 30
0.0
 10
23.7231790957
 20
37.6431790381
 30
0.0
 10
23.5600162739
 20
37.4509437227
 30
0.0
 10
23.4285429623
 20
37.3229210215
 30
0.0
 10
23.287009289
 20
37.2098370354
 30
0.0
 10
23.1860894152
 20
37.144597398
 30
0.0
 10
23.1343297963
 20
37.1147155377
 30
0.0
  0
SPLINE
  5
269
100
AcDbEntity
  8
0
100
AcDbSpline
 62
7
  6
BYLAYER
 70
0
 71
3
 72
9
 73
5
 74
0
 42
0.0000001
 43
0.0000001
 44
0.0000000001
 40
0.0
 40
0.0
 40
0.0
 40
0.0
 40
0.4584355262
 40
1.0
 40
1.0
 40
1.0
 40
1.0
 10
12.4331299318
 20
40.1145304637
 30
0.0
 10
12.4289475433
 20
40.1098144977
 30
0.0
 10
12.4225333262
 20
40.0971090799
 30
0.0
 10
12.4209793245
 20
40.0832466768
 30
0.0
 10
12.4209793245
 20
40.0758002831
 30
0.0
  0
SPLINE
  5
26A
100
AcDbEntity
  8
0
100
AcDbSpline
 62
7
  6
BYLAYER
 70
0
 71
3
 72
14
 73
10
 74
0
 42
0.0000001
 43
0.0000001
 44
0.0000000001
 40
0.0
 40
0.0
 40
0.0
 40
0.0
 40
0.1247555817
 40
0.2617912541
 40
0.5462315417
 40
0.6811428956
 40
0.8030925357
 40
0.9089973398
 40
1.0
 40
1.0
 40
1.0
 40
1.0
 10
12.4209793245
 20
37.1886477362
 30
0.0
 10
12.4209793245
 20
37.1808330059
 30
0.0
 10
12.4229969923
 20
37.1644112363
 30
0.0
 10
12.4332356596
 20
37.1316565468
 30
0.0
 10
12.4514524387
 20
37.1011178449
 30
0.0
 10
12.4753160856
 20
37.0768505645
 30
0.0
 10
12.4941565481
 20
37.0638331336
 30
0.0
 10
12.5130192836
 20
37.0565857436
 30
0.0
 10
12.5257207524
 20
37.0561918552
 30
0.0
 10
12.5313064714
 20
37.0573297114
 30
0.0
  0
SPLINE
  5
26B
100
AcDbEntity
  8
0
100
AcDbSpline
 62
7
  6
BYLAYER
 70
0
 71
3
 72
14
 73
10
 74
0
 42
0.0000001
 43
0.0000001
 44
0.0000000001
 40
0.0
 40
0.0
 40
0.0
 40
0.0
 40
0.1247555817
 40
0.2617912541
 40
0.5462315417
 40
0.6811428956
 40
0.8030925357
 40
0.9089973398
 40
1.0
 40
1.0
 40
1.0
 40
1.0
 10
12.4209793245
 20
40.0758002831
 30
0.0
 10
12.4209793245
 20
40.0679855529
 30
0.0
 10
12.4229969923
 20
40.0515637833
 30
0.0
 10
12.4332356596
 20
40.0188090938
 30
0.0
 10
12.4514524387
 20
39.9882703919
 30
0.0
 10
12.4753160856
 20
39.9640031115
 30
0.0
 10
12.4941565481
 20
39.9509856805
 30
0.0
 10
12.5130192836
 20
39.9437382906
 30
0.0
 10
12.5257207524
 20
39.9433444022
 30
0.0
 10
12.5313064714
 20
39.9444822584
 30
0.0
  0
SPLINE
  5
26C
100
AcDbEntity
  8
0
100
AcDbSpline
 62
7
  6
BYLAYER
 70
0
 71
3
 72
14
 73
10
 74
0
 42
0.0000001
 43
0.0000001
 44
0.0000000001
 40
0.0
 40
0.0
 40
0.0
 40
0.0
 40
0.1203925647
 40
0.2520789749
 40
0.5284793067
 40
0.663272574
 40
0.7887729431
 40
0.9015760312
 40
1.0
 40
1.0
 40
1.0
 40
1.0
 10
14.9213193126
 20
35.7451084282
 30
0.0
 10
14.9213193126
 20
35.7380760171
 30
0.0
 10
14.9229594242
 20
35.7233333718
 30
0.0
 10
14.9314326931
 20
35.6935610864
 30
0.0
 10
14.9468146447
 20
35.6652300079
 30
0.0
 10
14.9672027259
 20
35.6413115076
 30
0.0
 10
14.9838695448
 20
35.6270864635
 30
0.0
 10
15.001062605
 20
35.6172830496
 30
0.0
 10
15.0131035252
 20
35.6138095158
 30
0.0
 10
15.0188174093
 20
35.6131734888
 30
0.0
  0
SPLINE
  5
26D
100
AcDbEntity
  8
0
100
AcDbSpline
 62
7
  6
BYLAYER
 70
0
 71
3
 72
9
 73
5
 74
0
 42
0.0000001
 43
0.0000001
 44
0.0000000001
 40
0.0
 40
0.0
 40
0.0
 40
0.0
 40
0.4584355262
 40
1.0
 40
1.0
 40
1.0
 40
1.0
 10
12.4331299318
 20
37.2273779167
 30
0.0
 10
12.4289475433
 20
37.2226619507
 30
0.0
 10
12.4225333262
 20
37.2099565329
 30
0.0
 10
12.4209793245
 20
37.1960941298
 30
0.0
 10
12.4209793245
 20
37.1886477362
 30
0.0
  0
SPLINE
  5
26E
100
AcDbEntity
  8
0
100
AcDbSpline
 62
7
  6
BYLAYER
 70
0
 71
3
 72
11
 73
7
 74
0
 42
0.0000001
 43
0.0000001
 44
0.0000000001
 40
0.0
 40
0.0
 40
0.0
 40
0.0
 40
0.2177839466
 40
0.4509170841
 40
0.710307871
 40
1.0
 40
1.0
 40
1.0
 40
1.0
 10
12.3812072633
 20
34.8782941011
 30
0.0
 10
12.3614167857
 20
34.8668645292
 30
0.0
 10
12.3243837544
 20
34.8357373472
 30
0.0
 10
12.2849611716
 20
34.7712763926
 30
0.0
 10
12.2615477448
 20
34.69184014
 30
0.0
 10
12.2569387002
 20
34.6340246748
 30
0.0
 10
12.2569387002
 20
34.6036249213
 30
0.0
  0
SPLINE
  5
26F
100
AcDbEntity
  8
0
100
AcDbSpline
 62
7
  6
BYLAYER
 70
0
 71
3
 72
23
 73
19
 74
0
 42
0.0000001
 43
0.0000001
 44
0.0000000001
 40
0.0
 40
0.0
 40
0.0
 40
0.0
 40
0.0752524893
 40
0.1515729371
 40
0.2282161821
 40
0.3044900774
 40
0.3796796727
 40
0.4531017422
 40
0.52411326
 40
0.5921278619
 40
0.6566374926
 40
0.7172375014
 40
0.7736584765
 40
0.8258147758
 40
0.87385899
 40
0.9182476198
 40
0.9599142347
 40
1.0
 40
1.0
 40
1.0
 40
1.0
 10
13.789681876
 20
39.2728645737
 30
0.0
 10
13.891497449
 20
39.1498555934
 30
0.0
 10
14.0878469503
 20
38.8947397078
 30
0.0
 10
14.3568161341
 20
38.4916383061
 30
0.0
 10
14.5994973285
 20
38.0696589933
 30
0.0
 10
14.8125749424
 20
37.6346576636
 30
0.0
 10
14.9931483474
 20
37.1925458693
 30
0.0
 10
15.1387940622
 20
36.7494438895
 30
0.0
 10
15.2475924488
 20
36.3115176664
 30
0.0
 10
15.318162102
 20
35.8849331235
 30
0.0
 10
15.3497099395
 20
35.4757819266
 30
0.0
 10
15.3420931824
 20
35.0899902848
 30
0.0
 10
15.2958996633
 20
34.7331814793
 30
0.0
 10
15.2124045151
 20
34.4104830909
 30
0.0
 10
15.0935339754
 20
34.1263563262
 30
0.0
 10
14.9417368193
 20
33.8839548063
 30
0.0
 10
14.7593596994
 20
33.6858879815
 30
0.0
 10
14.6177272658
 20
33.5833092121
 30
0.0
 10
14.5440640946
 20
33.5407800142
 30
0.0
  0
SPLINE
  5
270
100
AcDbEntity
  8
0
100
AcDbSpline
 62
7
  6
BYLAYER
 70
0
 71
3
 72
21
 73
17
 74
0
 42
0.0000001
 43
0.0000001
 44
0.0000000001
 40
0.0
 40
0.0
 40
0.0
 40
0.0
 40
0.0442615062
 40
0.089467344
 40
0.1362006761
 40
0.1850570183
 40
0.2365735796
 40
0.2910706613
 40
0.3487345228
 40
0.4096443209
 40
0.4737959632
 40
0.5411054779
 40
0.6114301766
 40
0.6845693707
 40
0.8382644233
 40
1.0
 40
1.0
 40
1.0
 40
1.0
 10
10.3940826736
 20
40.7288015922
 30
0.0
 10
10.4445475359
 20
40.7579373201
 30
0.0
 10
10.5508564809
 20
40.8096937034
 30
0.0
 10
10.721864189
 20
40.8653602402
 30
0.0
 10
10.9047104536
 20
40.8988649468
 30
0.0
 10
11.098552849
 20
40.9096322005
 30
0.0
 10
11.3024858187
 20
40.8972389731
 30
0.0
 10
11.5153561786
 20
40.8614670846
 30
0.0
 10
11.7356518291
 20
40.8020112212
 30
0.0
 10
11.9617701612
 20
40.719081574
 30
0.0
 10
12.191997539
 20
40.6129521428
 30
0.0
 10
12.4246505717
 20
40.4842566123
 30
0.0
 10
12.6579794959
 20
40.3336927099
 30
0.0
 10
12.972953699
 20
40.1012841808
 30
0.0
 10
13.3568187083
 20
39.7614399657
 30
0.0
 10
13.638030556
 20
39.4548238928
 30
0.0
 10
13.7743844815
 20
39.2912792169
 30
0.0
  0
SPLINE
  5
271
100
AcDbEntity
  8
0
100
AcDbSpline
 62
7
  6
BYLAYER
 70
0
 71
3
 72
16
 73
12
 74
0
 42
0.0000001
 43
0.0000001
 44
0.0000000001
 40
0.0
 40
0.0
 40
0.0
 40
0.0
 40
0.0496343577
 40
0.1002235533
 40
0.2053699599
 40
0.3176042318
 40
0.4381269013
 40
0.5673019268
 40
0.7047454936
 40
0.8494651696
 40
1.0
 40
1.0
 40
1.0
 40
1.0
 10
14.6783085289
 20
32.5100875424
 30
0.0
 10
14.6039144596
 20
32.4863158371
 30
0.0
 10
14.4506140289
 20
32.4474510888
 30
0.0
 10
14.1297216579
 20
32.4046469292
 30
0.0
 10
13.7050087426
 20
32.4190501452
 30
0.0
 10
13.1840328542
 20
32.5373455843
 30
0.0
 10
12.6538744926
 20
32.7509742509
 30
0.0
 10
12.1235765829
 20
33.0539927583
 30
0.0
 10
11.6021304069
 20
33.4396504402
 30
0.0
 10
11.099020919
 20
33.8999690771
 30
0.0
 10
10.7869522023
 20
34.245161965
 30
0.0
 10
10.6359203081
 20
34.4276318634
 30
0.0
  0
SPLINE
  5
272
100
AcDbEntity
  8
0
100
AcDbSpline
 62
7
  6
BYLAYER
 70
0
 71
3
 72
23
 73
19
 74
0
 42
0.0000001
 43
0.0000001
 44
0.0000000001
 40
0.0
 40
0.0
 40
0.0
 40
0.0
 40
0.0714599712
 40
0.1437780874
 40
0.2163959316
 40
0.288790624
 40
0.3604204079
 40
0.4307718017
 40
0.4993686937
 40
0.5657871353
 40
0.6296740316
 40
0.6907670248
 40
0.7489138007
 40
0.8040913017
 40
0.8564257965
 40
0.9062055124
 40
0.9538676667
 40
1.0
 40
1.0
 40
1.0
 40
1.0
 10
10.6170326728
 20
34.4505364617
 30
0.0
 10
10.502712058
 20
34.5896890016
 30
0.0
 10
10.281919349
 20
34.8773707759
 30
0.0
 10
9.9778444686
 20
35.33049315
 30
0.0
 10
9.7015034973
 20
35.8037957063
 30
0.0
 10
9.4560107272
 20
36.2918641805
 30
0.0
 10
9.2441557091
 20
36.7892593178
 30
0.0
 10
9.0683479985
 20
37.2903987746
 30
0.0
 10
8.9306056357
 20
37.7897309264
 30
0.0
 10
8.8325585001
 20
38.2817944676
 30
0.0
 10
8.7754467228
 20
38.7612937404
 30
0.0
 10
8.7601322332
 20
39.2231669497
 30
0.0
 10
8.7871725429
 20
39.6626257425
 30
0.0
 10
8.8568876585
 20
40.0751423652
 30
0.0
 10
8.9693843374
 20
40.4563489267
 30
0.0
 10
9.1246029848
 20
40.8018623457
 30
0.0
 10
9.3218740726
 20
41.1069205582
 30
0.0
 10
9.482583532
 20
41.282197568
 30
0.0
 10
9.5686022917
 20
41.3604111859
 30
0.0
  0
SPLINE
  5
273
100
AcDbEntity
  8
0
100
AcDbSpline
 62
7
  6
BYLAYER
 70
0
 71
3
 72
13
 73
9
 74
0
 42
0.0000001
 43
0.0000001
 44
0.0000000001
 40
0.0
 40
0.0
 40
0.0
 40
0.0
 40
0.2702944645
 40
0.5238380229
 40
0.6457568477
 40
0.7652378421
 40
0.8830448745
 40
1.0
 40
1.0
 40
1.0
 40
1.0
 10
15.4217645156
 20
32.7101072415
 30
0.0
 10
15.5798857245
 20
32.6753865922
 30
0.0
 10
15.8917117173
 20
32.6295785019
 30
0.0
 10
16.2806061627
 20
32.6381639902
 30
0.0
 10
16.5734079835
 20
32.6870567524
 30
0.0
 10
16.7814529269
 20
32.7433144997
 30
0.0
 10
16.9798682034
 20
32.8194651691
 30
0.0
 10
17.105445467
 20
32.8833925589
 30
0.0
 10
17.1661091627
 20
32.9184165958
 30
0.0
  0
SPLINE
  5
274
100
AcDbEntity
  8
0
100
AcDbSpline
 62
7
  6
BYLAYER
 70
0
 71
3
 72
15
 73
11
 74
0
 42
0.0000001
 43
0.0000001
 44
0.0000000001
 40
0.0
 40
0.0
 40
0.0
 40
0.0
 40
0.1486058177
 40
0.2895003741
 40
0.4227225657
 40
0.5486426469
 40
0.6680011788
 40
0.7819384642
 40
0.8919873012
 40
1.0
 40
1.0
 40
1.0
 40
1.0
 10
22.2978474383
 20
37.9105185477
 30
0.0
 10
22.2978485394
 20
37.754234874
 30
0.0
 10
22.2852689786
 20
37.4495660657
 30
0.0
 10
22.2252805811
 20
37.008362391
 30
0.0
 10
22.125100304
 20
36.5988669439
 30
0.0
 10
21.9854990165
 20
36.2250011913
 30
0.0
 10
21.8075414884
 20
35.8904020826
 30
0.0
 10
21.5925999093
 20
35.5984945199
 30
0.0
 10
21.3426907832
 20
35.3525403938
 30
0.0
 10
21.1535550436
 20
35.2205558796
 30
0.0
 10
21.0551802673
 20
35.1637594421
 30
0.0
  0
SPLINE
  5
275
100
AcDbEntity
  8
0
100
AcDbSpline
 62
7
  6
BYLAYER
 70
0
 71
3
 72
19
 73
15
 74
0
 42
0.0000001
 43
0.0000001
 44
0.0000000001
 40
0.0
 40
0.0
 40
0.0
 40
0.0
 40
0.0475014396
 40
0.0956069073
 40
0.1448828641
 40
0.1958289616
 40
0.2488551013
 40
0.3042776454
 40
0.3623129698
 40
0.4230901154
 40
0.5528818393
 40
0.693304075
 40
0.8430014934
 40
1.0
 40
1.0
 40
1.0
 40
1.0
 10
17.7843625525
 20
46.3811859167
 30
0.0
 10
17.8560951478
 20
46.4225967349
 30
0.0
 10
18.0065061654
 20
46.4959508639
 30
0.0
 10
18.2473705908
 20
46.574566093
 30
0.0
 10
18.5024181952
 20
46.6217060537
 30
0.0
 10
18.7698402755
 20
46.6370748193
 30
0.0
 10
19.0478717212
 20
46.6207732664
 30
0.0
 10
19.3347071865
 20
46.5729508097
 30
0.0
 10
19.6285562783
 20
46.4940641937
 30
0.0
 10
20.0360700682
 20
46.34488007
 30
0.0
 10
20.551670578
 20
46.0803050046
 30
0.0
 10
21.1535655593
 20
45.66019034
 30
0.0
 10
21.7374807598
 20
45.1412485756
 30
0.0
 10
22.0984778256
 20
44.745263115
 30
0.0
 10
22.27303131
 20
44.5343754728
 30
0.0
  0
SPLINE
  5
276
100
AcDbEntity
  8
0
100
AcDbSpline
 62
7
  6
BYLAYER
 70
0
 71
3
 72
15
 73
11
 74
0
 42
0.0000001
 43
0.0000001
 44
0.0000000001
 40
0.0
 40
0.0
 40
0.0
 40
0.0
 40
0.1080127572
 40
0.21806165
 40
0.3319990073
 40
0.4513576276
 40
0.5772777375
 40
0.7105000912
 40
0.8513948522
 40
1.0
 40
1.0
 40
1.0
 40
1.0
 10
15.0552071288
 20
45.5560797955
 30
0.0
 10
15.1535819451
 20
45.6128762562
 30
0.0
 10
15.3624524816
 20
45.7106790493
 30
0.0
 10
15.7004101093
 20
45.8041281318
 30
0.0
 10
16.060680691
 20
45.8443172838
 30
0.0
 10
16.4394308379
 20
45.83113121
 30
0.0
 10
16.8330086495
 20
45.7650947818
 30
0.0
 10
17.2377319642
 20
45.6471032932
 30
0.0
 10
17.649818138
 20
45.4784501273
 30
0.0
 10
17.9199582399
 20
45.3370099654
 30
0.0
 10
18.0553023414
 20
45.2588669292
 30
0.0
  0
SPLINE
  5
277
100
AcDbEntity
  8
0
100
AcDbSpline
 62
7
  6
BYLAYER
 70
0
 71
3
 72
13
 73
9
 74
0
 42
0.0000001
 43
0.0000001
 44
0.0000000001
 40
0.0
 40
0.0
 40
0.0
 40
0.0
 40
0.1169571383
 40
0.2347659386
 40
0.3542482635
 40
0.4761677546
 40
0.7297102452
 40
1.0
 40
1.0
 40
1.0
 40
1.0
 10
11.1661360241
 20
43.3107369492
 30
0.0
 10
11.1054813479
 20
43.2757181196
 30
0.0
 10
10.9873467273
 20
43.1989418531
 30
0.0
 10
10.8222118729
 20
43.0652096349
 30
0.0
 10
10.6694862276
 20
42.9131963781
 30
0.0
 10
10.4807610332
 20
42.6841172778
 30
0.0
 10
10.2788896168
 20
42.3516904572
 30
0.0
 10
10.1626425849
 20
42.0587993861
 30
0.0
 10
10.1136457193
 20
41.9045348729
 30
0.0
  0
SPLINE
  5
278
100
AcDbEntity
  8
0
100
AcDbSpline
 62
7
  6
BYLAYER
 70
0
 71
3
 72
19
 73
15
 74
0
 42
0.0000001
 43
0.0000001
 44
0.0000000001
 40
0.0
 40
0.0
 40
0.0
 40
0.0
 40
0.062391684
 40
0.1288324836
 40
0.2703533745
 40
0.4174431196
 40
0.5617172598
 40
0.6953244085
 40
0.7563177584
 40
0.812797985
 40
0.8647366222
 40
0.9125504304
 40
0.9571578829
 40
1.0
 40
1.0
 40
1.0
 40
1.0
 10
13.1054703703
 20
34.1137360159
 30
0.0
 10
13.1054703703
 20
34.1386118495
 30
0.0
 10
13.1020811193
 20
34.1900133421
 30
0.0
 10
13.0832049
 20
34.2963034061
 30
0.0
 10
13.0375500679
 20
34.4312405208
 30
0.0
 10
12.9550422449
 20
34.5837116026
 30
0.0
 10
12.8502569534
 20
34.7178694356
 30
0.0
 10
12.7483051504
 20
34.8081604932
 30
0.0
 10
12.6627227677
 20
34.8605484591
 30
0.0
 10
12.6007247561
 20
34.8879459533
 30
0.0
 10
12.5402343192
 20
34.9040115153
 30
0.0
 10
12.4824346642
 20
34.9082788663
 30
0.0
 10
12.4286117521
 20
34.9003758299
 30
0.0
 10
12.395998991
 20
34.8868367507
 30
0.0
 10
12.3812072633
 20
34.8782941011
 30
0.0
  0
SPLINE
  5
279
100
AcDbEntity
  8
0
100
AcDbSpline
 62
7
  6
BYLAYER
 70
0
 71
3
 72
9
 73
5
 74
0
 42
0.0000001
 43
0.0000001
 44
0.0000000001
 40
0.0
 40
0.0
 40
0.0
 40
0.0
 40
0.5180960765
 40
1.0
 40
1.0
 40
1.0
 40
1.0
 10
12.2569387002
 20
34.1493250602
 30
0.0
 10
12.3928311493
 20
34.0479418164
 30
0.0
 10
12.6657279336
 20
33.8659210199
 30
0.0
 10
12.9594868202
 20
33.7190878649
 30
0.0
 10
13.1054703703
 20
33.6594361548
 30
0.0
  0
SPLINE
  5
27A
100
AcDbEntity
  8
0
100
AcDbSpline
 62
7
  6
BYLAYER
 70
0
 71
3
 72
15
 73
11
 74
0
 42
0.0000001
 43
0.0000001
 44
0.0000000001
 40
0.0
 40
0.0
 40
0.0
 40
0.0
 40
0.1203655225
 40
0.2516978245
 40
0.3895264213
 40
0.5285383477
 40
0.6632762117
 40
0.7888168657
 40
0.9015244693
 40
1.0
 40
1.0
 40
1.0
 40
1.0
 10
13.9008241382
 20
37.5531384531
 30
0.0
 10
13.9008241382
 20
37.5882489965
 30
0.0
 10
13.8927384953
 20
37.6617500271
 30
0.0
 10
13.8615156378
 20
37.771426857
 30
0.0
 10
13.812358005
 20
37.8803208989
 30
0.0
 10
13.7480631413
 20
37.9821691872
 30
0.0
 10
13.6723070963
 20
38.0711913106
 30
0.0
 10
13.5892865685
 20
38.142350645
 30
0.0
 10
13.5036227924
 20
38.1916713213
 30
0.0
 10
13.4434977465
 20
38.2090560259
 30
0.0
 10
13.4149488223
 20
38.2122338796
 30
0.0
  0
SPLINE
  5
27B
100
AcDbEntity
  8
0
100
AcDbSpline
 62
7
  6
BYLAYER
 70
0
 71
3
 72
14
 73
10
 74
0
 42
0.0000001
 43
0.0000001
 44
0.0000000001
 40
0.0
 40
0.0
 40
0.0
 40
0.0
 40
0.1203925647
 40
0.2520789749
 40
0.5284793067
 40
0.663272574
 40
0.7887729431
 40
0.9015760312
 40
1.0
 40
1.0
 40
1.0
 40
1.0
 10
12.5624012695
 20
37.1069995853
 30
0.0
 10
12.5624012695
 20
37.1140319963
 30
0.0
 10
12.5607611579
 20
37.1287746416
 30
0.0
 10
12.552287889
 20
37.1585469271
 30
0.0
 10
12.5369059375
 20
37.1868780055
 30
0.0
 10
12.5165178562
 20
37.2107965059
 30
0.0
 10
12.4998510374
 20
37.22502155
 30
0.0
 10
12.4826579771
 20
37.2348249639
 30
0.0
 10
12.470617057
 20
37.2382984976
 30
0.0
 10
12.4649031729
 20
37.2389345247
 30
0.0
  0
SPLINE
  5
27C
100
AcDbEntity
  8
0
100
AcDbSpline
 62
7
  6
BYLAYER
 70
0
 71
3
 72
9
 73
5
 74
0
 42
0.0000001
 43
0.0000001
 44
0.0000000001
 40
0.0
 40
0.0
 40
0.0
 40
0.0
 40
0.5132448044
 40
1.0
 40
1.0
 40
1.0
 40
1.0
 10
12.4649031729
 20
37.2389345247
 30
0.0
 10
12.4589767201
 20
37.2395942133
 30
0.0
 10
12.4468987713
 20
37.2385580904
 30
0.0
 10
12.4368822977
 20
37.231608999
 30
0.0
 10
12.4331299318
 20
37.2273779167
 30
0.0
  0
SPLINE
  5
27D
100
AcDbEntity
  8
0
100
AcDbSpline
 62
7
  6
BYLAYER
 70
0
 71
3
 72
11
 73
7
 74
0
 42
0.0000001
 43
0.0000001
 44
0.0000000001
 40
0.0
 40
0.0
 40
0.0
 40
0.0
 40
0.22248818
 40
0.4505877012
 40
0.7067133848
 40
1.0
 40
1.0
 40
1.0
 40
1.0
 10
12.5313064714
 20
39.9444822584
 30
0.0
 10
12.5359167838
 20
39.9454214164
 30
0.0
 10
12.5450196259
 20
39.94923898
 30
0.0
 10
12.555286811
 20
39.9606600042
 30
0.0
 10
12.5612541359
 20
39.9762688454
 30
0.0
 10
12.5624012695
 20
39.9879499479
 30
0.0
 10
12.5624012695
 20
39.9941521322
 30
0.0
  0
SPLINE
  5
27E
100
AcDbEntity
  8
0
100
AcDbSpline
 62
7
  6
BYLAYER
 70
0
 71
3
 72
14
 73
10
 74
0
 42
0.0000001
 43
0.0000001
 44
0.0000000001
 40
0.0
 40
0.0
 40
0.0
 40
0.0
 40
0.1203925647
 40
0.2520789749
 40
0.5284793067
 40
0.663272574
 40
0.7887729431
 40
0.9015760312
 40
1.0
 40
1.0
 40
1.0
 40
1.0
 10
12.5624012695
 20
39.9941521322
 30
0.0
 10
12.5624012695
 20
40.0011845433
 30
0.0
 10
12.5607611579
 20
40.0159271886
 30
0.0
 10
12.552287889
 20
40.0456994741
 30
0.0
 10
12.5369059375
 20
40.0740305525
 30
0.0
 10
12.5165178562
 20
40.0979490528
 30
0.0
 10
12.4998510374
 20
40.1121740969
 30
0.0
 10
12.4826579771
 20
40.1219775108
 30
0.0
 10
12.470617057
 20
40.1254510446
 30
0.0
 10
12.4649031729
 20
40.1260870717
 30
0.0
  0
SPLINE
  5
27F
100
AcDbEntity
  8
0
100
AcDbSpline
 62
7
  6
BYLAYER
 70
0
 71
3
 72
9
 73
5
 74
0
 42
0.0000001
 43
0.0000001
 44
0.0000000001
 40
0.0
 40
0.0
 40
0.0
 40
0.0
 40
0.5132448044
 40
1.0
 40
1.0
 40
1.0
 40
1.0
 10
12.4649031729
 20
40.1260870717
 30
0.0
 10
12.4589767201
 20
40.1267467603
 30
0.0
 10
12.4468987713
 20
40.1257106374
 30
0.0
 10
12.4368822977
 20
40.1187615459
 30
0.0
 10
12.4331299318
 20
40.1145304637
 30
0.0
  0
SPLINE
  5
280
100
AcDbEntity
  8
0
100
AcDbSpline
 62
7
  6
BYLAYER
 70
0
 71
3
 72
17
 73
13
 74
0
 42
0.0000001
 43
0.0000001
 44
0.0000000001
 40
0.0
 40
0.0
 40
0.0
 40
0.0
 40
0.1323896813
 40
0.2786068704
 40
0.4293557251
 40
0.5748290053
 40
0.7061098192
 40
0.7646979989
 40
0.8182622383
 40
0.912040405
 40
0.9558060896
 40
1.0
 40
1.0
 40
1.0
 40
1.0
 10
15.0627412576
 20
35.6634602773
 30
0.0
 10
15.0627412576
 20
35.6727362126
 30
0.0
 10
15.0599187449
 20
35.6922768777
 30
0.0
 10
15.0496056044
 20
35.7207039196
 30
0.0
 10
15.0338501197
 20
35.7476079625
 30
0.0
 10
15.0141871637
 20
35.7704191067
 30
0.0
 10
14.9953147307
 20
35.7848436852
 30
0.0
 10
14.9797951704
 20
35.7920991848
 30
0.0
 10
14.9658853987
 20
35.7960339496
 30
0.0
 10
14.9518933076
 20
35.7957512569
 30
0.0
 10
14.9402188836
 20
35.790286409
 30
0.0
 10
14.9355166264
 20
35.7861651379
 30
0.0
 10
14.9334636144
 20
35.7838471151
 30
0.0
  0
SPLINE
  5
281
100
AcDbEntity
  8
0
100
AcDbSpline
 62
7
  6
BYLAYER
 70
0
 71
3
 72
23
 73
19
 74
0
 42
0.0000001
 43
0.0000001
 44
0.0000000001
 40
0.0
 40
0.0
 40
0.0
 40
0.0
 40
0.0738383392
 40
0.1486725296
 40
0.2237975382
 40
0.2985659881
 40
0.3723078206
 40
0.4443888126
 40
0.5142235647
 40
0.5812930499
 40
0.6451702255
 40
0.7055469736
 40
0.7622633463
 40
0.815342079
 40
0.8650274776
 40
0.9118180837
 40
0.9564770308
 40
1.0
 40
1.0
 40
1.0
 40
1.0
 10
11.0621965716
 20
34.9733577597
 30
0.0
 10
10.9616850978
 20
35.0947911863
 30
0.0
 10
10.7679623438
 20
35.3465894299
 30
0.0
 10
10.5028200725
 20
35.74445349
 30
0.0
 10
10.2638747276
 20
36.1608956999
 30
0.0
 10
10.0543117225
 20
36.5902750025
 30
0.0
 10
9.8769277704
 20
37.0269291982
 30
0.0
 10
9.7340780097
 20
37.4650294164
 30
0.0
 10
9.627657637
 20
37.8987612826
 30
0.0
 10
9.559097805
 20
38.3223886981
 30
0.0
 10
9.5293341535
 20
38.7303301338
 30
0.0
 10
9.5388035919
 20
39.1172435016
 30
0.0
 10
9.5874898627
 20
39.4780917852
 30
0.0
 10
9.6749727704
 20
39.8081768397
 30
0.0
 10
9.8004228425
 20
40.1031204245
 30
0.0
 10
9.96264796
 20
40.3588321653
 30
0.0
 10
10.159742077
 20
40.5713083846
 30
0.0
 10
10.3136190926
 20
40.6823377385
 30
0.0
 10
10.3940838581
 20
40.7287995407
 30
0.0
  0
SPLINE
  5
282
100
AcDbEntity
  8
0
100
AcDbSpline
 62
7
  6
BYLAYER
 70
0
 71
3
 72
36
 73
32
 74
0
 42
0.0000001
 43
0.0000001
 44
0.0000000001
 40
0.0
 40
0.0
 40
0.0
 40
0.0
 40
0.0374679281
 40
0.0740110266
 40
0.1094072772
 40
0.1434950303
 40
0.1761326559
 40
0.207217414
 40
0.2366970788
 40
0.2645770738
 40
0.2909297733
 40
0.3159044542
 40
0.3397341907
 40
0.3627328742
 40
0.3852822994
 40
0.407804751
 40
0.4307249725
 40
0.4544317235
 40
0.4792482659
 40
0.5054180798
 40
0.5331009262
 40
0.5623782632
 40
0.5932635863
 40
0.6257106072
 40
0.6596235527
 40
0.6948665312
 40
0.7312694176
 40
0.7686353036
 40
0.8453402416
 40
0.9231191256
 40
1.0
 40
1.0
 40
1.0
 40
1.0
 10
10.6639455646
 20
34.4549883837
 30
0.0
 10
10.7635603721
 20
34.3353849665
 30
0.0
 10
10.9673805775
 20
34.1048851927
 30
0.0
 10
11.2892888636
 20
33.7835948002
 30
0.0
 10
11.6211684433
 20
33.4934661291
 30
0.0
 10
11.9598171582
 20
33.237291923
 30
0.0
 10
12.3020708441
 20
33.0174644729
 30
0.0
 10
12.6447283045
 20
32.8360988143
 30
0.0
 10
12.9846073448
 20
32.6949632388
 30
0.0
 10
13.3185618469
 20
32.5954436429
 30
0.0
 10
13.6435178105
 20
32.5386245326
 30
0.0
 10
13.9564444092
 20
32.5252835592
 30
0.0
 10
14.2543183582
 20
32.5558062462
 30
0.0
 10
14.5340900443
 20
32.6302160897
 30
0.0
 10
14.7926842619
 20
32.7479895094
 30
0.0
 10
15.0271884921
 20
32.9078858217
 30
0.0
 10
15.2350246679
 20
33.1080678875
 30
0.0
 10
15.4141178873
 20
33.3461968707
 30
0.0
 10
15.5629198124
 20
33.6196328246
 30
0.0
 10
15.6802184095
 20
33.9255865634
 30
0.0
 10
15.7651205099
 20
34.2610741654
 30
0.0
 10
15.8170103909
 20
34.6229142264
 30
0.0
 10
15.8354816994
 20
35.0077155563
 30
0.0
 10
15.8204333283
 20
35.4118660657
 30
0.0
 10
15.7720597373
 20
35.8315675627
 30
0.0
 10
15.6908162539
 20
36.2628505711
 30
0.0
 10
15.5774930092
 20
36.7016486004
 30
0.0
 10
15.3834082085
 20
37.2962211856
 30
0.0
 10
15.0679232299
 20
38.0303060627
 30
0.0
 10
14.5905770331
 20
38.8666614652
 30
0.0
 10
14.2103855049
 20
39.386736147
 30
0.0
 10
14.0067363615
 20
39.6327758514
 30
0.0
  0
SPLINE
  5
283
100
AcDbEntity
  8
0
100
AcDbSpline
 62
7
  6
BYLAYER
 70
0
 71
3
 72
38
 73
34
 74
0
 42
0.0000001
 43
0.0000001
 44
0.0000000001
 40
0.0
 40
0.0
 40
0.0
 40
0.0
 40
0.0361012779
 40
0.0710117929
 40
0.1045680762
 40
0.1366751104
 40
0.1672673974
 40
0.1963200355
 40
0.2238657369
 40
0.2371059801
 40
0.2500100742
 40
0.2748888976
 40
0.2987470484
 40
0.3218844259
 40
0.3446548464
 40
0.3674421177
 40
0.3906286532
 40
0.4145643711
 40
0.4395436747
 40
0.4525045503
 40
0.465805039
 40
0.4934790311
 40
0.5226651781
 40
0.5533901852
 40
0.5856274481
 40
0.6193067488
 40
0.6543191147
 40
0.6905247947
 40
0.7277587879
 40
0.7658340924
 40
0.8436639935
 40
0.922312719
 40
1.0
 40
1.0
 40
1.0
 40
1.0
 10
13.4356380039
 20
40.2498511022
 30
0.0
 10
13.3346532501
 20
40.3470407113
 30
0.0
 10
13.1301425712
 20
40.53224209
 30
0.0
 10
12.8118396008
 20
40.7846955855
 30
0.0
 10
12.4892998399
 20
41.0053815241
 30
0.0
 10
12.1653053713
 20
41.1923856203
 30
0.0
 10
11.8425346358
 20
41.3441653896
 30
0.0
 10
11.5236807985
 20
41.4593457978
 30
0.0
 10
11.2599576376
 20
41.5248267961
 30
0.0
 10
11.0539323467
 20
41.5572237679
 30
0.0
 10
10.856647478
 20
41.5760981248
 30
0.0
 10
10.6165735747
 20
41.5762682116
 30
0.0
 10
10.3392796664
 20
41.5373284886
 30
0.0
 10
10.0787484907
 20
41.4593468569
 30
0.0
 10
9.8375519629
 20
41.3428743587
 30
0.0
 10
9.618063373
 20
41.1890327798
 30
0.0
 10
9.4224127337
 20
40.9993546115
 30
0.0
 10
9.252324149
 20
40.7758211239
 30
0.0
 10
9.1344168732
 20
40.5656610988
 30
0.0
 10
9.0537239777
 20
40.383724138
 30
0.0
 10
8.9804302529
 20
40.1874550673
 30
0.0
 10
8.9074100648
 20
39.9244299212
 30
0.0
 10
8.8503036716
 20
39.5887082615
 30
0.0
 10
8.8229530211
 20
39.2315446639
 30
0.0
 10
8.8255130925
 20
38.8559690091
 30
0.0
 10
8.8579540925
 20
38.465129859
 30
0.0
 10
8.9199682647
 20
38.0623240944
 30
0.0
 10
9.0110110952
 20
37.6509583318
 30
0.0
 10
9.1303314861
 20
37.2345138417
 30
0.0
 10
9.327145751
 20
36.6732151001
 30
0.0
 10
9.6368798615
 20
35.9824967379
 30
0.0
 10
10.0955864016
 20
35.1958097853
 30
0.0
 10
10.4562580775
 20
34.7058492905
 30
0.0
 10
10.648568958
 20
34.4735079895
 30
0.0
  0
SPLINE
  5
284
100
AcDbEntity
  8
0
100
AcDbSpline
 62
7
  6
BYLAYER
 70
0
 71
3
 72
9
 73
5
 74
0
 42
0.0000001
 43
0.0000001
 44
0.0000000001
 40
0.0
 40
0.0
 40
0.0
 40
0.0
 40
0.2540563906
 40
1.0
 40
1.0
 40
1.0
 40
1.0
 10
14.0067363615
 20
39.6327758514
 30
0.0
 10
13.9613221754
 20
39.6876432214
 30
0.0
 10
13.7796589215
 20
39.9011781629
 30
0.0
 10
13.5863149252
 20
40.1048368249
 30
0.0
 10
13.4356380039
 20
40.2498511022
 30
0.0
  0
SPLINE
  5
285
100
AcDbEntity
  8
0
100
AcDbSpline
 62
7
  6
BYLAYER
 70
0
 71
3
 72
26
 73
22
 74
0
 42
0.0000001
 43
0.0000001
 44
0.0000000001
 40
0.0
 40
0.0
 40
0.0
 40
0.0
 40
0.0755502048
 40
0.1520802423
 40
0.2287900369
 40
0.3049139241
 40
0.3796793971
 40
0.4523678906
 40
0.5223254928
 40
0.5889981722
 40
0.6519642086
 40
0.7109707888
 40
0.765979854
 40
0.8172178847
 40
0.8652207148
 40
0.8882953975
 40
0.9109126179
 40
0.9332253727
 40
0.9553981209
 40
0.9776001588
 40
1.0
 40
1.0
 40
1.0
 40
1.0
 10
13.8212921674
 20
39.2957314865
 30
0.0
 10
13.9334920106
 20
39.1589838562
 30
0.0
 10
14.1489751002
 20
38.8750410863
 30
0.0
 10
14.4413237661
 20
38.4256664245
 30
0.0
 10
14.7015492261
 20
37.9553895391
 30
0.0
 10
14.9257039237
 20
37.4714368288
 30
0.0
 10
15.1103729115
 20
36.9811019883
 30
0.0
 10
15.2527527648
 20
36.4918361721
 30
0.0
 10
15.3506836491
 20
36.011029715
 30
0.0
 10
15.4026645651
 20
35.5459187842
 30
0.0
 10
15.4078553724
 20
35.10345205
 30
0.0
 10
15.3660509103
 20
34.6902002137
 30
0.0
 10
15.2775956697
 20
34.3122523836
 30
0.0
 10
15.1434625411
 20
33.9753452015
 30
0.0
 10
14.9925898696
 20
33.7298305679
 30
0.0
 10
14.8513241085
 20
33.5615821509
 30
0.0
 10
14.7369321566
 20
33.4504146426
 30
0.0
 10
14.6131597282
 20
33.3531753989
 30
0.0
 10
14.4805275298
 20
33.270214553
 30
0.0
 10
14.3395706676
 20
33.2019260808
 30
0.0
 10
14.2410680688
 20
33.1665762585
 30
0.0
 10
14.1908597073
 20
33.1514241292
 30
0.0
  0
SPLINE
  5
286
100
AcDbEntity
  8
0
100
AcDbSpline
 62
7
  6
BYLAYER
 70
0
 71
3
 72
17
 73
13
 74
0
 42
0.0000001
 43
0.0000001
 44
0.0000000001
 40
0.0
 40
0.0
 40
0.0
 40
0.0
 40
0.047460244
 40
0.0961987437
 40
0.1465689385
 40
0.198862847
 40
0.3099355576
 40
0.4305383703
 40
0.5607552377
 40
0.6999374229
 40
0.8468983812
 40
1.0
 40
1.0
 40
1.0
 40
1.0
 10
14.1908597073
 20
33.1514241292
 30
0.0
 10
14.1315939287
 20
33.1335386075
 30
0.0
 10
14.009146434
 20
33.1045777499
 30
0.0
 10
13.8188992259
 20
33.0822330289
 30
0.0
 10
13.621048956
 20
33.0805049497
 30
0.0
 10
13.3430443933
 20
33.106223661
 30
0.0
 10
12.980781974
 20
33.1927383548
 30
0.0
 10
12.5430481758
 20
33.3735105477
 30
0.0
 10
12.1017336893
 20
33.6291839029
 30
0.0
 10
11.6655021981
 20
33.9544607814
 30
0.0
 10
11.2430031495
 20
34.3427294702
 30
0.0
 10
10.9803087914
 20
34.6337039513
 30
0.0
 10
10.852974512
 20
34.7875434811
 30
0.0
  0
SPLINE
  5
287
100
AcDbEntity
  8
0
100
AcDbSpline
 62
7
  6
BYLAYER
 70
0
 71
3
 72
14
 73
10
 74
0
 42
0.0000001
 43
0.0000001
 44
0.0000000001
 40
0.0
 40
0.0
 40
0.0
 40
0.0
 40
0.145349212
 40
0.284547337
 40
0.5438855124
 40
0.6648601869
 40
0.7806404174
 40
0.8920123018
 40
1.0
 40
1.0
 40
1.0
 40
1.0
 10
9.2517253123
 20
38.8289892546
 30
0.0
 10
9.2517253123
 20
38.9238717118
 30
0.0
 10
9.2581872258
 20
39.1097404576
 30
0.0
 10
9.2977145373
 20
39.4627504573
 30
0.0
 10
9.3771194509
 20
39.7948875285
 30
0.0
 10
9.5005737087
 20
40.0948624481
 30
0.0
 10
9.6101819623
 20
40.2945487831
 30
0.0
 10
9.738279642
 20
40.4725732946
 30
0.0
 10
9.836687356
 20
40.5773013877
 30
0.0
 10
9.8884197978
 20
40.6251872162
 30
0.0
  0
SPLINE
  5
288
100
AcDbEntity
  8
0
100
AcDbSpline
 62
7
  6
BYLAYER
 70
0
 71
3
 72
21
 73
17
 74
0
 42
0.0000001
 43
0.0000001
 44
0.0000000001
 40
0.0
 40
0.0
 40
0.0
 40
0.0
 40
0.0488369455
 40
0.0973170216
 40
0.1461944645
 40
0.1961931732
 40
0.2479566999
 40
0.3020146217
 40
0.3587635671
 40
0.4184721352
 40
0.4812804228
 40
0.5472240107
 40
0.6162401554
 40
0.6881835448
 40
0.8398573375
 40
1.0
 40
1.0
 40
1.0
 40
1.0
 10
9.8884197978
 20
40.6251872162
 30
0.0
 10
9.9431635768
 20
40.6758604711
 30
0.0
 10
10.0599084282
 20
40.7689535629
 30
0.0
 10
10.2544984382
 20
40.8802187883
 30
0.0
 10
10.465497833
 20
40.9610576763
 30
0.0
 10
10.6909712308
 20
41.0108056729
 30
0.0
 10
10.928989495
 20
41.0292275192
 30
0.0
 10
11.1776016347
 20
41.0162942563
 30
0.0
 10
11.4348665074
 20
40.9723162361
 30
0.0
 10
11.698803085
 20
40.8976854474
 30
0.0
 10
11.9674319432
 20
40.7931186166
 30
0.0
 10
12.2386977176
 20
40.659418164
 30
0.0
 10
12.5105620823
 20
40.4976726591
 30
0.0
 10
12.877458595
 20
40.2417861688
 30
0.0
 10
13.3231014208
 20
39.8584591675
 30
0.0
 10
13.6463602951
 20
39.5071768938
 30
0.0
 10
13.8023307213
 20
39.3187404639
 30
0.0
  0
SPLINE
  5
289
100
AcDbEntity
  8
0
100
AcDbSpline
 62
7
  6
BYLAYER
 70
0
 71
3
 72
15
 73
11
 74
0
 42
0.0000001
 43
0.0000001
 44
0.0000000001
 40
0.0
 40
0.0
 40
0.0
 40
0.0
 40
0.1293672771
 40
0.2605099173
 40
0.3918460899
 40
0.52183356
 40
0.6489544628
 40
0.7718007184
 40
0.8891544134
 40
1.0
 40
1.0
 40
1.0
 40
1.0
 10
10.852974512
 20
34.7875434811
 30
0.0
 10
10.7312723373
 20
34.9345785562
 30
0.0
 10
10.4982786695
 20
35.240871124
 30
0.0
 10
10.1849097651
 20
35.7273513443
 30
0.0
 10
9.9094087669
 20
36.2373173382
 30
0.0
 10
9.6766480425
 20
36.7616789429
 30
0.0
 10
9.490759396
 20
37.2912107959
 30
0.0
 10
9.3549857105
 20
37.8166108032
 30
0.0
 10
9.2717823089
 20
38.3285661398
 30
0.0
 10
9.2517253123
 20
38.6654477755
 30
0.0
 10
9.2517253123
 20
38.8289892546
 30
0.0
  0
SPLINE
  5
28A
100
AcDbEntity
  8
0
100
AcDbSpline
 62
7
  6
BYLAYER
 70
0
 71
3
 72
9
 73
5
 74
0
 42
0.0000001
 43
0.0000001
 44
0.0000000001
 40
0.0
 40
0.0
 40
0.0
 40
0.0
 40
0.2540563983
 40
1.0
 40
1.0
 40
1.0
 40
1.0
 10
14.1903709086
 20
39.8028294522
 30
0.0
 10
14.143150759
 20
39.8598787058
 30
0.0
 10
13.9542634317
 20
40.0819052078
 30
0.0
 10
13.7532307932
 20
40.293662627
 30
0.0
 10
13.5965619837
 20
40.4444436092
 30
0.0
  0
SPLINE
  5
28B
100
AcDbEntity
  8
0
100
AcDbSpline
 62
7
  6
BYLAYER
 70
0
 71
3
 72
11
 73
7
 74
0
 42
0.0000001
 43
0.0000001
 44
0.0000000001
 40
0.0
 40
0.0
 40
0.0
 40
0.0
 40
0.22248818
 40
0.4505877012
 40
0.7067133848
 40
1.0
 40
1.0
 40
1.0
 40
1.0
 10
12.5313064714
 20
37.0573297114
 30
0.0
 10
12.5359167838
 20
37.0582688694
 30
0.0
 10
12.5450196259
 20
37.062086433
 30
0.0
 10
12.555286811
 20
37.0735074573
 30
0.0
 10
12.5612541359
 20
37.0891162984
 30
0.0
 10
12.5624012695
 20
37.1007974009
 30
0.0
 10
12.5624012695
 20
37.1069995853
 30
0.0
  0
SPLINE
  5
28C
100
AcDbEntity
  8
0
100
AcDbSpline
 62
7
  6
BYLAYER
 70
0
 71
3
 72
19
 73
15
 74
0
 42
0.0000001
 43
0.0000001
 44
0.0000000001
 40
0.0
 40
0.0
 40
0.0
 40
0.0
 40
0.0475011713
 40
0.0956064028
 40
0.1448825494
 40
0.1958280365
 40
0.2488548405
 40
0.3042765443
 40
0.3623128047
 40
0.42308888
 40
0.5528815232
 40
0.6933035553
 40
0.8430035516
 40
1.0
 40
1.0
 40
1.0
 40
1.0
 10
14.5440629101
 20
33.5407820657
 30
0.0
 10
14.4884231349
 20
33.5086546592
 30
0.0
 10
14.3717412355
 20
33.4517716098
 30
0.0
 10
14.1849102749
 20
33.3907679627
 30
0.0
 10
13.9870659733
 20
33.3542241258
 30
0.0
 10
13.7796276609
 20
33.3422781565
 30
0.0
 10
13.5639604135
 20
33.3549475361
 30
0.0
 10
13.3414572742
 20
33.3920199268
 30
0.0
 10
13.1135244627
 20
33.453233117
 30
0.0
 10
12.7974075771
 20
33.5689343339
 30
0.0
 10
12.3974606833
 20
33.7741787038
 30
0.0
 10
11.9305640836
 20
34.1000594159
 30
0.0
 10
11.4776233742
 20
34.5026082727
 30
0.0
 10
11.1975961663
 20
34.80977408
 30
0.0
 10
11.0621965716
 20
34.9733577597
 30
0.0
  0
SPLINE
  5
28D
100
AcDbEntity
  8
0
100
AcDbSpline
 62
7
  6
BYLAYER
 70
0
 71
3
 72
11
 73
7
 74
0
 42
0.0000001
 43
0.0000001
 44
0.0000000001
 40
0.0
 40
0.0
 40
0.0
 40
0.0
 40
0.2177853238
 40
0.4509152369
 40
0.7102996252
 40
1.0
 40
1.0
 40
1.0
 40
1.0
 10
13.7972681565
 20
37.3242454822
 30
0.0
 10
13.8137610576
 20
37.3337690684
 30
0.0
 10
13.8446199013
 20
37.3597113791
 30
0.0
 10
13.8774724336
 20
37.4134272724
 30
0.0
 10
13.8969835183
 20
37.479624651
 30
0.0
 10
13.9008241382
 20
37.527804504
 30
0.0
 10
13.9008241382
 20
37.5531384531
 30
0.0
  0
SPLINE
  5
28E
100
AcDbEntity
  8
0
100
AcDbSpline
 62
7
  6
BYLAYER
 70
0
 71
3
 72
20
 73
16
 74
0
 42
0.0000001
 43
0.0000001
 44
0.0000000001
 40
0.0
 40
0.0
 40
0.0
 40
0.0
 40
0.1585932751
 40
0.3075933649
 40
0.3781066498
 40
0.4458075763
 40
0.5726011235
 40
0.6319655187
 40
0.6888441971
 40
0.7435277079
 40
0.7963985466
 40
0.8479243807
 40
0.8986424631
 40
0.9491358392
 40
1.0
 40
1.0
 40
1.0
 40
1.0
 10
13.5965619837
 20
40.4444436092
 30
0.0
 10
13.4238421391
 20
40.6106724067
 30
0.0
 10
13.0725190259
 20
40.9167111933
 30
0.0
 10
12.6005917744
 20
41.2417569678
 30
0.0
 10
12.2199807556
 20
41.4513138986
 30
0.0
 10
11.8560876912
 20
41.6192158083
 30
0.0
 10
11.4896824005
 20
41.7403718013
 30
0.0
 10
11.1276730688
 20
41.8056979687
 30
0.0
 10
10.8696103585
 20
41.8258243803
 30
0.0
 10
10.6206585209
 20
41.8179259454
 30
0.0
 10
10.3823056542
 20
41.781969013
 30
0.0
 10
10.1560521473
 20
41.718072805
 30
0.0
 10
9.9433510056
 20
41.6265596215
 30
0.0
 10
9.7456390089
 20
41.5080227759
 30
0.0
 10
9.6254864747
 20
41.4121311303
 30
0.0
 10
9.5686050107
 20
41.3604071776
 30
0.0
  0
SPLINE
  5
28F
100
AcDbEntity
  8
0
100
AcDbSpline
 62
7
  6
BYLAYER
 70
0
 71
3
 72
19
 73
15
 74
0
 42
0.0000001
 43
0.0000001
 44
0.0000000001
 40
0.0
 40
0.0
 40
0.0
 40
0.0
 40
0.1569978431
 40
0.3066956527
 40
0.4471183213
 40
0.5769105603
 40
0.6376875337
 40
0.6957229388
 40
0.7511454329
 40
0.8041715352
 40
0.8551176285
 40
0.9043933763
 40
0.9524987934
 40
1.0
 40
1.0
 40
1.0
 40
1.0
 10
15.0605721705
 20
40.3702851033
 30
0.0
 10
14.8860193261
 20
40.5811719723
 30
0.0
 10
14.52502238
 20
40.9771572134
 30
0.0
 10
13.9411076192
 20
41.496100712
 30
0.0
 10
13.339210234
 20
41.9162163662
 30
0.0
 10
12.8236091608
 20
42.180794779
 30
0.0
 10
12.4160930715
 20
42.3299751769
 30
0.0
 10
12.1222448887
 20
42.4088648703
 30
0.0
 10
11.8354087603
 20
42.4566848664
 30
0.0
 10
11.5573775469
 20
42.472987112
 30
0.0
 10
11.2899554392
 20
42.4576195547
 30
0.0
 10
11.034909051
 20
42.4104759404
 30
0.0
 10
10.7940436479
 20
42.3318659377
 30
0.0
 10
10.6436344053
 20
42.2585084337
 30
0.0
 10
10.5719028559
 20
42.217096524
 30
0.0
  0
SPLINE
  5
290
100
AcDbEntity
  8
0
100
AcDbSpline
 62
7
  6
BYLAYER
 70
0
 71
3
 72
22
 73
18
 74
0
 42
0.0000001
 43
0.0000001
 44
0.0000000001
 40
0.0
 40
0.0
 40
0.0
 40
0.0
 40
0.0462759142
 40
0.0923575046
 40
0.1392408453
 40
0.1878392013
 40
0.2389034997
 40
0.2929837144
 40
0.3504230146
 40
0.4113724404
 40
0.4758185122
 40
0.5436092153
 40
0.6144762275
 40
0.6880588118
 40
0.763922581
 40
0.841574234
 40
1.0
 40
1.0
 40
1.0
 40
1.0
 10
14.6783069419
 20
32.510090818
 30
0.0
 10
14.7776749368
 20
32.5418377593
 30
0.0
 10
14.9709146369
 20
32.6228234808
 30
0.0
 10
15.2348918262
 20
32.7957072584
 30
0.0
 10
15.4673676655
 20
33.0167485297
 30
0.0
 10
15.6655581213
 20
33.2828676907
 30
0.0
 10
15.8275559486
 20
33.5906661406
 30
0.0
 10
15.9519182508
 20
33.9365365655
 30
0.0
 10
16.0375952453
 20
34.3166555712
 30
0.0
 10
16.0839037176
 20
34.726927755
 30
0.0
 10
16.0904804908
 20
35.1629781179
 30
0.0
 10
16.0573148979
 20
35.6201461258
 30
0.0
 10
15.9848181584
 20
36.093528306
 30
0.0
 10
15.8738033592
 20
36.5780143801
 30
0.0
 10
15.7254577136
 20
37.0684023716
 30
0.0
 10
15.4784856749
 20
37.7271456479
 30
0.0
 10
15.2450152502
 20
38.2073332221
 30
0.0
 10
15.0700068116
 20
38.5186395615
 30
0.0
  0
SPLINE
  5
291
100
AcDbEntity
  8
0
100
AcDbSpline
 62
7
  6
BYLAYER
 70
0
 71
3
 72
25
 73
21
 74
0
 42
0.0000001
 43
0.0000001
 44
0.0000000001
 40
0.0
 40
0.0
 40
0.0
 40
0.0
 40
0.0738329985
 40
0.1486561008
 40
0.2237741785
 40
0.2985350056
 40
0.3722689335
 40
0.4443426094
 40
0.5141697824
 40
0.5812322132
 40
0.6451032142
 40
0.7054736344
 40
0.7621835835
 40
0.8152567539
 40
0.8649374603
 40
0.9117232373
 40
0.9342834602
 40
0.9564274162
 40
0.9782862422
 40
1.0
 40
1.0
 40
1.0
 40
1.0
 10
15.5201896647
 20
40.6356438033
 30
0.0
 10
15.6497688623
 20
40.4790920647
 30
0.0
 10
15.8995094425
 20
40.1544889424
 30
0.0
 10
16.241314643
 20
39.6415765589
 30
0.0
 10
16.5493498286
 20
39.1047227212
 30
0.0
 10
16.8195109728
 20
38.551183588
 30
0.0
 10
17.0481901306
 20
37.9882687659
 30
0.0
 10
17.2323450537
 20
37.4234892951
 30
0.0
 10
17.3695314903
 20
36.8643398185
 30
0.0
 10
17.4579163244
 20
36.3182176461
 30
0.0
 10
17.4962967571
 20
35.7923170202
 30
0.0
 10
17.4840850957
 20
35.2935236852
 30
0.0
 10
17.4213145008
 20
34.8283400546
 30
0.0
 10
17.3085243475
 20
34.4027976683
 30
0.0
 10
17.1468531681
 20
34.0226017256
 30
0.0
 10
16.9703397848
 20
33.7444451838
 30
0.0
 10
16.8071770813
 20
33.5522093879
 30
0.0
 10
16.6757033751
 20
33.424186747
 30
0.0
 10
16.5341696248
 20
33.3111024852
 30
0.0
 10
16.4332495895
 20
33.2458627477
 30
0.0
 10
16.3814898484
 20
33.2159809211
 30
0.0
  0
SPLINE
  5
292
100
AcDbEntity
  8
0
100
AcDbSpline
 62
7
  6
BYLAYER
 70
0
 71
3
 72
25
 73
21
 74
0
 42
0.0000001
 43
0.0000001
 44
0.0000000001
 40
0.0
 40
0.0
 40
0.0
 40
0.0
 40
0.0217137578
 40
0.0435725838
 40
0.0657165398
 40
0.0882767627
 40
0.1350625397
 40
0.1847432461
 40
0.2378164165
 40
0.2945263656
 40
0.3548967858
 40
0.4187677868
 40
0.4858302176
 40
0.5556573906
 40
0.6277310665
 40
0.7014649944
 40
0.7762258215
 40
0.8513438992
 40
0.9261670015
 40
1.0
 40
1.0
 40
1.0
 40
1.0
 10
15.9218723542
 20
32.950622221
 30
0.0
 10
15.9736320953
 20
32.9805040477
 30
0.0
 10
16.0745521306
 20
33.0457437852
 30
0.0
 10
16.2160858809
 20
33.1588280469
 30
0.0
 10
16.3475595871
 20
33.2868506879
 30
0.0
 10
16.5107222906
 20
33.4790864837
 30
0.0
 10
16.6872356739
 20
33.7572430256
 30
0.0
 10
16.8489068533
 20
34.1374389683
 30
0.0
 10
16.9616970066
 20
34.5629813546
 30
0.0
 10
17.0244676015
 20
35.0281649852
 30
0.0
 10
17.0366792629
 20
35.5269583202
 30
0.0
 10
16.9982988302
 20
36.052858946
 30
0.0
 10
16.9099139961
 20
36.5989811185
 30
0.0
 10
16.7727275595
 20
37.1581305951
 30
0.0
 10
16.5885726364
 20
37.7229100659
 30
0.0
 10
16.3598934786
 20
38.2858248879
 30
0.0
 10
16.0897323344
 20
38.8393640212
 30
0.0
 10
15.7816971488
 20
39.3762178589
 30
0.0
 10
15.4398919484
 20
39.8891302424
 30
0.0
 10
15.1901513681
 20
40.2137333647
 30
0.0
 10
15.0605721705
 20
40.3702851033
 30
0.0
  0
SPLINE
  5
293
100
AcDbEntity
  8
0
100
AcDbSpline
 62
7
  6
BYLAYER
 70
0
 71
3
 72
11
 73
7
 74
0
 42
0.0000001
 43
0.0000001
 44
0.0000000001
 40
0.0
 40
0.0
 40
0.0
 40
0.0
 40
0.2229244128
 40
0.4509113799
 40
0.7067565742
 40
1.0
 40
1.0
 40
1.0
 40
1.0
 10
15.0316756132
 20
35.6137248426
 30
0.0
 10
15.0362879219
 20
35.614697708
 30
0.0
 10
15.0453587389
 20
35.6185840597
 30
0.0
 10
15.0556346173
 20
35.6299826622
 30
0.0
 10
15.0615965525
 20
35.6455877908
 30
0.0
 10
15.0627412576
 20
35.657259569
 30
0.0
 10
15.0627412576
 20
35.6634602773
 30
0.0
  0
SPLINE
  5
294
100
AcDbEntity
  8
0
100
AcDbSpline
 62
7
  6
BYLAYER
 70
0
 71
3
 72
15
 73
11
 74
0
 42
0.0000001
 43
0.0000001
 44
0.0000000001
 40
0.0
 40
0.0
 40
0.0
 40
0.0
 40
0.1293701092
 40
0.2605070034
 40
0.3918462069
 40
0.521833703
 40
0.6489540356
 40
0.7718041401
 40
0.8891501374
 40
1.0
 40
1.0
 40
1.0
 40
1.0
 10
20.0892324631
 20
43.4848830552
 30
0.0
 10
20.2571000451
 20
43.2820730185
 30
0.0
 10
20.5784691758
 20
42.8596112491
 30
0.0
 10
21.0106933285
 20
42.1886049391
 30
0.0
 10
21.390701338
 20
41.4852195134
 30
0.0
 10
21.7117433711
 20
40.7619594726
 30
0.0
 10
21.9681535
 20
40.0315731821
 30
0.0
 10
22.1554081808
 20
39.3068932799
 30
0.0
 10
22.270187105
 20
38.6007549436
 30
0.0
 10
22.2978458489
 20
38.1361001428
 30
0.0
 10
22.2978474383
 20
37.9105185477
 30
0.0
  0
SPLINE
  5
295
100
AcDbEntity
  8
0
100
AcDbSpline
 62
7
  6
BYLAYER
 70
0
 71
3
 72
25
 73
21
 74
0
 42
0.0000001
 43
0.0000001
 44
0.0000000001
 40
0.0
 40
0.0
 40
0.0
 40
0.0
 40
0.0217138071
 40
0.0435725641
 40
0.0657165095
 40
0.0882769213
 40
0.1350626641
 40
0.1847430283
 40
0.2378160406
 40
0.2945262911
 40
0.3548970282
 40
0.4187678601
 40
0.4858300668
 40
0.5556572121
 40
0.6277311721
 40
0.701464955
 40
0.7762256584
 40
0.8513447474
 40
0.9261651408
 40
1.0
 40
1.0
 40
1.0
 40
1.0
 10
17.1661091627
 20
32.9184165958
 30
0.0
 10
17.2241568587
 20
32.9519302918
 30
0.0
 10
17.337325963
 20
33.0251141908
 30
0.0
 10
17.496071232
 20
33.1519167078
 30
0.0
 10
17.6435121216
 20
33.2955018676
 30
0.0
 10
17.8264939557
 20
33.5110969849
 30
0.0
 10
18.0244511323
 20
33.82304826
 30
0.0
 10
18.2057724981
 20
34.2494307634
 30
0.0
 10
18.3322710937
 20
34.7266731197
 30
0.0
 10
18.4026634757
 20
35.2483767578
 30
0.0
 10
18.4163510935
 20
35.8077725399
 30
0.0
 10
18.3733103324
 20
36.397567351
 30
0.0
 10
18.274191703
 20
37.0100402893
 30
0.0
 10
18.1203400852
 20
37.6371246405
 30
0.0
 10
17.9138068074
 20
38.270521226
 30
0.0
 10
17.6573421951
 20
38.9018266307
 30
0.0
 10
17.3543596773
 20
39.5226217542
 30
0.0
 10
17.008900383
 20
40.1246947327
 30
0.0
 10
16.6255715243
 20
40.6999269153
 30
0.0
 10
16.3454874882
 20
41.0639637375
 30
0.0
 10
16.2001613584
 20
41.2395402089
 30
0.0
  0
SPLINE
  5
296
100
AcDbEntity
  8
0
100
AcDbSpline
 62
7
  6
BYLAYER
 70
0
 71
3
 72
15
 73
11
 74
0
 42
0.0000001
 43
0.0000001
 44
0.0000000001
 40
0.0
 40
0.0
 40
0.0
 40
0.0
 40
0.1108500945
 40
0.2281962168
 40
0.3510463805
 40
0.4781664113
 40
0.6081544319
 40
0.739491771
 40
0.8706320709
 40
1.0
 40
1.0
 40
1.0
 40
1.0
 10
22.2978468276
 20
38.4412274619
 30
0.0
 10
22.2978498124
 20
38.6423715152
 30
0.0
 10
22.2731787947
 20
39.0566893692
 30
0.0
 10
22.1708358641
 20
39.6863300557
 30
0.0
 10
22.0038646344
 20
40.3325024211
 30
0.0
 10
21.7752332788
 20
40.9837645539
 30
0.0
 10
21.4889693839
 20
41.628667629
 30
0.0
 10
21.1501318846
 20
42.255859023
 30
0.0
 10
20.764728758
 20
42.8541697985
 30
0.0
 10
20.4781751951
 20
43.2308681084
 30
0.0
 10
20.3284957577
 20
43.4117040496
 30
0.0
  0
SPLINE
  5
297
100
AcDbEntity
  8
0
100
AcDbSpline
 62
7
  6
BYLAYER
 70
0
 71
3
 72
11
 73
7
 74
0
 42
0.0000001
 43
0.0000001
 44
0.0000000001
 40
0.0
 40
0.0
 40
0.0
 40
0.0
 40
0.2654226625
 40
0.5219876773
 40
0.7674185833
 40
1.0
 40
1.0
 40
1.0
 40
1.0
 10
20.3284957577
 20
43.4117040496
 30
0.0
 10
20.1920809382
 20
43.5765142782
 30
0.0
 10
19.9115200762
 20
43.890728839
 30
0.0
 10
19.4633418742
 20
44.3180930991
 30
0.0
 10
19.0004095898
 20
44.6884749766
 30
0.0
 10
18.6772631219
 20
44.8997717586
 30
0.0
 10
18.514908066
 20
44.9935066226
 30
0.0
  0
SPLINE
  5
298
100
AcDbEntity
  8
0
100
AcDbSpline
 62
7
  6
BYLAYER
 70
0
 71
3
 72
19
 73
15
 74
0
 42
0.0000001
 43
0.0000001
 44
0.0000000001
 40
0.0
 40
0.0
 40
0.0
 40
0.0
 40
0.0475012066
 40
0.0956066237
 40
0.1448823715
 40
0.1958284648
 40
0.2488545671
 40
0.3042770612
 40
0.3623124663
 40
0.4230894397
 40
0.5528816787
 40
0.6933043473
 40
0.8430021569
 40
1.0
 40
1.0
 40
1.0
 40
1.0
 10
11.03152035
 20
42.482455224
 30
0.0
 10
11.1032518995
 20
42.5238671337
 30
0.0
 10
11.2536611421
 20
42.5972246378
 30
0.0
 10
11.4945265452
 20
42.6758346404
 30
0.0
 10
11.7495729334
 20
42.7229782547
 30
0.0
 10
12.016995041
 20
42.738345812
 30
0.0
 10
12.2950262545
 20
42.7220435664
 30
0.0
 10
12.5818623829
 20
42.6742235703
 30
0.0
 10
12.8757105657
 20
42.5953338769
 30
0.0
 10
13.2832266549
 20
42.446153479
 30
0.0
 10
13.7988277282
 20
42.1815750662
 30
0.0
 10
14.4007251134
 20
41.761459412
 30
0.0
 10
14.9846398742
 20
41.2425159134
 30
0.0
 10
15.3456368203
 20
40.8465306723
 30
0.0
 10
15.5201896647
 20
40.6356438033
 30
0.0
  0
SPLINE
  5
299
100
AcDbEntity
  8
0
100
AcDbSpline
 62
7
  6
BYLAYER
 70
0
 71
3
 72
11
 73
7
 74
0
 42
0.0000001
 43
0.0000001
 44
0.0000000001
 40
0.0
 40
0.0
 40
0.0
 40
0.0
 40
0.2325800134
 40
0.4780150728
 40
0.7345715043
 40
1.0
 40
1.0
 40
1.0
 40
1.0
 10
18.0553023414
 20
45.2588669292
 30
0.0
 10
18.2373800566
 20
45.1537415093
 30
0.0
 10
18.5997944477
 20
44.9167797998
 30
0.0
 10
19.1189619739
 20
44.5013949033
 30
0.0
 10
19.6215969491
 20
44.0221118771
 30
0.0
 10
19.9362405067
 20
43.6697210323
 30
0.0
 10
20.0892324631
 20
43.4848830552
 30
0.0
  0
SPLINE
  5
29A
100
AcDbEntity
  8
0
100
AcDbSpline
 62
7
  6
BYLAYER
 70
0
 71
3
 72
19
 73
15
 74
0
 42
0.0000001
 43
0.0000001
 44
0.0000000001
 40
0.0
 40
0.0
 40
0.0
 40
0.0
 40
0.1569986078
 40
0.3066953435
 40
0.4471181793
 40
0.5769104817
 40
0.6376876102
 40
0.6957230253
 40
0.7511452353
 40
0.8041717831
 40
0.855117365
 40
0.9043935906
 40
0.9524987045
 40
1.0
 40
1.0
 40
1.0
 40
1.0
 10
16.2001613584
 20
41.2395402089
 30
0.0
 10
16.0044002031
 20
41.476050002
 30
0.0
 10
15.5995445851
 20
41.9201456313
 30
0.0
 10
14.9446852697
 20
42.5021359305
 30
0.0
 10
14.2696621945
 20
42.9732939
 30
0.0
 10
13.6914166486
 20
43.2700159334
 30
0.0
 10
13.2343907348
 20
43.4373259364
 30
0.0
 10
12.9048409923
 20
43.5258001203
 30
0.0
 10
12.5831549063
 20
43.579422486
 30
0.0
 10
12.2713447102
 20
43.597721121
 30
0.0
 10
11.9714338103
 20
43.5804622208
 30
0.0
 10
11.6853943992
 20
43.5276220084
 30
0.0
 10
11.4152764123
 20
43.4394259751
 30
0.0
 10
11.246581741
 20
43.357182088
 30
0.0
 10
11.1661360241
 20
43.3107369492
 30
0.0
  0
SPLINE
  5
29B
100
AcDbEntity
  8
0
100
AcDbSpline
 62
7
  6
BYLAYER
 70
0
 71
3
 72
11
 73
7
 74
0
 42
0.0000001
 43
0.0000001
 44
0.0000000001
 40
0.0
 40
0.0
 40
0.0
 40
0.0
 40
0.2366329898
 40
0.4812965258
 40
0.7354410306
 40
1.0
 40
1.0
 40
1.0
 40
1.0
 10
66.3282277867
 20
63.6809862634
 30
0.0
 10
66.4307016356
 20
63.3061173427
 30
0.0
 10
66.6174124052
 20
62.5374878933
 30
0.0
 10
66.827213226
 20
61.3471278443
 30
0.0
 10
66.9583145912
 20
60.0992922347
 30
0.0
 10
66.9868498885
 20
59.2470817345
 30
0.0
 10
66.9868498885
 20
58.812596166
 30
0.0
  0
SPLINE
  5
29C
100
AcDbEntity
  8
0
100
AcDbSpline
 62
7
  6
BYLAYER
 70
0
 71
3
 72
11
 73
7
 74
0
 42
0.0000001
 43
0.0000001
 44
0.0000000001
 40
0.0
 40
0.0
 40
0.0
 40
0.0
 40
0.254462723
 40
0.5059322981
 40
0.7543666302
 40
1.0
 40
1.0
 40
1.0
 40
1.0
 10
62.7441915425
 20
69.7473827129
 30
0.0
 10
63.0853224355
 20
69.3230138812
 30
0.0
 10
63.735544365
 20
68.4562853529
 30
0.0
 10
64.6175849158
 20
67.1032018441
 30
0.0
 10
65.4065134232
 20
65.7157236118
 30
0.0
 10
65.8804314168
 20
64.7702114518
 30
0.0
 10
66.1054976218
 20
64.2952501664
 30
0.0
  0
SPLINE
  5
29D
100
AcDbEntity
  8
0
100
AcDbSpline
 62
7
  6
BYLAYER
 70
0
 71
3
 72
11
 73
7
 74
0
 42
0.0000001
 43
0.0000001
 44
0.0000000001
 40
0.0
 40
0.0
 40
0.0
 40
0.0
 40
0.2720746187
 40
0.5314181018
 40
0.7749629173
 40
1.0
 40
1.0
 40
1.0
 40
1.0
 10
49.6637818758
 20
73.9143677526
 30
0.0
 10
50.0772811331
 20
73.9996211066
 30
0.0
 10
50.8862682585
 20
74.1597784356
 30
0.0
 10
52.0706909307
 20
74.3685379328
 30
0.0
 10
53.1882438066
 20
74.5339831587
 30
0.0
 10
53.9110548974
 20
74.6152005156
 30
0.0
 10
54.2588749116
 20
74.64627178
 30
0.0
  0
SPLINE
  5
29E
100
AcDbEntity
  8
0
100
AcDbSpline
 62
7
  6
BYLAYER
 70
0
 71
3
 72
11
 73
7
 74
0
 42
0.0000001
 43
0.0000001
 44
0.0000000001
 40
0.0
 40
0.0
 40
0.0
 40
0.0
 40
0.2903602128
 40
0.5521116789
 40
0.7874351357
 40
1.0
 40
1.0
 40
1.0
 40
1.0
 10
54.2588749116
 20
74.64627178
 30
0.0
 10
54.5755029505
 20
74.6745566202
 30
0.0
 10
55.178812968
 20
74.7158327556
 30
0.0
 10
56.0412083455
 20
74.7304267812
 30
0.0
 10
56.8179218506
 20
74.6986676794
 30
0.0
 10
57.3060939623
 20
74.6487749721
 30
0.0
 10
57.5367235916
 20
74.6176690376
 30
0.0
  0
SPLINE
  5
29F
100
AcDbEntity
  8
0
100
AcDbSpline
 62
7
  6
BYLAYER
 70
0
 71
3
 72
11
 73
7
 74
0
 42
0.0000001
 43
0.0000001
 44
0.0000000001
 40
0.0
 40
0.0
 40
0.0
 40
0.0
 40
0.2517008678
 40
0.5026449369
 40
0.7522902292
 40
1.0
 40
1.0
 40
1.0
 40
1.0
 10
57.9876059113
 20
74.3939550609
 30
0.0
 10
58.4240726183
 20
74.0447661494
 30
0.0
 10
59.2824723174
 20
73.3306320741
 30
0.0
 10
60.5159044997
 20
72.2027559338
 30
0.0
 10
61.6782523673
 20
71.0138199785
 30
0.0
 10
62.3995420784
 20
70.1761286677
 30
0.0
 10
62.7441915425
 20
69.7473827129
 30
0.0
  0
SPLINE
  5
2A0
100
AcDbEntity
  8
0
100
AcDbSpline
 62
7
  6
BYLAYER
 70
0
 71
3
 72
11
 73
7
 74
0
 42
0.0000001
 43
0.0000001
 44
0.0000000001
 40
0.0
 40
0.0
 40
0.0
 40
0.0
 40
0.2387383937
 40
0.4858559965
 40
0.7400909703
 40
1.0
 40
1.0
 40
1.0
 40
1.0
 10
66.9868498885
 20
58.812596166
 30
0.0
 10
66.9868498885
 20
58.3608542492
 30
0.0
 10
66.9548885947
 20
57.4413003175
 30
0.0
 10
66.8213560792
 20
56.0465869676
 30
0.0
 10
66.6105293487
 20
54.6211154305
 30
0.0
 10
66.4282753096
 20
53.6652165083
 30
0.0
 10
66.3282277867
 20
53.1836993128
 30
0.0
  0
SPLINE
  5
2A1
100
AcDbEntity
  8
0
100
AcDbSpline
 62
7
  6
BYLAYER
 70
0
 71
3
 72
11
 73
7
 74
0
 42
0.0000001
 43
0.0000001
 44
0.0000000001
 40
0.0
 40
0.0
 40
0.0
 40
0.0
 40
0.2326293964
 40
0.4780940962
 40
0.7345092102
 40
1.0
 40
1.0
 40
1.0
 40
1.0
 10
60.8822066675
 20
51.2490380605
 30
0.0
 10
61.1782260929
 20
51.2866152611
 30
0.0
 10
61.7854773906
 20
51.3728139151
 30
0.0
 10
62.7149591771
 20
51.5272434733
 30
0.0
 10
63.6827350344
 20
51.707166683
 30
0.0
 10
64.3389705988
 20
51.8396518267
 30
0.0
 10
64.672361815
 20
51.9090936686
 30
0.0
  0
SPLINE
  5
2A2
100
AcDbEntity
  8
0
100
AcDbSpline
 62
7
  6
BYLAYER
 70
0
 71
3
 72
11
 73
7
 74
0
 42
0.0000001
 43
0.0000001
 44
0.0000000001
 40
0.0
 40
0.0
 40
0.0
 40
0.0
 40
0.2903602148
 40
0.5521116809
 40
0.7874351371
 40
1.0
 40
1.0
 40
1.0
 40
1.0
 10
51.4304594841
 20
73.0132951575
 30
0.0
 10
51.1138314359
 20
72.9850103155
 30
0.0
 10
50.5105214031
 20
72.9437341739
 30
0.0
 10
49.6481260045
 20
72.9291401475
 30
0.0
 10
48.871412484
 20
72.9608992481
 30
0.0
 10
48.3832403635
 20
73.0107919581
 30
0.0
 10
48.1526107305
 20
73.041897893
 30
0.0
  0
SPLINE
  5
2A3
100
AcDbEntity
  8
0
100
AcDbSpline
 62
7
  6
BYLAYER
 70
0
 71
3
 72
15
 73
11
 74
0
 42
0.0000001
 43
0.0000001
 44
0.0000000001
 40
0.0
 40
0.0
 40
0.0
 40
0.0
 40
0.1108410465
 40
0.2280578197
 40
0.3507094003
 40
0.4776259689
 40
0.6074737798
 40
0.7388131745
 40
0.8701524764
 40
1.0
 40
1.0
 40
1.0
 40
1.0
 10
64.1584345396
 20
57.1796195506
 30
0.0
 10
64.1584345396
 20
57.6205540486
 30
0.0
 10
64.1056200885
 20
58.528301185
 30
0.0
 10
63.8860240962
 20
59.9080066242
 30
0.0
 10
63.5275009128
 20
61.324289528
 30
0.0
 10
63.0361312147
 20
62.7531375091
 30
0.0
 10
62.4202216246
 20
64.1705424035
 30
0.0
 10
61.6901601661
 20
65.5525683094
 30
0.0
 10
60.8583750245
 20
66.8757450173
 30
0.0
 10
60.2394039488
 20
67.7118112698
 30
0.0
 10
59.9157762224
 20
68.1144060616
 30
0.0
  0
SPLINE
  5
2A4
100
AcDbEntity
  8
0
100
AcDbSpline
 62
7
  6
BYLAYER
 70
0
 71
3
 72
18
 73
14
 74
0
 42
0.0000001
 43
0.0000001
 44
0.0000000001
 40
0.0
 40
0.0
 40
0.0
 40
0.0
 40
0.0551403114
 40
0.1099555293
 40
0.1647920823
 40
0.2199885792
 40
0.275872071
 40
0.3327504524
 40
0.4504788087
 40
0.5751228145
 40
0.7079039473
 40
0.8494932053
 40
1.0
 40
1.0
 40
1.0
 40
1.0
 10
60.9868388198
 20
51.3717425654
 30
0.0
 10
61.1094156387
 20
51.4146626968
 30
0.0
 10
61.3499757312
 20
51.5118428022
 30
0.0
 10
61.6946975761
 20
51.6914831831
 30
0.0
 10
62.0205168614
 20
51.9037928877
 30
0.0
 10
62.3263764739
 20
52.1479779854
 30
0.0
 10
62.6112517115
 20
52.4233156646
 30
0.0
 10
62.9658981542
 20
52.8352002015
 30
0.0
 10
63.3524696177
 20
53.4289686576
 30
0.0
 10
63.7125247441
 20
54.2393449344
 30
0.0
 10
63.9712918961
 20
55.1456821559
 30
0.0
 10
64.126189899
 20
56.1365016945
 30
0.0
 10
64.1584345396
 20
56.8251258088
 30
0.0
 10
64.1584345396
 20
57.1796195506
 30
0.0
  0
SPLINE
  5
2A5
100
AcDbEntity
  8
0
100
AcDbSpline
 62
7
  6
BYLAYER
 70
0
 71
3
 72
15
 73
11
 74
0
 42
0.0000001
 43
0.0000001
 44
0.0000000001
 40
0.0
 40
0.0
 40
0.0
 40
0.0
 40
0.1289736239
 40
0.2552347875
 40
0.379464627
 40
0.5024842594
 40
0.6251806714
 40
0.7484374057
 40
0.8731075276
 40
1.0
 40
1.0
 40
1.0
 40
1.0
 10
51.430459487
 20
73.0132951577
 30
0.0
 10
51.2855782787
 20
73.0003527095
 30
0.0
 10
50.999825062
 20
72.9617125197
 30
0.0
 10
50.5825330903
 20
72.8638035615
 30
0.0
 10
50.1834003311
 20
72.7268285609
 30
0.0
 10
49.8040504511
 20
72.5513404967
 30
0.0
 10
49.4459174361
 20
72.3379585399
 30
0.0
 10
49.1103185112
 20
72.0875226858
 30
0.0
 10
48.7985554462
 20
71.8010237808
 30
0.0
 10
48.609345242
 20
71.5889106109
 30
0.0
 10
48.5191960573
 20
71.4777625972
 30
0.0
  0
SPLINE
  5
2A6
100
AcDbEntity
  8
0
100
AcDbSpline
 62
7
  6
BYLAYER
 70
0
 71
3
 72
15
 73
11
 74
0
 42
0.0000001
 43
0.0000001
 44
0.0000000001
 40
0.0
 40
0.0
 40
0.0
 40
0.0
 40
0.1491363323
 40
0.2932607276
 40
0.4309986235
 40
0.5612444634
 40
0.6832502653
 40
0.7967301517
 40
0.9019803556
 40
1.0
 40
1.0
 40
1.0
 40
1.0
 10
59.9157762224
 20
68.1144060616
 30
0.0
 10
59.5994547714
 20
68.5079118039
 30
0.0
 10
58.9469945782
 20
69.2578927212
 30
0.0
 10
57.8998015879
 20
70.2764291781
 30
0.0
 10
56.8145969542
 20
71.1565361296
 30
0.0
 10
55.7094439681
 20
71.8833161681
 30
0.0
 10
54.6024679322
 20
72.4444951043
 30
0.0
 10
53.5113125296
 20
72.830227427
 30
0.0
 10
52.4539191845
 20
73.0330952832
 30
0.0
 10
51.7609764379
 20
73.0428207159
 30
0.0
 10
51.430459487
 20
73.0132951577
 30
0.0
  0
SPLINE
  5
2A7
100
AcDbEntity
  8
0
100
AcDbSpline
 62
7
  6
BYLAYER
 70
0
 71
3
 72
11
 73
7
 74
0
 42
0.0000001
 43
0.0000001
 44
0.0000000001
 40
0.0
 40
0.0
 40
0.0
 40
0.0
 40
0.2387383937
 40
0.4858559965
 40
0.7400909703
 40
1.0
 40
1.0
 40
1.0
 40
1.0
 10
64.1584345396
 20
57.1796195506
 30
0.0
 10
64.1584345396
 20
57.6313614674
 30
0.0
 10
64.1903958334
 20
58.5509153991
 30
0.0
 10
64.3239283489
 20
59.9456287489
 30
0.0
 10
64.5347550794
 20
61.3711002861
 30
0.0
 10
64.7170091185
 20
62.3269992083
 30
0.0
 10
64.8170566414
 20
62.8085164038
 30
0.0
  0
SPLINE
  5
2A8
100
AcDbEntity
  8
0
100
AcDbSpline
 62
7
  6
BYLAYER
 70
0
 71
3
 72
11
 73
7
 74
0
 42
0.0000001
 43
0.0000001
 44
0.0000000001
 40
0.0
 40
0.0
 40
0.0
 40
0.0
 40
0.2517008677
 40
0.5026449368
 40
0.7522902291
 40
1.0
 40
1.0
 40
1.0
 40
1.0
 10
64.6723618152
 20
63.4678337617
 30
0.0
 10
64.2358951124
 20
63.8170226699
 30
0.0
 10
63.3774954229
 20
64.5311567401
 30
0.0
 10
62.1440632517
 20
65.6590328691
 30
0.0
 10
60.9817153962
 20
66.8479688145
 30
0.0
 10
60.2604256845
 20
67.6856601115
 30
0.0
 10
59.9157762224
 20
68.1144060616
 30
0.0
  0
SPLINE
  5
2A9
100
AcDbEntity
  8
0
100
AcDbSpline
 62
7
  6
BYLAYER
 70
0
 71
3
 72
11
 73
7
 74
0
 42
0.0000001
 43
0.0000001
 44
0.0000000001
 40
0.0
 40
0.0
 40
0.0
 40
0.0
 40
0.2366329898
 40
0.4812965258
 40
0.7354410306
 40
1.0
 40
1.0
 40
1.0
 40
1.0
 10
64.8170566414
 20
52.3112294532
 30
0.0
 10
64.7145827925
 20
52.6860983739
 30
0.0
 10
64.5278720229
 20
53.4547278233
 30
0.0
 10
64.3180712021
 20
54.6450878723
 30
0.0
 10
64.1869698369
 20
55.8929234819
 30
0.0
 10
64.1584345396
 20
56.745133982
 30
0.0
 10
64.1584345396
 20
57.1796195506
 30
0.0
  0
SPLINE
  5
2AA
100
AcDbEntity
  8
0
100
AcDbSpline
 62
7
  6
BYLAYER
 70
0
 71
3
 72
11
 73
7
 74
0
 42
0.0000001
 43
0.0000001
 44
0.0000000001
 40
0.0
 40
0.0
 40
0.0
 40
0.0
 40
0.2544627232
 40
0.5059322982
 40
0.7543666303
 40
1.0
 40
1.0
 40
1.0
 40
1.0
 10
59.9157762224
 20
68.1144060616
 30
0.0
 10
59.5746453248
 20
68.5387748969
 30
0.0
 10
58.9244233811
 20
69.4055034281
 30
0.0
 10
58.042382823
 20
70.7585869513
 30
0.0
 10
57.2534543073
 20
72.1460651963
 30
0.0
 10
56.7795363115
 20
73.0915773662
 30
0.0
 10
56.5544701044
 20
73.566538656
 30
0.0
  0
SPLINE
  5
2AB
100
AcDbEntity
  8
0
100
AcDbSpline
 62
7
  6
BYLAYER
 70
0
 71
3
 72
11
 73
7
 74
0
 42
0.0000001
 43
0.0000001
 44
0.0000000001
 40
0.0
 40
0.0
 40
0.0
 40
0.0
 40
0.2720746177
 40
0.5314181002
 40
0.7749629158
 40
1.0
 40
1.0
 40
1.0
 40
1.0
 10
56.0255524477
 20
73.7451991788
 30
0.0
 10
55.6120531984
 20
73.6599458264
 30
0.0
 10
54.8030660877
 20
73.4997885014
 30
0.0
 10
53.6186434364
 20
73.2910290068
 30
0.0
 10
52.5010905764
 20
73.1255837835
 30
0.0
 10
51.7782794952
 20
73.0443664228
 30
0.0
 10
51.4304594841
 20
73.0132951575
 30
0.0
  0
SPLINE
  5
2AC
100
AcDbEntity
  8
0
100
AcDbSpline
 62
7
  6
BYLAYER
 70
0
 71
3
 72
11
 73
7
 74
0
 42
0.0000001
 43
0.0000001
 44
0.0000000001
 40
0.0
 40
0.0
 40
0.0
 40
0.0
 40
0.2387383937
 40
0.4858559965
 40
0.7400909703
 40
1.0
 40
1.0
 40
1.0
 40
1.0
 10
61.3300191908
 20
55.5466429351
 30
0.0
 10
61.3300191908
 20
55.0949010182
 30
0.0
 10
61.298057897
 20
54.1753470865
 30
0.0
 10
61.1645253815
 20
52.7806337367
 30
0.0
 10
60.953698651
 20
51.3551621995
 30
0.0
 10
60.7714446118
 20
50.3992632773
 30
0.0
 10
60.671397089
 20
49.9177460818
 30
0.0
  0
SPLINE
  5
2AD
100
AcDbEntity
  8
0
100
AcDbSpline
 62
7
  6
BYLAYER
 70
0
 71
3
 72
11
 73
7
 74
0
 42
0.0000001
 43
0.0000001
 44
0.0000000001
 40
0.0
 40
0.0
 40
0.0
 40
0.0
 40
0.2245657135
 40
0.4680794116
 40
0.7276399231
 40
1.0
 40
1.0
 40
1.0
 40
1.0
 10
54.2589454776
 20
47.8777688196
 30
0.0
 10
54.6183324712
 20
47.90987338
 30
0.0
 10
55.3658966729
 20
47.9944401733
 30
0.0
 10
56.5223195554
 20
48.1674970752
 30
0.0
 10
57.7490210869
 20
48.3861932204
 30
0.0
 10
58.5871146517
 20
48.5539058476
 30
0.0
 10
59.0155311173
 20
48.6431404376
 30
0.0
  0
SPLINE
  5
2AE
100
AcDbEntity
  8
0
100
AcDbSpline
 62
7
  6
BYLAYER
 70
0
 71
3
 72
11
 73
7
 74
0
 42
0.0000001
 43
0.0000001
 44
0.0000000001
 40
0.0
 40
0.0
 40
0.0
 40
0.0
 40
0.2366329898
 40
0.4812965258
 40
0.7354410306
 40
1.0
 40
1.0
 40
1.0
 40
1.0
 10
60.671397089
 20
60.4150330324
 30
0.0
 10
60.7738709378
 20
60.0401641117
 30
0.0
 10
60.9605817075
 20
59.2715346623
 30
0.0
 10
61.1703825282
 20
58.0811746133
 30
0.0
 10
61.3014838935
 20
56.8333390037
 30
0.0
 10
61.3300191908
 20
55.9811285036
 30
0.0
 10
61.3300191908
 20
55.5466429351
 30
0.0
  0
SPLINE
  5
2AF
100
AcDbEntity
  8
0
100
AcDbSpline
 62
7
  6
BYLAYER
 70
0
 71
3
 72
11
 73
7
 74
0
 42
0.0000001
 43
0.0000001
 44
0.0000000001
 40
0.0
 40
0.0
 40
0.0
 40
0.0
 40
0.254462723
 40
0.505932298
 40
0.7543666301
 40
1.0
 40
1.0
 40
1.0
 40
1.0
 10
57.0873608735
 20
66.4814294461
 30
0.0
 10
57.4284917633
 20
66.0570606169
 30
0.0
 10
58.0787136867
 20
65.1903320938
 30
0.0
 10
58.9607542296
 20
63.8372485938
 30
0.0
 10
59.7496827306
 20
62.4497703709
 30
0.0
 10
60.2236007206
 20
61.5042582175
 30
0.0
 10
60.4486669241
 20
61.0292969354
 30
0.0
  0
SPLINE
  5
2B0
100
AcDbEntity
  8
0
100
AcDbSpline
 62
7
  6
BYLAYER
 70
0
 71
3
 72
11
 73
7
 74
0
 42
0.0000001
 43
0.0000001
 44
0.0000000001
 40
0.0
 40
0.0
 40
0.0
 40
0.0
 40
0.2517008678
 40
0.5026449369
 40
0.7522902292
 40
1.0
 40
1.0
 40
1.0
 40
1.0
 10
52.3307752136
 20
71.12800183
 30
0.0
 10
52.7672419237
 20
70.778812916
 30
0.0
 10
53.6256416286
 20
70.0646788356
 30
0.0
 10
54.8590738189
 20
68.9368026868
 30
0.0
 10
56.0214216932
 20
67.7478667222
 30
0.0
 10
56.7427114079
 20
66.9101754045
 30
0.0
 10
57.0873608735
 20
66.4814294461
 30
0.0
  0
SPLINE
  5
2B1
100
AcDbEntity
  8
0
100
AcDbSpline
 62
7
  6
BYLAYER
 70
0
 71
3
 72
11
 73
7
 74
0
 42
0.0000001
 43
0.0000001
 44
0.0000000001
 40
0.0
 40
0.0
 40
0.0
 40
0.0
 40
0.2903602136
 40
0.5521116799
 40
0.7874351364
 40
1.0
 40
1.0
 40
1.0
 40
1.0
 10
48.6020441352
 20
71.380318542
 30
0.0
 10
48.9186721825
 20
71.4086033841
 30
0.0
 10
49.5219822153
 20
71.4498795225
 30
0.0
 10
50.3843776143
 20
71.464473551
 30
0.0
 10
51.1610911374
 20
71.4327144499
 30
0.0
 10
51.6492632598
 20
71.3828217417
 30
0.0
 10
51.8798928939
 20
71.3517158066
 30
0.0
  0
SPLINE
  5
2B2
100
AcDbEntity
  8
0
100
AcDbSpline
 62
7
  6
BYLAYER
 70
0
 71
3
 72
11
 73
7
 74
0
 42
0.0000001
 43
0.0000001
 44
0.0000000001
 40
0.0
 40
0.0
 40
0.0
 40
0.0
 40
0.2720746181
 40
0.5314181008
 40
0.7749629166
 40
1.0
 40
1.0
 40
1.0
 40
1.0
 10
44.0069511781
 20
70.6484145217
 30
0.0
 10
44.4204504274
 20
70.733667874
 30
0.0
 10
45.2294375377
 20
70.8938252001
 30
0.0
 10
46.4138601885
 20
71.1025846943
 30
0.0
 10
47.5314130462
 20
71.2680299192
 30
0.0
 10
48.2542241258
 20
71.3492472768
 30
0.0
 10
48.6020441352
 20
71.380318542
 30
0.0
  0
SPLINE
  5
2B3
100
AcDbEntity
  8
0
100
AcDbSpline
 62
7
  6
BYLAYER
 70
0
 71
3
 72
11
 73
7
 74
0
 42
0.0000001
 43
0.0000001
 44
0.0000000001
 40
0.0
 40
0.0
 40
0.0
 40
0.0
 40
0.2585526511
 40
0.5121977242
 40
0.7597273548
 40
1.0
 40
1.0
 40
1.0
 40
1.0
 10
42.2286102093
 20
69.5261684921
 30
0.0
 10
42.1344283267
 20
69.0822026346
 30
0.0
 10
41.960793523
 20
68.1998645358
 30
0.0
 10
41.751174724
 20
66.8825010975
 30
0.0
 10
41.6042170753
 20
65.5888545675
 30
0.0
 10
41.5526043971
 20
64.7336068997
 30
0.0
 10
41.5400283306
 20
64.3120362256
 30
0.0
  0
SPLINE
  5
2B4
100
AcDbEntity
  8
0
100
AcDbSpline
 62
7
  6
BYLAYER
 70
0
 71
3
 72
11
 73
7
 74
0
 42
0.0000001
 43
0.0000001
 44
0.0000000001
 40
0.0
 40
0.0
 40
0.0
 40
0.0
 40
0.2115604585
 40
0.4463447065
 40
0.7083499631
 40
1.0
 40
1.0
 40
1.0
 40
1.0
 10
50.8976394069
 20
47.9179574147
 30
0.0
 10
51.1328112583
 20
47.8843773984
 30
0.0
 10
51.6314413995
 20
47.8299949172
 30
0.0
 10
52.4264969026
 20
47.7937746217
 30
0.0
 10
53.3122014119
 20
47.8065629537
 30
0.0
 10
53.9327561633
 20
47.848629856
 30
0.0
 10
54.2589454776
 20
47.8777688196
 30
0.0
  0
SPLINE
  5
2B5
100
AcDbEntity
  8
0
100
AcDbSpline
 62
7
  6
BYLAYER
 70
0
 71
3
 72
20
 73
16
 74
0
 42
0.0000001
 43
0.0000001
 44
0.0000000001
 40
0.0
 40
0.0
 40
0.0
 40
0.0
 40
0.0593673974
 40
0.1174681748
 40
0.1746295928
 40
0.231246445
 40
0.2877430755
 40
0.344540573
 40
0.4020449073
 40
0.4606389176
 40
0.5206695804
 40
0.5824400089
 40
0.7120557378
 40
0.8510135927
 40
1.0
 40
1.0
 40
1.0
 40
1.0
 10
45.7736287893
 20
69.7473419268
 30
0.0
 10
45.626067452
 20
69.7341600612
 30
0.0
 10
45.3350865963
 20
69.6945646655
 30
0.0
 10
44.9104202476
 20
69.593704526
 30
0.0
 10
44.5046603724
 20
69.4523009384
 30
0.0
 10
44.1195168703
 20
69.2709544986
 30
0.0
 10
43.7565070457
 20
69.0503192481
 30
0.0
 10
43.4170184144
 20
68.7913255963
 30
0.0
 10
43.1024047137
 20
68.4949767128
 30
0.0
 10
42.8138574266
 20
68.1624984051
 30
0.0
 10
42.5524213653
 20
67.7951965432
 30
0.0
 10
42.236264412
 20
67.252425335
 30
0.0
 10
41.9161171627
 20
66.4884431248
 30
0.0
 10
41.6602150749
 20
65.4751724053
 30
0.0
 10
41.5754896818
 20
64.7595409653
 30
0.0
 10
41.5520029085
 20
64.3884939947
 30
0.0
  0
SPLINE
  5
2B6
100
AcDbEntity
  8
0
100
AcDbSpline
 62
7
  6
BYLAYER
 70
0
 71
3
 72
15
 73
11
 74
0
 42
0.0000001
 43
0.0000001
 44
0.0000000001
 40
0.0
 40
0.0
 40
0.0
 40
0.0
 40
0.1491363323
 40
0.2932607276
 40
0.4309986234
 40
0.5612444633
 40
0.6832502652
 40
0.7967301516
 40
0.9019803556
 40
1.0
 40
1.0
 40
1.0
 40
1.0
 10
54.2589454959
 20
64.8484528664
 30
0.0
 10
53.9426240454
 20
65.2419586062
 30
0.0
 10
53.2901638535
 20
65.9919395185
 30
0.0
 10
52.242970866
 20
67.0104759684
 30
0.0
 10
51.1577662357
 20
67.8905829137
 30
0.0
 10
50.0526132536
 20
68.6173629467
 30
0.0
 10
48.9456372218
 20
69.1785418788
 30
0.0
 10
47.8544818237
 20
69.5642741973
 30
0.0
 10
46.7970884825
 20
69.7671420552
 30
0.0
 10
46.1041457394
 20
69.7768674793
 30
0.0
 10
45.7736287893
 20
69.7473419268
 30
0.0
  0
SPLINE
  5
2B7
100
AcDbEntity
  8
0
100
AcDbSpline
 62
7
  6
BYLAYER
 70
0
 71
3
 72
11
 73
7
 74
0
 42
0.0000001
 43
0.0000001
 44
0.0000000001
 40
0.0
 40
0.0
 40
0.0
 40
0.0
 40
0.2387383937
 40
0.4858559965
 40
0.7400909703
 40
1.0
 40
1.0
 40
1.0
 40
1.0
 10
58.5016038419
 20
53.9136663196
 30
0.0
 10
58.5016038419
 20
54.3654082364
 30
0.0
 10
58.5335651357
 20
55.2849621681
 30
0.0
 10
58.6670976512
 20
56.679675518
 30
0.0
 10
58.8779243817
 20
58.1051470551
 30
0.0
 10
59.0601784208
 20
59.0610459773
 30
0.0
 10
59.1602259437
 20
59.5425631729
 30
0.0
  0
SPLINE
  5
2B8
100
AcDbEntity
  8
0
100
AcDbSpline
 62
7
  6
BYLAYER
 70
0
 71
3
 72
11
 73
7
 74
0
 42
0.0000001
 43
0.0000001
 44
0.0000000001
 40
0.0
 40
0.0
 40
0.0
 40
0.0
 40
0.2517008678
 40
0.5026449368
 40
0.7522902291
 40
1.0
 40
1.0
 40
1.0
 40
1.0
 10
59.0155311175
 20
60.2018805307
 30
0.0
 10
58.5790644116
 20
60.5510694414
 30
0.0
 10
57.7206647163
 20
61.2652035166
 30
0.0
 10
56.4872325371
 20
62.3930796541
 30
0.0
 10
55.3248846748
 20
63.5820156088
 30
0.0
 10
54.6035949596
 20
64.4197069128
 30
0.0
 10
54.2589454959
 20
64.8484528664
 30
0.0
  0
SPLINE
  5
2B9
100
AcDbEntity
  8
0
100
AcDbSpline
 62
7
  6
BYLAYER
 70
0
 71
3
 72
11
 73
7
 74
0
 42
0.0000001
 43
0.0000001
 44
0.0000000001
 40
0.0
 40
0.0
 40
0.0
 40
0.0
 40
0.2720746171
 40
0.5314180993
 40
0.7749629151
 40
1.0
 40
1.0
 40
1.0
 40
1.0
 10
50.36872175
 20
70.4792459478
 30
0.0
 10
49.9552225086
 20
70.3939925971
 30
0.0
 10
49.1462354131
 20
70.233835275
 30
0.0
 10
47.9618127832
 20
70.0250757833
 30
0.0
 10
46.8442599415
 20
69.859630561
 30
0.0
 10
46.1214488713
 20
69.7784131996
 30
0.0
 10
45.773628865
 20
69.7473419336
 30
0.0
  0
SPLINE
  5
2BA
100
AcDbEntity
  8
0
100
AcDbSpline
 62
7
  6
BYLAYER
 70
0
 71
3
 72
11
 73
7
 74
0
 42
0.0000001
 43
0.0000001
 44
0.0000000001
 40
0.0
 40
0.0
 40
0.0
 40
0.0
 40
0.2544627231
 40
0.5059322982
 40
0.7543666302
 40
1.0
 40
1.0
 40
1.0
 40
1.0
 10
54.2589454959
 20
64.8484528664
 30
0.0
 10
53.9178146016
 20
65.2728216993
 30
0.0
 10
53.2675926641
 20
66.1395502253
 30
0.0
 10
52.3855521138
 20
67.4926337397
 30
0.0
 10
51.5966236046
 20
68.8801119752
 30
0.0
 10
51.1227056121
 20
69.8256241386
 30
0.0
 10
50.8976394066
 20
70.300585425
 30
0.0
  0
SPLINE
  5
2BB
100
AcDbEntity
  8
0
100
AcDbSpline
 62
7
  6
BYLAYER
 70
0
 71
3
 72
11
 73
7
 74
0
 42
0.0000001
 43
0.0000001
 44
0.0000000001
 40
0.0
 40
0.0
 40
0.0
 40
0.0
 40
0.2903602156
 40
0.5521116818
 40
0.7874351378
 40
1.0
 40
1.0
 40
1.0
 40
1.0
 10
45.773628865
 20
69.7473419336
 30
0.0
 10
45.4570008085
 20
69.7190570897
 30
0.0
 10
44.8536907602
 20
69.677780945
 30
0.0
 10
43.9912953402
 20
69.6631869158
 30
0.0
 10
43.2145818018
 20
69.6949460158
 30
0.0
 10
42.7264096706
 20
69.7448387265
 30
0.0
 10
42.4957800328
 20
69.7759446621
 30
0.0
  0
SPLINE
  5
2BC
100
AcDbEntity
  8
0
100
AcDbSpline
 62
7
  6
BYLAYER
 70
0
 71
3
 72
11
 73
7
 74
0
 42
0.0000001
 43
0.0000001
 44
0.0000000001
 40
0.0
 40
0.0
 40
0.0
 40
0.0
 40
0.2366329898
 40
0.4812965258
 40
0.7354410306
 40
1.0
 40
1.0
 40
1.0
 40
1.0
 10
59.1602259437
 20
49.0452762222
 30
0.0
 10
59.0577520948
 20
49.4201451429
 30
0.0
 10
58.8710413252
 20
50.1887745924
 30
0.0
 10
58.6612405044
 20
51.3791346414
 30
0.0
 10
58.5301391392
 20
52.626970251
 30
0.0
 10
58.5016038419
 20
53.4791807511
 30
0.0
 10
58.5016038419
 20
53.9136663196
 30
0.0
  0
SPLINE
  5
2BD
100
AcDbEntity
  8
0
100
AcDbSpline
 62
7
  6
BYLAYER
 70
0
 71
3
 72
15
 73
11
 74
0
 42
0.0000001
 43
0.0000001
 44
0.0000000001
 40
0.0
 40
0.0
 40
0.0
 40
0.0
 40
0.1108410465
 40
0.2280578197
 40
0.3507094003
 40
0.477625969
 40
0.6074737799
 40
0.7388131746
 40
0.8701524765
 40
1.0
 40
1.0
 40
1.0
 40
1.0
 10
58.5016038419
 20
53.9136663196
 30
0.0
 10
58.5016038419
 20
54.3546008193
 30
0.0
 10
58.4487893904
 20
55.2623479593
 30
0.0
 10
58.2291933964
 20
56.6420534039
 30
0.0
 10
57.8706702104
 20
58.0583363132
 30
0.0
 10
57.3793005088
 20
59.4871842996
 30
0.0
 10
56.7633909144
 20
60.9045891989
 30
0.0
 10
56.0333294509
 20
62.2866151089
 30
0.0
 10
55.2015443039
 20
63.60979182
 30
0.0
 10
54.5825732243
 20
64.4458580741
 30
0.0
 10
54.2589454959
 20
64.8484528664
 30
0.0
  0
SPLINE
  5
2BE
100
AcDbEntity
  8
0
100
AcDbSpline
 62
7
  6
BYLAYER
 70
0
 71
3
 72
20
 73
16
 74
0
 42
0.0000001
 43
0.0000001
 44
0.0000000001
 40
0.0
 40
0.0
 40
0.0
 40
0.0
 40
0.0583200427
 40
0.1153282857
 40
0.1714029012
 40
0.2269993557
 40
0.2825983498
 40
0.3386705202
 40
0.3956661543
 40
0.4539997024
 40
0.5759539203
 40
0.6402638394
 40
0.7070129713
 40
0.8482026032
 40
1.0
 40
1.0
 40
1.0
 40
1.0
 10
54.2589454776
 20
47.8777688197
 30
0.0
 10
54.4170041692
 20
47.8918884311
 30
0.0
 10
54.7284472703
 20
47.935309087
 30
0.0
 10
55.1818713784
 20
48.0481437788
 30
0.0
 10
55.6132941376
 20
48.2075710454
 30
0.0
 10
56.0206294295
 20
48.4127997332
 30
0.0
 10
56.4020092123
 20
48.6629761212
 30
0.0
 10
56.7557556891
 20
48.956842897
 30
0.0
 10
57.0802291322
 20
49.293148688
 30
0.0
 10
57.4777653159
 20
49.8031369194
 30
0.0
 10
57.8047064178
 20
50.3882410665
 30
0.0
 10
58.0603162841
 20
51.0280110647
 30
0.0
 10
58.2786704427
 20
51.7367095414
 30
0.0
 10
58.4581638149
 20
52.702458555
 30
0.0
 10
58.5016038419
 20
53.500627516
 30
0.0
 10
58.5016038419
 20
53.9136663196
 30
0.0
  0
SPLINE
  5
2BF
100
AcDbEntity
  8
0
100
AcDbSpline
 62
7
  6
BYLAYER
 70
0
 71
3
 72
11
 73
7
 74
0
 42
0.0000001
 43
0.0000001
 44
0.0000000001
 40
0.0
 40
0.0
 40
0.0
 40
0.0
 40
0.2744645856
 40
0.5318276152
 40
0.7730164727
 40
1.0
 40
1.0
 40
1.0
 40
1.0
 10
50.6129917532
 20
48.6942929402
 30
0.0
 10
50.9228183435
 20
48.5406375269
 30
0.0
 10
51.5390103452
 20
48.273177811
 30
0.0
 10
52.4747290835
 20
47.9935058693
 30
0.0
 10
53.3809849267
 20
47.8522062478
 30
0.0
 10
53.9740718948
 20
47.8523206508
 30
0.0
 10
54.2589454776
 20
47.8777688197
 30
0.0
  0
SPLINE
  5
2C0
100
AcDbEntity
  8
0
100
AcDbSpline
 62
7
  6
BYLAYER
 70
0
 71
3
 72
10
 73
6
 74
0
 42
0.0000001
 43
0.0000001
 44
0.0000000001
 40
0.0
 40
0.0
 40
0.0
 40
0.0
 40
0.2263644654
 40
0.5943757465
 40
1.0
 40
1.0
 40
1.0
 40
1.0
 10
58.7859261171
 20
73.7235440505
 30
0.0
 10
59.0112375638
 20
73.7224581817
 30
0.0
 10
59.6032181785
 20
73.6690257665
 30
0.0
 10
60.5675904138
 20
73.3968218138
 30
0.0
 10
61.2633018565
 20
73.058052588
 30
0.0
 10
61.6129530356
 20
72.8561821358
 30
0.0
  0
SPLINE
  5
2C1
100
AcDbEntity
  8
0
100
AcDbSpline
 62
7
  6
BYLAYER
 70
0
 71
3
 72
15
 73
11
 74
0
 42
0.0000001
 43
0.0000001
 44
0.0000000001
 40
0.0
 40
0.0
 40
0.0
 40
0.0
 40
0.1293552064
 40
0.2605130312
 40
0.3918428829
 40
0.521831844
 40
0.6489505767
 40
0.7718007466
 40
0.8891487443
 40
1.0
 40
1.0
 40
1.0
 40
1.0
 10
64.7374676932
 20
70.1726880348
 30
0.0
 10
64.9836450421
 20
69.8752676719
 30
0.0
 10
65.4549741336
 20
69.2556265653
 30
0.0
 10
66.0889343021
 20
68.2715160302
 30
0.0
 10
66.6462659529
 20
67.2398326806
 30
0.0
 10
67.1171440068
 20
66.179090947
 30
0.0
 10
67.4932100959
 20
65.107856547
 30
0.0
 10
67.7678411859
 20
64.0449890669
 30
0.0
 10
67.9361862718
 20
63.0093117307
 30
0.0
 10
67.9767819193
 20
62.3278084543
 30
0.0
 10
67.97677318
 20
61.9969513932
 30
0.0
  0
SPLINE
  5
2C2
100
AcDbEntity
  8
0
100
AcDbSpline
 62
7
  6
BYLAYER
 70
0
 71
3
 72
14
 73
10
 74
0
 42
0.0000001
 43
0.0000001
 44
0.0000000001
 40
0.0
 40
0.0
 40
0.0
 40
0.0
 40
0.2823281543
 40
0.4137918465
 40
0.5392432612
 40
0.6594552502
 40
0.7754446018
 40
0.8884684378
 40
1.0
 40
1.0
 40
1.0
 40
1.0
 10
14.7155299657
 20
45.4418287438
 30
0.0
 10
14.7323289866
 20
45.828761193
 30
0.0
 10
14.8023216715
 20
46.3965558876
 30
0.0
 10
15.007021505
 20
47.108647769
 30
0.0
 10
15.2062654458
 20
47.5874912552
 30
0.0
 10
15.4540081103
 20
48.0189818395
 30
0.0
 10
15.7487921371
 20
48.398769593
 30
0.0
 10
16.088428252
 20
48.7220767515
 30
0.0
 10
16.3432850412
 20
48.8978198204
 30
0.0
 10
16.4757859792
 20
48.974318816
 30
0.0
  0
SPLINE
  5
2C3
100
AcDbEntity
  8
0
100
AcDbSpline
 62
7
  6
BYLAYER
 70
0
 71
3
 72
14
 73
10
 74
0
 42
0.0000001
 43
0.0000001
 44
0.0000000001
 40
0.0
 40
0.0
 40
0.0
 40
0.0
 40
0.1115132527
 40
0.2245225315
 40
0.3405046216
 40
0.4607098373
 40
0.5861642986
 40
0.7176373764
 40
1.0
 40
1.0
 40
1.0
 40
1.0
 10
24.7257490449
 20
34.6848783296
 30
0.0
 10
24.5931383946
 20
34.608315992
 30
0.0
 10
24.3132686566
 20
34.4753690165
 30
0.0
 10
23.8630290732
 20
34.3428873647
 30
0.0
 10
23.386278797
 20
34.2775527068
 30
0.0
 10
22.8882451763
 20
34.2789721993
 30
0.0
 10
22.3734434257
 20
34.346133777
 30
0.0
 10
21.6537199144
 20
34.5254775349
 30
0.0
 10
21.1265451384
 20
34.7492988585
 30
0.0
 10
20.7827672839
 20
34.9286038017
 30
0.0
  0
SPLINE
  5
2C4
100
AcDbEntity
  8
0
100
AcDbSpline
 62
7
  6
BYLAYER
 70
0
 71
3
 72
11
 73
7
 74
0
 42
0.0000001
 43
0.0000001
 44
0.0000000001
 40
0.0
 40
0.0
 40
0.0
 40
0.0
 40
0.2804395174
 40
0.5395375127
 40
0.7783347174
 40
1.0
 40
1.0
 40
1.0
 40
1.0
 10
67.9767651186
 20
61.8336611019
 30
0.0
 10
67.9767662321
 20
61.4981566085
 30
0.0
 10
67.9387177929
 20
60.8516506585
 30
0.0
 10
67.7520207002
 20
59.9356718499
 30
0.0
 10
67.4403638758
 20
59.128452499
 30
0.0
 10
67.1419646766
 20
58.6595008436
 30
0.0
 10
66.9745784403
 20
58.4538130324
 30
0.0
  0
SPLINE
  5
2C5
100
AcDbEntity
  8
0
100
AcDbSpline
 62
7
  6
BYLAYER
 70
0
 71
3
 72
11
 73
7
 74
0
 42
0.0000001
 43
0.0000001
 44
0.0000000001
 40
0.0
 40
0.0
 40
0.0
 40
0.0
 40
0.2650333005
 40
0.5176743008
 40
0.7612035554
 40
1.0
 40
1.0
 40
1.0
 40
1.0
 10
27.6069127625
 20
36.3148489358
 30
0.0
 10
27.7997704735
 20
36.2930677936
 30
0.0
 10
28.179887052
 20
36.2749882863
 30
0.0
 10
28.7366801492
 20
36.331297547
 30
0.0
 10
29.2587098233
 20
36.4719591975
 30
0.0
 10
29.5808229402
 20
36.6219434207
 30
0.0
 10
29.7322660245
 20
36.7093773915
 30
0.0
  0
SPLINE
  5
2C6
100
AcDbEntity
  8
0
100
AcDbSpline
 62
7
  6
BYLAYER
 70
0
 71
3
 72
11
 73
7
 74
0
 42
0.0000001
 43
0.0000001
 44
0.0000000001
 40
0.0
 40
0.0
 40
0.0
 40
0.0
 40
0.2398954098
 40
0.4840394588
 40
0.7363217156
 40
1.0
 40
1.0
 40
1.0
 40
1.0
 10
20.7323293033
 20
52.2978181071
 30
0.0
 10
20.5893702807
 20
52.2152822179
 30
0.0
 10
20.3142280389
 20
52.0244380693
 30
0.0
 10
19.9488948626
 20
51.6704137588
 30
0.0
 10
19.6325521701
 20
51.2515233914
 30
0.0
 10
19.4604226735
 20
50.9395538185
 30
0.0
 10
19.3829157412
 20
50.7755023284
 30
0.0
  0
SPLINE
  5
2C7
100
AcDbEntity
  8
0
100
AcDbSpline
 62
7
  6
BYLAYER
 70
0
 71
3
 72
11
 73
7
 74
0
 42
0.0000001
 43
0.0000001
 44
0.0000000001
 40
0.0
 40
0.0
 40
0.0
 40
0.0
 40
0.2327604055
 40
0.4781890969
 40
0.7346959366
 40
1.0
 40
1.0
 40
1.0
 40
1.0
 10
61.7543701714
 20
72.7745293087
 30
0.0
 10
62.0168813149
 20
72.6229510619
 30
0.0
 10
62.5394838284
 20
72.2819686211
 30
0.0
 10
63.2889231206
 20
71.6851963484
 30
0.0
 10
64.0152454102
 20
70.9974013494
 30
0.0
 10
64.4706865688
 20
70.4919809018
 30
0.0
 10
64.6923370259
 20
70.2269331987
 30
0.0
  0
SPLINE
  5
2C8
100
AcDbEntity
  8
0
100
AcDbSpline
 62
7
  6
BYLAYER
 70
0
 71
3
 72
17
 73
13
 74
0
 42
0.0000001
 43
0.0000001
 44
0.0000000001
 40
0.0
 40
0.0
 40
0.0
 40
0.0
 40
0.0475139319
 40
0.0956326083
 40
0.1449214477
 40
0.1958816447
 40
0.3042056883
 40
0.4229325209
 40
0.552761847
 40
0.6932169504
 40
0.8429670381
 40
1.0
 40
1.0
 40
1.0
 40
1.0
 10
20.5769968468
 20
51.3421199928
 30
0.0
 10
20.687606003
 20
51.4059869918
 30
0.0
 10
20.9195488157
 20
51.5191070068
 30
0.0
 10
21.2909741924
 20
51.6403151002
 30
0.0
 10
21.6842857798
 20
51.713027937
 30
0.0
 10
22.2452902452
 20
51.7452796945
 30
0.0
 10
22.9935731459
 20
51.6550424533
 30
0.0
 10
23.9104548654
 20
51.3573276454
 30
0.0
 10
24.8442224365
 20
50.8782052438
 30
0.0
 10
25.7725464305
 20
50.2302962757
 30
0.0
 10
26.6729117953
 20
49.4300576545
 30
0.0
 10
27.2296157464
 20
48.8194231212
 30
0.0
 10
27.4987730697
 20
48.4942393903
 30
0.0
  0
SPLINE
  5
2C9
100
AcDbEntity
  8
0
100
AcDbSpline
 62
7
  6
BYLAYER
 70
0
 71
3
 72
27
 73
23
 74
0
 42
0.0000001
 43
0.0000001
 44
0.0000000001
 40
0.0
 40
0.0
 40
0.0
 40
0.0
 40
0.0600684869
 40
0.0881253529
 40
0.1149226909
 40
0.1651423196
 40
0.1890137951
 40
0.2123466081
 40
0.235418245
 40
0.2585233364
 40
0.2819540698
 40
0.3059825701
 40
0.3566578394
 40
0.4120175435
 40
0.4726969835
 40
0.5387024147
 40
0.6095537191
 40
0.6844097994
 40
0.7621787061
 40
0.841599271
 40
0.9213322029
 40
1.0
 40
1.0
 40
1.0
 40
1.0
 10
20.8668616304
 20
34.9567072528
 30
0.0
 10
21.1574466955
 20
34.8130372598
 30
0.0
 10
21.6002140307
 20
34.6318475322
 30
0.0
 10
22.2017172493
 20
34.4772846202
 30
0.0
 10
22.7626495899
 20
34.3903867415
 30
0.0
 10
23.3130577007
 20
34.3930269459
 30
0.0
 10
23.8298461685
 20
34.4965480338
 30
0.0
 10
24.1896691307
 20
34.6201313876
 30
0.0
 10
24.5252591619
 20
34.7904204681
 30
0.0
 10
24.8343282474
 20
35.0060371854
 30
0.0
 10
25.1146088273
 20
35.2655652602
 30
0.0
 10
25.4533872361
 20
35.6743537848
 30
0.0
 10
25.7945148957
 20
36.2957279109
 30
0.0
 10
26.0541803088
 20
37.1625585875
 30
0.0
 10
26.1696398786
 20
38.1423526994
 30
0.0
 10
26.1395440905
 20
39.2111012111
 30
0.0
 10
25.9655288327
 20
40.3428963287
 30
0.0
 10
25.6521922488
 20
41.5097474486
 30
0.0
 10
25.2074613649
 20
42.6824437295
 30
0.0
 10
24.64258155
 20
43.8315347399
 30
0.0
 10
23.971879681
 20
44.9277634793
 30
0.0
 10
23.4590412762
 20
45.6135705306
 30
0.0
 10
23.1883487543
 20
45.9406090192
 30
0.0
  0
SPLINE
  5
2CA
100
AcDbEntity
  8
0
100
AcDbSpline
 62
7
  6
BYLAYER
 70
0
 71
3
 72
23
 73
19
 74
0
 42
0.0000001
 43
0.0000001
 44
0.0000000001
 40
0.0
 40
0.0
 40
0.0
 40
0.0
 40
0.0829275655
 40
0.163106597
 40
0.2397863435
 40
0.312448835
 40
0.380707616
 40
0.4444127291
 40
0.5036966617
 40
0.559024523
 40
0.611243894
 40
0.6615669541
 40
0.711465264
 40
0.7624736024
 40
0.8159656751
 40
0.8729954827
 40
0.9342375365
 40
1.0
 40
1.0
 40
1.0
 40
1.0
 10
23.1883487543
 20
45.9406090192
 30
0.0
 10
22.9829302947
 20
46.1887863315
 30
0.0
 10
22.5603635785
 20
46.6619712002
 30
0.0
 10
21.88540616
 20
47.3054964902
 30
0.0
 10
21.1880723832
 20
47.8631694758
 30
0.0
 10
20.479194369
 20
48.3263637538
 30
0.0
 10
19.7692758702
 20
48.6879322593
 30
0.0
 10
19.0688523407
 20
48.9421164441
 30
0.0
 10
18.3881660236
 20
49.0845191066
 30
0.0
 10
17.737276799
 20
49.1118064064
 30
0.0
 10
17.126501443
 20
49.0220056763
 30
0.0
 10
16.5667612412
 20
48.8150187798
 30
0.0
 10
16.0692178977
 20
48.4938142185
 30
0.0
 10
15.6435613657
 20
48.0650252196
 30
0.0
 10
15.2966098643
 20
47.5376764073
 30
0.0
 10
15.0327087795
 20
46.921477246
 30
0.0
 10
14.854716548
 20
46.2266149352
 30
0.0
 10
14.7965410867
 20
45.7351816944
 30
0.0
 10
14.780713602
 20
45.4801940099
 30
0.0
  0
SPLINE
  5
2CB
100
AcDbEntity
  8
0
100
AcDbSpline
 62
7
  6
BYLAYER
 70
0
 71
3
 72
17
 73
13
 74
0
 42
0.0000001
 43
0.0000001
 44
0.0000000001
 40
0.0
 40
0.0
 40
0.0
 40
0.0
 40
0.1570329619
 40
0.3067830496
 40
0.447238153
 40
0.5770674791
 40
0.6957943117
 40
0.8041183553
 40
0.8550785523
 40
0.9043673917
 40
0.9524860681
 40
1.0
 40
1.0
 40
1.0
 40
1.0
 10
23.3975708139
 20
46.1264232978
 30
0.0
 10
23.1284134906
 20
46.4516070287
 30
0.0
 10
22.5717095394
 20
47.062241562
 30
0.0
 10
21.6713441746
 20
47.8624801833
 30
0.0
 10
20.7430201807
 20
48.5103891514
 30
0.0
 10
19.8092526095
 20
48.989511553
 30
0.0
 10
18.89237089
 20
49.2872263608
 30
0.0
 10
18.1440879893
 20
49.377463602
 30
0.0
 10
17.583083524
 20
49.3452118445
 30
0.0
 10
17.1897719365
 20
49.2724990078
 30
0.0
 10
16.8183465598
 20
49.1512909144
 30
0.0
 10
16.5864037472
 20
49.0381708993
 30
0.0
 10
16.475794591
 20
48.9743039003
 30
0.0
  0
SPLINE
  5
2CC
100
AcDbEntity
  8
0
100
AcDbSpline
 62
7
  6
BYLAYER
 70
0
 71
3
 72
23
 73
19
 74
0
 42
0.0000001
 43
0.0000001
 44
0.0000000001
 40
0.0
 40
0.0
 40
0.0
 40
0.0
 40
0.0435235793
 40
0.0881822254
 40
0.1349731043
 40
0.1846587306
 40
0.2377370316
 40
0.2944533084
 40
0.3548303982
 40
0.4187075326
 40
0.4857766991
 40
0.55561154
 40
0.6276924818
 40
0.7014344541
 40
0.7762025268
 40
0.8513270981
 40
0.9261632374
 40
1.0
 40
1.0
 40
1.0
 40
1.0
 10
29.7322660245
 20
36.7093773915
 30
0.0
 10
29.9067763263
 20
36.8101289623
 30
0.0
 10
30.2404846059
 20
37.0509201219
 30
0.0
 10
30.6679385941
 20
37.5116957045
 30
0.0
 10
31.0197347353
 20
38.0662660607
 30
0.0
 10
31.2917831262
 20
38.7059059641
 30
0.0
 10
31.4815191374
 20
39.4217474334
 30
0.0
 10
31.5871080975
 20
40.2043092926
 30
0.0
 10
31.6076310121
 20
41.043399836
 30
0.0
 10
31.5430797664
 20
41.9280909605
 30
0.0
 10
31.3944083736
 20
42.8468017167
 30
0.0
 10
31.1636124375
 20
43.7874227491
 30
0.0
 10
30.8538136782
 20
44.7375188311
 30
0.0
 10
30.4691252113
 20
45.6844778254
 30
0.0
 10
30.0146582671
 20
46.6156616191
 30
0.0
 10
29.496459144
 20
47.5187929278
 30
0.0
 10
28.9214470818
 20
48.3816267586
 30
0.0
 10
28.5013277953
 20
48.9276989995
 30
0.0
 10
28.2833557933
 20
49.1910429352
 30
0.0
  0
SPLINE
  5
2CD
100
AcDbEntity
  8
0
100
AcDbSpline
 62
7
  6
BYLAYER
 70
0
 71
3
 72
21
 73
17
 74
0
 42
0.0000001
 43
0.0000001
 44
0.0000000001
 40
0.0
 40
0.0
 40
0.0
 40
0.0
 40
0.1486131144
 40
0.2984447805
 40
0.3722003739
 40
0.4442941055
 40
0.5141401833
 40
0.581220959
 40
0.6451098845
 40
0.7054965973
 40
0.762222306
 40
0.8153106142
 40
0.8650043572
 40
0.9118029506
 40
0.9564696755
 40
1.0
 40
1.0
 40
1.0
 40
1.0
 10
27.4987730697
 20
48.4942393903
 30
0.0
 10
27.9008620272
 20
48.0084536582
 30
0.0
 10
28.6396027604
 20
46.9743204481
 30
0.0
 10
29.3824139475
 20
45.575045766
 30
0.0
 10
29.8550274703
 20
44.4118620046
 30
0.0
 10
30.1390243407
 20
43.540914796
 30
0.0
 10
30.3505546311
 20
42.6786783875
 30
0.0
 10
30.4868461693
 20
41.8365274898
 30
0.0
 10
30.546045978
 20
41.0255610103
 30
0.0
 10
30.5271998223
 20
40.2563950614
 30
0.0
 10
30.4304037826
 20
39.5390508394
 30
0.0
 10
30.2565165225
 20
38.8828511289
 30
0.0
 10
30.0071121617
 20
38.2965218828
 30
0.0
 10
29.6846189455
 20
37.7881807295
 30
0.0
 10
29.2928145991
 20
37.3657773119
 30
0.0
 10
28.9869027809
 20
37.1450721346
 30
0.0
 10
28.8269426889
 20
37.0527093377
 30
0.0
  0
SPLINE
  5
2CE
100
AcDbEntity
  8
0
100
AcDbSpline
 62
7
  6
BYLAYER
 70
0
 71
3
 72
21
 73
17
 74
0
 42
0.0000001
 43
0.0000001
 44
0.0000000001
 40
0.0
 40
0.0
 40
0.0
 40
0.0
 40
0.0435303245
 40
0.0881970494
 40
0.1349956428
 40
0.1846893858
 40
0.237777694
 40
0.2945034027
 40
0.3548901155
 40
0.418779041
 40
0.4858598167
 40
0.5557058945
 40
0.6277996261
 40
0.7015552195
 40
0.8513868856
 40
1.0
 40
1.0
 40
1.0
 40
1.0
 10
24.7257404331
 20
34.6848932452
 30
0.0
 10
24.8857005251
 20
34.7772560421
 30
0.0
 10
25.1916123433
 20
34.9979612195
 30
0.0
 10
25.5834166897
 20
35.4203646371
 30
0.0
 10
25.9059099058
 20
35.9287057903
 30
0.0
 10
26.1553142667
 20
36.5150350364
 30
0.0
 10
26.3292015268
 20
37.1712347469
 30
0.0
 10
26.4259975665
 20
37.888578969
 30
0.0
 10
26.4448437221
 20
38.6577449179
 30
0.0
 10
26.3856439135
 20
39.4687113973
 30
0.0
 10
26.2493523753
 20
40.3108622951
 30
0.0
 10
26.0378220848
 20
41.1730987035
 30
0.0
 10
25.7538252144
 20
42.0440459121
 30
0.0
 10
25.2812116917
 20
43.2072296736
 30
0.0
 10
24.5384005045
 20
44.6065043557
 30
0.0
 10
23.7996597714
 20
45.6406375657
 30
0.0
 10
23.3975708139
 20
46.1264232978
 30
0.0
  0
SPLINE
  5
2CF
100
AcDbEntity
  8
0
100
AcDbSpline
 62
7
  6
BYLAYER
 70
0
 71
3
 72
11
 73
7
 74
0
 42
0.0000001
 43
0.0000001
 44
0.0000000001
 40
0.0
 40
0.0
 40
0.0
 40
0.0
 40
0.2650335646
 40
0.5176752432
 40
0.7612040828
 40
1.0
 40
1.0
 40
1.0
 40
1.0
 10
22.857682529
 20
52.6923466254
 30
0.0
 10
22.6648246278
 20
52.7141277892
 30
0.0
 10
22.2847073613
 20
52.7322065839
 30
0.0
 10
21.7279137879
 20
52.6758982242
 30
0.0
 10
21.2058844581
 20
52.5352358984
 30
0.0
 10
20.8837720074
 20
52.3852519606
 30
0.0
 10
20.7323293033
 20
52.2978181071
 30
0.0
  0
SPLINE
  5
2D0
100
AcDbEntity
  8
0
100
AcDbSpline
 62
7
  6
BYLAYER
 70
0
 71
3
 72
14
 73
10
 74
0
 42
0.0000001
 43
0.0000001
 44
0.0000000001
 40
0.0
 40
0.0
 40
0.0
 40
0.0
 40
0.2827050131
 40
0.4173775834
 40
0.5462441149
 40
0.668689212
 40
0.7846951095
 40
0.8948319684
 40
1.0
 40
1.0
 40
1.0
 40
1.0
 10
27.6069127625
 20
49.9504393019
 30
0.0
 10
27.0981344574
 20
50.0845364526
 30
0.0
 10
26.3538950248
 20
50.3144154204
 30
0.0
 10
25.4166607008
 20
50.7103143357
 30
0.0
 10
24.7779975624
 20
51.0410861873
 30
0.0
 10
24.2005344231
 20
51.4088335328
 30
0.0
 10
23.6885165266
 20
51.8089749655
 30
0.0
 10
23.2417281698
 20
52.2353147473
 30
0.0
 10
22.979086786
 20
52.5388143434
 30
0.0
 10
22.857682529
 20
52.6923466254
 30
0.0
  0
SPLINE
  5
2D1
100
AcDbEntity
  8
0
100
AcDbSpline
 62
7
  6
BYLAYER
 70
0
 71
3
 72
13
 73
9
 74
0
 42
0.0000001
 43
0.0000001
 44
0.0000000001
 40
0.0
 40
0.0
 40
0.0
 40
0.0
 40
0.2832527059
 40
0.4175997309
 40
0.5463155973
 40
0.6690314979
 40
0.7855475709
 40
1.0
 40
1.0
 40
1.0
 40
1.0
 10
31.3196906024
 20
52.0934424323
 30
0.0
 10
30.9545360821
 20
52.4738368563
 30
0.0
 10
30.3817513945
 20
53.0037907265
 30
0.0
 10
29.5662248871
 20
53.6125931013
 30
0.0
 10
28.9593841233
 20
53.9979897431
 30
0.0
 10
28.3519854481
 20
54.3168067755
 30
0.0
 10
27.5711626448
 20
54.6398994569
 30
0.0
 10
26.9666725017
 20
54.7908261465
 30
0.0
 10
26.5699776744
 20
54.8356284332
 30
0.0
  0
SPLINE
  5
2D2
100
AcDbEntity
  8
0
100
AcDbSpline
 62
7
  6
BYLAYER
 70
0
 71
3
 72
15
 73
11
 74
0
 42
0.0000001
 43
0.0000001
 44
0.0000000001
 40
0.0
 40
0.0
 40
0.0
 40
0.0
 40
0.1291385681
 40
0.2599685114
 40
0.3909744829
 40
0.5207145714
 40
0.6477405586
 40
0.7707174757
 40
0.8884603849
 40
1.0
 40
1.0
 40
1.0
 40
1.0
 10
64.7027320469
 20
70.1480223763
 30
0.0
 10
64.9469313168
 20
69.850417595
 30
0.0
 10
65.4147939355
 20
69.2314429222
 30
0.0
 10
66.0455406032
 20
68.250105698
 30
0.0
 10
66.6018871862
 20
67.2226359768
 30
0.0
 10
67.0745197543
 20
66.1664658637
 30
0.0
 10
67.4554807629
 20
65.0991874588
 30
0.0
 10
67.7383888922
 20
64.0386471454
 30
0.0
 10
67.9184864944
 20
63.0026853316
 30
0.0
 10
67.9694745904
 20
62.3196049238
 30
0.0
 10
67.9753920223
 20
61.9871511551
 30
0.0
  0
SPLINE
  5
2D3
100
AcDbEntity
  8
0
100
AcDbSpline
 62
7
  6
BYLAYER
 70
0
 71
3
 72
11
 73
7
 74
0
 42
0.0000001
 43
0.0000001
 44
0.0000000001
 40
0.0
 40
0.0
 40
0.0
 40
0.0
 40
0.2336688854
 40
0.4793759913
 40
0.7355273795
 40
1.0
 40
1.0
 40
1.0
 40
1.0
 10
61.752578149
 20
72.7738015044
 30
0.0
 10
62.0131471886
 20
72.6167606964
 30
0.0
 10
62.5312311203
 20
72.2666724429
 30
0.0
 10
63.2740067351
 20
71.6604598195
 30
0.0
 10
63.9931479054
 20
70.9673550956
 30
0.0
 10
64.4442891937
 20
70.4604659562
 30
0.0
 10
64.6638482179
 20
70.1952046519
 30
0.0
  0
ENDSEC
  0
SECTION
  2
OBJECTS
  0
DICTIONARY
  5
C
100
AcDbDictionary
280
0
281
1
  3
ACAD_GROUP
350
D
  3
ACAD_MLINESTYLE
350
17
  3
ACAD_LAYOUT
350
1A
  3
ACAD_PLOTSETTINGS
350
19
  3
ACAD_PLOTSTYLENAME
350
E
  0
DICTIONARY
  5
D
102
{ACAD_REACTORS
330
C
102
}
100
AcDbDictionary
280
0
281
1
  0
ACDBDICTIONARYWDFLT
  5
E
102
{ACAD_REACTORS
330
C
102
}
100
AcDbDictionary
281
1
  3
Normal
350
F
100
AcDbDictionaryWithDefault
340
F
  0
DICTIONARY
  5
17
102
{ACAD_REACTORS
330
C
102
}
100
AcDbDictionary
280
0
281
1
  3
Standard
350
18
  0
DICTIONARY
  5
19
102
{ACAD_REACTORS
330
C
102
}
100
AcDbDictionary
281
1
  0
DICTIONARY
  5
1A
102
{ACAD_REACTORS
330
C
102
}
100
AcDbDictionary
281
1
  3
Model
350
2D4
  3
Layout1
350
2D5
  0
ACDBPLACEHOLDER
  5
F
102
{ACAD_REACTORS
330
E
102
}
  0
MLINESTYLE
  5
18
102
{ACAD_REACTORS
330
17
102
}
100
AcDbMlineStyle
  2
STANDARD
 70
0
  3

 62
256
 51
90.0
 52
90.0
 71
2
 49
0.5
 62
256
  6
BYLAYER
 49
-0.5
 62
256
  6
BYLAYER
  0
LAYOUT
  5
2D4
102
{ACAD_REACTORS
330
1A
102
}
100
AcDbPlotSettings
  1

  2
none_device
  4

  6

 40
0.0
 41
0.0
 42
0.0
 43
0.0
 44
210.0
 45
297.0
 46
0.0
 47
0.0
 48
0.0
 49
0.0
140
0.0
141
0.0
142
1.0
143
1.0
 70
1024
 72
1
 73
0
 74
0
  7

 75
0
147
1.0
148
0.0
149
0.0
100
AcDbLayout
  1
Model
 70
0
 71
0
 10
0.0
 20
0.0
 11
210.0
 21
297.0
 12
0.0
 22
0.0
 32
0.0
 14
0.0
 24
0.0
 34
0.0
 15
0.0
 25
0.0
 35
0.0
146
0.0
 13
0.0
 23
0.0
 33
0.0
 16
1.0
 26
0.0
 36
0.0
 17
0.0
 27
1.0
 37
0.0
 76
0
330
210
345
0
346
0
  0
LAYOUT
  5
2D5
102
{ACAD_REACTORS
330
1A
102
}
100
AcDbPlotSettings
  1

  2
none_device
  4

  6

 40
0.0
 41
0.0
 42
0.0
 43
0.0
 44
210.0
 45
297.0
 46
0.0
 47
0.0
 48
0.0
 49
0.0
140
0.0
141
0.0
142
1.0
143
1.0
 70
0
 72
1
 73
0
 74
0
  7

 75
0
147
1.0
148
0.0
149
0.0
100
AcDbLayout
  1
Layout1
 70
0
 71
1
 10
0.0
 20
0.0
 11
210.0
 21
297.0
 12
0.0
 22
0.0
 32
0.0
 14
0.0
 24
0.0
 34
0.0
 15
0.0
 25
0.0
 35
0.0
146
0.0
 13
0.0
 23
0.0
 33
0.0
 16
1.0
 26
0.0
 36
0.0
 17
0.0
 27
1.0
 37
0.0
 76
0
330
211
345
0
346
0
  0
ENDSEC
  0
EOF
