999
DXF file: C:\Users\sesa63760\Dev\_Creo\CAD\MCADID0005856_3D-CAD\mcadid0005856_3d-simplified_5.dxf
999
Pro/ENGINEER 2019471 by Parametric Technology Corporation
  0
SECTION
  2
HEADER
  9
$ACADVER
  1
AC1024
  9
$DWGCODEPAGE
  3
ANSI_1252
  9
$EXTMAX
 10
92.8813626461
 20
131.3607843137
 30
0.0
  9
$EXTMIN
 10
0.0
 20
0.0
 30
0.0
  9
$LIMMIN
 10
0.0
 20
0.0
  9
$LIMMAX
 10
92.8813626461
 20
131.3607843137
  9
$VIEWCTR
 10
46.440681323
 20
65.6803921569
  9
$VIEWSIZE
 40
131.3607843137
  9
$CLAYER
  8
0
  9
$LTSCALE
 40
8.5627770516
  9
$CELTYPE
  6
BYLAYER
  9
$DIMSCALE
 40
1.0
  9
$DIMASZ
 40
1.1057305077
  9
$DIMEXO
 40
1.0
  9
$DIMDLI
 40
5.9161005084
  9
$DIMEXE
 40
1.0
  9
$DIMCEN
 40
1.4011816993
  9
$DIMLFAC
 40
1.0
  9
$DIMBLK
  1
_FILLED
  9
$DIMALT
 70
0
  9
$DIMALTF
 40
0.0393700787
  9
$DIMTXT
 40
1.5480227108
  9
$DIMTOL
 70
1
  9
$DIMLIM
 70
0
  9
$DIMTFAC
 40
1.0
  9
$DIMTP
 40
0.01
  9
$DIMTM
 40
0.01
  9
$DIMGAP
 40
0.625
  9
$DIMDSEP
 70
46
  9
$AUNITS
 70
0
  9
$PDMODE
 70
3
  9
$PDSIZE
 40
0.3125
  9
$HANDSEED
  5
29A
  9
$TILEMODE
 70
1
  9
$MEASUREMENT
 70
1
  9
$INSUNITS
 70
4
  0
ENDSEC
  0
SECTION
  2
CLASSES
  0
CLASS
  1
ACDBDICTIONARYWDFLT
  2
AcDbDictionaryWithDefault
  3
AutoCAD 2000
 90
0
 91
1
280
0
281
0
  0
CLASS
  1
ACDBPLACEHOLDER
  2
AcDbPlaceHolder
  3
AutoCAD 2000
 90
0
 91
1
280
0
281
0
  0
CLASS
  1
LAYOUT
  2
AcDbLayout
  3
AutoCAD 2000
 90
0
 91
0
280
0
281
0
  0
ENDSEC
  0
SECTION
  2
TABLES
  0
TABLE
  2
VPORT
  5
8
100
AcDbSymbolTable
 70
2
  0
VPORT
  5
1F4
100
AcDbSymbolTableRecord
100
AcDbViewportTableRecord
  2
*ACTIVE
 70
0
 10
0.0
 20
0.0
 11
1.0
 21
1.0
 12
46.440681323
 22
65.6803921569
 13
0.0
 23
0.0
 14
1.0
 24
1.0
 15
0.0
 25
0.0
 16
0.0
 26
0.0
 36
1.0
 17
0.0
 27
0.0
 37
0.0
 40
131.3607843137
 41
0.7070707071
 42
50.0
 43
0.0
 44
0.0
 50
0.0
 51
0.0
 71
0
 72
100
 73
1
 74
1
 75
0
 76
0
 77
0
 78
0
  0
ENDTAB
  0
TABLE
  2
LTYPE
  5
5
100
AcDbSymbolTable
 70
6
  0
LTYPE
  5
14
100
AcDbSymbolTableRecord
100
AcDbLinetypeTableRecord
  2
BYBLOCK
 70
0
  3

 72
65
 73
0
 40
0.0
  0
LTYPE
  5
15
100
AcDbSymbolTableRecord
100
AcDbLinetypeTableRecord
  2
BYLAYER
 70
0
  3

 72
65
 73
0
 40
0.0
  0
LTYPE
  5
16
100
AcDbSymbolTableRecord
100
AcDbLinetypeTableRecord
  2
CONTINUOUS
 70
64
  3
Solid line
 72
65
 73
0
 40
0.0
  0
LTYPE
  5
1F5
100
AcDbSymbolTableRecord
100
AcDbLinetypeTableRecord
  2
CENTER
 70
64
  3
____ _ ____ _ ____ _ ____ _ ____ _ ____ _ ____
 72
65
 73
4
 40
0.6
 49
0.375
 74
0
 49
-0.075
 74
0
 49
0.075
 74
0
 49
-0.075
 74
0
  0
LTYPE
  5
1F6
100
AcDbSymbolTableRecord
100
AcDbLinetypeTableRecord
  2
HIDDEN
 70
64
  3
- - - - - - - - - - - - - - - - - - - -
 72
65
 73
2
 40
0.2
 49
0.1
 74
0
 49
-0.1
 74
0
  0
LTYPE
  5
1F7
100
AcDbSymbolTableRecord
100
AcDbLinetypeTableRecord
  2
PHANTOM
 70
64
  3
_____ _ _ _____ _ _ _____ _ _ _____
 72
65
 73
6
 40
0.8
 49
0.45
 74
0
 49
-0.05
 74
0
 49
0.1
 74
0
 49
-0.05
 74
0
 49
0.1
 74
0
 49
-0.05
 74
0
  0
LTYPE
  5
1F8
100
AcDbSymbolTableRecord
100
AcDbLinetypeTableRecord
  2
DOT
 70
64
  3
. . . . . . . . . . . . . . . . . . . .
 72
65
 73
2
 40
0.2
 49
0.1
 74
0
 49
-0.1
 74
0
  0
LTYPE
  5
1F9
100
AcDbSymbolTableRecord
100
AcDbLinetypeTableRecord
  2
DASHED
 70
64
  3
- - - - - - - - - - - - - - - - - - - -
 72
65
 73
2
 40
0.2
 49
0.1
 74
0
 49
-0.1
 74
0
  0
ENDTAB
  0
TABLE
  2
LAYER
  5
2
100
AcDbSymbolTable
 70
36
  0
LAYER
  5
10
100
AcDbSymbolTableRecord
100
AcDbLayerTableRecord
  2
0
 70
0
 62
7
  6
CONTINUOUS
370
-3
390
F
  0
LAYER
  5
1FA
100
AcDbSymbolTableRecord
100
AcDbLayerTableRecord
  2
DEFAULT_1
 70
0
 62
7
  6
CENTER
370
-3
390
F
  0
LAYER
  5
1FB
100
AcDbSymbolTableRecord
100
AcDbLayerTableRecord
  2
DEFAULT_2
 70
0
 62
7
  6
HIDDEN
370
-3
390
F
  0
LAYER
  5
1FC
100
AcDbSymbolTableRecord
100
AcDbLayerTableRecord
  2
DEFAULT_3
 70
0
 62
7
  6
PHANTOM
370
-3
390
F
  0
LAYER
  5
1FD
100
AcDbSymbolTableRecord
100
AcDbLayerTableRecord
  2
00_COMPONENTS
 70
0
 62
7
  6
CONTINUOUS
370
-3
390
F
  0
LAYER
  5
1FE
100
AcDbSymbolTableRecord
100
AcDbLayerTableRecord
  2
01_1_DEFAULT_DATUMS
 70
0
 62
7
  6
CONTINUOUS
370
-3
390
F
  0
LAYER
  5
1FF
100
AcDbSymbolTableRecord
100
AcDbLayerTableRecord
  2
01_PLANES
 70
0
 62
7
  6
CONTINUOUS
370
-3
390
F
  0
LAYER
  5
200
100
AcDbSymbolTableRecord
100
AcDbLayerTableRecord
  2
02_COORD_SYS
 70
0
 62
7
  6
CONTINUOUS
370
-3
390
F
  0
LAYER
  5
201
100
AcDbSymbolTableRecord
100
AcDbLayerTableRecord
  2
03_AXES
 70
0
 62
7
  6
CONTINUOUS
370
-3
390
F
  0
LAYER
  5
202
100
AcDbSymbolTableRecord
100
AcDbLayerTableRecord
  2
04_POINTS
 70
0
 62
7
  6
CONTINUOUS
370
-3
390
F
  0
LAYER
  5
203
100
AcDbSymbolTableRecord
100
AcDbLayerTableRecord
  2
05_CURVES
 70
0
 62
7
  6
CONTINUOUS
370
-3
390
F
  0
LAYER
  5
204
100
AcDbSymbolTableRecord
100
AcDbLayerTableRecord
  2
06_SURFS
 70
0
 62
7
  6
CONTINUOUS
370
-3
390
F
  0
LAYER
  5
205
100
AcDbSymbolTableRecord
100
AcDbLayerTableRecord
  2
07_COSMETICS
 70
0
 62
7
  6
CONTINUOUS
370
-3
390
F
  0
LAYER
  5
206
100
AcDbSymbolTableRecord
100
AcDbLayerTableRecord
  2
10_NOTES
 70
0
 62
7
  6
CONTINUOUS
370
-3
390
F
  0
LAYER
  5
207
100
AcDbSymbolTableRecord
100
AcDbLayerTableRecord
  2
11_NOTES_PUB
 70
0
 62
7
  6
CONTINUOUS
370
-3
390
F
  0
LAYER
  5
208
100
AcDbSymbolTableRecord
100
AcDbLayerTableRecord
  2
13_REF_GTOL
 70
0
 62
7
  6
CONTINUOUS
370
-3
390
F
  0
LAYER
  5
209
100
AcDbSymbolTableRecord
100
AcDbLayerTableRecord
  2
16_MISC
 70
0
 62
7
  6
CONTINUOUS
370
-3
390
F
  0
LAYER
  5
20A
100
AcDbSymbolTableRecord
100
AcDbLayerTableRecord
  2
17_NO_PRINT
 70
0
 62
7
  6
CONTINUOUS
370
-3
390
F
  0
LAYER
  5
20B
100
AcDbSymbolTableRecord
100
AcDbLayerTableRecord
  2
18_DATUM_CAMS_JOINTS
 70
0
 62
7
  6
CONTINUOUS
370
-3
390
F
  0
LAYER
  5
20C
100
AcDbSymbolTableRecord
100
AcDbLayerTableRecord
  2
19_DATUM_FUNCTIONAL
 70
0
 62
7
  6
CONTINUOUS
370
-3
390
F
  0
LAYER
  5
20D
100
AcDbSymbolTableRecord
100
AcDbLayerTableRecord
  2
20_DATUM_KINEMATIC_SCHEME
 70
0
 62
7
  6
CONTINUOUS
370
-3
390
F
  0
ENDTAB
  0
TABLE
  2
STYLE
  5
3
100
AcDbSymbolTable
 70
1
  0
STYLE
  5
11
100
AcDbSymbolTableRecord
100
AcDbTextStyleTableRecord
  2
STANDARD
 70
0
 40
0.0
 41
1.0
 50
0.0
 71
0
 42
0.2
  3
ARIAL.TTF
  4

  0
STYLE
  5
20E
100
AcDbSymbolTableRecord
100
AcDbTextStyleTableRecord
  2
TEXTSTYLE_1
 70
0
 40
0.0
 41
0.8
 50
0.0
 71
0
 42
0.2
  3
gdt
  4

  0
ENDTAB
  0
TABLE
  2
VIEW
  5
6
100
AcDbSymbolTable
 70
0
  0
ENDTAB
  0
TABLE
  2
UCS
  5
7
100
AcDbSymbolTable
 70
0
  0
ENDTAB
  0
TABLE
  2
APPID
  5
9
100
AcDbSymbolTable
 70
1
  0
APPID
  5
20F
100
AcDbSymbolTableRecord
100
AcDbRegAppTableRecord
  2
ACAD
 70
0
  0
ENDTAB
  0
TABLE
  2
BLOCK_RECORD
  5
1
100
AcDbSymbolTable
 70
0
  0
BLOCK_RECORD
  5
210
100
AcDbSymbolTableRecord
100
AcDbBlockTableRecord
  2
*Model_Space
  0
BLOCK_RECORD
  5
211
100
AcDbSymbolTableRecord
100
AcDbBlockTableRecord
  2
*Paper_Space
  0
BLOCK_RECORD
  5
212
100
AcDbSymbolTableRecord
100
AcDbBlockTableRecord
  2
_FILLED
  0
ENDTAB
  0
TABLE
  2
DIMSTYLE
  5
A
100
AcDbSymbolTable
 70
1
100
AcDbDimStyleTable
 71
0
  0
DIMSTYLE
105
213
100
AcDbSymbolTableRecord
100
AcDbDimStyleTableRecord
  2
STANDARD
 70
0
  3

  4

 40
1.0
 41
1.1057305077
 42
1.0
 43
0.38
 44
1.0
 45
0.0
 46
0.0
 47
0.01
 48
0.01
140
1.5480227108
141
0.09
142
0.0
143
25.4
144
1.0
145
0.0
146
1.0
147
0.625
 71
1
 72
0
 73
0
 74
0
 75
0
 76
0
 77
1
 78
8
 79
2
170
0
171
1
172
0
173
0
174
0
175
0
176
0
177
0
178
0
270
2
179
2
271
2
272
2
273
2
274
2
275
0
280
0
281
0
282
0
283
1
284
8
285
0
286
0
287
3
288
0
340
11
278
46
341
212
342
212
343
212
344
212
  0
ENDTAB
  0
ENDSEC
  0
SECTION
  2
BLOCKS
  0
BLOCK
  5
20
100
AcDbEntity
  8
0
100
AcDbBlockBegin
  2
*Model_Space
 70
0
 10
0.0
 20
0.0
 30
0.0
  3
*Model_Space
  1

  0
ENDBLK
  5
21
100
AcDbEntity
  8
0
100
AcDbBlockEnd
  0
BLOCK
  5
1C
100
AcDbEntity
  8
0
100
AcDbBlockBegin
  2
*Paper_Space
 70
0
 10
0.0
 20
0.0
 30
0.0
  3
*Paper_Space
  1

  0
ENDBLK
  5
1D
100
AcDbEntity
  8
0
100
AcDbBlockEnd
  0
BLOCK
  5
214
100
AcDbEntity
  8
0
100
AcDbBlockBegin
  2
_FILLED
 70
64
 10
0.0
 20
0.0
  3
_FILLED
  1

  0
SOLID
  5
215
100
AcDbEntity
  8
0
  6
BYBLOCK
 62
0
100
AcDbTrace
 10
0.0
 20
0.0
 11
-1.0
 21
0.25
 12
-1.0
 22
-0.25
 13
-1.0
 23
-0.25
  0
ENDBLK
  5
216
100
AcDbEntity
  8
0
  6
BYBLOCK
 62
0
100
AcDbBlockEnd
  0
ENDSEC
  0
SECTION
  2
ENTITIES
  0
LINE
  5
217
100
AcDbEntity
  8
0
100
AcDbLine
 62
7
  6
BYLAYER
 10
10.8269558328
 20
57.7911829565
 11
10.8269558328
 21
73.8911992964
  0
LINE
  5
218
100
AcDbEntity
  8
0
100
AcDbLine
 62
7
  6
BYLAYER
 10
11.0269558328
 20
57.6411764706
 11
11.0269558328
 21
74.0411764706
  0
LINE
  5
219
100
AcDbEntity
  8
0
100
AcDbLine
 62
7
  6
BYLAYER
 10
11.2269558328
 20
57.0413462959
 11
11.2269558328
 21
74.641125795
  0
LINE
  5
21A
100
AcDbEntity
  8
0
100
AcDbLine
 62
7
  6
BYLAYER
 10
11.4269558328
 20
56.8411764706
 11
11.4269558328
 21
74.8411764706
  0
LINE
  5
21B
100
AcDbEntity
  8
0
100
AcDbLine
 62
7
  6
BYLAYER
 10
15.8269558328
 20
77.8411764706
 11
16.2741379712
 21
79.5100829312
  0
LINE
  5
21C
100
AcDbEntity
  8
0
100
AcDbLine
 62
7
  6
BYLAYER
 10
15.8269558328
 20
53.8411764706
 11
16.2741379712
 21
52.17227001
  0
LINE
  5
21D
100
AcDbEntity
  8
0
100
AcDbLine
 62
7
  6
BYLAYER
 10
15.8269558328
 20
53.8411805189
 11
15.8269558328
 21
77.8411724223
  0
LINE
  5
21E
100
AcDbEntity
  8
0
100
AcDbLine
 62
7
  6
BYLAYER
 10
11.2269558328
 20
74.6411764706
 11
11.4269558328
 21
74.8411764706
  0
LINE
  5
21F
100
AcDbEntity
  8
0
100
AcDbLine
 62
7
  6
BYLAYER
 10
11.2269558328
 20
57.0411764706
 11
11.4269558328
 21
56.8411764706
  0
LINE
  5
220
100
AcDbEntity
  8
0
100
AcDbLine
 62
7
  6
BYLAYER
 10
19.8269558328
 20
77.8411724223
 11
19.8269558328
 21
53.8411805189
  0
LINE
  5
221
100
AcDbEntity
  8
0
100
AcDbLine
 62
7
  6
BYLAYER
 10
23.8269558328
 20
77.8411764706
 11
24.2741379712
 21
79.5100829312
  0
LINE
  5
222
100
AcDbEntity
  8
0
100
AcDbLine
 62
7
  6
BYLAYER
 10
23.8269558328
 20
53.8411764706
 11
24.2741379712
 21
52.17227001
  0
LINE
  5
223
100
AcDbEntity
  8
0
100
AcDbLine
 62
7
  6
BYLAYER
 10
23.8269558328
 20
53.8411805189
 11
23.8269558328
 21
77.8411724223
  0
LINE
  5
224
100
AcDbEntity
  8
0
100
AcDbLine
 62
7
  6
BYLAYER
 10
19.8269558328
 20
53.8411764706
 11
19.3797736945
 21
52.17227001
  0
LINE
  5
225
100
AcDbEntity
  8
0
100
AcDbLine
 62
7
  6
BYLAYER
 10
19.8269558328
 20
77.8411764706
 11
19.3797736945
 21
79.5100829312
  0
LINE
  5
226
100
AcDbEntity
  8
0
100
AcDbLine
 62
7
  6
BYLAYER
 10
27.8269558328
 20
77.8411724223
 11
27.8269558328
 21
53.8411805189
  0
LINE
  5
227
100
AcDbEntity
  8
0
100
AcDbLine
 62
7
  6
BYLAYER
 10
27.8269558328
 20
53.8411764706
 11
27.3797736945
 21
52.17227001
  0
LINE
  5
228
100
AcDbEntity
  8
0
100
AcDbLine
 62
7
  6
BYLAYER
 10
27.8269558328
 20
77.8411764706
 11
27.3797736945
 21
79.5100829312
  0
LINE
  5
229
100
AcDbEntity
  8
0
100
AcDbLine
 62
7
  6
BYLAYER
 10
19.3690658761
 20
52.13477001
 11
16.2848457888
 21
52.13477001
  0
LINE
  5
22A
100
AcDbEntity
  8
0
100
AcDbLine
 62
7
  6
BYLAYER
 10
24.2848457617
 20
52.13477001
 11
27.3690659039
 21
52.13477001
  0
LINE
  5
22B
100
AcDbEntity
  8
0
100
AcDbLine
 62
7
  6
BYLAYER
 10
19.394674859
 20
52.23477001
 11
16.2592368067
 21
52.23477001
  0
LINE
  5
22C
100
AcDbEntity
  8
0
100
AcDbLine
 62
7
  6
BYLAYER
 10
24.2592368679
 20
52.23477001
 11
27.3946747977
 21
52.23477001
  0
LINE
  5
22D
100
AcDbEntity
  8
0
100
AcDbLine
 62
7
  6
BYLAYER
 10
72.4616854683
 20
59.5381176941
 11
69.9269558328
 21
59.0911764706
  0
LINE
  5
22E
100
AcDbEntity
  8
0
100
AcDbLine
 62
7
  6
BYLAYER
 10
11.4269558328
 20
56.8411764706
 11
15.8269558328
 21
56.8411764706
  0
LINE
  5
22F
100
AcDbEntity
  8
0
100
AcDbLine
 62
7
  6
BYLAYER
 10
19.8269558328
 20
56.8411764706
 11
23.8269558328
 21
56.8411764706
  0
LINE
  5
230
100
AcDbEntity
  8
0
100
AcDbLine
 62
7
  6
BYLAYER
 10
27.8269558328
 20
56.8411764706
 11
61.6269558328
 21
56.8411764706
  0
LINE
  5
231
100
AcDbEntity
  8
0
100
AcDbLine
 62
7
  6
BYLAYER
 10
10.894671306
 20
57.6411764706
 11
11.2269558328
 21
57.6411764706
  0
LINE
  5
232
100
AcDbEntity
  8
0
100
AcDbLine
 62
7
  6
BYLAYER
 10
62.6269558328
 20
57.8411764706
 11
65.5269558328
 21
57.8411764706
  0
LINE
  5
233
100
AcDbEntity
  8
0
100
AcDbLine
 62
7
  6
BYLAYER
 10
65.6269558328
 20
57.8411764706
 11
69.2269558328
 21
57.8411764706
  0
LINE
  5
234
100
AcDbEntity
  8
0
100
AcDbLine
 62
7
  6
BYLAYER
 10
65.5269558328
 20
57.8911764706
 11
65.6269558328
 21
57.8911764706
  0
LINE
  5
235
100
AcDbEntity
  8
0
100
AcDbLine
 62
7
  6
BYLAYER
 10
19.3946747971
 20
58.6629732403
 11
16.2592368685
 21
58.6629732403
  0
LINE
  5
236
100
AcDbEntity
  8
0
100
AcDbLine
 62
7
  6
BYLAYER
 10
24.2592368075
 20
58.6629732403
 11
27.3946748581
 21
58.6629732403
  0
LINE
  5
237
100
AcDbEntity
  8
0
100
AcDbLine
 62
7
  6
BYLAYER
 10
69.4269558328
 20
59.0911764706
 11
69.9269558328
 21
59.0911764706
  0
LINE
  5
238
100
AcDbEntity
  8
0
100
AcDbLine
 62
7
  6
BYLAYER
 10
19.3690658841
 20
59.2129732403
 11
16.2848457815
 21
59.2129732403
  0
LINE
  5
239
100
AcDbEntity
  8
0
100
AcDbLine
 62
7
  6
BYLAYER
 10
24.2848457897
 20
59.2129732403
 11
27.3690658762
 21
59.2129732403
  0
LINE
  5
23A
100
AcDbEntity
  8
0
100
AcDbLine
 62
7
  6
BYLAYER
 10
74.437423024
 20
67.4059075165
 11
72.8164886416
 21
67.3209579452
  0
LINE
  5
23B
100
AcDbEntity
  8
0
100
AcDbLine
 62
7
  6
BYLAYER
 10
84.6269558328
 20
67.8110249516
 11
74.6269558328
 21
67.8110249516
  0
LINE
  5
23C
100
AcDbEntity
  8
0
100
AcDbLine
 62
7
  6
BYLAYER
 10
84.6269558328
 20
69.8110249516
 11
74.6269558328
 21
69.8110249516
  0
LINE
  5
23D
100
AcDbEntity
  8
0
100
AcDbLine
 62
7
  6
BYLAYER
 10
19.3690656913
 20
72.4693797009
 11
16.2848459733
 21
72.4693797009
  0
LINE
  5
23E
100
AcDbEntity
  8
0
100
AcDbLine
 62
7
  6
BYLAYER
 10
24.2848459117
 20
72.4693797009
 11
27.369065754
 21
72.4693797009
  0
LINE
  5
23F
100
AcDbEntity
  8
0
100
AcDbLine
 62
7
  6
BYLAYER
 10
69.4269558328
 20
72.5911764706
 11
69.9269558328
 21
72.5911764706
  0
LINE
  5
240
100
AcDbEntity
  8
0
100
AcDbLine
 62
7
  6
BYLAYER
 10
19.394674859
 20
73.0193797009
 11
16.2592368067
 21
73.0193797009
  0
LINE
  5
241
100
AcDbEntity
  8
0
100
AcDbLine
 62
7
  6
BYLAYER
 10
24.2592368679
 20
73.0193797009
 11
27.3946747977
 21
73.0193797009
  0
LINE
  5
242
100
AcDbEntity
  8
0
100
AcDbLine
 62
7
  6
BYLAYER
 10
65.5269558328
 20
73.7911764706
 11
65.6269558328
 21
73.7911764706
  0
LINE
  5
243
100
AcDbEntity
  8
0
100
AcDbLine
 62
7
  6
BYLAYER
 10
62.6269558328
 20
73.8411764706
 11
65.5269558328
 21
73.8411764706
  0
LINE
  5
244
100
AcDbEntity
  8
0
100
AcDbLine
 62
7
  6
BYLAYER
 10
65.6269558328
 20
73.8411764706
 11
69.2269558328
 21
73.8411764706
  0
LINE
  5
245
100
AcDbEntity
  8
0
100
AcDbLine
 62
7
  6
BYLAYER
 10
10.894671306
 20
74.0411764706
 11
11.2269558328
 21
74.0411764706
  0
LINE
  5
246
100
AcDbEntity
  8
0
100
AcDbLine
 62
7
  6
BYLAYER
 10
74.437423024
 20
70.2161423866
 11
72.8164886416
 21
70.301091958
  0
LINE
  5
247
100
AcDbEntity
  8
0
100
AcDbLine
 62
7
  6
BYLAYER
 10
11.4269558328
 20
74.8411764706
 11
15.8269558328
 21
74.8411764706
  0
LINE
  5
248
100
AcDbEntity
  8
0
100
AcDbLine
 62
7
  6
BYLAYER
 10
19.8269558328
 20
74.8411764706
 11
23.8269558328
 21
74.8411764706
  0
LINE
  5
249
100
AcDbEntity
  8
0
100
AcDbLine
 62
7
  6
BYLAYER
 10
27.8269558328
 20
74.8411764706
 11
61.6269558328
 21
74.8411764706
  0
LINE
  5
24A
100
AcDbEntity
  8
0
100
AcDbLine
 62
7
  6
BYLAYER
 10
72.4616854683
 20
72.1442352471
 11
69.9269558328
 21
72.5911764706
  0
LINE
  5
24B
100
AcDbEntity
  8
0
100
AcDbLine
 62
7
  6
BYLAYER
 10
61.6269558328
 20
74.8411764706
 11
61.6269558328
 21
56.8411764706
  0
LINE
  5
24C
100
AcDbEntity
  8
0
100
AcDbLine
 62
7
  6
BYLAYER
 10
62.6269558328
 20
57.8411764706
 11
62.6269558328
 21
73.8411764706
  0
LINE
  5
24D
100
AcDbEntity
  8
0
100
AcDbLine
 62
7
  6
BYLAYER
 10
19.3946747971
 20
79.4475829312
 11
16.2592368686
 21
79.4475829312
  0
LINE
  5
24E
100
AcDbEntity
  8
0
100
AcDbLine
 62
7
  6
BYLAYER
 10
24.2592368076
 20
79.4475829312
 11
27.3946748581
 21
79.4475829312
  0
LINE
  5
24F
100
AcDbEntity
  8
0
100
AcDbLine
 62
7
  6
BYLAYER
 10
19.3690659042
 20
79.5475829312
 11
16.2848457615
 21
79.5475829312
  0
LINE
  5
250
100
AcDbEntity
  8
0
100
AcDbLine
 62
7
  6
BYLAYER
 10
24.2848457894
 20
79.5475829312
 11
27.369065877
 21
79.5475829312
  0
LINE
  5
251
100
AcDbEntity
  8
0
100
AcDbLine
 62
7
  6
BYLAYER
 10
65.5269558328
 20
73.8409097816
 11
65.5269558328
 21
57.8414431596
  0
LINE
  5
252
100
AcDbEntity
  8
0
100
AcDbLine
 62
7
  6
BYLAYER
 10
65.6269558328
 20
57.8414852474
 11
65.6269558328
 21
73.8411431028
  0
LINE
  5
253
100
AcDbEntity
  8
0
100
AcDbLine
 62
7
  6
BYLAYER
 10
62.6269558328
 20
57.8411764706
 11
61.6269558328
 21
56.8411764706
  0
LINE
  5
254
100
AcDbEntity
  8
0
100
AcDbLine
 62
7
  6
BYLAYER
 10
62.6269558328
 20
73.8411764706
 11
61.6269558328
 21
74.8411764706
  0
LINE
  5
255
100
AcDbEntity
  8
0
100
AcDbLine
 62
7
  6
BYLAYER
 10
69.2269558328
 20
73.8411764706
 11
69.2269558328
 21
57.8411764706
  0
LINE
  5
256
100
AcDbEntity
  8
0
100
AcDbLine
 62
7
  6
BYLAYER
 10
69.4269558328
 20
73.6409117933
 11
69.4269558328
 21
58.0414411479
  0
LINE
  5
257
100
AcDbEntity
  8
0
100
AcDbLine
 62
7
  6
BYLAYER
 10
69.9269558328
 20
72.5911764706
 11
69.9269558328
 21
59.0911764706
  0
LINE
  5
258
100
AcDbEntity
  8
0
100
AcDbLine
 62
7
  6
BYLAYER
 10
72.4616854683
 20
72.1442352471
 11
72.4616854683
 21
59.5381176941
  0
LINE
  5
259
100
AcDbEntity
  8
0
100
AcDbLine
 62
7
  6
BYLAYER
 10
72.6269558328
 20
71.9471201428
 11
72.6269558328
 21
59.7353462108
  0
LINE
  5
25A
100
AcDbEntity
  8
0
100
AcDbLine
 62
7
  6
BYLAYER
 10
72.8164886416
 20
67.3209579452
 11
72.8164886416
 21
70.301091958
  0
LINE
  5
25B
100
AcDbEntity
  8
0
100
AcDbLine
 62
7
  6
BYLAYER
 10
74.437423024
 20
70.2161423866
 11
74.437423024
 21
67.4059075165
  0
LINE
  5
25C
100
AcDbEntity
  8
0
100
AcDbLine
 62
7
  6
BYLAYER
 10
74.6269558328
 20
70.0162635675
 11
74.6269558328
 21
67.6057823501
  0
LINE
  5
25D
100
AcDbEntity
  8
0
100
AcDbLine
 62
7
  6
BYLAYER
 10
84.6269558328
 20
69.8110130006
 11
84.6269558328
 21
67.8110369026
  0
ARC
  5
25E
100
AcDbEntity
  8
0
100
AcDbCircle
 62
7
  6
BYLAYER
 10
56.414249615
 20
57.4413751004
 40
32.178209252
100
AcDbArc
 50
176.8439373014
 51
177.8243276199
  0
ARC
  5
25F
100
AcDbEntity
  8
0
100
AcDbCircle
 62
7
  6
BYLAYER
 10
48.4142496143
 20
57.441375101
 40
32.1782092512
100
AcDbArc
 50
176.8439373025
 51
177.824327621
  0
ARC
  5
260
100
AcDbEntity
  8
0
100
AcDbCircle
 62
7
  6
BYLAYER
 10
-4.7603379481
 20
57.4413751004
 40
32.1782092508
100
AcDbArc
 50
2.1756723801
 51
3.1560626986
  0
ARC
  5
261
100
AcDbEntity
  8
0
100
AcDbCircle
 62
7
  6
BYLAYER
 10
-12.7603379479
 20
57.441375101
 40
32.1782092505
100
AcDbArc
 50
2.175672379
 51
3.1560626976
  0
ARC
  5
262
100
AcDbEntity
  8
0
100
AcDbCircle
 62
7
  6
BYLAYER
 10
-4.7603114086
 20
74.2409842581
 40
32.1781829748
100
AcDbArc
 50
356.8439232778
 51
357.8243144077
  0
ARC
  5
263
100
AcDbEntity
  8
0
100
AcDbCircle
 62
7
  6
BYLAYER
 10
-12.7603114085
 20
74.2409842592
 40
32.1781829748
100
AcDbArc
 50
356.8439232757
 51
357.8243144056
  0
ARC
  5
264
100
AcDbEntity
  8
0
100
AcDbCircle
 62
7
  6
BYLAYER
 10
56.4142230578
 20
74.2409842573
 40
32.1781829583
100
AcDbArc
 50
182.175685592
 51
183.1560767225
  0
ARC
  5
265
100
AcDbEntity
  8
0
100
AcDbCircle
 62
7
  6
BYLAYER
 10
48.4142230575
 20
74.2409842585
 40
32.1781829581
100
AcDbArc
 50
182.1756855941
 51
183.1560767246
  0
ARC
  5
266
100
AcDbEntity
  8
0
100
AcDbCircle
 62
7
  6
BYLAYER
 10
18.2201435212
 20
52.4831167058
 40
1.2005698905
100
AcDbArc
 50
343.1329965568
 51
344.994251688
  0
ARC
  5
267
100
AcDbEntity
  8
0
100
AcDbCircle
 62
7
  6
BYLAYER
 10
17.4337681441
 20
52.4831167057
 40
1.2005698901
100
AcDbArc
 50
195.0057483117
 51
196.8670034435
  0
ARC
  5
268
100
AcDbEntity
  8
0
100
AcDbCircle
 62
7
  6
BYLAYER
 10
17.4337677713
 20
79.1992363544
 40
1.200569499
100
AcDbArc
 50
163.1329968268
 51
164.9942525597
  0
ARC
  5
269
100
AcDbEntity
  8
0
100
AcDbCircle
 62
7
  6
BYLAYER
 10
18.2201438948
 20
79.1992363545
 40
1.2005694986
100
AcDbArc
 50
15.00574744
 51
16.8670031735
  0
ARC
  5
26A
100
AcDbEntity
  8
0
100
AcDbCircle
 62
7
  6
BYLAYER
 10
26.2220821383
 20
52.4825917399
 40
1.1985623531
100
AcDbArc
 50
343.1301230906
 51
344.9945079235
  0
ARC
  5
26B
100
AcDbEntity
  8
0
100
AcDbCircle
 62
7
  6
BYLAYER
 10
25.4318295269
 20
52.4825917398
 40
1.1985623527
100
AcDbArc
 50
195.0054920762
 51
196.8698769097
  0
ARC
  5
26C
100
AcDbEntity
  8
0
100
AcDbCircle
 62
7
  6
BYLAYER
 10
25.4318291547
 20
79.19976132
 40
1.1985619623
100
AcDbArc
 50
163.130123354
 51
164.9945087897
  0
ARC
  5
26D
100
AcDbEntity
  8
0
100
AcDbCircle
 62
7
  6
BYLAYER
 10
26.2220825114
 20
79.1997613201
 40
1.1985619619
100
AcDbArc
 50
15.00549121
 51
16.8698766463
  0
ARC
  5
26E
100
AcDbEntity
  8
0
100
AcDbCircle
 62
7
  6
BYLAYER
 10
26.2625513795
 20
52.4716444614
 40
1.1566386983
100
AcDbArc
 50
344.9992649145
 51
348.182469348
  0
ARC
  5
26F
100
AcDbEntity
  8
0
100
AcDbCircle
 62
7
  6
BYLAYER
 10
25.3913602511
 20
79.2107085002
 40
1.156638659
100
AcDbArc
 50
164.9992654383
 51
168.1824699725
  0
ARC
  5
270
100
AcDbEntity
  8
0
100
AcDbCircle
 62
7
  6
BYLAYER
 10
17.3876415403
 20
52.4707744067
 40
1.1528205923
100
AcDbArc
 50
191.8130560574
 51
195.0068163111
  0
ARC
  5
271
100
AcDbEntity
  8
0
100
AcDbCircle
 62
7
  6
BYLAYER
 10
18.2662701616
 20
79.2115785551
 40
1.1528205518
100
AcDbArc
 50
11.8130554345
 51
15.0068157929
  0
ARC
  5
272
100
AcDbEntity
  8
0
100
AcDbCircle
 62
7
  6
BYLAYER
 10
26.2731273325
 20
79.2132298207
 40
1.1457705846
100
AcDbArc
 50
11.8024291284
 51
15.0158354608
  0
ARC
  5
273
100
AcDbEntity
  8
0
100
AcDbCircle
 62
7
  6
BYLAYER
 10
25.3807841627
 20
52.4691230918
 40
1.1457704128
100
AcDbArc
 50
191.8024294576
 51
195.0158362799
  0
ARC
  5
274
100
AcDbEntity
  8
0
100
AcDbCircle
 62
7
  6
BYLAYER
 10
17.3778518584
 20
79.2139125717
 40
1.14276046
100
AcDbArc
 50
164.9791226624
 51
168.2010061102
  0
ARC
  5
275
100
AcDbEntity
  8
0
100
AcDbCircle
 62
7
  6
BYLAYER
 10
18.2760599736
 20
52.4684403417
 40
1.1427602923
100
AcDbArc
 50
344.9791218516
 51
348.20100578
  0
ARC
  5
276
100
AcDbEntity
  8
0
100
AcDbCircle
 62
7
  6
BYLAYER
 10
11.0269558328
 20
57.7911764706
 40
0.2
100
AcDbArc
 50
180.0
 51
228.5903778907
  0
ARC
  5
277
100
AcDbEntity
  8
0
100
AcDbCircle
 62
7
  6
BYLAYER
 10
11.0269558328
 20
73.8911764706
 40
0.2
100
AcDbArc
 50
131.4096221093
 51
180.0
  0
ARC
  5
278
100
AcDbEntity
  8
0
100
AcDbCircle
 62
7
  6
BYLAYER
 10
74.4269558328
 20
67.6056334235
 40
0.2
100
AcDbArc
 50
273.0
 51
360.0
  0
ARC
  5
279
100
AcDbEntity
  8
0
100
AcDbCircle
 62
7
  6
BYLAYER
 10
74.4269558328
 20
70.0164164797
 40
0.2
100
AcDbArc
 50
0.0
 51
87.0
  0
ARC
  5
27A
100
AcDbEntity
  8
0
100
AcDbCircle
 62
7
  6
BYLAYER
 10
72.8269558328
 20
70.5008178649
 40
0.2
100
AcDbArc
 50
180.0
 51
267.0
  0
ARC
  5
27B
100
AcDbEntity
  8
0
100
AcDbCircle
 62
7
  6
BYLAYER
 10
72.8269558328
 20
67.1212320382
 40
0.2
100
AcDbArc
 50
93.0
 51
180.0
  0
ARC
  5
27C
100
AcDbEntity
  8
0
100
AcDbCircle
 62
7
  6
BYLAYER
 10
69.2269558328
 20
73.6411764706
 40
0.2
100
AcDbArc
 50
0.0
 51
90.0
  0
ARC
  5
27D
100
AcDbEntity
  8
0
100
AcDbCircle
 62
7
  6
BYLAYER
 10
72.4269558328
 20
59.7350792448
 40
0.2
100
AcDbArc
 50
280.0
 51
360.0
  0
ARC
  5
27E
100
AcDbEntity
  8
0
100
AcDbCircle
 62
7
  6
BYLAYER
 10
69.2269558328
 20
58.0411764706
 40
0.2
100
AcDbArc
 50
270.0
 51
360.0
  0
ARC
  5
27F
100
AcDbEntity
  8
0
100
AcDbCircle
 62
7
  6
BYLAYER
 10
72.4269558328
 20
71.9472736965
 40
0.2
100
AcDbArc
 50
0.0
 51
80.0
  0
SPLINE
  5
280
100
AcDbEntity
  8
0
100
AcDbSpline
 62
7
  6
BYLAYER
 70
0
 71
3
 72
10
 73
6
 74
0
 42
0.0000001
 43
0.0000001
 44
0.0000000001
 40
0.0
 40
0.0
 40
0.0
 40
0.0
 40
0.5030044281
 40
0.7519582422
 40
1.0
 40
1.0
 40
1.0
 40
1.0
 10
27.3946747971
 20
79.4475829312
 30
0.0
 10
27.5283709698
 20
78.919246916
 30
0.0
 10
27.6924314126
 20
78.1189291189
 30
0.0
 10
27.8074297192
 20
77.0409180627
 30
0.0
 10
27.8269554867
 20
76.5022268494
 30
0.0
 10
27.8269547784
 20
76.2334813695
 30
0.0
  0
SPLINE
  5
281
100
AcDbEntity
  8
0
100
AcDbSpline
 62
7
  6
BYLAYER
 70
0
 71
3
 72
10
 73
6
 74
0
 42
0.0000001
 43
0.0000001
 44
0.0000000001
 40
0.0
 40
0.0
 40
0.0
 40
0.0
 40
0.499977649
 40
0.7499894072
 40
1.0
 40
1.0
 40
1.0
 40
1.0
 10
27.3690656913
 20
72.4693797009
 30
0.0
 10
27.5114154696
 20
71.3706011435
 30
0.0
 10
27.6848704134
 20
69.7164324671
 30
0.0
 10
27.8062770762
 20
67.5033830971
 30
0.0
 10
27.8269558316
 20
66.395205324
 30
0.0
 10
27.8269558339
 20
65.8411765398
 30
0.0
  0
SPLINE
  5
282
100
AcDbEntity
  8
0
100
AcDbSpline
 62
7
  6
BYLAYER
 70
0
 71
3
 72
10
 73
6
 74
0
 42
0.0000001
 43
0.0000001
 44
0.0000000001
 40
0.0
 40
0.0
 40
0.0
 40
0.0
 40
0.2480417597
 40
0.4969955745
 40
1.0
 40
1.0
 40
1.0
 40
1.0
 10
27.8269547784
 20
76.2334813695
 30
0.0
 10
27.8269554892
 20
75.9647358788
 30
0.0
 10
27.8074297169
 20
75.4260446454
 30
0.0
 10
27.6924314279
 20
74.3480335517
 30
0.0
 10
27.5283709741
 20
73.5477157308
 30
0.0
 10
27.3946747977
 20
73.0193797009
 30
0.0
  0
SPLINE
  5
283
100
AcDbEntity
  8
0
100
AcDbSpline
 62
7
  6
BYLAYER
 70
0
 71
3
 72
10
 73
6
 74
0
 42
0.0000001
 43
0.0000001
 44
0.0000000001
 40
0.0
 40
0.0
 40
0.0
 40
0.0
 40
0.5030044281
 40
0.7519582421
 40
1.0
 40
1.0
 40
1.0
 40
1.0
 10
24.2592368679
 20
52.23477001
 30
0.0
 10
24.1255406909
 20
52.7631060425
 30
0.0
 10
23.9614802382
 20
53.5634238657
 30
0.0
 10
23.8464819507
 20
54.6414349593
 30
0.0
 10
23.8269561764
 20
55.1801261899
 30
0.0
 10
23.8269568873
 20
55.4488716786
 30
0.0
  0
SPLINE
  5
284
100
AcDbEntity
  8
0
100
AcDbSpline
 62
7
  6
BYLAYER
 70
0
 71
3
 72
10
 73
6
 74
0
 42
0.0000001
 43
0.0000001
 44
0.0000000001
 40
0.0
 40
0.0
 40
0.0
 40
0.0
 40
0.2480417597
 40
0.4969955745
 40
1.0
 40
1.0
 40
1.0
 40
1.0
 10
27.8269547784
 20
55.4488716786
 30
0.0
 10
27.8269554892
 20
55.1801261879
 30
0.0
 10
27.8074297169
 20
54.6414349545
 30
0.0
 10
27.6924314279
 20
53.5634238608
 30
0.0
 10
27.5283709741
 20
52.7631060399
 30
0.0
 10
27.3946747977
 20
52.23477001
 30
0.0
  0
SPLINE
  5
285
100
AcDbEntity
  8
0
100
AcDbSpline
 62
7
  6
BYLAYER
 70
0
 71
3
 72
10
 73
6
 74
0
 42
0.0000001
 43
0.0000001
 44
0.0000000001
 40
0.0
 40
0.0
 40
0.0
 40
0.0
 40
0.2480417596
 40
0.4969955745
 40
1.0
 40
1.0
 40
1.0
 40
1.0
 10
23.8269568873
 20
76.2334813695
 30
0.0
 10
23.826956179
 20
76.5022268513
 30
0.0
 10
23.8464819446
 20
77.0409180675
 30
0.0
 10
23.9614802526
 20
78.1189291238
 30
0.0
 10
24.1255406965
 20
78.9192469187
 30
0.0
 10
24.2592368686
 20
79.4475829312
 30
0.0
  0
SPLINE
  5
286
100
AcDbEntity
  8
0
100
AcDbSpline
 62
7
  6
BYLAYER
 70
0
 71
3
 72
10
 73
6
 74
0
 42
0.0000001
 43
0.0000001
 44
0.0000000001
 40
0.0
 40
0.0
 40
0.0
 40
0.0
 40
0.5030044281
 40
0.7519582421
 40
1.0
 40
1.0
 40
1.0
 40
1.0
 10
24.2592368679
 20
73.0193797009
 30
0.0
 10
24.1255406909
 20
73.5477157334
 30
0.0
 10
23.9614802382
 20
74.3480335566
 30
0.0
 10
23.8464819507
 20
75.4260446502
 30
0.0
 10
23.8269561764
 20
75.9647358807
 30
0.0
 10
23.8269568873
 20
76.2334813695
 30
0.0
  0
SPLINE
  5
287
100
AcDbEntity
  8
0
100
AcDbSpline
 62
7
  6
BYLAYER
 70
0
 71
3
 72
10
 73
6
 74
0
 42
0.0000001
 43
0.0000001
 44
0.0000000001
 40
0.0
 40
0.0
 40
0.0
 40
0.0
 40
0.2500118684
 40
0.5000238406
 40
1.0
 40
1.0
 40
1.0
 40
1.0
 10
23.8269558318
 20
65.8411765798
 30
0.0
 10
23.826955834
 20
66.3952081635
 30
0.0
 10
23.8476405447
 20
67.5033890803
 30
0.0
 10
23.9690441075
 20
69.7164383665
 30
0.0
 10
24.1424966261
 20
71.3706044711
 30
0.0
 10
24.2848459733
 20
72.4693797009
 30
0.0
  0
SPLINE
  5
288
100
AcDbEntity
  8
0
100
AcDbSpline
 62
7
  6
BYLAYER
 70
0
 71
3
 72
10
 73
6
 74
0
 42
0.0000001
 43
0.0000001
 44
0.0000000001
 40
0.0
 40
0.0
 40
0.0
 40
0.0
 40
0.4999776493
 40
0.7499894074
 40
1.0
 40
1.0
 40
1.0
 40
1.0
 10
24.2848457897
 20
59.2129732403
 30
0.0
 10
24.1424959972
 20
60.3117518233
 30
0.0
 10
23.969041288
 20
61.9659205646
 30
0.0
 10
23.847634575
 20
64.1789699826
 30
0.0
 10
23.8269558318
 20
65.2871477827
 30
0.0
 10
23.8269558318
 20
65.8411765798
 30
0.0
  0
SPLINE
  5
289
100
AcDbEntity
  8
0
100
AcDbSpline
 62
7
  6
BYLAYER
 70
0
 71
3
 72
10
 73
6
 74
0
 42
0.0000001
 43
0.0000001
 44
0.0000000001
 40
0.0
 40
0.0
 40
0.0
 40
0.0
 40
0.2480417596
 40
0.4969955745
 40
1.0
 40
1.0
 40
1.0
 40
1.0
 10
23.8269568873
 20
55.4488716786
 30
0.0
 10
23.826956179
 20
55.7176171604
 30
0.0
 10
23.8464819446
 20
56.2563083766
 30
0.0
 10
23.9614802526
 20
57.3343194329
 30
0.0
 10
24.1255406965
 20
58.1346372278
 30
0.0
 10
24.2592368685
 20
58.6629732403
 30
0.0
  0
SPLINE
  5
28A
100
AcDbEntity
  8
0
100
AcDbSpline
 62
7
  6
BYLAYER
 70
0
 71
3
 72
10
 73
6
 74
0
 42
0.0000001
 43
0.0000001
 44
0.0000000001
 40
0.0
 40
0.0
 40
0.0
 40
0.0
 40
0.2500118673
 40
0.5000238427
 40
1.0
 40
1.0
 40
1.0
 40
1.0
 10
27.8269558339
 20
65.8411765398
 30
0.0
 10
27.8269558339
 20
65.2871449497
 30
0.0
 10
27.8062688632
 20
64.1789640655
 30
0.0
 10
27.684868643
 20
61.9659145994
 30
0.0
 10
27.5114152357
 20
60.3117484817
 30
0.0
 10
27.3690658762
 20
59.2129732403
 30
0.0
  0
SPLINE
  5
28B
100
AcDbEntity
  8
0
100
AcDbSpline
 62
7
  6
BYLAYER
 70
0
 71
3
 72
10
 73
6
 74
0
 42
0.0000001
 43
0.0000001
 44
0.0000000001
 40
0.0
 40
0.0
 40
0.0
 40
0.0
 40
0.5030044281
 40
0.7519582422
 40
1.0
 40
1.0
 40
1.0
 40
1.0
 10
27.3946747971
 20
58.6629732403
 30
0.0
 10
27.5283709698
 20
58.1346372251
 30
0.0
 10
27.6924314126
 20
57.334319428
 30
0.0
 10
27.8074297192
 20
56.2563083718
 30
0.0
 10
27.8269554867
 20
55.7176171585
 30
0.0
 10
27.8269547784
 20
55.4488716786
 30
0.0
  0
SPLINE
  5
28C
100
AcDbEntity
  8
0
100
AcDbSpline
 62
7
  6
BYLAYER
 70
0
 71
3
 72
10
 73
6
 74
0
 42
0.0000001
 43
0.0000001
 44
0.0000000001
 40
0.0
 40
0.0
 40
0.0
 40
0.0
 40
0.5030044281
 40
0.7519582422
 40
1.0
 40
1.0
 40
1.0
 40
1.0
 10
19.3946747971
 20
79.4475829312
 30
0.0
 10
19.5283709698
 20
78.919246916
 30
0.0
 10
19.6924314126
 20
78.1189291189
 30
0.0
 10
19.8074297192
 20
77.0409180627
 30
0.0
 10
19.8269554868
 20
76.5022268494
 30
0.0
 10
19.8269547784
 20
76.2334813695
 30
0.0
  0
SPLINE
  5
28D
100
AcDbEntity
  8
0
100
AcDbSpline
 62
7
  6
BYLAYER
 70
0
 71
3
 72
10
 73
6
 74
0
 42
0.0000001
 43
0.0000001
 44
0.0000000001
 40
0.0
 40
0.0
 40
0.0
 40
0.0
 40
0.2480417597
 40
0.4969955745
 40
1.0
 40
1.0
 40
1.0
 40
1.0
 10
19.8269547784
 20
76.2334813695
 30
0.0
 10
19.8269554893
 20
75.9647358788
 30
0.0
 10
19.8074297169
 20
75.4260446454
 30
0.0
 10
19.6924314279
 20
74.3480335517
 30
0.0
 10
19.5283709741
 20
73.5477157308
 30
0.0
 10
19.3946747977
 20
73.0193797009
 30
0.0
  0
SPLINE
  5
28E
100
AcDbEntity
  8
0
100
AcDbSpline
 62
7
  6
BYLAYER
 70
0
 71
3
 72
10
 73
6
 74
0
 42
0.0000001
 43
0.0000001
 44
0.0000000001
 40
0.0
 40
0.0
 40
0.0
 40
0.0
 40
0.499977649
 40
0.7499894072
 40
1.0
 40
1.0
 40
1.0
 40
1.0
 10
19.3690656913
 20
72.4693797009
 30
0.0
 10
19.5114154696
 20
71.3706011435
 30
0.0
 10
19.6848704134
 20
69.7164324671
 30
0.0
 10
19.8062770762
 20
67.5033830971
 30
0.0
 10
19.8269558316
 20
66.395205324
 30
0.0
 10
19.8269558339
 20
65.8411765398
 30
0.0
  0
SPLINE
  5
28F
100
AcDbEntity
  8
0
100
AcDbSpline
 62
7
  6
BYLAYER
 70
0
 71
3
 72
10
 73
6
 74
0
 42
0.0000001
 43
0.0000001
 44
0.0000000001
 40
0.0
 40
0.0
 40
0.0
 40
0.0
 40
0.2500118673
 40
0.5000238427
 40
1.0
 40
1.0
 40
1.0
 40
1.0
 10
19.8269558339
 20
65.8411765398
 30
0.0
 10
19.8269558339
 20
65.2871449497
 30
0.0
 10
19.8062688632
 20
64.1789640655
 30
0.0
 10
19.684868643
 20
61.9659145994
 30
0.0
 10
19.5114152358
 20
60.3117484817
 30
0.0
 10
19.3690658762
 20
59.2129732403
 30
0.0
  0
SPLINE
  5
290
100
AcDbEntity
  8
0
100
AcDbSpline
 62
7
  6
BYLAYER
 70
0
 71
3
 72
10
 73
6
 74
0
 42
0.0000001
 43
0.0000001
 44
0.0000000001
 40
0.0
 40
0.0
 40
0.0
 40
0.0
 40
0.5030044281
 40
0.7519582422
 40
1.0
 40
1.0
 40
1.0
 40
1.0
 10
19.3946747971
 20
58.6629732403
 30
0.0
 10
19.5283709698
 20
58.1346372251
 30
0.0
 10
19.6924314126
 20
57.334319428
 30
0.0
 10
19.8074297192
 20
56.2563083718
 30
0.0
 10
19.8269554868
 20
55.7176171585
 30
0.0
 10
19.8269547784
 20
55.4488716786
 30
0.0
  0
SPLINE
  5
291
100
AcDbEntity
  8
0
100
AcDbSpline
 62
7
  6
BYLAYER
 70
0
 71
3
 72
10
 73
6
 74
0
 42
0.0000001
 43
0.0000001
 44
0.0000000001
 40
0.0
 40
0.0
 40
0.0
 40
0.0
 40
0.4999776493
 40
0.7499894074
 40
1.0
 40
1.0
 40
1.0
 40
1.0
 10
16.2848457897
 20
59.2129732403
 30
0.0
 10
16.1424959972
 20
60.3117518233
 30
0.0
 10
15.969041288
 20
61.9659205646
 30
0.0
 10
15.847634575
 20
64.1789699826
 30
0.0
 10
15.8269558318
 20
65.2871477827
 30
0.0
 10
15.8269558318
 20
65.8411765798
 30
0.0
  0
SPLINE
  5
292
100
AcDbEntity
  8
0
100
AcDbSpline
 62
7
  6
BYLAYER
 70
0
 71
3
 72
10
 73
6
 74
0
 42
0.0000001
 43
0.0000001
 44
0.0000000001
 40
0.0
 40
0.0
 40
0.0
 40
0.0
 40
0.2480417596
 40
0.4969955745
 40
1.0
 40
1.0
 40
1.0
 40
1.0
 10
15.8269568872
 20
55.4488716786
 30
0.0
 10
15.826956179
 20
55.7176171604
 30
0.0
 10
15.8464819446
 20
56.2563083766
 30
0.0
 10
15.9614802526
 20
57.3343194329
 30
0.0
 10
16.1255406965
 20
58.1346372278
 30
0.0
 10
16.2592368685
 20
58.6629732403
 30
0.0
  0
SPLINE
  5
293
100
AcDbEntity
  8
0
100
AcDbSpline
 62
7
  6
BYLAYER
 70
0
 71
3
 72
10
 73
6
 74
0
 42
0.0000001
 43
0.0000001
 44
0.0000000001
 40
0.0
 40
0.0
 40
0.0
 40
0.0
 40
0.2500118684
 40
0.5000238406
 40
1.0
 40
1.0
 40
1.0
 40
1.0
 10
15.8269558318
 20
65.8411765798
 30
0.0
 10
15.826955834
 20
66.3952081635
 30
0.0
 10
15.8476405447
 20
67.5033890803
 30
0.0
 10
15.9690441075
 20
69.7164383665
 30
0.0
 10
16.1424966261
 20
71.3706044711
 30
0.0
 10
16.2848459733
 20
72.4693797009
 30
0.0
  0
SPLINE
  5
294
100
AcDbEntity
  8
0
100
AcDbSpline
 62
7
  6
BYLAYER
 70
0
 71
3
 72
10
 73
6
 74
0
 42
0.0000001
 43
0.0000001
 44
0.0000000001
 40
0.0
 40
0.0
 40
0.0
 40
0.0
 40
0.5030044281
 40
0.7519582421
 40
1.0
 40
1.0
 40
1.0
 40
1.0
 10
16.2592368679
 20
73.0193797009
 30
0.0
 10
16.1255406909
 20
73.5477157334
 30
0.0
 10
15.9614802382
 20
74.3480335566
 30
0.0
 10
15.8464819507
 20
75.4260446502
 30
0.0
 10
15.8269561763
 20
75.9647358807
 30
0.0
 10
15.8269568872
 20
76.2334813695
 30
0.0
  0
SPLINE
  5
295
100
AcDbEntity
  8
0
100
AcDbSpline
 62
7
  6
BYLAYER
 70
0
 71
3
 72
10
 73
6
 74
0
 42
0.0000001
 43
0.0000001
 44
0.0000000001
 40
0.0
 40
0.0
 40
0.0
 40
0.0
 40
0.2480417596
 40
0.4969955745
 40
1.0
 40
1.0
 40
1.0
 40
1.0
 10
15.8269568872
 20
76.2334813695
 30
0.0
 10
15.826956179
 20
76.5022268513
 30
0.0
 10
15.8464819446
 20
77.0409180675
 30
0.0
 10
15.9614802526
 20
78.1189291238
 30
0.0
 10
16.1255406965
 20
78.9192469187
 30
0.0
 10
16.2592368686
 20
79.4475829312
 30
0.0
  0
SPLINE
  5
296
100
AcDbEntity
  8
0
100
AcDbSpline
 62
7
  6
BYLAYER
 70
0
 71
3
 72
10
 73
6
 74
0
 42
0.0000001
 43
0.0000001
 44
0.0000000001
 40
0.0
 40
0.0
 40
0.0
 40
0.0
 40
0.2480417597
 40
0.4969955745
 40
1.0
 40
1.0
 40
1.0
 40
1.0
 10
19.8269547784
 20
55.4488716786
 30
0.0
 10
19.8269554893
 20
55.1801261879
 30
0.0
 10
19.8074297168
 20
54.6414349545
 30
0.0
 10
19.6924314279
 20
53.5634238608
 30
0.0
 10
19.5283709741
 20
52.7631060399
 30
0.0
 10
19.3946747977
 20
52.23477001
 30
0.0
  0
SPLINE
  5
297
100
AcDbEntity
  8
0
100
AcDbSpline
 62
7
  6
BYLAYER
 70
0
 71
3
 72
10
 73
6
 74
0
 42
0.0000001
 43
0.0000001
 44
0.0000000001
 40
0.0
 40
0.0
 40
0.0
 40
0.0
 40
0.5030044281
 40
0.7519582421
 40
1.0
 40
1.0
 40
1.0
 40
1.0
 10
16.2592368679
 20
52.23477001
 30
0.0
 10
16.1255406909
 20
52.7631060425
 30
0.0
 10
15.9614802382
 20
53.5634238657
 30
0.0
 10
15.8464819507
 20
54.6414349593
 30
0.0
 10
15.8269561763
 20
55.1801261899
 30
0.0
 10
15.8269568872
 20
55.4488716786
 30
0.0
  0
ENDSEC
  0
SECTION
  2
OBJECTS
  0
DICTIONARY
  5
C
100
AcDbDictionary
280
0
281
1
  3
ACAD_GROUP
350
D
  3
ACAD_MLINESTYLE
350
17
  3
ACAD_LAYOUT
350
1A
  3
ACAD_PLOTSETTINGS
350
19
  3
ACAD_PLOTSTYLENAME
350
E
  0
DICTIONARY
  5
D
102
{ACAD_REACTORS
330
C
102
}
100
AcDbDictionary
280
0
281
1
  0
ACDBDICTIONARYWDFLT
  5
E
102
{ACAD_REACTORS
330
C
102
}
100
AcDbDictionary
281
1
  3
Normal
350
F
100
AcDbDictionaryWithDefault
340
F
  0
DICTIONARY
  5
17
102
{ACAD_REACTORS
330
C
102
}
100
AcDbDictionary
280
0
281
1
  3
Standard
350
18
  0
DICTIONARY
  5
19
102
{ACAD_REACTORS
330
C
102
}
100
AcDbDictionary
281
1
  0
DICTIONARY
  5
1A
102
{ACAD_REACTORS
330
C
102
}
100
AcDbDictionary
281
1
  3
Model
350
298
  3
Layout1
350
299
  0
ACDBPLACEHOLDER
  5
F
102
{ACAD_REACTORS
330
E
102
}
  0
MLINESTYLE
  5
18
102
{ACAD_REACTORS
330
17
102
}
100
AcDbMlineStyle
  2
STANDARD
 70
0
  3

 62
256
 51
90.0
 52
90.0
 71
2
 49
0.5
 62
256
  6
BYLAYER
 49
-0.5
 62
256
  6
BYLAYER
  0
LAYOUT
  5
298
102
{ACAD_REACTORS
330
1A
102
}
100
AcDbPlotSettings
  1

  2
none_device
  4

  6

 40
0.0
 41
0.0
 42
0.0
 43
0.0
 44
210.0
 45
297.0
 46
0.0
 47
0.0
 48
0.0
 49
0.0
140
0.0
141
0.0
142
1.0
143
1.0
 70
1024
 72
1
 73
0
 74
0
  7

 75
0
147
1.0
148
0.0
149
0.0
100
AcDbLayout
  1
Model
 70
0
 71
0
 10
0.0
 20
0.0
 11
210.0
 21
297.0
 12
0.0
 22
0.0
 32
0.0
 14
0.0
 24
0.0
 34
0.0
 15
0.0
 25
0.0
 35
0.0
146
0.0
 13
0.0
 23
0.0
 33
0.0
 16
1.0
 26
0.0
 36
0.0
 17
0.0
 27
1.0
 37
0.0
 76
0
330
210
345
0
346
0
  0
LAYOUT
  5
299
102
{ACAD_REACTORS
330
1A
102
}
100
AcDbPlotSettings
  1

  2
none_device
  4

  6

 40
0.0
 41
0.0
 42
0.0
 43
0.0
 44
210.0
 45
297.0
 46
0.0
 47
0.0
 48
0.0
 49
0.0
140
0.0
141
0.0
142
1.0
143
1.0
 70
0
 72
1
 73
0
 74
0
  7

 75
0
147
1.0
148
0.0
149
0.0
100
AcDbLayout
  1
Layout1
 70
0
 71
1
 10
0.0
 20
0.0
 11
210.0
 21
297.0
 12
0.0
 22
0.0
 32
0.0
 14
0.0
 24
0.0
 34
0.0
 15
0.0
 25
0.0
 35
0.0
146
0.0
 13
0.0
 23
0.0
 33
0.0
 16
1.0
 26
0.0
 36
0.0
 17
0.0
 27
1.0
 37
0.0
 76
0
330
211
345
0
346
0
  0
ENDSEC
  0
EOF
