999
DXF file: C:\Users\sesa63760\Dev\_Creo\CAD\MCADID0003948_3D-CAD\drw0001_5.dxf
999
Pro/ENGINEER 2019471 by Parametric Technology Corporation
  0
SECTION
  2
HEADER
  9
$ACADVER
  1
AC1024
  9
$DWGCODEPAGE
  3
ANSI_1252
  9
$EXTMAX
 10
88.4764199732
 20
125.1309368192
 30
0.0
  9
$EXTMIN
 10
0.0
 20
0.0
 30
0.0
  9
$LIMMIN
 10
0.0
 20
0.0
  9
$LIMMAX
 10
88.4764199732
 20
125.1309368192
  9
$VIEWCTR
 10
44.2382099866
 20
62.5654684096
  9
$VIEWSIZE
 40
125.1309368192
  9
$CLAYER
  8
0
  9
$LTSCALE
 40
8.156683289
  9
$CELTYPE
  6
BYLAYER
  9
$DIMSCALE
 40
1.0
  9
$DIMASZ
 40
1.053290714
  9
$DIMEXO
 40
1.0
  9
$DIMDLI
 40
5.635526636
  9
$DIMEXE
 40
1.0
  9
$DIMCEN
 40
1.3347299927
  9
$DIMLFAC
 40
1.0
  9
$DIMBLK
  1
_FILLED
  9
$DIMALT
 70
0
  9
$DIMALTF
 40
0.0393700787
  9
$DIMTXT
 40
1.4746069996
  9
$DIMTOL
 70
1
  9
$DIMLIM
 70
0
  9
$DIMTFAC
 40
1.0
  9
$DIMTP
 40
0.01
  9
$DIMTM
 40
0.01
  9
$DIMGAP
 40
0.625
  9
$DIMDSEP
 70
46
  9
$AUNITS
 70
0
  9
$PDMODE
 70
3
  9
$PDSIZE
 40
0.3125
  9
$HANDSEED
  5
29A
  9
$TILEMODE
 70
1
  9
$MEASUREMENT
 70
1
  9
$INSUNITS
 70
4
  0
ENDSEC
  0
SECTION
  2
CLASSES
  0
CLASS
  1
ACDBDICTIONARYWDFLT
  2
AcDbDictionaryWithDefault
  3
AutoCAD 2000
 90
0
 91
1
280
0
281
0
  0
CLASS
  1
ACDBPLACEHOLDER
  2
AcDbPlaceHolder
  3
AutoCAD 2000
 90
0
 91
1
280
0
281
0
  0
CLASS
  1
LAYOUT
  2
AcDbLayout
  3
AutoCAD 2000
 90
0
 91
0
280
0
281
0
  0
ENDSEC
  0
SECTION
  2
TABLES
  0
TABLE
  2
VPORT
  5
8
100
AcDbSymbolTable
 70
2
  0
VPORT
  5
1F4
100
AcDbSymbolTableRecord
100
AcDbViewportTableRecord
  2
*ACTIVE
 70
0
 10
0.0
 20
0.0
 11
1.0
 21
1.0
 12
44.2382099866
 22
62.5654684096
 13
0.0
 23
0.0
 14
1.0
 24
1.0
 15
0.0
 25
0.0
 16
0.0
 26
0.0
 36
1.0
 17
0.0
 27
0.0
 37
0.0
 40
125.1309368192
 41
0.7070707071
 42
50.0
 43
0.0
 44
0.0
 50
0.0
 51
0.0
 71
0
 72
100
 73
1
 74
1
 75
0
 76
0
 77
0
 78
0
  0
ENDTAB
  0
TABLE
  2
LTYPE
  5
5
100
AcDbSymbolTable
 70
6
  0
LTYPE
  5
14
100
AcDbSymbolTableRecord
100
AcDbLinetypeTableRecord
  2
BYBLOCK
 70
0
  3

 72
65
 73
0
 40
0.0
  0
LTYPE
  5
15
100
AcDbSymbolTableRecord
100
AcDbLinetypeTableRecord
  2
BYLAYER
 70
0
  3

 72
65
 73
0
 40
0.0
  0
LTYPE
  5
16
100
AcDbSymbolTableRecord
100
AcDbLinetypeTableRecord
  2
CONTINUOUS
 70
64
  3
Solid line
 72
65
 73
0
 40
0.0
  0
LTYPE
  5
1F5
100
AcDbSymbolTableRecord
100
AcDbLinetypeTableRecord
  2
CENTER
 70
64
  3
____ _ ____ _ ____ _ ____ _ ____ _ ____ _ ____
 72
65
 73
4
 40
0.6
 49
0.375
 74
0
 49
-0.075
 74
0
 49
0.075
 74
0
 49
-0.075
 74
0
  0
LTYPE
  5
1F6
100
AcDbSymbolTableRecord
100
AcDbLinetypeTableRecord
  2
HIDDEN
 70
64
  3
- - - - - - - - - - - - - - - - - - - -
 72
65
 73
2
 40
0.2
 49
0.1
 74
0
 49
-0.1
 74
0
  0
LTYPE
  5
1F7
100
AcDbSymbolTableRecord
100
AcDbLinetypeTableRecord
  2
PHANTOM
 70
64
  3
_____ _ _ _____ _ _ _____ _ _ _____
 72
65
 73
6
 40
0.8
 49
0.45
 74
0
 49
-0.05
 74
0
 49
0.1
 74
0
 49
-0.05
 74
0
 49
0.1
 74
0
 49
-0.05
 74
0
  0
LTYPE
  5
1F8
100
AcDbSymbolTableRecord
100
AcDbLinetypeTableRecord
  2
DOT
 70
64
  3
. . . . . . . . . . . . . . . . . . . .
 72
65
 73
2
 40
0.2
 49
0.1
 74
0
 49
-0.1
 74
0
  0
LTYPE
  5
1F9
100
AcDbSymbolTableRecord
100
AcDbLinetypeTableRecord
  2
DASHED
 70
64
  3
- - - - - - - - - - - - - - - - - - - -
 72
65
 73
2
 40
0.2
 49
0.1
 74
0
 49
-0.1
 74
0
  0
ENDTAB
  0
TABLE
  2
LAYER
  5
2
100
AcDbSymbolTable
 70
36
  0
LAYER
  5
10
100
AcDbSymbolTableRecord
100
AcDbLayerTableRecord
  2
0
 70
0
 62
7
  6
CONTINUOUS
370
-3
390
F
  0
LAYER
  5
1FA
100
AcDbSymbolTableRecord
100
AcDbLayerTableRecord
  2
DEFAULT_1
 70
0
 62
7
  6
CENTER
370
-3
390
F
  0
LAYER
  5
1FB
100
AcDbSymbolTableRecord
100
AcDbLayerTableRecord
  2
DEFAULT_2
 70
0
 62
7
  6
HIDDEN
370
-3
390
F
  0
LAYER
  5
1FC
100
AcDbSymbolTableRecord
100
AcDbLayerTableRecord
  2
DEFAULT_3
 70
0
 62
7
  6
PHANTOM
370
-3
390
F
  0
LAYER
  5
1FD
100
AcDbSymbolTableRecord
100
AcDbLayerTableRecord
  2
00_COMPONENTS
 70
0
 62
7
  6
CONTINUOUS
370
-3
390
F
  0
LAYER
  5
1FE
100
AcDbSymbolTableRecord
100
AcDbLayerTableRecord
  2
01_1_DEFAULT_DATUMS
 70
0
 62
7
  6
CONTINUOUS
370
-3
390
F
  0
LAYER
  5
1FF
100
AcDbSymbolTableRecord
100
AcDbLayerTableRecord
  2
01_PLANES
 70
0
 62
7
  6
CONTINUOUS
370
-3
390
F
  0
LAYER
  5
200
100
AcDbSymbolTableRecord
100
AcDbLayerTableRecord
  2
02_COORD_SYS
 70
0
 62
7
  6
CONTINUOUS
370
-3
390
F
  0
LAYER
  5
201
100
AcDbSymbolTableRecord
100
AcDbLayerTableRecord
  2
03_AXES
 70
0
 62
7
  6
CONTINUOUS
370
-3
390
F
  0
LAYER
  5
202
100
AcDbSymbolTableRecord
100
AcDbLayerTableRecord
  2
04_POINTS
 70
0
 62
7
  6
CONTINUOUS
370
-3
390
F
  0
LAYER
  5
203
100
AcDbSymbolTableRecord
100
AcDbLayerTableRecord
  2
05_CURVES
 70
0
 62
7
  6
CONTINUOUS
370
-3
390
F
  0
LAYER
  5
204
100
AcDbSymbolTableRecord
100
AcDbLayerTableRecord
  2
06_SURFS
 70
0
 62
7
  6
CONTINUOUS
370
-3
390
F
  0
LAYER
  5
205
100
AcDbSymbolTableRecord
100
AcDbLayerTableRecord
  2
07_COSMETICS
 70
0
 62
7
  6
CONTINUOUS
370
-3
390
F
  0
LAYER
  5
206
100
AcDbSymbolTableRecord
100
AcDbLayerTableRecord
  2
10_NOTES
 70
0
 62
7
  6
CONTINUOUS
370
-3
390
F
  0
LAYER
  5
207
100
AcDbSymbolTableRecord
100
AcDbLayerTableRecord
  2
11_NOTES_PUB
 70
0
 62
7
  6
CONTINUOUS
370
-3
390
F
  0
LAYER
  5
208
100
AcDbSymbolTableRecord
100
AcDbLayerTableRecord
  2
13_REF_GTOL
 70
0
 62
7
  6
CONTINUOUS
370
-3
390
F
  0
LAYER
  5
209
100
AcDbSymbolTableRecord
100
AcDbLayerTableRecord
  2
16_MISC
 70
0
 62
7
  6
CONTINUOUS
370
-3
390
F
  0
LAYER
  5
20A
100
AcDbSymbolTableRecord
100
AcDbLayerTableRecord
  2
17_NO_PRINT
 70
0
 62
7
  6
CONTINUOUS
370
-3
390
F
  0
LAYER
  5
20B
100
AcDbSymbolTableRecord
100
AcDbLayerTableRecord
  2
18_DATUM_CAMS_JOINTS
 70
0
 62
7
  6
CONTINUOUS
370
-3
390
F
  0
LAYER
  5
20C
100
AcDbSymbolTableRecord
100
AcDbLayerTableRecord
  2
19_DATUM_FUNCTIONAL
 70
0
 62
7
  6
CONTINUOUS
370
-3
390
F
  0
LAYER
  5
20D
100
AcDbSymbolTableRecord
100
AcDbLayerTableRecord
  2
20_DATUM_KINEMATIC_SCHEME
 70
0
 62
7
  6
CONTINUOUS
370
-3
390
F
  0
ENDTAB
  0
TABLE
  2
STYLE
  5
3
100
AcDbSymbolTable
 70
1
  0
STYLE
  5
11
100
AcDbSymbolTableRecord
100
AcDbTextStyleTableRecord
  2
STANDARD
 70
0
 40
0.0
 41
1.0
 50
0.0
 71
0
 42
0.2
  3
ARIAL.TTF
  4

  0
STYLE
  5
20E
100
AcDbSymbolTableRecord
100
AcDbTextStyleTableRecord
  2
TEXTSTYLE_1
 70
0
 40
0.0
 41
0.8
 50
0.0
 71
0
 42
0.2
  3
gdt
  4

  0
ENDTAB
  0
TABLE
  2
VIEW
  5
6
100
AcDbSymbolTable
 70
0
  0
ENDTAB
  0
TABLE
  2
UCS
  5
7
100
AcDbSymbolTable
 70
0
  0
ENDTAB
  0
TABLE
  2
APPID
  5
9
100
AcDbSymbolTable
 70
1
  0
APPID
  5
20F
100
AcDbSymbolTableRecord
100
AcDbRegAppTableRecord
  2
ACAD
 70
0
  0
ENDTAB
  0
TABLE
  2
BLOCK_RECORD
  5
1
100
AcDbSymbolTable
 70
0
  0
BLOCK_RECORD
  5
210
100
AcDbSymbolTableRecord
100
AcDbBlockTableRecord
  2
*Model_Space
  0
BLOCK_RECORD
  5
211
100
AcDbSymbolTableRecord
100
AcDbBlockTableRecord
  2
*Paper_Space
  0
BLOCK_RECORD
  5
212
100
AcDbSymbolTableRecord
100
AcDbBlockTableRecord
  2
_FILLED
  0
ENDTAB
  0
TABLE
  2
DIMSTYLE
  5
A
100
AcDbSymbolTable
 70
1
100
AcDbDimStyleTable
 71
0
  0
DIMSTYLE
105
213
100
AcDbSymbolTableRecord
100
AcDbDimStyleTableRecord
  2
STANDARD
 70
0
  3

  4

 40
1.0
 41
1.053290714
 42
1.0
 43
0.38
 44
1.0
 45
0.0
 46
0.0
 47
0.01
 48
0.01
140
1.4746069996
141
0.09
142
0.0
143
25.4
144
1.0
145
0.0
146
1.0
147
0.625
 71
1
 72
0
 73
0
 74
0
 75
0
 76
0
 77
1
 78
8
 79
2
170
0
171
1
172
0
173
0
174
0
175
0
176
0
177
0
178
0
270
2
179
2
271
2
272
2
273
2
274
2
275
0
280
0
281
0
282
0
283
1
284
8
285
0
286
0
287
3
288
0
340
11
278
46
341
212
342
212
343
212
344
212
  0
ENDTAB
  0
ENDSEC
  0
SECTION
  2
BLOCKS
  0
BLOCK
  5
20
100
AcDbEntity
  8
0
100
AcDbBlockBegin
  2
*Model_Space
 70
0
 10
0.0
 20
0.0
 30
0.0
  3
*Model_Space
  1

  0
ENDBLK
  5
21
100
AcDbEntity
  8
0
100
AcDbBlockEnd
  0
BLOCK
  5
1C
100
AcDbEntity
  8
0
100
AcDbBlockBegin
  2
*Paper_Space
 70
0
 10
0.0
 20
0.0
 30
0.0
  3
*Paper_Space
  1

  0
ENDBLK
  5
1D
100
AcDbEntity
  8
0
100
AcDbBlockEnd
  0
BLOCK
  5
214
100
AcDbEntity
  8
0
100
AcDbBlockBegin
  2
_FILLED
 70
64
 10
0.0
 20
0.0
  3
_FILLED
  1

  0
SOLID
  5
215
100
AcDbEntity
  8
0
  6
BYBLOCK
 62
0
100
AcDbTrace
 10
0.0
 20
0.0
 11
-1.0
 21
0.25
 12
-1.0
 22
-0.25
 13
-1.0
 23
-0.25
  0
ENDBLK
  5
216
100
AcDbEntity
  8
0
  6
BYBLOCK
 62
0
100
AcDbBlockEnd
  0
ENDSEC
  0
SECTION
  2
ENTITIES
  0
LINE
  5
217
100
AcDbEntity
  8
0
100
AcDbLine
 62
7
  6
BYLAYER
 10
10.3134823177
 20
54.6686342906
 11
10.3134823177
 21
70.7686492208
  0
LINE
  5
218
100
AcDbEntity
  8
0
100
AcDbLine
 62
7
  6
BYLAYER
 10
10.5134823177
 20
54.518627451
 11
10.5134823177
 21
70.918627451
  0
LINE
  5
219
100
AcDbEntity
  8
0
100
AcDbLine
 62
7
  6
BYLAYER
 10
10.7134823177
 20
53.9187823464
 11
10.7134823177
 21
71.5185808686
  0
LINE
  5
21A
100
AcDbEntity
  8
0
100
AcDbLine
 62
7
  6
BYLAYER
 10
10.9134823177
 20
53.718627451
 11
10.9134823177
 21
71.718627451
  0
LINE
  5
21B
100
AcDbEntity
  8
0
100
AcDbLine
 62
7
  6
BYLAYER
 10
15.3134823177
 20
50.7186314993
 11
15.3134823177
 21
74.7186234027
  0
LINE
  5
21C
100
AcDbEntity
  8
0
100
AcDbLine
 62
7
  6
BYLAYER
 10
15.3134823177
 20
74.718627451
 11
16.277025912
 21
76.3875339116
  0
LINE
  5
21D
100
AcDbEntity
  8
0
100
AcDbLine
 62
7
  6
BYLAYER
 10
10.7134823177
 20
71.518627451
 11
10.9134823177
 21
71.718627451
  0
LINE
  5
21E
100
AcDbEntity
  8
0
100
AcDbLine
 62
7
  6
BYLAYER
 10
10.7134823177
 20
53.918627451
 11
10.9134823177
 21
53.718627451
  0
LINE
  5
21F
100
AcDbEntity
  8
0
100
AcDbLine
 62
7
  6
BYLAYER
 10
15.3134823177
 20
50.718627451
 11
16.277025912
 21
49.0497209904
  0
LINE
  5
220
100
AcDbEntity
  8
0
100
AcDbLine
 62
7
  6
BYLAYER
 10
19.3134823177
 20
74.7186234027
 11
19.3134823177
 21
50.7186314993
  0
LINE
  5
221
100
AcDbEntity
  8
0
100
AcDbLine
 62
7
  6
BYLAYER
 10
23.3134823177
 20
74.718627451
 11
24.277025912
 21
76.3875339116
  0
LINE
  5
222
100
AcDbEntity
  8
0
100
AcDbLine
 62
7
  6
BYLAYER
 10
23.3134823177
 20
50.718627451
 11
24.277025912
 21
49.0497209904
  0
LINE
  5
223
100
AcDbEntity
  8
0
100
AcDbLine
 62
7
  6
BYLAYER
 10
23.3134823177
 20
50.7186314993
 11
23.3134823177
 21
74.7186234027
  0
LINE
  5
224
100
AcDbEntity
  8
0
100
AcDbLine
 62
7
  6
BYLAYER
 10
27.3134823177
 20
74.7186234027
 11
27.3134823177
 21
50.7186314993
  0
LINE
  5
225
100
AcDbEntity
  8
0
100
AcDbLine
 62
7
  6
BYLAYER
 10
19.3134823177
 20
50.718627451
 11
18.3499387235
 21
49.0497209904
  0
LINE
  5
226
100
AcDbEntity
  8
0
100
AcDbLine
 62
7
  6
BYLAYER
 10
19.3134823177
 20
74.718627451
 11
18.3499387235
 21
76.3875339116
  0
LINE
  5
227
100
AcDbEntity
  8
0
100
AcDbLine
 62
7
  6
BYLAYER
 10
18.3268665841
 20
49.0122209904
 11
16.3000980514
 21
49.0122209904
  0
LINE
  5
228
100
AcDbEntity
  8
0
100
AcDbLine
 62
7
  6
BYLAYER
 10
24.3000980283
 20
49.0122209904
 11
26.3268666071
 21
49.0122209904
  0
LINE
  5
229
100
AcDbEntity
  8
0
100
AcDbLine
 62
7
  6
BYLAYER
 10
18.3820461825
 20
49.1122209904
 11
16.244918453
 21
49.1122209904
  0
LINE
  5
22A
100
AcDbEntity
  8
0
100
AcDbLine
 62
7
  6
BYLAYER
 10
24.2449185045
 20
49.1122209904
 11
26.3820461309
 21
49.1122209904
  0
LINE
  5
22B
100
AcDbEntity
  8
0
100
AcDbLine
 62
7
  6
BYLAYER
 10
80.4482119532
 20
57.5687109015
 11
79.3134823177
 21
57.368627451
  0
LINE
  5
22C
100
AcDbEntity
  8
0
100
AcDbLine
 62
7
  6
BYLAYER
 10
27.3134823177
 20
50.718627451
 11
26.3499387235
 21
49.0497209904
  0
LINE
  5
22D
100
AcDbEntity
  8
0
100
AcDbLine
 62
7
  6
BYLAYER
 10
10.9134823177
 20
53.718627451
 11
15.3134823177
 21
53.718627451
  0
LINE
  5
22E
100
AcDbEntity
  8
0
100
AcDbLine
 62
7
  6
BYLAYER
 10
19.3134823177
 20
53.718627451
 11
23.3134823177
 21
53.718627451
  0
LINE
  5
22F
100
AcDbEntity
  8
0
100
AcDbLine
 62
7
  6
BYLAYER
 10
27.3134823177
 20
53.718627451
 11
56.8134823177
 21
53.718627451
  0
LINE
  5
230
100
AcDbEntity
  8
0
100
AcDbLine
 62
7
  6
BYLAYER
 10
56.8134823177
 20
54.368627451
 11
62.8134823177
 21
54.368627451
  0
LINE
  5
231
100
AcDbEntity
  8
0
100
AcDbLine
 62
7
  6
BYLAYER
 10
63.1134823177
 20
54.468627451
 11
68.9134823177
 21
54.468627451
  0
LINE
  5
232
100
AcDbEntity
  8
0
100
AcDbLine
 62
7
  6
BYLAYER
 10
10.3811985125
 20
54.518627451
 11
10.7134823177
 21
54.518627451
  0
LINE
  5
233
100
AcDbEntity
  8
0
100
AcDbLine
 62
7
  6
BYLAYER
 10
27.3134823177
 20
74.718627451
 11
26.3499387235
 21
76.3875339116
  0
LINE
  5
234
100
AcDbEntity
  8
0
100
AcDbLine
 62
7
  6
BYLAYER
 10
18.38204613
 20
55.5404242207
 11
16.2449185055
 21
55.5404242207
  0
LINE
  5
235
100
AcDbEntity
  8
0
100
AcDbLine
 62
7
  6
BYLAYER
 10
24.2449184545
 20
55.5404242207
 11
26.3820461809
 21
55.5404242207
  0
LINE
  5
236
100
AcDbEntity
  8
0
100
AcDbLine
 62
7
  6
BYLAYER
 10
18.3268666076
 20
56.0904242207
 11
16.3000980279
 21
56.0904242207
  0
LINE
  5
237
100
AcDbEntity
  8
0
100
AcDbLine
 62
7
  6
BYLAYER
 10
24.3000980511
 20
56.0904242207
 11
26.3268665844
 21
56.0904242207
  0
LINE
  5
238
100
AcDbEntity
  8
0
100
AcDbLine
 62
7
  6
BYLAYER
 10
72.5134823177
 20
56.718627451
 11
78.0134823177
 21
56.718627451
  0
LINE
  5
239
100
AcDbEntity
  8
0
100
AcDbLine
 62
7
  6
BYLAYER
 10
69.1134823177
 20
57.368627451
 11
71.8634823177
 21
57.368627451
  0
LINE
  5
23A
100
AcDbEntity
  8
0
100
AcDbLine
 62
7
  6
BYLAYER
 10
78.6634823177
 20
57.368627451
 11
79.3134823177
 21
57.368627451
  0
LINE
  5
23B
100
AcDbEntity
  8
0
100
AcDbLine
 62
7
  6
BYLAYER
 10
69.1134823177
 20
68.068627451
 11
71.8634823177
 21
68.068627451
  0
LINE
  5
23C
100
AcDbEntity
  8
0
100
AcDbLine
 62
7
  6
BYLAYER
 10
78.6634823177
 20
68.068627451
 11
79.3134823177
 21
68.068627451
  0
LINE
  5
23D
100
AcDbEntity
  8
0
100
AcDbLine
 62
7
  6
BYLAYER
 10
72.5134823177
 20
68.718627451
 11
78.0134823177
 21
68.718627451
  0
LINE
  5
23E
100
AcDbEntity
  8
0
100
AcDbLine
 62
7
  6
BYLAYER
 10
18.3268665843
 20
69.3468306813
 11
16.3000980511
 21
69.3468306813
  0
LINE
  5
23F
100
AcDbEntity
  8
0
100
AcDbLine
 62
7
  6
BYLAYER
 10
24.3000980278
 20
69.3468306813
 11
26.3268666076
 21
69.3468306813
  0
LINE
  5
240
100
AcDbEntity
  8
0
100
AcDbLine
 62
7
  6
BYLAYER
 10
18.3820461825
 20
69.8968306813
 11
16.244918453
 21
69.8968306813
  0
LINE
  5
241
100
AcDbEntity
  8
0
100
AcDbLine
 62
7
  6
BYLAYER
 10
24.2449185045
 20
69.8968306813
 11
26.382046131
 21
69.8968306813
  0
LINE
  5
242
100
AcDbEntity
  8
0
100
AcDbLine
 62
7
  6
BYLAYER
 10
10.3811985125
 20
70.918627451
 11
10.7134823177
 21
70.918627451
  0
LINE
  5
243
100
AcDbEntity
  8
0
100
AcDbLine
 62
7
  6
BYLAYER
 10
63.1134823177
 20
70.968627451
 11
68.9134823177
 21
70.968627451
  0
LINE
  5
244
100
AcDbEntity
  8
0
100
AcDbLine
 62
7
  6
BYLAYER
 10
56.8134823177
 20
71.068627451
 11
62.8134823177
 21
71.068627451
  0
LINE
  5
245
100
AcDbEntity
  8
0
100
AcDbLine
 62
7
  6
BYLAYER
 10
10.9134823177
 20
71.718627451
 11
15.3134823177
 21
71.718627451
  0
LINE
  5
246
100
AcDbEntity
  8
0
100
AcDbLine
 62
7
  6
BYLAYER
 10
19.3134823177
 20
71.718627451
 11
23.3134823177
 21
71.718627451
  0
LINE
  5
247
100
AcDbEntity
  8
0
100
AcDbLine
 62
7
  6
BYLAYER
 10
27.3134823177
 20
71.718627451
 11
56.8134823177
 21
71.718627451
  0
LINE
  5
248
100
AcDbEntity
  8
0
100
AcDbLine
 62
7
  6
BYLAYER
 10
56.8134823177
 20
71.7185068637
 11
56.8134823177
 21
71.068627451
  0
LINE
  5
249
100
AcDbEntity
  8
0
100
AcDbLine
 62
7
  6
BYLAYER
 10
56.8134823177
 20
54.368627451
 11
56.8134823177
 21
53.7187480383
  0
LINE
  5
24A
100
AcDbEntity
  8
0
100
AcDbLine
 62
7
  6
BYLAYER
 10
80.4482119532
 20
67.8685440004
 11
79.3134823177
 21
68.068627451
  0
LINE
  5
24B
100
AcDbEntity
  8
0
100
AcDbLine
 62
7
  6
BYLAYER
 10
71.8634823177
 20
68.068627451
 11
72.5134823177
 21
68.718627451
  0
LINE
  5
24C
100
AcDbEntity
  8
0
100
AcDbLine
 62
7
  6
BYLAYER
 10
18.38204613
 20
76.3250339116
 11
16.2449185055
 21
76.3250339116
  0
LINE
  5
24D
100
AcDbEntity
  8
0
100
AcDbLine
 62
7
  6
BYLAYER
 10
24.2449184545
 20
76.3250339116
 11
26.3820461809
 21
76.3250339116
  0
LINE
  5
24E
100
AcDbEntity
  8
0
100
AcDbLine
 62
7
  6
BYLAYER
 10
18.3268666076
 20
76.4250339116
 11
16.3000980279
 21
76.4250339116
  0
LINE
  5
24F
100
AcDbEntity
  8
0
100
AcDbLine
 62
7
  6
BYLAYER
 10
24.3000980511
 20
76.4250339116
 11
26.3268665844
 21
76.4250339116
  0
LINE
  5
250
100
AcDbEntity
  8
0
100
AcDbLine
 62
7
  6
BYLAYER
 10
71.8634823177
 20
57.368627451
 11
72.5134823177
 21
56.718627451
  0
LINE
  5
251
100
AcDbEntity
  8
0
100
AcDbLine
 62
7
  6
BYLAYER
 10
62.3634823177
 20
71.068627451
 11
62.3634823177
 21
54.368627451
  0
LINE
  5
252
100
AcDbEntity
  8
0
100
AcDbLine
 62
7
  6
BYLAYER
 10
62.8134823177
 20
54.1687192628
 11
62.8134823177
 21
54.368627451
  0
LINE
  5
253
100
AcDbEntity
  8
0
100
AcDbLine
 62
7
  6
BYLAYER
 10
62.8134823177
 20
71.068627451
 11
62.8134823177
 21
71.2685356392
  0
LINE
  5
254
100
AcDbEntity
  8
0
100
AcDbLine
 62
7
  6
BYLAYER
 10
63.1134823177
 20
54.468627451
 11
63.1134823177
 21
70.968627451
  0
LINE
  5
255
100
AcDbEntity
  8
0
100
AcDbLine
 62
7
  6
BYLAYER
 10
63.1134823177
 20
54.468627451
 11
62.8134823177
 21
54.168627451
  0
LINE
  5
256
100
AcDbEntity
  8
0
100
AcDbLine
 62
7
  6
BYLAYER
 10
63.1134823177
 20
70.968627451
 11
62.8134823177
 21
71.268627451
  0
LINE
  5
257
100
AcDbEntity
  8
0
100
AcDbLine
 62
7
  6
BYLAYER
 10
68.9134823177
 20
70.968627451
 11
68.9134823177
 21
54.468627451
  0
LINE
  5
258
100
AcDbEntity
  8
0
100
AcDbLine
 62
7
  6
BYLAYER
 10
69.1134823177
 20
70.7685169059
 11
69.1134823177
 21
54.6687379961
  0
LINE
  5
259
100
AcDbEntity
  8
0
100
AcDbLine
 62
7
  6
BYLAYER
 10
71.8634823177
 20
68.068627451
 11
71.8634823177
 21
57.368627451
  0
LINE
  5
25A
100
AcDbEntity
  8
0
100
AcDbLine
 62
7
  6
BYLAYER
 10
72.5134823177
 20
56.718627451
 11
72.5134823177
 21
68.718627451
  0
LINE
  5
25B
100
AcDbEntity
  8
0
100
AcDbLine
 62
7
  6
BYLAYER
 10
78.6634823177
 20
57.368627451
 11
78.0134823177
 21
56.718627451
  0
LINE
  5
25C
100
AcDbEntity
  8
0
100
AcDbLine
 62
7
  6
BYLAYER
 10
78.6634823177
 20
68.068627451
 11
78.0134823177
 21
68.718627451
  0
LINE
  5
25D
100
AcDbEntity
  8
0
100
AcDbLine
 62
7
  6
BYLAYER
 10
78.0134823177
 20
68.718627451
 11
78.0134823177
 21
56.718627451
  0
LINE
  5
25E
100
AcDbEntity
  8
0
100
AcDbLine
 62
7
  6
BYLAYER
 10
78.6634823177
 20
57.368627451
 11
78.6634823177
 21
68.068627451
  0
LINE
  5
25F
100
AcDbEntity
  8
0
100
AcDbLine
 62
7
  6
BYLAYER
 10
79.3134823177
 20
68.068627451
 11
79.3134823177
 21
57.368627451
  0
LINE
  5
260
100
AcDbEntity
  8
0
100
AcDbLine
 62
7
  6
BYLAYER
 10
80.4482119532
 20
67.8685440004
 11
80.4482119532
 21
57.5687109015
  0
LINE
  5
261
100
AcDbEntity
  8
0
100
AcDbLine
 62
7
  6
BYLAYER
 10
80.6134823177
 20
67.6715536932
 11
80.6134823177
 21
57.7656648714
  0
ARC
  5
262
100
AcDbEntity
  8
0
100
AcDbCircle
 62
7
  6
BYLAYER
 10
31.3390164783
 20
71.1334007165
 40
15.1446657491
100
AcDbArc
 50
184.6834447564
 51
186.7747840003
  0
ARC
  5
263
100
AcDbEntity
  8
0
100
AcDbCircle
 62
7
  6
BYLAYER
 10
3.2879484597
 20
54.3038542576
 40
15.1446654401
100
AcDbArc
 50
4.6834445787
 51
6.7747838646
  0
ARC
  5
264
100
AcDbEntity
  8
0
100
AcDbCircle
 62
7
  6
BYLAYER
 10
39.3213691835
 20
54.3056247198
 40
15.1269328151
100
AcDbArc
 50
173.2239902126
 51
175.3177813545
  0
ARC
  5
265
100
AcDbEntity
  8
0
100
AcDbCircle
 62
7
  6
BYLAYER
 10
11.3055954646
 20
71.1316302217
 40
15.1269328072
100
AcDbArc
 50
353.2239900581
 51
355.3177812017
  0
ARC
  5
266
100
AcDbEntity
  8
0
100
AcDbCircle
 62
7
  6
BYLAYER
 10
11.3346926613
 20
54.3085439409
 40
15.0976944256
100
AcDbArc
 50
4.6801909878
 51
6.7780374452
  0
ARC
  5
267
100
AcDbEntity
  8
0
100
AcDbCircle
 62
7
  6
BYLAYER
 10
39.2922713655
 20
71.1287109407
 40
15.0976938188
100
AcDbArc
 50
184.6801910989
 51
186.7780376413
  0
ARC
  5
268
100
AcDbEntity
  8
0
100
AcDbCircle
 62
7
  6
BYLAYER
 10
31.271260392
 20
54.310651958
 40
15.0765809068
100
AcDbArc
 50
173.220493454
 51
175.3212781028
  0
ARC
  5
269
100
AcDbEntity
  8
0
100
AcDbCircle
 62
7
  6
BYLAYER
 10
3.3557044898
 20
71.1266029608
 40
15.0765806642
100
AcDbArc
 50
353.2204932801
 51
355.3212779633
  0
ARC
  5
26A
100
AcDbEntity
  8
0
100
AcDbCircle
 62
7
  6
BYLAYER
 10
16.9775170965
 20
49.454867519
 40
0.809217241
100
AcDbArc
 50
210.0439883354
 51
213.1618402041
  0
ARC
  5
26B
100
AcDbEntity
  8
0
100
AcDbCircle
 62
7
  6
BYLAYER
 10
17.6494478197
 20
75.9823875692
 40
0.8092169045
100
AcDbArc
 50
30.0439868875
 51
33.1618400261
  0
ARC
  5
26C
100
AcDbEntity
  8
0
100
AcDbCircle
 62
7
  6
BYLAYER
 10
25.6496074268
 20
49.4548052735
 40
0.8090493464
100
AcDbArc
 50
326.8356562072
 51
329.9542252266
  0
ARC
  5
26D
100
AcDbEntity
  8
0
100
AcDbCircle
 62
7
  6
BYLAYER
 10
24.9773568971
 20
75.9824498354
 40
0.8090489729
100
AcDbArc
 50
146.8356564191
 51
149.9542268485
  0
ARC
  5
26E
100
AcDbEntity
  8
0
100
AcDbCircle
 62
7
  6
BYLAYER
 10
17.6627029134
 20
49.4467118288
 40
0.7936596882
100
AcDbArc
 50
326.8075935006
 51
329.98657796
  0
ARC
  5
26F
100
AcDbEntity
  8
0
100
AcDbCircle
 62
7
  6
BYLAYER
 10
16.9642616133
 20
75.9905431533
 40
0.7936595538
100
AcDbArc
 50
146.8075940581
 51
149.9865790284
  0
ARC
  5
270
100
AcDbEntity
  8
0
100
AcDbCircle
 62
7
  6
BYLAYER
 10
24.9619048465
 20
49.4452970359
 40
0.7909128433
100
AcDbArc
 50
210.0100095249
 51
213.2001090413
  0
ARC
  5
271
100
AcDbEntity
  8
0
100
AcDbCircle
 62
7
  6
BYLAYER
 10
25.6650598965
 20
75.991957947
 40
0.7909127095
100
AcDbArc
 50
30.0100083536
 51
33.2001083787
  0
ARC
  5
272
100
AcDbEntity
  8
0
100
AcDbCircle
 62
7
  6
BYLAYER
 10
10.5134823177
 20
54.668627451
 40
0.2
100
AcDbArc
 50
180.0
 51
228.5903778907
  0
ARC
  5
273
100
AcDbEntity
  8
0
100
AcDbCircle
 62
7
  6
BYLAYER
 10
10.5134823177
 20
70.768627451
 40
0.2
100
AcDbArc
 50
131.4096221093
 51
180.0
  0
ARC
  5
274
100
AcDbEntity
  8
0
100
AcDbCircle
 62
7
  6
BYLAYER
 10
80.4134823177
 20
67.6715824498
 40
0.2
100
AcDbArc
 50
0.0
 51
80.0
  0
ARC
  5
275
100
AcDbEntity
  8
0
100
AcDbCircle
 62
7
  6
BYLAYER
 10
80.4134823177
 20
57.7656724522
 40
0.2
100
AcDbArc
 50
280.0
 51
360.0
  0
ARC
  5
276
100
AcDbEntity
  8
0
100
AcDbCircle
 62
7
  6
BYLAYER
 10
68.9134823177
 20
70.768627451
 40
0.2
100
AcDbArc
 50
0.0
 51
90.0
  0
ARC
  5
277
100
AcDbEntity
  8
0
100
AcDbCircle
 62
7
  6
BYLAYER
 10
68.9134823177
 20
54.668627451
 40
0.2
100
AcDbArc
 50
270.0
 51
360.0
  0
SPLINE
  5
278
100
AcDbEntity
  8
0
100
AcDbSpline
 62
7
  6
BYLAYER
 70
0
 71
3
 72
9
 73
5
 74
0
 42
0.0000001
 43
0.0000001
 44
0.0000000001
 40
0.0
 40
0.0
 40
0.0
 40
0.0
 40
0.2548188154
 40
1.0
 40
1.0
 40
1.0
 40
1.0
 10
26.3499413071
 20
49.04972096
 30
0.0
 10
26.3529254294
 20
49.054891124
 30
0.0
 10
26.3643930233
 20
49.0753194624
 30
0.0
 10
26.3748847086
 20
49.0963004397
 30
0.0
 10
26.3820461824
 20
49.1122209904
 30
0.0
  0
SPLINE
  5
279
100
AcDbEntity
  8
0
100
AcDbSpline
 62
7
  6
BYLAYER
 70
0
 71
3
 72
11
 73
7
 74
0
 42
0.0000001
 43
0.0000001
 44
0.0000000001
 40
0.0
 40
0.0
 40
0.0
 40
0.0
 40
0.2605742766
 40
0.5130403057
 40
0.758567118
 40
1.0
 40
1.0
 40
1.0
 40
1.0
 10
26.38204613
 20
76.3250339116
 30
0.0
 10
26.5225885923
 20
76.0672760887
 30
0.0
 10
26.7796312622
 20
75.5485537534
 30
0.0
 10
27.0795933748
 20
74.7462578173
 30
0.0
 10
27.2696773446
 20
73.9324780449
 30
0.0
 10
27.3134823145
 20
73.3829496676
 30
0.0
 10
27.3134823177
 20
73.1109323583
 30
0.0
  0
SPLINE
  5
27A
100
AcDbEntity
  8
0
100
AcDbSpline
 62
7
  6
BYLAYER
 70
0
 71
3
 72
11
 73
7
 74
0
 42
0.0000001
 43
0.0000001
 44
0.0000000001
 40
0.0
 40
0.0
 40
0.0
 40
0.0
 40
0.2500095819
 40
0.5000121404
 40
0.7500073069
 40
1.0
 40
1.0
 40
1.0
 40
1.0
 10
26.3268665844
 20
69.3468306813
 30
0.0
 10
26.4774642582
 20
68.8073390755
 30
0.0
 10
26.7525431492
 20
67.7207914153
 30
0.0
 10
27.0683309096
 20
66.0692493343
 30
0.0
 10
27.2677744592
 20
64.3993675688
 30
0.0
 10
27.3134823177
 20
63.2787064336
 30
0.0
 10
27.3134823177
 20
62.718627451
 30
0.0
  0
SPLINE
  5
27B
100
AcDbEntity
  8
0
100
AcDbSpline
 62
7
  6
BYLAYER
 70
0
 71
3
 72
11
 73
7
 74
0
 42
0.0000001
 43
0.0000001
 44
0.0000000001
 40
0.0
 40
0.0
 40
0.0
 40
0.0
 40
0.2414329121
 40
0.4869597281
 40
0.7394257478
 40
1.0
 40
1.0
 40
1.0
 40
1.0
 10
27.3134823177
 20
73.1109323583
 30
0.0
 10
27.313482321
 20
72.8389150053
 30
0.0
 10
27.2696773802
 20
72.2893865664
 30
0.0
 10
27.0795933722
 20
71.4756067389
 30
0.0
 10
26.7796312085
 20
70.6733108279
 30
0.0
 10
26.5225885851
 20
70.1545884894
 30
0.0
 10
26.382046131
 20
69.8968306813
 30
0.0
  0
SPLINE
  5
27C
100
AcDbEntity
  8
0
100
AcDbSpline
 62
7
  6
BYLAYER
 70
0
 71
3
 72
11
 73
7
 74
0
 42
0.0000001
 43
0.0000001
 44
0.0000000001
 40
0.0
 40
0.0
 40
0.0
 40
0.0
 40
0.2605742769
 40
0.513040306
 40
0.7585671181
 40
1.0
 40
1.0
 40
1.0
 40
1.0
 10
24.2449185045
 20
49.1122209904
 30
0.0
 10
24.1043760393
 20
49.3699788187
 30
0.0
 10
23.8473333611
 20
49.8887011635
 30
0.0
 10
23.5473712462
 20
50.6909971171
 30
0.0
 10
23.357287273
 20
51.5047769062
 30
0.0
 10
23.3134823175
 20
52.0543052955
 30
0.0
 10
23.3134823177
 20
52.3263226101
 30
0.0
  0
SPLINE
  5
27D
100
AcDbEntity
  8
0
100
AcDbSpline
 62
7
  6
BYLAYER
 70
0
 71
3
 72
9
 73
5
 74
0
 42
0.0000001
 43
0.0000001
 44
0.0000000001
 40
0.0
 40
0.0
 40
0.0
 40
0.0
 40
0.2548188152
 40
1.0
 40
1.0
 40
1.0
 40
1.0
 10
24.2770233287
 20
76.387533942
 30
0.0
 10
24.2740392065
 20
76.382363778
 30
0.0
 10
24.2625716129
 20
76.3619354396
 30
0.0
 10
24.2520799283
 20
76.3409544621
 30
0.0
 10
24.2449184545
 20
76.3250339116
 30
0.0
  0
SPLINE
  5
27E
100
AcDbEntity
  8
0
100
AcDbSpline
 62
7
  6
BYLAYER
 70
0
 71
3
 72
9
 73
5
 74
0
 42
0.0000001
 43
0.0000001
 44
0.0000000001
 40
0.0
 40
0.0
 40
0.0
 40
0.0
 40
0.2453951378
 40
1.0
 40
1.0
 40
1.0
 40
1.0
 10
24.244918453
 20
49.1122209904
 30
0.0
 10
24.2472768115
 20
49.1069781638
 30
0.0
 10
24.2571781152
 20
49.0857448698
 30
0.0
 10
24.2681862631
 20
49.0650316852
 30
0.0
 10
24.2770233284
 20
49.04972096
 30
0.0
  0
SPLINE
  5
27F
100
AcDbEntity
  8
0
100
AcDbSpline
 62
7
  6
BYLAYER
 70
0
 71
3
 72
9
 73
5
 74
0
 42
0.0000001
 43
0.0000001
 44
0.0000000001
 40
0.0
 40
0.0
 40
0.0
 40
0.0
 40
0.2453951385
 40
1.0
 40
1.0
 40
1.0
 40
1.0
 10
26.3820461809
 20
76.3250339116
 30
0.0
 10
26.3796878225
 20
76.3302767382
 30
0.0
 10
26.3697865192
 20
76.3515100321
 30
0.0
 10
26.3587783717
 20
76.3722232167
 30
0.0
 10
26.3499413068
 20
76.387533942
 30
0.0
  0
SPLINE
  5
280
100
AcDbEntity
  8
0
100
AcDbSpline
 62
7
  6
BYLAYER
 70
0
 71
3
 72
11
 73
7
 74
0
 42
0.0000001
 43
0.0000001
 44
0.0000000001
 40
0.0
 40
0.0
 40
0.0
 40
0.0
 40
0.2414329121
 40
0.4869597282
 40
0.7394257479
 40
1.0
 40
1.0
 40
1.0
 40
1.0
 10
27.3134823177
 20
52.3263226067
 30
0.0
 10
27.3134823178
 20
52.0543052585
 30
0.0
 10
27.2696773722
 20
51.50477683
 30
0.0
 10
27.0795933624
 20
50.6909970183
 30
0.0
 10
26.7796312017
 20
49.8887011227
 30
0.0
 10
26.5225885825
 20
49.3699787938
 30
0.0
 10
26.3820461309
 20
49.1122209904
 30
0.0
  0
SPLINE
  5
281
100
AcDbEntity
  8
0
100
AcDbSpline
 62
7
  6
BYLAYER
 70
0
 71
3
 72
11
 73
7
 74
0
 42
0.0000001
 43
0.0000001
 44
0.0000000001
 40
0.0
 40
0.0
 40
0.0
 40
0.0
 40
0.2414329122
 40
0.4869597284
 40
0.7394257481
 40
1.0
 40
1.0
 40
1.0
 40
1.0
 10
23.3134823177
 20
73.1109322941
 30
0.0
 10
23.3134823176
 20
73.3829496424
 30
0.0
 10
23.3572872722
 20
73.9324780704
 30
0.0
 10
23.5473712766
 20
74.7462578829
 30
0.0
 10
23.8473334383
 20
75.5485537782
 30
0.0
 10
24.104376054
 20
76.0672761085
 30
0.0
 10
24.2449185055
 20
76.3250339116
 30
0.0
  0
SPLINE
  5
282
100
AcDbEntity
  8
0
100
AcDbSpline
 62
7
  6
BYLAYER
 70
0
 71
3
 72
11
 73
7
 74
0
 42
0.0000001
 43
0.0000001
 44
0.0000000001
 40
0.0
 40
0.0
 40
0.0
 40
0.0
 40
0.2605742769
 40
0.513040306
 40
0.7585671181
 40
1.0
 40
1.0
 40
1.0
 40
1.0
 10
24.2449185045
 20
69.8968306813
 30
0.0
 10
24.1043760396
 20
70.1545885091
 30
0.0
 10
23.8473333619
 20
70.6733108527
 30
0.0
 10
23.5473712473
 20
71.4756068046
 30
0.0
 10
23.3572872739
 20
72.2893865919
 30
0.0
 10
23.3134823178
 20
72.8389149801
 30
0.0
 10
23.3134823177
 20
73.1109322941
 30
0.0
  0
SPLINE
  5
283
100
AcDbEntity
  8
0
100
AcDbSpline
 62
7
  6
BYLAYER
 70
0
 71
3
 72
11
 73
7
 74
0
 42
0.0000001
 43
0.0000001
 44
0.0000000001
 40
0.0
 40
0.0
 40
0.0
 40
0.0
 40
0.2499927296
 40
0.4999878988
 40
0.7499904429
 40
1.0
 40
1.0
 40
1.0
 40
1.0
 10
23.3134823177
 20
62.718627451
 30
0.0
 10
23.3134823177
 20
63.2787065153
 30
0.0
 10
23.3591901635
 20
64.3993677388
 30
0.0
 10
23.5586337542
 20
66.0692495577
 30
0.0
 10
23.8744215859
 20
67.7207915391
 30
0.0
 10
24.1495003923
 20
68.8073391292
 30
0.0
 10
24.3000980511
 20
69.3468306813
 30
0.0
  0
SPLINE
  5
284
100
AcDbEntity
  8
0
100
AcDbSpline
 62
7
  6
BYLAYER
 70
0
 71
3
 72
11
 73
7
 74
0
 42
0.0000001
 43
0.0000001
 44
0.0000000001
 40
0.0
 40
0.0
 40
0.0
 40
0.0
 40
0.2500095819
 40
0.5000121404
 40
0.7500073069
 40
1.0
 40
1.0
 40
1.0
 40
1.0
 10
24.3000980511
 20
56.0904242207
 30
0.0
 10
24.1495003773
 20
56.6299158264
 30
0.0
 10
23.8744214863
 20
57.7164634867
 30
0.0
 10
23.5586337259
 20
59.3680055677
 30
0.0
 10
23.3591901763
 20
61.0378873332
 30
0.0
 10
23.3134823177
 20
62.1585484684
 30
0.0
 10
23.3134823177
 20
62.718627451
 30
0.0
  0
SPLINE
  5
285
100
AcDbEntity
  8
0
100
AcDbSpline
 62
7
  6
BYLAYER
 70
0
 71
3
 72
11
 73
7
 74
0
 42
0.0000001
 43
0.0000001
 44
0.0000000001
 40
0.0
 40
0.0
 40
0.0
 40
0.0
 40
0.2414329122
 40
0.4869597284
 40
0.7394257481
 40
1.0
 40
1.0
 40
1.0
 40
1.0
 10
23.3134823177
 20
52.3263226101
 30
0.0
 10
23.313482318
 20
52.5983399579
 30
0.0
 10
23.3572872731
 20
53.1478683847
 30
0.0
 10
23.5473712778
 20
53.9616481954
 30
0.0
 10
23.8473334391
 20
54.7639440889
 30
0.0
 10
24.1043760542
 20
55.2826664181
 30
0.0
 10
24.2449185055
 20
55.5404242207
 30
0.0
  0
SPLINE
  5
286
100
AcDbEntity
  8
0
100
AcDbSpline
 62
7
  6
BYLAYER
 70
0
 71
3
 72
11
 73
7
 74
0
 42
0.0000001
 43
0.0000001
 44
0.0000000001
 40
0.0
 40
0.0
 40
0.0
 40
0.0
 40
0.2499927296
 40
0.4999878988
 40
0.7499904429
 40
1.0
 40
1.0
 40
1.0
 40
1.0
 10
27.3134823177
 20
62.718627451
 30
0.0
 10
27.3134823177
 20
62.1585483866
 30
0.0
 10
27.2677744719
 20
61.0378871632
 30
0.0
 10
27.0683308813
 20
59.3680053443
 30
0.0
 10
26.7525430496
 20
57.7164633629
 30
0.0
 10
26.4774642432
 20
56.6299157728
 30
0.0
 10
26.3268665844
 20
56.0904242207
 30
0.0
  0
SPLINE
  5
287
100
AcDbEntity
  8
0
100
AcDbSpline
 62
7
  6
BYLAYER
 70
0
 71
3
 72
11
 73
7
 74
0
 42
0.0000001
 43
0.0000001
 44
0.0000000001
 40
0.0
 40
0.0
 40
0.0
 40
0.0
 40
0.2605742767
 40
0.5130403058
 40
0.7585671179
 40
1.0
 40
1.0
 40
1.0
 40
1.0
 10
26.38204613
 20
55.5404242207
 30
0.0
 10
26.5225885948
 20
55.2826663931
 30
0.0
 10
26.7796312691
 20
54.7639440482
 30
0.0
 10
27.0795933846
 20
53.9616480967
 30
0.0
 10
27.2696773526
 20
53.1478683085
 30
0.0
 10
27.3134823177
 20
52.5983399208
 30
0.0
 10
27.3134823177
 20
52.3263226067
 30
0.0
  0
SPLINE
  5
288
100
AcDbEntity
  8
0
100
AcDbSpline
 62
7
  6
BYLAYER
 70
0
 71
3
 72
11
 73
7
 74
0
 42
0.0000001
 43
0.0000001
 44
0.0000000001
 40
0.0
 40
0.0
 40
0.0
 40
0.0
 40
0.2605742768
 40
0.5130403058
 40
0.7585671179
 40
1.0
 40
1.0
 40
1.0
 40
1.0
 10
18.38204613
 20
76.3250339116
 30
0.0
 10
18.522588595
 20
76.0672760837
 30
0.0
 10
18.7796312695
 20
75.5485537382
 30
0.0
 10
19.0795933852
 20
74.7462577859
 30
0.0
 10
19.2696773531
 20
73.9324779968
 30
0.0
 10
19.3134823179
 20
73.3829496086
 30
0.0
 10
19.3134823177
 20
73.1109322941
 30
0.0
  0
SPLINE
  5
289
100
AcDbEntity
  8
0
100
AcDbSpline
 62
7
  6
BYLAYER
 70
0
 71
3
 72
11
 73
7
 74
0
 42
0.0000001
 43
0.0000001
 44
0.0000000001
 40
0.0
 40
0.0
 40
0.0
 40
0.0
 40
0.2414329121
 40
0.4869597282
 40
0.739425748
 40
1.0
 40
1.0
 40
1.0
 40
1.0
 10
19.3134823177
 20
73.1109322941
 30
0.0
 10
19.3134823176
 20
72.8389149462
 30
0.0
 10
19.2696773717
 20
72.2893865183
 30
0.0
 10
19.0795933618
 20
71.4756067075
 30
0.0
 10
18.7796312013
 20
70.6733108128
 30
0.0
 10
18.5225885824
 20
70.1545884844
 30
0.0
 10
18.382046131
 20
69.8968306813
 30
0.0
  0
SPLINE
  5
28A
100
AcDbEntity
  8
0
100
AcDbSpline
 62
7
  6
BYLAYER
 70
0
 71
3
 72
11
 73
7
 74
0
 42
0.0000001
 43
0.0000001
 44
0.0000000001
 40
0.0
 40
0.0
 40
0.0
 40
0.0
 40
0.2500095819
 40
0.5000121404
 40
0.7500073069
 40
1.0
 40
1.0
 40
1.0
 40
1.0
 10
18.3268665843
 20
69.3468306813
 30
0.0
 10
18.4774642581
 20
68.8073390755
 30
0.0
 10
18.7525431492
 20
67.7207914153
 30
0.0
 10
19.0683309096
 20
66.0692493343
 30
0.0
 10
19.2677744592
 20
64.3993675688
 30
0.0
 10
19.3134823177
 20
63.2787064336
 30
0.0
 10
19.3134823177
 20
62.718627451
 30
0.0
  0
SPLINE
  5
28B
100
AcDbEntity
  8
0
100
AcDbSpline
 62
7
  6
BYLAYER
 70
0
 71
3
 72
11
 73
7
 74
0
 42
0.0000001
 43
0.0000001
 44
0.0000000001
 40
0.0
 40
0.0
 40
0.0
 40
0.0
 40
0.2499927296
 40
0.4999878988
 40
0.7499904429
 40
1.0
 40
1.0
 40
1.0
 40
1.0
 10
19.3134823177
 20
62.718627451
 30
0.0
 10
19.3134823177
 20
62.1585483866
 30
0.0
 10
19.2677744719
 20
61.0378871632
 30
0.0
 10
19.0683308812
 20
59.3680053443
 30
0.0
 10
18.7525430496
 20
57.7164633629
 30
0.0
 10
18.4774642431
 20
56.6299157728
 30
0.0
 10
18.3268665843
 20
56.0904242207
 30
0.0
  0
SPLINE
  5
28C
100
AcDbEntity
  8
0
100
AcDbSpline
 62
7
  6
BYLAYER
 70
0
 71
3
 72
11
 73
7
 74
0
 42
0.0000001
 43
0.0000001
 44
0.0000000001
 40
0.0
 40
0.0
 40
0.0
 40
0.0
 40
0.2605742767
 40
0.5130403058
 40
0.7585671179
 40
1.0
 40
1.0
 40
1.0
 40
1.0
 10
18.38204613
 20
55.5404242207
 30
0.0
 10
18.5225885947
 20
55.2826663934
 30
0.0
 10
18.7796312687
 20
54.763944049
 30
0.0
 10
19.079593384
 20
53.9616480984
 30
0.0
 10
19.2696773522
 20
53.1478683111
 30
0.0
 10
19.3134823175
 20
52.598339924
 30
0.0
 10
19.3134823177
 20
52.3263226101
 30
0.0
  0
SPLINE
  5
28D
100
AcDbEntity
  8
0
100
AcDbSpline
 62
7
  6
BYLAYER
 70
0
 71
3
 72
11
 73
7
 74
0
 42
0.0000001
 43
0.0000001
 44
0.0000000001
 40
0.0
 40
0.0
 40
0.0
 40
0.0
 40
0.2500095819
 40
0.5000121404
 40
0.7500073069
 40
1.0
 40
1.0
 40
1.0
 40
1.0
 10
16.3000980511
 20
56.0904242207
 30
0.0
 10
16.1495003774
 20
56.6299158264
 30
0.0
 10
15.8744214863
 20
57.7164634867
 30
0.0
 10
15.5586337259
 20
59.3680055677
 30
0.0
 10
15.3591901763
 20
61.0378873332
 30
0.0
 10
15.3134823177
 20
62.1585484684
 30
0.0
 10
15.3134823177
 20
62.718627451
 30
0.0
  0
SPLINE
  5
28E
100
AcDbEntity
  8
0
100
AcDbSpline
 62
7
  6
BYLAYER
 70
0
 71
3
 72
11
 73
7
 74
0
 42
0.0000001
 43
0.0000001
 44
0.0000000001
 40
0.0
 40
0.0
 40
0.0
 40
0.0
 40
0.2414329122
 40
0.4869597284
 40
0.7394257481
 40
1.0
 40
1.0
 40
1.0
 40
1.0
 10
15.3134823177
 20
52.3263226067
 30
0.0
 10
15.3134823178
 20
52.5983399547
 30
0.0
 10
15.3572872726
 20
53.1478683821
 30
0.0
 10
15.5473712772
 20
53.9616481937
 30
0.0
 10
15.8473334387
 20
54.7639440881
 30
0.0
 10
16.1043760541
 20
55.2826664178
 30
0.0
 10
16.2449185055
 20
55.5404242207
 30
0.0
  0
SPLINE
  5
28F
100
AcDbEntity
  8
0
100
AcDbSpline
 62
7
  6
BYLAYER
 70
0
 71
3
 72
9
 73
5
 74
0
 42
0.0000001
 43
0.0000001
 44
0.0000000001
 40
0.0
 40
0.0
 40
0.0
 40
0.0
 40
0.2548355879
 40
1.0
 40
1.0
 40
1.0
 40
1.0
 10
16.2770252498
 20
49.0497209826
 30
0.0
 10
16.2740403948
 20
49.0548912722
 30
0.0
 10
16.2625681182
 20
49.0753173801
 30
0.0
 10
16.2520798642
 20
49.096300579
 30
0.0
 10
16.244918453
 20
49.1122209904
 30
0.0
  0
SPLINE
  5
290
100
AcDbEntity
  8
0
100
AcDbSpline
 62
7
  6
BYLAYER
 70
0
 71
3
 72
11
 73
7
 74
0
 42
0.0000001
 43
0.0000001
 44
0.0000000001
 40
0.0
 40
0.0
 40
0.0
 40
0.0
 40
0.2499927296
 40
0.4999878988
 40
0.7499904429
 40
1.0
 40
1.0
 40
1.0
 40
1.0
 10
15.3134823177
 20
62.718627451
 30
0.0
 10
15.3134823177
 20
63.2787065153
 30
0.0
 10
15.3591901635
 20
64.3993677388
 30
0.0
 10
15.5586337542
 20
66.0692495577
 30
0.0
 10
15.8744215858
 20
67.7207915391
 30
0.0
 10
16.1495003923
 20
68.8073391292
 30
0.0
 10
16.3000980511
 20
69.3468306813
 30
0.0
  0
SPLINE
  5
291
100
AcDbEntity
  8
0
100
AcDbSpline
 62
7
  6
BYLAYER
 70
0
 71
3
 72
9
 73
5
 74
0
 42
0.0000001
 43
0.0000001
 44
0.0000000001
 40
0.0
 40
0.0
 40
0.0
 40
0.0
 40
0.2548355879
 40
1.0
 40
1.0
 40
1.0
 40
1.0
 10
18.3499393854
 20
76.3875339194
 30
0.0
 10
18.3529242402
 20
76.3823636298
 30
0.0
 10
18.3643965166
 20
76.3619375219
 30
0.0
 10
18.3748847698
 20
76.3409543228
 30
0.0
 10
18.3820461809
 20
76.3250339116
 30
0.0
  0
SPLINE
  5
292
100
AcDbEntity
  8
0
100
AcDbSpline
 62
7
  6
BYLAYER
 70
0
 71
3
 72
11
 73
7
 74
0
 42
0.0000001
 43
0.0000001
 44
0.0000000001
 40
0.0
 40
0.0
 40
0.0
 40
0.0
 40
0.260574277
 40
0.5130403061
 40
0.7585671181
 40
1.0
 40
1.0
 40
1.0
 40
1.0
 10
16.2449185045
 20
69.8968306813
 30
0.0
 10
16.1043760368
 20
70.1545885141
 30
0.0
 10
15.8473333546
 20
70.6733108679
 30
0.0
 10
15.5473712369
 20
71.4756068359
 30
0.0
 10
15.3572872655
 20
72.28938664
 30
0.0
 10
15.3134823145
 20
72.8389150391
 30
0.0
 10
15.3134823177
 20
73.1109323583
 30
0.0
  0
SPLINE
  5
293
100
AcDbEntity
  8
0
100
AcDbSpline
 62
7
  6
BYLAYER
 70
0
 71
3
 72
11
 73
7
 74
0
 42
0.0000001
 43
0.0000001
 44
0.0000000001
 40
0.0
 40
0.0
 40
0.0
 40
0.0
 40
0.2414329122
 40
0.4869597284
 40
0.7394257482
 40
1.0
 40
1.0
 40
1.0
 40
1.0
 10
15.3134823177
 20
73.1109323583
 30
0.0
 10
15.313482321
 20
73.3829497015
 30
0.0
 10
15.3572872807
 20
73.9324781185
 30
0.0
 10
15.547371287
 20
74.7462579143
 30
0.0
 10
15.8473334455
 20
75.5485537933
 30
0.0
 10
16.1043760567
 20
76.0672761135
 30
0.0
 10
16.2449185055
 20
76.3250339116
 30
0.0
  0
SPLINE
  5
294
100
AcDbEntity
  8
0
100
AcDbSpline
 62
7
  6
BYLAYER
 70
0
 71
3
 72
9
 73
5
 74
0
 42
0.0000001
 43
0.0000001
 44
0.0000000001
 40
0.0
 40
0.0
 40
0.0
 40
0.0
 40
0.2453831677
 40
1.0
 40
1.0
 40
1.0
 40
1.0
 10
16.2449184545
 20
76.3250339116
 30
0.0
 10
16.2472767297
 20
76.3302765531
 30
0.0
 10
16.2571748839
 20
76.3515116637
 30
0.0
 10
16.2681864595
 20
76.3722235914
 30
0.0
 10
16.2770252501
 20
76.3875339194
 30
0.0
  0
SPLINE
  5
295
100
AcDbEntity
  8
0
100
AcDbSpline
 62
7
  6
BYLAYER
 70
0
 71
3
 72
11
 73
7
 74
0
 42
0.0000001
 43
0.0000001
 44
0.0000000001
 40
0.0
 40
0.0
 40
0.0
 40
0.0
 40
0.2414329121
 40
0.4869597282
 40
0.7394257479
 40
1.0
 40
1.0
 40
1.0
 40
1.0
 10
19.3134823177
 20
52.3263226101
 30
0.0
 10
19.313482318
 20
52.0543052617
 30
0.0
 10
19.2696773726
 20
51.5047768326
 30
0.0
 10
19.0795933629
 20
50.69099702
 30
0.0
 10
18.779631202
 20
49.8887011235
 30
0.0
 10
18.5225885827
 20
49.369978794
 30
0.0
 10
18.382046131
 20
49.1122209904
 30
0.0
  0
SPLINE
  5
296
100
AcDbEntity
  8
0
100
AcDbSpline
 62
7
  6
BYLAYER
 70
0
 71
3
 72
9
 73
5
 74
0
 42
0.0000001
 43
0.0000001
 44
0.0000000001
 40
0.0
 40
0.0
 40
0.0
 40
0.0
 40
0.245383167
 40
1.0
 40
1.0
 40
1.0
 40
1.0
 10
18.3820461825
 20
49.1122209904
 30
0.0
 10
18.3796879072
 20
49.1069783489
 30
0.0
 10
18.3697897527
 20
49.0857432382
 30
0.0
 10
18.3587781766
 20
49.0650313106
 30
0.0
 10
18.3499393856
 20
49.0497209826
 30
0.0
  0
SPLINE
  5
297
100
AcDbEntity
  8
0
100
AcDbSpline
 62
7
  6
BYLAYER
 70
0
 71
3
 72
11
 73
7
 74
0
 42
0.0000001
 43
0.0000001
 44
0.0000000001
 40
0.0
 40
0.0
 40
0.0
 40
0.0
 40
0.2605742769
 40
0.513040306
 40
0.7585671181
 40
1.0
 40
1.0
 40
1.0
 40
1.0
 10
16.2449185045
 20
49.1122209904
 30
0.0
 10
16.1043760394
 20
49.3699788185
 30
0.0
 10
15.8473333615
 20
49.8887011627
 30
0.0
 10
15.5473712467
 20
50.6909971154
 30
0.0
 10
15.3572872735
 20
51.5047769036
 30
0.0
 10
15.3134823177
 20
52.0543052924
 30
0.0
 10
15.3134823177
 20
52.3263226067
 30
0.0
  0
ENDSEC
  0
SECTION
  2
OBJECTS
  0
DICTIONARY
  5
C
100
AcDbDictionary
280
0
281
1
  3
ACAD_GROUP
350
D
  3
ACAD_MLINESTYLE
350
17
  3
ACAD_LAYOUT
350
1A
  3
ACAD_PLOTSETTINGS
350
19
  3
ACAD_PLOTSTYLENAME
350
E
  0
DICTIONARY
  5
D
102
{ACAD_REACTORS
330
C
102
}
100
AcDbDictionary
280
0
281
1
  0
ACDBDICTIONARYWDFLT
  5
E
102
{ACAD_REACTORS
330
C
102
}
100
AcDbDictionary
281
1
  3
Normal
350
F
100
AcDbDictionaryWithDefault
340
F
  0
DICTIONARY
  5
17
102
{ACAD_REACTORS
330
C
102
}
100
AcDbDictionary
280
0
281
1
  3
Standard
350
18
  0
DICTIONARY
  5
19
102
{ACAD_REACTORS
330
C
102
}
100
AcDbDictionary
281
1
  0
DICTIONARY
  5
1A
102
{ACAD_REACTORS
330
C
102
}
100
AcDbDictionary
281
1
  3
Model
350
298
  3
Layout1
350
299
  0
ACDBPLACEHOLDER
  5
F
102
{ACAD_REACTORS
330
E
102
}
  0
MLINESTYLE
  5
18
102
{ACAD_REACTORS
330
17
102
}
100
AcDbMlineStyle
  2
STANDARD
 70
0
  3

 62
256
 51
90.0
 52
90.0
 71
2
 49
0.5
 62
256
  6
BYLAYER
 49
-0.5
 62
256
  6
BYLAYER
  0
LAYOUT
  5
298
102
{ACAD_REACTORS
330
1A
102
}
100
AcDbPlotSettings
  1

  2
none_device
  4

  6

 40
0.0
 41
0.0
 42
0.0
 43
0.0
 44
210.0
 45
297.0
 46
0.0
 47
0.0
 48
0.0
 49
0.0
140
0.0
141
0.0
142
1.0
143
1.0
 70
1024
 72
1
 73
0
 74
0
  7

 75
0
147
1.0
148
0.0
149
0.0
100
AcDbLayout
  1
Model
 70
0
 71
0
 10
0.0
 20
0.0
 11
210.0
 21
297.0
 12
0.0
 22
0.0
 32
0.0
 14
0.0
 24
0.0
 34
0.0
 15
0.0
 25
0.0
 35
0.0
146
0.0
 13
0.0
 23
0.0
 33
0.0
 16
1.0
 26
0.0
 36
0.0
 17
0.0
 27
1.0
 37
0.0
 76
0
330
210
345
0
346
0
  0
LAYOUT
  5
299
102
{ACAD_REACTORS
330
1A
102
}
100
AcDbPlotSettings
  1

  2
none_device
  4

  6

 40
0.0
 41
0.0
 42
0.0
 43
0.0
 44
210.0
 45
297.0
 46
0.0
 47
0.0
 48
0.0
 49
0.0
140
0.0
141
0.0
142
1.0
143
1.0
 70
0
 72
1
 73
0
 74
0
  7

 75
0
147
1.0
148
0.0
149
0.0
100
AcDbLayout
  1
Layout1
 70
0
 71
1
 10
0.0
 20
0.0
 11
210.0
 21
297.0
 12
0.0
 22
0.0
 32
0.0
 14
0.0
 24
0.0
 34
0.0
 15
0.0
 25
0.0
 35
0.0
146
0.0
 13
0.0
 23
0.0
 33
0.0
 16
1.0
 26
0.0
 36
0.0
 17
0.0
 27
1.0
 37
0.0
 76
0
330
211
345
0
346
0
  0
ENDSEC
  0
EOF
