999
DXF file: C:\Users\sesa63760\Dev\_Creo\CAD\MCADID0003925_3D-CAD\drw0001_1.dxf
999
Pro/ENGINEER 2019471 by Parametric Technology Corporation
  0
SECTION
  2
HEADER
  9
$ACADVER
  1
AC1024
  9
$DWGCODEPAGE
  3
ANSI_1252
  9
$EXTMAX
 10
84.4746438451
 20
119.4712820095
 30
0.0
  9
$EXTMIN
 10
0.0
 20
0.0
 30
0.0
  9
$LIMMIN
 10
0.0
 20
0.0
  9
$LIMMAX
 10
84.4746438451
 20
119.4712820095
  9
$VIEWCTR
 10
42.2373219226
 20
59.7356410048
  9
$VIEWSIZE
 40
119.4712820095
  9
$CLAYER
  8
0
  9
$LTSCALE
 40
7.7877576421
  9
$CELTYPE
  6
BYLAYER
  9
$DIMSCALE
 40
1.0
  9
$DIMASZ
 40
1.005650522
  9
$DIMEXO
 40
1.0
  9
$DIMDLI
 40
5.3806325527
  9
$DIMEXE
 40
1.0
  9
$DIMCEN
 40
1.2743603414
  9
$DIMLFAC
 40
1.0
  9
$DIMBLK
  1
_FILLED
  9
$DIMALT
 70
0
  9
$DIMALTF
 40
0.0393700787
  9
$DIMTXT
 40
1.4079107308
  9
$DIMTOL
 70
1
  9
$DIMLIM
 70
0
  9
$DIMTFAC
 40
1.0
  9
$DIMTP
 40
0.01
  9
$DIMTM
 40
0.01
  9
$DIMGAP
 40
0.625
  9
$DIMDSEP
 70
46
  9
$AUNITS
 70
0
  9
$PDMODE
 70
3
  9
$PDSIZE
 40
0.3125
  9
$HANDSEED
  5
3D3
  9
$TILEMODE
 70
1
  9
$MEASUREMENT
 70
1
  9
$INSUNITS
 70
4
  0
ENDSEC
  0
SECTION
  2
CLASSES
  0
CLASS
  1
ACDBDICTIONARYWDFLT
  2
AcDbDictionaryWithDefault
  3
AutoCAD 2000
 90
0
 91
1
280
0
281
0
  0
CLASS
  1
ACDBPLACEHOLDER
  2
AcDbPlaceHolder
  3
AutoCAD 2000
 90
0
 91
1
280
0
281
0
  0
CLASS
  1
LAYOUT
  2
AcDbLayout
  3
AutoCAD 2000
 90
0
 91
0
280
0
281
0
  0
ENDSEC
  0
SECTION
  2
TABLES
  0
TABLE
  2
VPORT
  5
8
100
AcDbSymbolTable
 70
2
  0
VPORT
  5
1F4
100
AcDbSymbolTableRecord
100
AcDbViewportTableRecord
  2
*ACTIVE
 70
0
 10
0.0
 20
0.0
 11
1.0
 21
1.0
 12
42.2373219226
 22
59.7356410048
 13
0.0
 23
0.0
 14
1.0
 24
1.0
 15
0.0
 25
0.0
 16
0.0
 26
0.0
 36
1.0
 17
0.0
 27
0.0
 37
0.0
 40
119.4712820095
 41
0.7070707071
 42
50.0
 43
0.0
 44
0.0
 50
0.0
 51
0.0
 71
0
 72
100
 73
1
 74
1
 75
0
 76
0
 77
0
 78
0
  0
ENDTAB
  0
TABLE
  2
LTYPE
  5
5
100
AcDbSymbolTable
 70
6
  0
LTYPE
  5
14
100
AcDbSymbolTableRecord
100
AcDbLinetypeTableRecord
  2
BYBLOCK
 70
0
  3

 72
65
 73
0
 40
0.0
  0
LTYPE
  5
15
100
AcDbSymbolTableRecord
100
AcDbLinetypeTableRecord
  2
BYLAYER
 70
0
  3

 72
65
 73
0
 40
0.0
  0
LTYPE
  5
16
100
AcDbSymbolTableRecord
100
AcDbLinetypeTableRecord
  2
CONTINUOUS
 70
64
  3
Solid line
 72
65
 73
0
 40
0.0
  0
LTYPE
  5
1F5
100
AcDbSymbolTableRecord
100
AcDbLinetypeTableRecord
  2
CENTER
 70
64
  3
____ _ ____ _ ____ _ ____ _ ____ _ ____ _ ____
 72
65
 73
4
 40
0.6
 49
0.375
 74
0
 49
-0.075
 74
0
 49
0.075
 74
0
 49
-0.075
 74
0
  0
LTYPE
  5
1F6
100
AcDbSymbolTableRecord
100
AcDbLinetypeTableRecord
  2
HIDDEN
 70
64
  3
- - - - - - - - - - - - - - - - - - - -
 72
65
 73
2
 40
0.2
 49
0.1
 74
0
 49
-0.1
 74
0
  0
LTYPE
  5
1F7
100
AcDbSymbolTableRecord
100
AcDbLinetypeTableRecord
  2
PHANTOM
 70
64
  3
_____ _ _ _____ _ _ _____ _ _ _____
 72
65
 73
6
 40
0.8
 49
0.45
 74
0
 49
-0.05
 74
0
 49
0.1
 74
0
 49
-0.05
 74
0
 49
0.1
 74
0
 49
-0.05
 74
0
  0
LTYPE
  5
1F8
100
AcDbSymbolTableRecord
100
AcDbLinetypeTableRecord
  2
DOT
 70
64
  3
. . . . . . . . . . . . . . . . . . . .
 72
65
 73
2
 40
0.2
 49
0.1
 74
0
 49
-0.1
 74
0
  0
LTYPE
  5
1F9
100
AcDbSymbolTableRecord
100
AcDbLinetypeTableRecord
  2
DASHED
 70
64
  3
- - - - - - - - - - - - - - - - - - - -
 72
65
 73
2
 40
0.2
 49
0.1
 74
0
 49
-0.1
 74
0
  0
ENDTAB
  0
TABLE
  2
LAYER
  5
2
100
AcDbSymbolTable
 70
36
  0
LAYER
  5
10
100
AcDbSymbolTableRecord
100
AcDbLayerTableRecord
  2
0
 70
0
 62
7
  6
CONTINUOUS
370
-3
390
F
  0
LAYER
  5
1FA
100
AcDbSymbolTableRecord
100
AcDbLayerTableRecord
  2
DEFAULT_1
 70
0
 62
7
  6
CENTER
370
-3
390
F
  0
LAYER
  5
1FB
100
AcDbSymbolTableRecord
100
AcDbLayerTableRecord
  2
DEFAULT_2
 70
0
 62
7
  6
HIDDEN
370
-3
390
F
  0
LAYER
  5
1FC
100
AcDbSymbolTableRecord
100
AcDbLayerTableRecord
  2
DEFAULT_3
 70
0
 62
7
  6
PHANTOM
370
-3
390
F
  0
LAYER
  5
1FD
100
AcDbSymbolTableRecord
100
AcDbLayerTableRecord
  2
00_COMPONENTS
 70
0
 62
7
  6
CONTINUOUS
370
-3
390
F
  0
LAYER
  5
1FE
100
AcDbSymbolTableRecord
100
AcDbLayerTableRecord
  2
01_1_DEFAULT_DATUMS
 70
0
 62
7
  6
CONTINUOUS
370
-3
390
F
  0
LAYER
  5
1FF
100
AcDbSymbolTableRecord
100
AcDbLayerTableRecord
  2
01_PLANES
 70
0
 62
7
  6
CONTINUOUS
370
-3
390
F
  0
LAYER
  5
200
100
AcDbSymbolTableRecord
100
AcDbLayerTableRecord
  2
02_COORD_SYS
 70
0
 62
7
  6
CONTINUOUS
370
-3
390
F
  0
LAYER
  5
201
100
AcDbSymbolTableRecord
100
AcDbLayerTableRecord
  2
03_AXES
 70
0
 62
7
  6
CONTINUOUS
370
-3
390
F
  0
LAYER
  5
202
100
AcDbSymbolTableRecord
100
AcDbLayerTableRecord
  2
04_POINTS
 70
0
 62
7
  6
CONTINUOUS
370
-3
390
F
  0
LAYER
  5
203
100
AcDbSymbolTableRecord
100
AcDbLayerTableRecord
  2
05_CURVES
 70
0
 62
7
  6
CONTINUOUS
370
-3
390
F
  0
LAYER
  5
204
100
AcDbSymbolTableRecord
100
AcDbLayerTableRecord
  2
06_SURFS
 70
0
 62
7
  6
CONTINUOUS
370
-3
390
F
  0
LAYER
  5
205
100
AcDbSymbolTableRecord
100
AcDbLayerTableRecord
  2
07_COSMETICS
 70
0
 62
7
  6
CONTINUOUS
370
-3
390
F
  0
LAYER
  5
206
100
AcDbSymbolTableRecord
100
AcDbLayerTableRecord
  2
10_NOTES
 70
0
 62
7
  6
CONTINUOUS
370
-3
390
F
  0
LAYER
  5
207
100
AcDbSymbolTableRecord
100
AcDbLayerTableRecord
  2
11_NOTES_PUB
 70
0
 62
7
  6
CONTINUOUS
370
-3
390
F
  0
LAYER
  5
208
100
AcDbSymbolTableRecord
100
AcDbLayerTableRecord
  2
13_REF_GTOL
 70
0
 62
7
  6
CONTINUOUS
370
-3
390
F
  0
LAYER
  5
209
100
AcDbSymbolTableRecord
100
AcDbLayerTableRecord
  2
16_MISC
 70
0
 62
7
  6
CONTINUOUS
370
-3
390
F
  0
LAYER
  5
20A
100
AcDbSymbolTableRecord
100
AcDbLayerTableRecord
  2
17_NO_PRINT
 70
0
 62
7
  6
CONTINUOUS
370
-3
390
F
  0
LAYER
  5
20B
100
AcDbSymbolTableRecord
100
AcDbLayerTableRecord
  2
18_DATUM_CAMS_JOINTS
 70
0
 62
7
  6
CONTINUOUS
370
-3
390
F
  0
LAYER
  5
20C
100
AcDbSymbolTableRecord
100
AcDbLayerTableRecord
  2
19_DATUM_FUNCTIONAL
 70
0
 62
7
  6
CONTINUOUS
370
-3
390
F
  0
LAYER
  5
20D
100
AcDbSymbolTableRecord
100
AcDbLayerTableRecord
  2
20_DATUM_KINEMATIC_SCHEME
 70
0
 62
7
  6
CONTINUOUS
370
-3
390
F
  0
ENDTAB
  0
TABLE
  2
STYLE
  5
3
100
AcDbSymbolTable
 70
1
  0
STYLE
  5
11
100
AcDbSymbolTableRecord
100
AcDbTextStyleTableRecord
  2
STANDARD
 70
0
 40
0.0
 41
1.0
 50
0.0
 71
0
 42
0.2
  3
ARIAL.TTF
  4

  0
STYLE
  5
20E
100
AcDbSymbolTableRecord
100
AcDbTextStyleTableRecord
  2
TEXTSTYLE_1
 70
0
 40
0.0
 41
0.8
 50
0.0
 71
0
 42
0.2
  3
gdt
  4

  0
ENDTAB
  0
TABLE
  2
VIEW
  5
6
100
AcDbSymbolTable
 70
0
  0
ENDTAB
  0
TABLE
  2
UCS
  5
7
100
AcDbSymbolTable
 70
0
  0
ENDTAB
  0
TABLE
  2
APPID
  5
9
100
AcDbSymbolTable
 70
1
  0
APPID
  5
20F
100
AcDbSymbolTableRecord
100
AcDbRegAppTableRecord
  2
ACAD
 70
0
  0
ENDTAB
  0
TABLE
  2
BLOCK_RECORD
  5
1
100
AcDbSymbolTable
 70
0
  0
BLOCK_RECORD
  5
210
100
AcDbSymbolTableRecord
100
AcDbBlockTableRecord
  2
*Model_Space
  0
BLOCK_RECORD
  5
211
100
AcDbSymbolTableRecord
100
AcDbBlockTableRecord
  2
*Paper_Space
  0
BLOCK_RECORD
  5
212
100
AcDbSymbolTableRecord
100
AcDbBlockTableRecord
  2
_FILLED
  0
ENDTAB
  0
TABLE
  2
DIMSTYLE
  5
A
100
AcDbSymbolTable
 70
1
100
AcDbDimStyleTable
 71
0
  0
DIMSTYLE
105
213
100
AcDbSymbolTableRecord
100
AcDbDimStyleTableRecord
  2
STANDARD
 70
0
  3

  4

 40
1.0
 41
1.005650522
 42
1.0
 43
0.38
 44
1.0
 45
0.0
 46
0.0
 47
0.01
 48
0.01
140
1.4079107308
141
0.09
142
0.0
143
25.4
144
1.0
145
0.0
146
1.0
147
0.625
 71
1
 72
0
 73
0
 74
0
 75
0
 76
0
 77
1
 78
8
 79
2
170
0
171
1
172
0
173
0
174
0
175
0
176
0
177
0
178
0
270
2
179
2
271
2
272
2
273
2
274
2
275
0
280
0
281
0
282
0
283
1
284
8
285
0
286
0
287
3
288
0
340
11
278
46
341
212
342
212
343
212
344
212
  0
ENDTAB
  0
ENDSEC
  0
SECTION
  2
BLOCKS
  0
BLOCK
  5
20
100
AcDbEntity
  8
0
100
AcDbBlockBegin
  2
*Model_Space
 70
0
 10
0.0
 20
0.0
 30
0.0
  3
*Model_Space
  1

  0
ENDBLK
  5
21
100
AcDbEntity
  8
0
100
AcDbBlockEnd
  0
BLOCK
  5
1C
100
AcDbEntity
  8
0
100
AcDbBlockBegin
  2
*Paper_Space
 70
0
 10
0.0
 20
0.0
 30
0.0
  3
*Paper_Space
  1

  0
ENDBLK
  5
1D
100
AcDbEntity
  8
0
100
AcDbBlockEnd
  0
BLOCK
  5
214
100
AcDbEntity
  8
0
100
AcDbBlockBegin
  2
_FILLED
 70
64
 10
0.0
 20
0.0
  3
_FILLED
  1

  0
SOLID
  5
215
100
AcDbEntity
  8
0
  6
BYBLOCK
 62
0
100
AcDbTrace
 10
0.0
 20
0.0
 11
-1.0
 21
0.25
 12
-1.0
 22
-0.25
 13
-1.0
 23
-0.25
  0
ENDBLK
  5
216
100
AcDbEntity
  8
0
  6
BYBLOCK
 62
0
100
AcDbBlockEnd
  0
ENDSEC
  0
SECTION
  2
ENTITIES
  0
LINE
  5
217
100
AcDbEntity
  8
0
100
AcDbLine
 62
7
  6
BYLAYER
 10
11.2279995012
 20
42.7801821594
 11
10.8345654547
 21
43.0073262734
  0
LWPOLYLINE
  5
218
100
AcDbEntity
  8
0
100
AcDbPolyline
 62
7
  6
BYLAYER
 90
3
 70
0
 10
20.4444651692
 20
38.3603098121
 10
21.377285772
 20
37.4370907425
 10
23.1424755773
 20
36.2277261061
  0
LWPOLYLINE
  5
219
100
AcDbEntity
  8
0
100
AcDbPolyline
 62
7
  6
BYLAYER
 90
3
 70
0
 10
13.5967855398
 20
52.7616075628
 10
13.7403841149
 20
50.7738034813
 10
14.0922406811
 20
49.3575481391
  0
LINE
  5
21A
100
AcDbEntity
  8
0
100
AcDbLine
 62
7
  6
BYLAYER
 10
10.8345654547
 20
43.9871291739
 11
11.2279995012
 21
43.75998506
  0
LINE
  5
21B
100
AcDbEntity
  8
0
100
AcDbLine
 62
7
  6
BYLAYER
 10
23.4255930956
 20
43.0456159541
 11
23.4255989835
 21
42.2291378448
  0
LINE
  5
21C
100
AcDbEntity
  8
0
100
AcDbLine
 62
7
  6
BYLAYER
 10
32.1707824886
 20
36.6481955899
 11
32.1846913073
 21
36.6515019163
  0
LINE
  5
21D
100
AcDbEntity
  8
0
100
AcDbLine
 62
7
  6
BYLAYER
 10
19.6426529399
 20
49.5978996174
 11
18.9355672099
 21
50.0061474264
  0
LINE
  5
21E
100
AcDbEntity
  8
0
100
AcDbLine
 62
7
  6
BYLAYER
 10
18.4847926042
 20
60.380564193
 11
18.4688011406
 21
60.3650692847
  0
LINE
  5
21F
100
AcDbEntity
  8
0
100
AcDbLine
 62
7
  6
BYLAYER
 10
34.7056331761
 20
76.9589946902
 11
32.8394020081
 21
75.8815320545
  0
LINE
  5
220
100
AcDbEntity
  8
0
100
AcDbLine
 62
7
  6
BYLAYER
 10
38.4962327065
 20
79.1474852859
 11
40.362463876
 21
80.2249479224
  0
LWPOLYLINE
  5
221
100
AcDbEntity
  8
0
100
AcDbPolyline
 62
7
  6
BYLAYER
 90
3
 70
0
 10
44.0729406505
 20
79.4108803465
 10
41.4369252922
 20
78.5971521757
 10
40.461772487
 20
77.6926995304
  0
LINE
  5
222
100
AcDbEntity
  8
0
100
AcDbLine
 62
7
  6
BYLAYER
 10
37.5534170468
 20
72.890928527
 11
21.1581635673
 21
63.42518102
  0
LINE
  5
223
100
AcDbEntity
  8
0
100
AcDbLine
 62
7
  6
BYLAYER
 10
46.8212332539
 20
78.0412987963
 11
44.955002068
 21
76.9638361504
  0
LINE
  5
224
100
AcDbEntity
  8
0
100
AcDbLine
 62
7
  6
BYLAYER
 10
50.6118327734
 20
80.2297893858
 11
52.4780639541
 21
81.3072520287
  0
LINE
  5
225
100
AcDbEntity
  8
0
100
AcDbLine
 62
7
  6
BYLAYER
 10
10.5678357288
 20
45.9145020062
 11
11.3590625228
 21
46.6339347246
  0
LINE
  5
226
100
AcDbEntity
  8
0
100
AcDbLine
 62
7
  6
BYLAYER
 10
47.2927414711
 20
77.8294931161
 11
45.4632938263
 21
76.7732673307
  0
LINE
  5
227
100
AcDbEntity
  8
0
100
AcDbLine
 62
7
  6
BYLAYER
 10
51.1201245239
 20
80.0392205616
 11
52.9495721698
 21
81.0954463476
  0
LINE
  5
228
100
AcDbEntity
  8
0
100
AcDbLine
 62
7
  6
BYLAYER
 10
58.7268237259
 20
84.2493034915
 11
53.0630192925
 21
80.9793239965
  0
LINE
  5
229
100
AcDbEntity
  8
0
100
AcDbLine
 62
7
  6
BYLAYER
 10
20.8889256689
 20
61.768628915
 11
18.4660969634
 21
60.3697358795
  0
LINE
  5
22A
100
AcDbEntity
  8
0
100
AcDbLine
 62
7
  6
BYLAYER
 10
18.4140622387
 20
60.3397743764
 11
16.4341714945
 21
59.1966907456
  0
LINE
  5
22B
100
AcDbEntity
  8
0
100
AcDbLine
 62
7
  6
BYLAYER
 10
18.5151448442
 20
60.3979611918
 11
18.4847813892
 21
60.3805836173
  0
LWPOLYLINE
  5
22C
100
AcDbEntity
  8
0
100
AcDbPolyline
 62
7
  6
BYLAYER
 90
3
 70
0
 10
29.9791304691
 20
55.6513662344
 10
27.1260689028
 20
58.4750100999
 10
24.1036891477
 20
60.3221571719
  0
LINE
  5
22D
100
AcDbEntity
  8
0
100
AcDbLine
 62
7
  6
BYLAYER
 10
29.9427273376
 20
55.644803535
 11
29.9621801461
 21
55.6253248724
  0
LINE
  5
22E
100
AcDbEntity
  8
0
100
AcDbLine
 62
7
  6
BYLAYER
 10
29.9441771529
 20
55.6470465226
 11
29.9621801461
 21
55.6253248724
  0
LINE
  5
22F
100
AcDbEntity
  8
0
100
AcDbLine
 62
7
  6
BYLAYER
 10
29.9791304691
 20
55.6513662344
 11
29.9650286024
 21
55.6683858831
  0
LINE
  5
230
100
AcDbEntity
  8
0
100
AcDbLine
 62
7
  6
BYLAYER
 10
60.5536777528
 20
81.4177222759
 11
65.0084319272
 21
83.9896604453
  0
LINE
  5
231
100
AcDbEntity
  8
0
100
AcDbLine
 62
7
  6
BYLAYER
 10
66.695151729
 20
83.0158543441
 11
62.2403975546
 21
80.4439161747
  0
LINE
  5
232
100
AcDbEntity
  8
0
100
AcDbLine
 62
7
  6
BYLAYER
 10
11.6746445665
 20
46.8647928288
 11
11.3590625229
 21
46.6339347246
  0
LINE
  5
233
100
AcDbEntity
  8
0
100
AcDbLine
 62
7
  6
BYLAYER
 10
15.7604664431
 20
50.3206929826
 11
12.1188816814
 21
48.2182355902
  0
LINE
  5
234
100
AcDbEntity
  8
0
100
AcDbLine
 62
7
  6
BYLAYER
 10
18.2438234496
 20
59.7948458844
 11
16.4341714945
 21
59.1966907456
  0
LINE
  5
235
100
AcDbEntity
  8
0
100
AcDbLine
 62
7
  6
BYLAYER
 10
20.467732036
 20
51.883719002
 11
17.9110100791
 21
50.4076037031
  0
LINE
  5
236
100
AcDbEntity
  8
0
100
AcDbLine
 62
7
  6
BYLAYER
 10
11.6746445665
 20
46.8647928288
 11
11.8198864104
 21
46.9486323903
  0
LINE
  5
237
100
AcDbEntity
  8
0
100
AcDbLine
 62
7
  6
BYLAYER
 10
24.1036891477
 20
60.3221571719
 11
21.1744845056
 21
61.0199426862
  0
LINE
  5
238
100
AcDbEntity
  8
0
100
AcDbLine
 62
7
  6
BYLAYER
 10
10.8345654547
 20
43.9871291739
 11
13.1134256483
 21
45.3028218665
  0
LINE
  5
239
100
AcDbEntity
  8
0
100
AcDbLine
 62
7
  6
BYLAYER
 10
13.5190139677
 20
45.1293432168
 11
13.0286123466
 21
44.8462113989
  0
LINE
  5
23A
100
AcDbEntity
  8
0
100
AcDbLine
 62
7
  6
BYLAYER
 10
12.8826509202
 20
44.7152927997
 11
11.2279995012
 21
43.75998506
  0
LINE
  5
23B
100
AcDbEntity
  8
0
100
AcDbLine
 62
7
  6
BYLAYER
 10
14.3638891987
 20
44.4624304319
 11
13.5286101082
 21
43.9801847027
  0
LINE
  5
23C
100
AcDbEntity
  8
0
100
AcDbLine
 62
7
  6
BYLAYER
 10
11.5279981581
 20
42.750467592
 11
14.4176195825
 21
44.4187813407
  0
LINE
  5
23D
100
AcDbEntity
  8
0
100
AcDbLine
 62
7
  6
BYLAYER
 10
11.8160891863
 20
46.9464003334
 11
11.8200989978
 21
46.9482634705
  0
LINE
  5
23E
100
AcDbEntity
  8
0
100
AcDbLine
 62
7
  6
BYLAYER
 10
58.3500846966
 20
66.5482725299
 11
58.4409445841
 21
66.5838509431
  0
LINE
  5
23F
100
AcDbEntity
  8
0
100
AcDbLine
 62
7
  6
BYLAYER
 10
59.098530241
 20
66.3740907693
 11
58.8365662848
 21
66.2715123695
  0
LINE
  5
240
100
AcDbEntity
  8
0
100
AcDbLine
 62
7
  6
BYLAYER
 10
56.1180959182
 20
70.0539784623
 11
56.1861273372
 21
70.1268912027
  0
LINE
  5
241
100
AcDbEntity
  8
0
100
AcDbLine
 62
7
  6
BYLAYER
 10
56.9170692254
 20
68.9296748532
 11
56.9933097236
 21
68.9905746511
  0
LINE
  5
242
100
AcDbEntity
  8
0
100
AcDbLine
 62
7
  6
BYLAYER
 10
57.6821206207
 20
68.8273705774
 11
57.4623067616
 21
68.6517864731
  0
LINE
  5
243
100
AcDbEntity
  8
0
100
AcDbLine
 62
7
  6
BYLAYER
 10
57.5349871992
 20
68.1530064526
 11
57.458746701
 21
68.0921066547
  0
LINE
  5
244
100
AcDbEntity
  8
0
100
AcDbLine
 62
7
  6
BYLAYER
 10
17.2209506882
 20
37.5970659864
 11
17.2160397616
 21
37.5933557612
  0
LINE
  5
245
100
AcDbEntity
  8
0
100
AcDbLine
 62
7
  6
BYLAYER
 10
15.3143464479
 20
43.3081142603
 11
13.0286123466
 21
41.9884529389
  0
LINE
  5
246
100
AcDbEntity
  8
0
100
AcDbLine
 62
7
  6
BYLAYER
 10
57.6629577055
 20
67.7581341651
 11
57.7468270465
 21
67.8065575362
  0
LINE
  5
247
100
AcDbEntity
  8
0
100
AcDbLine
 62
7
  6
BYLAYER
 10
58.4212463207
 20
67.6185833678
 11
58.1794372566
 21
67.478970848
  0
LINE
  5
248
100
AcDbEntity
  8
0
100
AcDbLine
 62
7
  6
BYLAYER
 10
15.8192080823
 20
42.4448957057
 11
13.5286101082
 21
41.1224262428
  0
LINE
  5
249
100
AcDbEntity
  8
0
100
AcDbLine
 62
7
  6
BYLAYER
 10
58.2468291282
 20
66.9405333343
 11
58.1629597872
 21
66.8921099632
  0
LINE
  5
24A
100
AcDbEntity
  8
0
100
AcDbLine
 62
7
  6
BYLAYER
 10
16.3227352948
 20
41.0325952801
 11
15.5034963846
 21
40.5596102981
  0
LINE
  5
24B
100
AcDbEntity
  8
0
100
AcDbLine
 62
7
  6
BYLAYER
 10
58.8954659542
 20
65.6959617049
 11
58.8046060666
 21
65.6603832918
  0
LINE
  5
24C
100
AcDbEntity
  8
0
100
AcDbLine
 62
7
  6
BYLAYER
 10
59.4759611592
 20
64.4287635061
 11
59.3788022237
 21
64.4063008241
  0
LINE
  5
24D
100
AcDbEntity
  8
0
100
AcDbLine
 62
7
  6
BYLAYER
 10
59.7088178423
 20
65.103364122
 11
59.4286926979
 21
65.0386005259
  0
LINE
  5
24E
100
AcDbEntity
  8
0
100
AcDbLine
 62
7
  6
BYLAYER
 10
58.9732207475
 20
65.3092977254
 11
59.070379683
 21
65.3317604075
  0
LINE
  5
24F
100
AcDbEntity
  8
0
100
AcDbLine
 62
7
  6
BYLAYER
 10
59.9838968244
 20
63.1485828814
 11
59.8811782791
 21
63.139406885
  0
LINE
  5
250
100
AcDbEntity
  8
0
100
AcDbLine
 62
7
  6
BYLAYER
 10
60.2474644672
 20
63.816074423
 11
59.9513100561
 21
63.7896185205
  0
LINE
  5
251
100
AcDbEntity
  8
0
100
AcDbLine
 62
7
  6
BYLAYER
 10
59.5276234165
 20
64.0506390977
 11
59.6303419618
 21
64.0598150942
  0
LINE
  5
252
100
AcDbEntity
  8
0
100
AcDbLine
 62
7
  6
BYLAYER
 10
60.4154072525
 20
61.8651627782
 11
60.3079108476
 21
61.8693433024
  0
LINE
  5
253
100
AcDbEntity
  8
0
100
AcDbLine
 62
7
  6
BYLAYER
 10
52.5180374032
 20
73.9144265128
 11
52.5487357126
 21
74.028994959
  0
LINE
  5
254
100
AcDbEntity
  8
0
100
AcDbLine
 62
7
  6
BYLAYER
 10
53.4652133762
 20
73.0600855305
 11
53.5057800979
 21
73.1653637154
  0
LINE
  5
255
100
AcDbEntity
  8
0
100
AcDbLine
 62
7
  6
BYLAYER
 10
54.225842206
 20
73.1270011941
 11
54.1088816946
 21
72.8234669222
  0
LINE
  5
256
100
AcDbEntity
  8
0
100
AcDbLine
 62
7
  6
BYLAYER
 10
54.3855752293
 20
72.1270725498
 11
54.4357016261
 21
72.2222592429
  0
LINE
  5
257
100
AcDbEntity
  8
0
100
AcDbLine
 62
7
  6
BYLAYER
 10
55.1520379157
 20
72.1492800511
 11
55.0075152933
 21
71.8748412051
  0
LINE
  5
258
100
AcDbEntity
  8
0
100
AcDbLine
 62
7
  6
BYLAYER
 10
55.0765606763
 20
71.5071986358
 11
55.0264342795
 21
71.4120119428
  0
LINE
  5
259
100
AcDbEntity
  8
0
100
AcDbLine
 62
7
  6
BYLAYER
 10
55.272118453
 20
71.122488363
 11
55.3314230328
 21
71.206859136
  0
LINE
  5
25A
100
AcDbEntity
  8
0
100
AcDbLine
 62
7
  6
BYLAYER
 10
56.0412724957
 20
71.1013721817
 11
55.8702876667
 21
70.8581174069
  0
LINE
  5
25B
100
AcDbEntity
  8
0
100
AcDbLine
 62
7
  6
BYLAYER
 10
55.943798018
 20
70.4450610632
 11
55.8844934382
 21
70.3606902902
  0
LINE
  5
25C
100
AcDbEntity
  8
0
100
AcDbLine
 62
7
  6
BYLAYER
 10
56.886778334
 20
69.9912527975
 11
56.6906325963
 21
69.7810334097
  0
LINE
  5
25D
100
AcDbEntity
  8
0
100
AcDbLine
 62
7
  6
BYLAYER
 10
56.7653577141
 20
69.3241534074
 11
56.6973262951
 21
69.251240667
  0
LINE
  5
25E
100
AcDbEntity
  8
0
100
AcDbLine
 62
7
  6
BYLAYER
 10
16.4920250522
 20
39.9756353684
 11
16.0034941462
 21
39.693583602
  0
LINE
  5
25F
100
AcDbEntity
  8
0
100
AcDbLine
 62
7
  6
BYLAYER
 10
11.4864723557
 20
45.3127786817
 11
12.0346515976
 21
45.4939716617
  0
LINE
  5
260
100
AcDbEntity
  8
0
100
AcDbLine
 62
7
  6
BYLAYER
 10
60.7103706898
 20
62.5220187241
 11
60.4004409259
 21
62.5340718608
  0
LINE
  5
261
100
AcDbEntity
  8
0
100
AcDbLine
 62
7
  6
BYLAYER
 10
60.0090733647
 20
62.7818757992
 11
60.1165691088
 21
62.7776953008
  0
LINE
  5
262
100
AcDbEntity
  8
0
100
AcDbLine
 62
7
  6
BYLAYER
 10
60.7672083887
 20
60.5882707986
 11
60.6557522367
 21
60.605776027
  0
LINE
  5
263
100
AcDbEntity
  8
0
100
AcDbLine
 62
7
  6
BYLAYER
 10
61.0940135141
 20
61.2310455707
 11
60.77266715
 21
61.2815160148
  0
LINE
  5
264
100
AcDbEntity
  8
0
100
AcDbLine
 62
7
  6
BYLAYER
 10
60.4139064672
 20
61.5126638846
 11
60.5253626191
 21
61.4951586562
  0
LINE
  5
265
100
AcDbEntity
  8
0
100
AcDbLine
 62
7
  6
BYLAYER
 10
61.0366228138
 20
59.3276248615
 11
60.9220551634
 21
59.3583215687
  0
LINE
  5
266
100
AcDbEntity
  8
0
100
AcDbLine
 62
7
  6
BYLAYER
 10
61.3954731866
 20
59.9529800478
 11
61.0651558623
 21
60.0414836888
  0
LINE
  5
267
100
AcDbEntity
  8
0
100
AcDbLine
 62
7
  6
BYLAYER
 10
60.7390416995
 20
60.2526628229
 11
60.85360935
 21
60.2219661157
  0
LINE
  5
268
100
AcDbEntity
  8
0
100
AcDbLine
 62
7
  6
BYLAYER
 10
61.2216001215
 20
58.0928192436
 11
61.1047929016
 21
58.1364738093
  0
LINE
  5
269
100
AcDbEntity
  8
0
100
AcDbLine
 62
7
  6
BYLAYER
 10
61.6124554173
 20
58.697549006
 11
61.2756810469
 21
58.8234122777
  0
LINE
  5
26A
100
AcDbEntity
  8
0
100
AcDbLine
 62
7
  6
BYLAYER
 10
60.9820045864
 20
59.0114619831
 11
61.0988118063
 21
58.9678074174
  0
LINE
  5
26B
100
AcDbEntity
  8
0
100
AcDbLine
 62
7
  6
BYLAYER
 10
61.3207325227
 20
56.8932515614
 11
61.2025747068
 21
56.9495317478
  0
LINE
  5
26C
100
AcDbEntity
  8
0
100
AcDbLine
 62
7
  6
BYLAYER
 10
61.33326556
 20
55.7380512491
 11
61.2146564005
 21
55.8065287301
  0
LINE
  5
26D
100
AcDbEntity
  8
0
100
AcDbLine
 62
7
  6
BYLAYER
 10
48.6026421091
 20
76.4887036412
 11
48.5969279213
 21
76.5674203744
  0
LINE
  5
26E
100
AcDbEntity
  8
0
100
AcDbLine
 62
7
  6
BYLAYER
 10
49.3013468804
 20
76.2318959738
 11
49.3116843498
 21
76.0894904673
  0
LINE
  5
26F
100
AcDbEntity
  8
0
100
AcDbLine
 62
7
  6
BYLAYER
 10
49.5884006282
 20
76.0806411126
 11
49.5884006282
 21
75.9436826435
  0
LINE
  5
270
100
AcDbEntity
  8
0
100
AcDbLine
 62
7
  6
BYLAYER
 10
50.2955103534
 20
75.535441889
 11
50.2955074094
 21
76.1963673649
  0
LINE
  5
271
100
AcDbEntity
  8
0
100
AcDbLine
 62
7
  6
BYLAYER
 10
50.5722266318
 20
75.3617325056
 11
50.5825641012
 21
75.4922016007
  0
LINE
  5
272
100
AcDbEntity
  8
0
100
AcDbLine
 62
7
  6
BYLAYER
 10
51.2970602569
 20
75.567639888
 11
51.2672556374
 21
75.191476091
  0
LINE
  5
273
100
AcDbEntity
  8
0
100
AcDbLine
 62
7
  6
BYLAYER
 10
51.2869830603
 20
75.0143514508
 11
51.2766455909
 21
74.8838823558
  0
LINE
  5
274
100
AcDbEntity
  8
0
100
AcDbLine
 62
7
  6
BYLAYER
 10
51.5512558914
 20
74.6835934461
 11
51.5718521558
 21
74.8065802186
  0
LINE
  5
275
100
AcDbEntity
  8
0
100
AcDbLine
 62
7
  6
BYLAYER
 10
52.2909906825
 20
74.8427099021
 11
52.2316082746
 21
74.4881188683
  0
LINE
  5
276
100
AcDbEntity
  8
0
100
AcDbLine
 62
7
  6
BYLAYER
 10
52.2682192953
 20
74.2627574016
 11
52.2476230309
 21
74.1397706292
  0
LINE
  5
277
100
AcDbEntity
  8
0
100
AcDbLine
 62
7
  6
BYLAYER
 10
53.2697342754
 20
74.0270945624
 11
53.1812260151
 21
73.6967749438
  0
LINE
  5
278
100
AcDbEntity
  8
0
100
AcDbLine
 62
7
  6
BYLAYER
 10
53.2317512582
 20
73.423338295
 11
53.2010529487
 21
73.3087698488
  0
LINE
  5
279
100
AcDbEntity
  8
0
100
AcDbLine
 62
7
  6
BYLAYER
 10
54.1702458887
 20
72.5024826171
 11
54.129679167
 21
72.3972044322
  0
LINE
  5
27A
100
AcDbEntity
  8
0
100
AcDbLine
 62
7
  6
BYLAYER
 10
59.6532915364
 20
62.4528963548
 11
57.8238438849
 21
61.3966705655
  0
LINE
  5
27B
100
AcDbEntity
  8
0
100
AcDbLine
 62
7
  6
BYLAYER
 10
63.480674586
 20
64.6626237984
 11
65.3101222335
 21
65.7188495854
  0
LINE
  5
27C
100
AcDbEntity
  8
0
100
AcDbLine
 62
7
  6
BYLAYER
 10
25.8177080847
 20
42.6172333533
 11
23.2609450165
 21
41.1410943189
  0
LINE
  5
27D
100
AcDbEntity
  8
0
100
AcDbLine
 62
7
  6
BYLAYER
 10
17.2213250589
 20
37.5964192468
 11
17.0746203914
 21
37.5117045105
  0
LINE
  5
27E
100
AcDbEntity
  8
0
100
AcDbLine
 62
7
  6
BYLAYER
 10
59.8553957916
 20
61.8267241483
 11
57.9891646209
 21
60.7492615112
  0
LINE
  5
27F
100
AcDbEntity
  8
0
100
AcDbLine
 62
7
  6
BYLAYER
 10
63.6459953108
 20
64.0152147376
 11
65.5122264971
 21
65.0926773838
  0
LINE
  5
280
100
AcDbEntity
  8
0
100
AcDbLine
 62
7
  6
BYLAYER
 10
22.1104380149
 20
39.3221539416
 11
18.4688532532
 21
37.2196965492
  0
LINE
  5
281
100
AcDbEntity
  8
0
100
AcDbLine
 62
7
  6
BYLAYER
 10
21.1744845056
 20
61.0199426862
 11
18.4847926042
 21
60.380564193
  0
LINE
  5
282
100
AcDbEntity
  8
0
100
AcDbLine
 62
7
  6
BYLAYER
 10
61.7433088403
 20
57.4743070333
 11
61.4026404802
 21
57.6365720403
  0
LINE
  5
283
100
AcDbEntity
  8
0
100
AcDbLine
 62
7
  6
BYLAYER
 10
61.1409460335
 20
57.7985076529
 11
61.2591038494
 21
57.7422274665
  0
LINE
  5
284
100
AcDbEntity
  8
0
100
AcDbLine
 62
7
  6
BYLAYER
 10
61.2146564004
 20
56.6230311473
 11
61.7870375819
 21
56.29256374
  0
LINE
  5
285
100
AcDbEntity
  8
0
100
AcDbLine
 62
7
  6
BYLAYER
 10
61.2591038494
 20
54.6360100788
 11
61.1409460335
 21
54.7161636994
  0
LINE
  5
286
100
AcDbEntity
  8
0
100
AcDbLine
 62
7
  6
BYLAYER
 10
61.2025747068
 20
55.4939785522
 11
61.3207325227
 21
55.4138249315
  0
LINE
  5
287
100
AcDbEntity
  8
0
100
AcDbLine
 62
7
  6
BYLAYER
 10
61.0988118063
 20
53.5955152491
 11
60.9820045864
 21
53.6867349919
  0
LINE
  5
288
100
AcDbEntity
  8
0
100
AcDbLine
 62
7
  6
BYLAYER
 10
61.1047929016
 20
54.4199426396
 11
61.2216001215
 21
54.3287228967
  0
LINE
  5
289
100
AcDbEntity
  8
0
100
AcDbLine
 62
7
  6
BYLAYER
 10
60.85360935
 20
52.6244855539
 11
60.7390416995
 21
52.7260771816
  0
LINE
  5
28A
100
AcDbEntity
  8
0
100
AcDbLine
 62
7
  6
BYLAYER
 10
60.9220551634
 20
53.4090974713
 11
61.0366228138
 21
53.3075058436
  0
LINE
  5
28B
100
AcDbEntity
  8
0
100
AcDbLine
 62
7
  6
BYLAYER
 10
60.5253626191
 20
51.7303111157
 11
60.4139064672
 21
51.8415014545
  0
LINE
  5
28C
100
AcDbEntity
  8
0
100
AcDbLine
 62
7
  6
BYLAYER
 10
60.6557522367
 20
52.4691361894
 11
60.7672083887
 21
52.3579458505
  0
LINE
  5
28D
100
AcDbEntity
  8
0
100
AcDbLine
 62
7
  6
BYLAYER
 10
60.3079108476
 20
51.6072124669
 11
60.4154072525
 21
51.4872696424
  0
LINE
  5
28E
100
AcDbEntity
  8
0
100
AcDbLine
 62
7
  6
BYLAYER
 10
32.1846913073
 20
36.6515019163
 11
32.1934301168
 21
36.6599693746
  0
LINE
  5
28F
100
AcDbEntity
  8
0
100
AcDbLine
 62
7
  6
BYLAYER
 10
32.1797419438
 20
36.6739173174
 11
32.1711103924
 21
36.6656255385
  0
LINE
  5
290
100
AcDbEntity
  8
0
100
AcDbLine
 62
7
  6
BYLAYER
 10
32.1225719019
 20
36.6189977173
 11
32.1139558819
 21
36.6107208584
  0
LINE
  5
291
100
AcDbEntity
  8
0
100
AcDbLine
 62
7
  6
BYLAYER
 10
16.7168995705
 20
37.353833345
 11
17.0746203914
 21
37.5117045105
  0
LINE
  5
292
100
AcDbEntity
  8
0
100
AcDbLine
 62
7
  6
BYLAYER
 10
15.5767178341
 20
40.5822130564
 11
15.5034963846
 21
40.5596102981
  0
LINE
  5
293
100
AcDbEntity
  8
0
100
AcDbLine
 62
7
  6
BYLAYER
 10
15.6982374803
 20
37.0283324663
 11
16.7168995705
 21
37.353833345
  0
LINE
  5
294
100
AcDbEntity
  8
0
100
AcDbLine
 62
7
  6
BYLAYER
 10
32.1903812954
 20
36.6557625477
 11
32.1803947749
 21
36.6497519275
  0
LINE
  5
295
100
AcDbEntity
  8
0
100
AcDbLine
 62
7
  6
BYLAYER
 10
32.1240321719
 20
36.6164734855
 11
30.1341101612
 21
35.4675592712
  0
LINE
  5
296
100
AcDbEntity
  8
0
100
AcDbLine
 62
7
  6
BYLAYER
 10
72.9767599303
 20
59.5675426514
 11
66.065595944
 21
55.5774040814
  0
LINE
  5
297
100
AcDbEntity
  8
0
100
AcDbLine
 62
7
  6
BYLAYER
 10
52.5534779159
 20
46.9102015559
 11
36.1580964141
 21
37.4443801357
  0
LINE
  5
298
100
AcDbEntity
  8
0
100
AcDbLine
 62
7
  6
BYLAYER
 10
32.1728257931
 20
36.6446484132
 11
34.5888643357
 21
38.0394974406
  0
LINE
  5
299
100
AcDbEntity
  8
0
100
AcDbLine
 62
7
  6
BYLAYER
 10
61.9663522454
 20
56.3523350146
 11
61.4985541254
 21
52.868641457
  0
LINE
  5
29A
100
AcDbEntity
  8
0
100
AcDbLine
 62
7
  6
BYLAYER
 10
55.8028446994
 20
46.0303883147
 11
56.6735043809
 21
47.9548735033
  0
LWPOLYLINE
  5
29B
100
AcDbEntity
  8
0
100
AcDbPolyline
 62
7
  6
BYLAYER
 90
3
 70
0
 10
51.1440891781
 20
43.3405678294
 10
53.780102919
 20
44.1542971028
 10
55.8028446994
 20
46.0303883147
  0
LINE
  5
29C
100
AcDbEntity
  8
0
100
AcDbLine
 62
7
  6
BYLAYER
 10
47.7227225121
 20
77.3893726692
 11
48.7950143931
 21
77.1340114907
  0
LWPOLYLINE
  5
29D
100
AcDbEntity
  8
0
100
AcDbPolyline
 62
7
  6
BYLAYER
 90
7
 70
0
 10
48.7950143931
 20
77.1340114907
 10
52.0762509245
 20
75.240061652
 10
55.2225624598
 20
72.3578002347
 10
57.9800990763
 20
68.7220836598
 10
60.1299721224
 20
64.6211230978
 10
61.4963906518
 20
60.3859216361
 10
61.9663522454
 20
56.3523350146
  0
LINE
  5
29E
100
AcDbEntity
  8
0
100
AcDbLine
 62
7
  6
BYLAYER
 10
61.4985541254
 20
52.868641457
 11
60.2956158081
 21
50.5220745587
  0
LINE
  5
29F
100
AcDbEntity
  8
0
100
AcDbLine
 62
7
  6
BYLAYER
 10
59.8553957993
 20
45.6725425183
 11
57.9891646131
 21
44.5950798721
  0
LINE
  5
2A0
100
AcDbEntity
  8
0
100
AcDbLine
 62
7
  6
BYLAYER
 10
63.6459953186
 20
47.8610331076
 11
65.5122264893
 21
48.9384957448
  0
LINE
  5
2A1
100
AcDbEntity
  8
0
100
AcDbLine
 62
7
  6
BYLAYER
 10
59.6532915326
 20
45.2372615758
 11
57.8238438878
 21
44.1810357905
  0
LINE
  5
2A2
100
AcDbEntity
  8
0
100
AcDbLine
 62
7
  6
BYLAYER
 10
63.4806745854
 20
47.4469890213
 11
65.3101222314
 21
48.5032148074
  0
LWPOLYLINE
  5
2A3
100
AcDbEntity
  8
0
100
AcDbPolyline
 62
7
  6
BYLAYER
 90
3
 70
0
 10
54.2277558334
 20
79.7871214791
 10
55.6174462166
 20
79.3911239912
 10
56.6597135529
 20
78.8486285143
  0
LINE
  5
2A4
100
AcDbEntity
  8
0
100
AcDbLine
 62
7
  6
BYLAYER
 10
65.780771501
 20
83.6497051096
 11
65.7691165303
 21
83.6561384989
  0
LINE
  5
2A5
100
AcDbEntity
  8
0
100
AcDbLine
 62
7
  6
BYLAYER
 10
70.6826338949
 20
79.3302112329
 11
70.7038115697
 21
79.304587139
  0
LINE
  5
2A6
100
AcDbEntity
  8
0
100
AcDbLine
 62
7
  6
BYLAYER
 10
70.6826338949
 20
79.3302112329
 11
70.7030418015
 21
79.3034137713
  0
ARC
  5
2A7
100
AcDbEntity
  8
0
100
AcDbCircle
 62
7
  6
BYLAYER
 10
-17.1565960303
 20
38.756068204
 40
86.7626140751
100
AcDbArc
 50
17.6708233233
 51
18.1053373267
  0
ARC
  5
2A8
100
AcDbEntity
  8
0
100
AcDbCircle
 62
7
  6
BYLAYER
 10
-22.7706868137
 20
35.5039097708
 40
86.7177034115
100
AcDbArc
 50
17.6707108064
 51
18.1054498436
  0
ARC
  5
2A9
100
AcDbEntity
  8
0
100
AcDbCircle
 62
7
  6
BYLAYER
 10
9.8506051079
 20
39.6757944672
 40
8.5024416945
100
AcDbArc
 50
39.6148070789
 51
39.803648951
  0
ARC
  5
2AA
100
AcDbEntity
  8
0
100
AcDbCircle
 62
7
  6
BYLAYER
 10
16.1716985383
 20
39.0752329986
 40
1.8055163266
100
AcDbArc
 50
300.0059982561
 51
305.1288343628
  0
ARC
  5
2AB
100
AcDbEntity
  8
0
100
AcDbCircle
 62
7
  6
BYLAYER
 10
11.6803621473
 20
41.8522558647
 40
3.7594481386
100
AcDbArc
 50
60.6153201533
 51
61.8690809778
  0
ARC
  5
2AC
100
AcDbEntity
  8
0
100
AcDbCircle
 62
7
  6
BYLAYER
 10
12.5772178373
 20
45.3010966204
 40
1.8054872862
100
AcDbArc
 50
114.8710324297
 51
119.9937571456
  0
ARC
  5
2AD
100
AcDbEntity
  8
0
100
AcDbCircle
 62
7
  6
BYLAYER
 10
12.7175296554
 20
45.3848519599
 40
1.8031008374
100
AcDbArc
 50
117.27873472
 51
119.8567410392
  0
ARC
  5
2AE
100
AcDbEntity
  8
0
100
AcDbCircle
 62
7
  6
BYLAYER
 10
13.2786112274
 20
41.5554395908
 40
0.5
100
AcDbArc
 50
119.9998519061
 51
299.9998519061
  0
ARC
  5
2AF
100
AcDbEntity
  8
0
100
AcDbCircle
 62
7
  6
BYLAYER
 10
13.2786112274
 20
44.4131980508
 40
0.5
100
AcDbArc
 50
119.9998519061
 51
299.9998519061
  0
ARC
  5
2B0
100
AcDbEntity
  8
0
100
AcDbCircle
 62
7
  6
BYLAYER
 10
15.7534952654
 20
42.98435541
 40
0.5
100
AcDbArc
 50
142.6343156833
 51
275.2646020911
  0
ARC
  5
2B1
100
AcDbEntity
  8
0
100
AcDbCircle
 62
7
  6
BYLAYER
 10
15.7534952654
 20
40.12659695
 40
0.5
100
AcDbArc
 50
119.9998519061
 51
299.9998519061
  0
ARC
  5
2B2
100
AcDbEntity
  8
0
100
AcDbCircle
 62
7
  6
BYLAYER
 10
26.2715198553
 20
22.3372009984
 40
64.530999309
100
AcDbArc
 50
65.5804889246
 51
66.0394318856
  0
ARC
  5
2B3
100
AcDbEntity
  8
0
100
AcDbCircle
 62
7
  6
BYLAYER
 10
20.6536437507
 20
19.1579659839
 40
64.4359342565
100
AcDbArc
 50
65.5801503738
 51
66.0397704364
  0
ARC
  5
2B4
100
AcDbEntity
  8
0
100
AcDbCircle
 62
7
  6
BYLAYER
 10
16.3158396089
 20
39.1524756784
 40
1.8003376123
100
AcDbArc
 50
300.1955710662
 51
302.7601389743
  0
ARC
  5
2B5
100
AcDbEntity
  8
0
100
AcDbCircle
 62
7
  6
BYLAYER
 10
29.4452967182
 20
47.1445656446
 40
12.6055716892
100
AcDbArc
 50
239.99981475
 51
240.76154719
  0
ARC
  5
2B6
100
AcDbEntity
  8
0
100
AcDbCircle
 62
7
  6
BYLAYER
 10
20.3370894929
 20
45.625987798
 40
5.713881345
100
AcDbArc
 50
213.0602549135
 51
215.0203643825
  0
ARC
  5
2B7
100
AcDbEntity
  8
0
100
AcDbCircle
 62
7
  6
BYLAYER
 10
19.6879329237
 20
45.3873035225
 40
5.0229531634
100
AcDbArc
 50
196.8631826549
 51
197.3222616611
  0
ARC
  5
2B8
100
AcDbEntity
  8
0
100
AcDbCircle
 62
7
  6
BYLAYER
 10
29.8294613679
 20
40.5670760921
 40
4.5686230414
100
AcDbArc
 50
300.5633835286
 51
300.9695519216
  0
ARC
  5
2B9
100
AcDbEntity
  8
0
100
AcDbCircle
 62
7
  6
BYLAYER
 10
29.8301944441
 20
40.5658353121
 40
4.5671818836
100
AcDbArc
 50
300.1485446442
 51
300.5633797388
  0
ARC
  5
2BA
100
AcDbEntity
  8
0
100
AcDbCircle
 62
7
  6
BYLAYER
 10
29.9022340973
 20
40.6043734684
 40
4.5645382199
100
AcDbArc
 50
299.5378843907
 51
299.8308887149
  0
ARC
  5
2BB
100
AcDbEntity
  8
0
100
AcDbCircle
 62
7
  6
BYLAYER
 10
33.8722190728
 20
53.4440999982
 40
27.8617179684
100
AcDbArc
 50
28.1385904214
 51
28.973679964
  0
ARC
  5
2BC
100
AcDbEntity
  8
0
100
AcDbCircle
 62
7
  6
BYLAYER
 10
33.8713730102
 20
53.445649436
 40
27.8616759528
100
AcDbArc
 50
31.0265957916
 51
31.8616861738
  0
ARC
  5
2BD
100
AcDbEntity
  8
0
100
AcDbCircle
 62
7
  6
BYLAYER
 10
34.0393309996
 20
53.5405915886
 40
27.5719514867
100
AcDbArc
 50
28.149397214
 51
28.9628731713
  0
ARC
  5
2BE
100
AcDbEntity
  8
0
100
AcDbCircle
 62
7
  6
BYLAYER
 10
34.0384932671
 20
53.5421257226
 40
27.5719099091
100
AcDbArc
 50
31.0374025952
 51
31.8508793703
  0
ARC
  5
2BF
100
AcDbEntity
  8
0
100
AcDbCircle
 62
7
  6
BYLAYER
 10
34.2612352038
 20
53.640859522
 40
27.4257326849
100
AcDbArc
 50
25.2313858187
 51
26.0754552111
  0
ARC
  5
2C0
100
AcDbEntity
  8
0
100
AcDbCircle
 62
7
  6
BYLAYER
 10
34.236349205
 20
53.6842149692
 40
27.4256066251
100
AcDbArc
 50
33.9248255021
 51
34.7688975014
  0
ARC
  5
2C1
100
AcDbEntity
  8
0
100
AcDbCircle
 62
7
  6
BYLAYER
 10
34.411022158
 20
53.7289262327
 40
27.1552316038
100
AcDbArc
 50
25.2425318449
 51
26.0643091849
  0
ARC
  5
2C2
100
AcDbEntity
  8
0
100
AcDbCircle
 62
7
  6
BYLAYER
 10
34.3875085659
 20
53.7698982034
 40
27.1551087566
100
AcDbArc
 50
33.9359715925
 51
34.757751411
  0
ARC
  5
2C3
100
AcDbEntity
  8
0
100
AcDbCircle
 62
7
  6
BYLAYER
 10
34.8710172277
 20
54.1439243227
 40
26.6418683518
100
AcDbArc
 50
36.8641070452
 51
37.724232304
  0
ARC
  5
2C4
100
AcDbEntity
  8
0
100
AcDbCircle
 62
7
  6
BYLAYER
 10
35.0216308525
 20
53.979450823
 40
26.5932774644
100
AcDbArc
 50
22.2752746712
 51
23.1369737344
  0
ARC
  5
2C5
100
AcDbEntity
  8
0
100
AcDbCircle
 62
7
  6
BYLAYER
 10
35.1328331719
 20
54.0519802209
 40
26.3643503697
100
AcDbArc
 50
22.2871843468
 51
23.1250640587
  0
ARC
  5
2C6
100
AcDbEntity
  8
0
100
AcDbCircle
 62
7
  6
BYLAYER
 10
35.0656646879
 20
54.2620246752
 40
26.3171173406
100
AcDbArc
 50
36.8744789615
 51
37.7138603878
  0
ARC
  5
2C7
100
AcDbEntity
  8
0
100
AcDbCircle
 62
7
  6
BYLAYER
 10
35.7906631362
 20
54.883249355
 40
25.4617661135
100
AcDbArc
 50
39.8741024371
 51
40.7604956362
  0
ARC
  5
2C8
100
AcDbEntity
  8
0
100
AcDbCircle
 62
7
  6
BYLAYER
 10
36.150473057
 20
54.4138214283
 40
25.3836196418
100
AcDbArc
 50
19.2383614944
 51
20.1274861833
  0
ARC
  5
2C9
100
AcDbEntity
  8
0
100
AcDbCircle
 62
7
  6
BYLAYER
 10
36.2216345746
 20
54.4743360548
 40
25.1963779301
100
AcDbArc
 50
19.2512757315
 51
20.1147504339
  0
ARC
  5
2CA
100
AcDbEntity
  8
0
100
AcDbCircle
 62
7
  6
BYLAYER
 10
35.9864043981
 20
55.0060034309
 40
25.1332419949
100
AcDbArc
 50
39.8844786412
 51
40.7501194322
  0
ARC
  5
2CB
100
AcDbEntity
  8
0
100
AcDbCircle
 62
7
  6
BYLAYER
 10
36.9035176202
 20
55.8798577524
 40
23.9677191759
100
AcDbArc
 50
42.9884180348
 51
43.9111635223
  0
ARC
  5
2CC
100
AcDbEntity
  8
0
100
AcDbCircle
 62
7
  6
BYLAYER
 10
37.0949812424
 20
56.0039557123
 40
23.6414791621
100
AcDbArc
 50
42.998895931
 51
43.9006856261
  0
ARC
  5
2CD
100
AcDbEntity
  8
0
100
AcDbCircle
 62
7
  6
BYLAYER
 10
26.1554615462
 20
52.7619062216
 40
12.5587130094
100
AcDbArc
 50
179.2366876193
 51
180.001265092
  0
ARC
  5
2CE
100
AcDbEntity
  8
0
100
AcDbCircle
 62
7
  6
BYLAYER
 10
20.6995107985
 20
56.380838253
 40
4.5712439824
100
AcDbArc
 50
118.9263406848
 51
119.2443499119
  0
ARC
  5
2CF
100
AcDbEntity
  8
0
100
AcDbCircle
 62
7
  6
BYLAYER
 10
20.6988109331
 20
56.3820862616
 40
4.5698131309
100
AcDbArc
 50
119.2443377838
 51
119.9975722847
  0
ARC
  5
2D0
100
AcDbEntity
  8
0
100
AcDbCircle
 62
7
  6
BYLAYER
 10
43.3385326905
 20
59.1788685626
 40
23.893092347
100
AcDbArc
 50
39.4747448454
 51
39.6148121625
  0
ARC
  5
2D1
100
AcDbEntity
  8
0
100
AcDbCircle
 62
7
  6
BYLAYER
 10
37.5716377572
 20
54.8752631732
 40
23.8892549328
100
AcDbArc
 50
16.0876562734
 51
17.0134367624
  0
ARC
  5
2D2
100
AcDbEntity
  8
0
100
AcDbCircle
 62
7
  6
BYLAYER
 10
37.6265121974
 20
54.934946704
 40
23.7177507558
100
AcDbArc
 50
16.1010996601
 51
16.9999933757
  0
ARC
  5
2D3
100
AcDbEntity
  8
0
100
AcDbCircle
 62
7
  6
BYLAYER
 10
38.1354384247
 20
57.1130241468
 40
22.2244236996
100
AcDbArc
 50
46.24335243
 51
47.2136264318
  0
ARC
  5
2D4
100
AcDbEntity
  8
0
100
AcDbCircle
 62
7
  6
BYLAYER
 10
39.266601058
 20
55.3235407661
 40
22.1357967533
100
AcDbArc
 50
12.7847986231
 51
13.758962844
  0
ARC
  5
2D5
100
AcDbEntity
  8
0
100
AcDbCircle
 62
7
  6
BYLAYER
 10
39.2930117437
 20
55.3805275967
 40
21.9924965052
100
AcDbArc
 50
12.7992804408
 51
13.7444810262
  0
ARC
  5
2D6
100
AcDbEntity
  8
0
100
AcDbCircle
 62
7
  6
BYLAYER
 10
38.3178029213
 20
57.2346642217
 40
21.906346183
100
AcDbArc
 50
46.2540331268
 51
47.202945735
  0
ARC
  5
2D7
100
AcDbEntity
  8
0
100
AcDbCircle
 62
7
  6
BYLAYER
 10
39.3836260888
 20
58.5163364933
 40
20.34607294
100
AcDbArc
 50
49.6797716196
 51
50.5328734783
  0
ARC
  5
2D8
100
AcDbEntity
  8
0
100
AcDbCircle
 62
7
  6
BYLAYER
 10
41.0973010181
 20
55.6960189991
 40
20.2673410889
100
AcDbArc
 50
9.4658726727
 51
10.3222987194
  0
ARC
  5
2D9
100
AcDbEntity
  8
0
100
AcDbCircle
 62
7
  6
BYLAYER
 10
41.1532461166
 20
55.7629720361
 40
20.0930920814
100
AcDbArc
 50
9.3039571558
 51
10.3077098257
  0
ARC
  5
2DA
100
AcDbEntity
  8
0
100
AcDbCircle
 62
7
  6
BYLAYER
 10
41.3412057632
 20
55.7369568498
 40
20.0200247739
100
AcDbArc
 50
9.2870604399
 51
9.4651061679
  0
ARC
  5
2DB
100
AcDbEntity
  8
0
100
AcDbCircle
 62
7
  6
BYLAYER
 10
39.5917801111
 20
58.7678061239
 40
20.0196310029
100
AcDbArc
 50
50.5353053082
 51
50.7133580181
  0
ARC
  5
2DC
100
AcDbEntity
  8
0
100
AcDbCircle
 62
7
  6
BYLAYER
 10
39.5792851417
 20
58.6627630812
 40
20.0006136784
100
AcDbArc
 50
49.6903844947
 51
50.698771895
  0
ARC
  5
2DD
100
AcDbEntity
  8
0
100
AcDbCircle
 62
7
  6
BYLAYER
 10
40.6254906856
 20
60.098012712
 40
18.3347971773
100
AcDbArc
 50
53.3427615283
 51
54.2328771924
  0
ARC
  5
2DE
100
AcDbEntity
  8
0
100
AcDbCircle
 62
7
  6
BYLAYER
 10
43.1550858668
 20
55.9828946964
 40
18.1893023206
100
AcDbArc
 50
5.5505253054
 51
6.6611973851
  0
ARC
  5
2DF
100
AcDbEntity
  8
0
100
AcDbCircle
 62
7
  6
BYLAYER
 10
43.1301741474
 20
56.0427646151
 40
18.096147036
100
AcDbArc
 50
5.5677689493
 51
6.6439537413
  0
ARC
  5
2E0
100
AcDbEntity
  8
0
100
AcDbCircle
 62
7
  6
BYLAYER
 10
40.8069436065
 20
60.2407788263
 40
18.0009761018
100
AcDbArc
 50
53.3536683006
 51
54.435535042
  0
ARC
  5
2E1
100
AcDbEntity
  8
0
100
AcDbCircle
 62
7
  6
BYLAYER
 10
40.8216769417
 20
60.3688585196
 40
18.0003637563
100
AcDbArc
 50
54.235672353
 51
54.4513406825
  0
ARC
  5
2E2
100
AcDbEntity
  8
0
100
AcDbCircle
 62
7
  6
BYLAYER
 10
45.1881803818
 20
56.1267084208
 40
16.1507531392
100
AcDbArc
 50
1.5179846205
 51
2.7203804167
  0
ARC
  5
2E3
100
AcDbEntity
  8
0
100
AcDbCircle
 62
7
  6
BYLAYER
 10
45.1424723494
 20
56.1917765071
 40
16.0779688001
100
AcDbArc
 50
1.5370122245
 51
2.7013528128
  0
ARC
  5
2E4
100
AcDbEntity
  8
0
100
AcDbCircle
 62
7
  6
BYLAYER
 10
52.9995182197
 20
60.477715344
 40
14.2665656928
100
AcDbArc
 50
0.000107035
 51
0.6280886266
  0
ARC
  5
2E5
100
AcDbEntity
  8
0
100
AcDbCircle
 62
7
  6
BYLAYER
 10
47.1719452981
 20
56.1231047046
 40
14.1665541937
100
AcDbArc
 50
357.1301606252
 51
358.4424825567
  0
ARC
  5
2E6
100
AcDbEntity
  8
0
100
AcDbCircle
 62
7
  6
BYLAYER
 10
47.1096705517
 20
56.1952513601
 40
14.1103412814
100
AcDbArc
 50
357.1512714947
 51
358.4213716873
  0
ARC
  5
2E7
100
AcDbEntity
  8
0
100
AcDbCircle
 62
7
  6
BYLAYER
 10
49.0314374764
 20
55.9724377777
 40
12.3004822639
100
AcDbArc
 50
352.3205863599
 51
353.7625924666
  0
ARC
  5
2E8
100
AcDbEntity
  8
0
100
AcDbCircle
 62
7
  6
BYLAYER
 10
48.95720457
 20
56.0528459391
 40
12.2568460649
100
AcDbArc
 50
352.3440780885
 51
353.7391007381
  0
ARC
  5
2E9
100
AcDbEntity
  8
0
100
AcDbCircle
 62
7
  6
BYLAYER
 10
46.6379645888
 20
51.6361398422
 40
10.8042462624
100
AcDbArc
 50
344.1480847355
 51
344.3494570251
  0
ARC
  5
2EA
100
AcDbEntity
  8
0
100
AcDbCircle
 62
7
  6
BYLAYER
 10
50.7025652161
 20
55.6896262244
 40
10.60505747
100
AcDbArc
 50
347.0193975964
 51
348.6113338888
  0
ARC
  5
2EB
100
AcDbEntity
  8
0
100
AcDbCircle
 62
7
  6
BYLAYER
 10
50.6210448149
 20
55.7786543262
 40
10.5700337695
100
AcDbArc
 50
347.0455213968
 51
348.5852100885
  0
ARC
  5
2EC
100
AcDbEntity
  8
0
100
AcDbCircle
 62
7
  6
BYLAYER
 10
47.3496947055
 20
51.4210193038
 40
10.0608298081
100
AcDbArc
 50
339.3148358048
 51
344.2194377147
  0
ARC
  5
2ED
100
AcDbEntity
  8
0
100
AcDbCircle
 62
7
  6
BYLAYER
 10
52.1359793484
 20
55.3031009103
 40
9.1198713297
100
AcDbArc
 50
341.1592903256
 51
342.9196825971
  0
ARC
  5
2EE
100
AcDbEntity
  8
0
100
AcDbCircle
 62
7
  6
BYLAYER
 10
52.0515888862
 20
55.4002140268
 40
9.0897109003
100
AcDbArc
 50
341.1881749971
 51
342.8907979256
  0
ARC
  5
2EF
100
AcDbEntity
  8
0
100
AcDbCircle
 62
7
  6
BYLAYER
 10
53.2999451487
 20
54.8527977703
 40
7.8712502521
100
AcDbArc
 50
334.6864130185
 51
336.628262908
  0
ARC
  5
2F0
100
AcDbEntity
  8
0
100
AcDbCircle
 62
7
  6
BYLAYER
 10
53.2165564467
 20
54.9565619669
 40
7.8425409984
100
AcDbArc
 50
334.7179548699
 51
336.5967210565
  0
ARC
  5
2F1
100
AcDbEntity
  8
0
100
AcDbCircle
 62
7
  6
BYLAYER
 10
55.1921740956
 20
54.2600367987
 40
6.390178244
100
AcDbArc
 50
322.3051301281
 51
323.6199502033
  0
ARC
  5
2F2
100
AcDbEntity
  8
0
100
AcDbCircle
 62
7
  6
BYLAYER
 10
-11.565472512
 20
78.5692373906
 40
78.6329000092
100
AcDbArc
 50
334.9193538563
 51
335.2690418504
  0
ARC
  5
2F3
100
AcDbEntity
  8
0
100
AcDbCircle
 62
7
  6
BYLAYER
 10
-5.4981020359
 20
81.644573867
 40
78.1802679978
100
AcDbArc
 50
334.9183415774
 51
335.2700541293
  0
ARC
  5
2F4
100
AcDbEntity
  8
0
100
AcDbCircle
 62
7
  6
BYLAYER
 10
41.8009600615
 20
61.8219817649
 40
16.2478146182
100
AcDbArc
 50
57.2837415477
 51
58.4789443315
  0
ARC
  5
2F5
100
AcDbEntity
  8
0
100
AcDbCircle
 62
7
  6
BYLAYER
 10
41.9362310652
 20
61.9119862472
 40
15.9836195475
100
AcDbArc
 50
57.2957408798
 51
58.4669449994
  0
ARC
  5
2F6
100
AcDbEntity
  8
0
100
AcDbCircle
 62
7
  6
BYLAYER
 10
49.5278357288
 20
66.4960599278
 40
14.2635698539
100
AcDbArc
 50
59.3496671742
 51
59.9995691093
  0
ARC
  5
2F7
100
AcDbEntity
  8
0
100
AcDbCircle
 62
7
  6
BYLAYER
 10
42.7980198019
 20
63.5417692622
 40
14.2594733089
100
AcDbArc
 50
61.5623995727
 51
62.866157907
  0
ARC
  5
2F8
100
AcDbEntity
  8
0
100
AcDbCircle
 62
7
  6
BYLAYER
 10
42.9147906275
 20
63.6138873989
 40
14.0200185882
100
AcDbArc
 50
61.5751429741
 51
62.8534145057
  0
ARC
  5
2F9
100
AcDbEntity
  8
0
100
AcDbCircle
 62
7
  6
BYLAYER
 10
43.5652173629
 20
65.1348724996
 40
12.4908471311
100
AcDbArc
 50
66.2446716225
 51
66.8615409209
  0
ARC
  5
2FA
100
AcDbEntity
  8
0
100
AcDbCircle
 62
7
  6
BYLAYER
 10
132.2592268875
 20
-24.260416204
 40
139.5875824289
100
AcDbArc
 50
132.199524075
 51
132.3591865436
  0
ARC
  5
2FB
100
AcDbEntity
  8
0
100
AcDbCircle
 62
7
  6
BYLAYER
 10
126.1339191669
 20
-27.0111470886
 40
138.8912176961
100
AcDbArc
 50
132.1991238215
 51
132.3595867971
  0
ARC
  5
2FC
100
AcDbEntity
  8
0
100
AcDbCircle
 62
7
  6
BYLAYER
 10
116.4273814264
 20
21.0216717541
 40
63.0137346506
100
AcDbArc
 50
158.0313311627
 51
158.4367058017
  0
ARC
  5
2FD
100
AcDbEntity
  8
0
100
AcDbCircle
 62
7
  6
BYLAYER
 10
121.8992891279
 20
24.3614615769
 40
62.8146169491
100
AcDbArc
 50
158.0306886562
 51
158.4373483083
  0
ARC
  5
2FE
100
AcDbEntity
  8
0
100
AcDbCircle
 62
7
  6
BYLAYER
 10
148.0942643026
 20
67.1734994384
 40
110.5082487904
100
AcDbArc
 50
173.9160362925
 51
174.6748895269
  0
ARC
  5
2FF
100
AcDbEntity
  8
0
100
AcDbCircle
 62
7
  6
BYLAYER
 10
145.9515562543
 20
83.555926254
 40
90.8709320968
100
AcDbArc
 50
194.1141288319
 51
194.5354317752
  0
ARC
  5
300
100
AcDbEntity
  8
0
100
AcDbCircle
 62
7
  6
BYLAYER
 10
151.3929305572
 20
86.7668610887
 40
90.648563457
100
AcDbArc
 50
194.1136120836
 51
194.5359485236
  0
ARC
  5
301
100
AcDbEntity
  8
0
100
AcDbCircle
 62
7
  6
BYLAYER
 10
77.1654251355
 20
150.2812997632
 40
74.9153347087
100
AcDbArc
 50
249.2403811419
 51
249.6555511459
  0
ARC
  5
302
100
AcDbEntity
  8
0
100
AcDbCircle
 62
7
  6
BYLAYER
 10
71.3952340643
 20
146.7129878168
 40
74.5924260646
100
AcDbArc
 50
249.2394825079
 51
249.6564497799
  0
SPLINE
  5
303
100
AcDbEntity
  8
0
100
AcDbSpline
 62
7
  6
BYLAYER
 70
0
 71
3
 72
13
 73
9
 74
0
 42
0.0000001
 43
0.0000001
 44
0.0000000001
 40
0.0
 40
0.0
 40
0.0
 40
0.0
 40
0.2893751945
 40
0.5483116352
 40
0.6677414126
 40
0.7817668368
 40
0.8919063854
 40
1.0
 40
1.0
 40
1.0
 40
1.0
 10
11.2279995012
 20
42.7801821594
 30
0.0
 10
11.2543335162
 20
42.7649785527
 30
0.0
 10
11.3066728168
 20
42.740053923
 30
0.0
 10
11.3755866177
 20
42.7234480705
 30
0.0
 10
11.4274545433
 20
42.7216467457
 30
0.0
 10
11.4634783042
 20
42.725670739
 30
0.0
 10
11.4972756948
 20
42.7350050809
 30
0.0
 10
11.518159348
 20
42.7447918196
 30
0.0
 10
11.5279961083
 20
42.7504711423
 30
0.0
  0
SPLINE
  5
304
100
AcDbEntity
  8
0
100
AcDbSpline
 62
7
  6
BYLAYER
 70
0
 71
3
 72
9
 73
5
 74
0
 42
0.0000001
 43
0.0000001
 44
0.0000000001
 40
0.0
 40
0.0
 40
0.0
 40
0.0
 40
0.2437233801
 40
1.0
 40
1.0
 40
1.0
 40
1.0
 10
10.8037336661
 20
43.5150280624
 30
0.0
 10
10.8037336661
 20
43.4736922743
 30
0.0
 10
10.8064220286
 20
43.304096444
 30
0.0
 10
10.819544118
 20
43.1347091069
 30
0.0
 10
10.8345654547
 20
43.0073262734
 30
0.0
  0
SPLINE
  5
305
100
AcDbEntity
  8
0
100
AcDbSpline
 62
7
  6
BYLAYER
 70
0
 71
3
 72
9
 73
5
 74
0
 42
0.0000001
 43
0.0000001
 44
0.0000000001
 40
0.0
 40
0.0
 40
0.0
 40
0.0
 40
0.242802869
 40
1.0
 40
1.0
 40
1.0
 40
1.0
 10
10.8345654547
 20
43.9871291739
 30
0.0
 10
10.829384157
 20
43.9491738267
 30
0.0
 10
10.8109399735
 20
43.7924629578
 30
0.0
 10
10.8037336661
 20
43.6344921656
 30
0.0
 10
10.8037336661
 20
43.5150280624
 30
0.0
  0
SPLINE
  5
306
100
AcDbEntity
  8
0
100
AcDbSpline
 62
7
  6
BYLAYER
 70
0
 71
3
 72
9
 73
5
 74
0
 42
0.0000001
 43
0.0000001
 44
0.0000000001
 40
0.0
 40
0.0
 40
0.0
 40
0.0
 40
0.4911327536
 40
1.0
 40
1.0
 40
1.0
 40
1.0
 10
14.3335994045
 20
44.3908618976
 30
0.0
 10
14.3861460905
 20
44.1590667645
 30
0.0
 10
14.5232622686
 20
43.6936108279
 30
0.0
 10
14.7116328983
 20
43.2466957754
 30
0.0
 10
14.8191472482
 20
43.0251464458
 30
0.0
  0
SPLINE
  5
307
100
AcDbEntity
  8
0
100
AcDbSpline
 62
7
  6
BYLAYER
 70
0
 71
3
 72
10
 73
6
 74
0
 42
0.0000001
 43
0.0000001
 44
0.0000000001
 40
0.0
 40
0.0
 40
0.0
 40
0.0
 40
0.5093112637
 40
0.7576486596
 40
1.0
 40
1.0
 40
1.0
 40
1.0
 10
15.3223783935
 20
42.15370353
 30
0.0
 10
15.4658776157
 20
41.9419420502
 30
0.0
 10
15.6969931869
 20
41.6382327848
 30
0.0
 10
16.0355781902
 20
41.2669924097
 30
0.0
 10
16.2127229894
 20
41.0953491366
 30
0.0
 10
16.3029043045
 20
41.0135968506
 30
0.0
  0
SPLINE
  5
308
100
AcDbEntity
  8
0
100
AcDbSpline
 62
7
  6
BYLAYER
 70
0
 71
3
 72
10
 73
6
 74
0
 42
0.0000001
 43
0.0000001
 44
0.0000000001
 40
0.0
 40
0.0
 40
0.0
 40
0.0
 40
0.2417758971
 40
0.4899686616
 40
1.0
 40
1.0
 40
1.0
 40
1.0
 10
14.373555008
 20
44.4154694063
 30
0.0
 10
14.3981008758
 20
44.3008533781
 30
0.0
 10
14.4555972402
 20
44.0701655724
 30
0.0
 10
14.6017011039
 20
43.6076930456
 30
0.0
 10
14.7435015926
 20
43.2673880698
 30
0.0
 10
14.8509482907
 20
43.0446857436
 30
0.0
  0
SPLINE
  5
309
100
AcDbEntity
  8
0
100
AcDbSpline
 62
7
  6
BYLAYER
 70
0
 71
3
 72
10
 73
6
 74
0
 42
0.0000001
 43
0.0000001
 44
0.0000000001
 40
0.0
 40
0.0
 40
0.0
 40
0.0
 40
0.5102092602
 40
0.758389532
 40
1.0
 40
1.0
 40
1.0
 40
1.0
 10
15.3550402347
 20
42.1717140163
 30
0.0
 10
15.4956239276
 20
41.9652603127
 30
0.0
 10
15.7218905053
 20
41.6695086394
 30
0.0
 10
16.0531768885
 20
41.3088053392
 30
0.0
 10
16.2262295491
 20
41.1425300983
 30
0.0
 10
16.3142344526
 20
41.0635017678
 30
0.0
  0
SPLINE
  5
30A
100
AcDbEntity
  8
0
100
AcDbSpline
 62
7
  6
BYLAYER
 70
0
 71
3
 72
9
 73
5
 74
0
 42
0.0000001
 43
0.0000001
 44
0.0000000001
 40
0.0
 40
0.0
 40
0.0
 40
0.0
 40
0.2466521585
 40
1.0
 40
1.0
 40
1.0
 40
1.0
 10
16.0712018965
 20
41.8266660447
 30
0.0
 10
16.0345944032
 20
41.8672581233
 30
0.0
 10
15.8888207293
 20
42.0342003303
 30
0.0
 10
15.7535275684
 20
42.2102548115
 30
0.0
 10
15.6577170569
 20
42.3469767229
 30
0.0
  0
SPLINE
  5
30B
100
AcDbEntity
  8
0
100
AcDbSpline
 62
7
  6
BYLAYER
 70
0
 71
3
 72
9
 73
5
 74
0
 42
0.0000001
 43
0.0000001
 44
0.0000000001
 40
0.0
 40
0.0
 40
0.0
 40
0.0
 40
0.2534308686
 40
1.0
 40
1.0
 40
1.0
 40
1.0
 10
15.1536940152
 20
43.2199553998
 30
0.0
 10
15.1279750997
 20
43.2751637432
 30
0.0
 10
15.0300048655
 20
43.4946199157
 30
0.0
 10
14.946214382
 20
43.7204602462
 30
0.0
 10
14.8927948687
 20
43.8917402457
 30
0.0
  0
SPLINE
  5
30C
100
AcDbEntity
  8
0
100
AcDbSpline
 62
7
  6
BYLAYER
 70
0
 71
3
 72
16
 73
12
 74
0
 42
0.0000001
 43
0.0000001
 44
0.0000000001
 40
0.0
 40
0.0
 40
0.0
 40
0.0
 40
0.1231953902
 40
0.258047113
 40
0.3992090347
 40
0.5403668036
 40
0.6752254164
 40
0.7984154772
 40
0.8545637439
 40
0.9067961684
 40
1.0
 40
1.0
 40
1.0
 40
1.0
 10
16.107050128
 20
39.9224765728
 30
0.0
 10
16.107050128
 20
39.9602320968
 30
0.0
 10
16.0977060052
 20
40.0394053769
 30
0.0
 10
16.0620357853
 20
40.1569454757
 30
0.0
 10
16.0062835804
 20
40.2725487344
 30
0.0
 10
15.9340500948
 20
40.3786314846
 30
0.0
 10
15.8500626619
 20
40.4682950176
 30
0.0
 10
15.7723423414
 20
40.5263340732
 30
0.0
 10
15.7088610388
 20
40.5585147629
 30
0.0
 10
15.6505820817
 20
40.5791652024
 30
0.0
 10
15.6051685914
 20
40.5847546038
 30
0.0
 10
15.5767178341
 20
40.5822130564
 30
0.0
  0
SPLINE
  5
30D
100
AcDbEntity
  8
0
100
AcDbSpline
 62
7
  6
BYLAYER
 70
0
 71
3
 72
12
 73
8
 74
0
 42
0.0000001
 43
0.0000001
 44
0.0000000001
 40
0.0
 40
0.0
 40
0.0
 40
0.0
 40
0.1081588022
 40
0.2183521463
 40
0.4513532897
 40
0.710426048
 40
1.0
 40
1.0
 40
1.0
 40
1.0
 10
13.5286105121
 20
43.980184003
 30
0.0
 10
13.5368078793
 20
43.9849170096
 30
0.0
 10
13.5525688065
 20
43.995916521
 30
0.0
 10
13.5808391079
 20
44.0237293492
 30
0.0
 10
13.6088447894
 20
44.0693782681
 30
0.0
 10
13.6283243293
 20
44.1355485978
 30
0.0
 10
13.6321660899
 20
44.183735304
 30
0.0
 10
13.6321660899
 20
44.2090776735
 30
0.0
  0
SPLINE
  5
30E
100
AcDbEntity
  8
0
100
AcDbSpline
 62
7
  6
BYLAYER
 70
0
 71
3
 72
20
 73
16
 74
0
 42
0.0000001
 43
0.0000001
 44
0.0000000001
 40
0.0
 40
0.0
 40
0.0
 40
0.0
 40
0.0623905849
 40
0.128806762
 40
0.2702975723
 40
0.4173613603
 40
0.5616147669
 40
0.6302508569
 40
0.6953778332
 40
0.756360748
 40
0.8128308048
 40
0.8647637883
 40
0.9125655836
 40
0.9571671477
 40
1.0
 40
1.0
 40
1.0
 40
1.0
 10
13.6321660899
 20
44.2090776735
 30
0.0
 10
13.6321660899
 20
44.2298109825
 30
0.0
 10
13.6293465176
 20
44.2726455078
 30
0.0
 10
13.6136080942
 20
44.3612160028
 30
0.0
 10
13.5755642258
 20
44.4736689151
 30
0.0
 10
13.5068308352
 20
44.600690225
 30
0.0
 10
13.4327879034
 20
44.6955229422
 30
0.0
 10
13.3661520276
 20
44.7597032912
 30
0.0
 10
13.3150946946
 20
44.7996809402
 30
0.0
 10
13.263206195
 20
44.8314218289
 30
0.0
 10
13.2115435897
 20
44.8542530186
 30
0.0
 10
13.1611351398
 20
44.8676529968
 30
0.0
 10
13.1129681626
 20
44.8711884671
 30
0.0
 10
13.068111886
 20
44.8646249311
 30
0.0
 10
13.0409415761
 20
44.8533245197
 30
0.0
 10
13.0286133087
 20
44.8462097322
 30
0.0
  0
SPLINE
  5
30F
100
AcDbEntity
  8
0
100
AcDbSpline
 62
7
  6
BYLAYER
 70
0
 71
3
 72
20
 73
16
 74
0
 42
0.0000001
 43
0.0000001
 44
0.0000000001
 40
0.0
 40
0.0
 40
0.0
 40
0.0
 40
0.0623905849
 40
0.128806762
 40
0.2702975723
 40
0.4173613603
 40
0.5616147669
 40
0.6302508569
 40
0.6953778332
 40
0.756360748
 40
0.8128308048
 40
0.8647637883
 40
0.9125655836
 40
0.9571671477
 40
1.0
 40
1.0
 40
1.0
 40
1.0
 10
13.6321660899
 20
41.3513192136
 30
0.0
 10
13.6321660899
 20
41.3720525226
 30
0.0
 10
13.6293465176
 20
41.4148870479
 30
0.0
 10
13.6136080942
 20
41.5034575428
 30
0.0
 10
13.5755642258
 20
41.6159104552
 30
0.0
 10
13.5068308352
 20
41.7429317651
 30
0.0
 10
13.4327879034
 20
41.8377644823
 30
0.0
 10
13.3661520276
 20
41.9019448313
 30
0.0
 10
13.3150946946
 20
41.9419224802
 30
0.0
 10
13.263206195
 20
41.973663369
 30
0.0
 10
13.2115435897
 20
41.9964945586
 30
0.0
 10
13.1611351398
 20
42.0098945368
 30
0.0
 10
13.1129681626
 20
42.0134300071
 30
0.0
 10
13.068111886
 20
42.0068664711
 30
0.0
 10
13.0409415761
 20
41.9955660598
 30
0.0
 10
13.0286133087
 20
41.9884512723
 30
0.0
  0
SPLINE
  5
310
100
AcDbEntity
  8
0
100
AcDbSpline
 62
7
  6
BYLAYER
 70
0
 71
3
 72
12
 73
8
 74
0
 42
0.0000001
 43
0.0000001
 44
0.0000000001
 40
0.0
 40
0.0
 40
0.0
 40
0.0
 40
0.1081652191
 40
0.218375863
 40
0.4513423819
 40
0.7104757362
 40
1.0
 40
1.0
 40
1.0
 40
1.0
 10
16.0034931841
 20
39.6935852686
 30
0.0
 10
16.0116919208
 20
39.6983168556
 30
0.0
 10
16.0274538147
 20
39.7093190296
 30
0.0
 10
16.0557198742
 20
39.7371336183
 30
0.0
 10
16.0837337422
 20
39.7827813111
 30
0.0
 10
16.1032025124
 20
39.8489528671
 30
0.0
 10
16.107050128
 20
39.8971387797
 30
0.0
 10
16.107050128
 20
39.9224765728
 30
0.0
  0
SPLINE
  5
311
100
AcDbEntity
  8
0
100
AcDbSpline
 62
7
  6
BYLAYER
 70
0
 71
3
 72
20
 73
16
 74
0
 42
0.0000001
 43
0.0000001
 44
0.0000000001
 40
0.0
 40
0.0
 40
0.0
 40
0.0
 40
0.0428305791
 40
0.0874314694
 40
0.1352353566
 40
0.1871656724
 40
0.2436370002
 40
0.3046206434
 40
0.369744889
 40
0.4383825457
 40
0.5826341212
 40
0.7296951008
 40
0.8711911812
 40
0.9376005667
 40
1.0
 40
1.0
 40
1.0
 40
1.0
 10
11.5279961083
 20
42.7504711423
 30
0.0
 10
11.5427877687
 20
42.7590112115
 30
0.0
 10
11.5708292591
 20
42.7804710628
 30
0.0
 10
11.6045744082
 20
42.8231409438
 30
0.0
 10
11.6297859463
 20
42.8753262894
 30
0.0
 10
11.6461187048
 20
42.9357480436
 30
0.0
 10
11.6533866221
 20
43.0031379625
 30
0.0
 10
11.6515266996
 20
43.0761057989
 30
0.0
 10
11.6406273358
 20
43.1531548872
 30
0.0
 10
11.6138998848
 20
43.2609103567
 30
0.0
 10
11.5597830805
 20
43.3947602351
 30
0.0
 10
11.4690162602
 20
43.5424046762
 30
0.0
 10
11.3749758021
 20
43.6494083606
 30
0.0
 10
11.2923760274
 20
43.7189151863
 30
0.0
 10
11.2495495051
 20
43.7475434409
 30
0.0
 10
11.2279995012
 20
43.75998506
 30
0.0
  0
SPLINE
  5
312
100
AcDbEntity
  8
0
100
AcDbSpline
 62
7
  6
BYLAYER
 70
0
 71
3
 72
12
 73
8
 74
0
 42
0.0000001
 43
0.0000001
 44
0.0000000001
 40
0.0
 40
0.0
 40
0.0
 40
0.0
 40
0.1081588022
 40
0.2183521463
 40
0.4513532897
 40
0.710426048
 40
1.0
 40
1.0
 40
1.0
 40
1.0
 10
13.5286105121
 20
41.1224255431
 30
0.0
 10
13.5368078793
 20
41.1271585497
 30
0.0
 10
13.5525688065
 20
41.1381580611
 30
0.0
 10
13.5808391079
 20
41.1659708892
 30
0.0
 10
13.6088447894
 20
41.2116198081
 30
0.0
 10
13.6283243293
 20
41.2777901379
 30
0.0
 10
13.6321660899
 20
41.325976844
 30
0.0
 10
13.6321660899
 20
41.3513192136
 30
0.0
  0
SPLINE
  5
313
100
AcDbEntity
  8
0
100
AcDbSpline
 62
7
  6
BYLAYER
 70
0
 71
3
 72
11
 73
7
 74
0
 42
0.0000001
 43
0.0000001
 44
0.0000000001
 40
0.0
 40
0.0
 40
0.0
 40
0.0
 40
0.224337825
 40
0.4643547528
 40
0.7225623719
 40
1.0
 40
1.0
 40
1.0
 40
1.0
 10
12.0346515976
 20
45.4939716617
 30
0.0
 10
12.1442153843
 20
45.5077956584
 30
0.0
 10
12.3743475059
 20
45.5131127246
 30
0.0
 10
12.7273410593
 20
45.4586433384
 30
0.0
 10
13.092748249
 20
45.3436420203
 30
0.0
 10
13.3324554855
 20
45.231997567
 30
0.0
 10
13.452896239
 20
45.1676100239
 30
0.0
  0
SPLINE
  5
314
100
AcDbEntity
  8
0
100
AcDbSpline
 62
7
  6
BYLAYER
 70
0
 71
3
 72
17
 73
13
 74
0
 42
0.0000001
 43
0.0000001
 44
0.0000000001
 40
0.0
 40
0.0
 40
0.0
 40
0.0
 40
0.1534056973
 40
0.3005830044
 40
0.4398843915
 40
0.5700998983
 40
0.6905909112
 40
0.7472403302
 40
0.8015784913
 40
0.9039107103
 40
0.9525759523
 40
1.0
 40
1.0
 40
1.0
 40
1.0
 10
11.7024713835
 20
38.9644508398
 30
0.0
 10
11.8550832996
 20
38.7800720101
 30
0.0
 10
12.169977548
 20
38.4315201711
 30
0.0
 10
12.6766434144
 20
37.9670178693
 30
0.0
 10
13.1997686028
 20
37.5787579999
 30
0.0
 10
13.7286698071
 20
37.2748387636
 30
0.0
 10
14.174681787
 20
37.0934774246
 30
0.0
 10
14.5237603806
 20
36.9991727077
 30
0.0
 10
14.8516532879
 20
36.9405721779
 30
0.0
 10
15.1745045623
 20
36.9285302794
 30
0.0
 10
15.4819831194
 20
36.9689651473
 30
0.0
 10
15.6277529819
 20
37.0058202654
 30
0.0
 10
15.6982346034
 20
37.0283384113
 30
0.0
  0
SPLINE
  5
315
100
AcDbEntity
  8
0
100
AcDbSpline
 62
7
  6
BYLAYER
 70
0
 71
3
 72
15
 73
11
 74
0
 42
0.0000001
 43
0.0000001
 44
0.0000000001
 40
0.0
 40
0.0
 40
0.0
 40
0.0
 40
0.1293641318
 40
0.2605083715
 40
0.3918432345
 40
0.5218304849
 40
0.6489497505
 40
0.7718021633
 40
0.889149566
 40
1.0
 40
1.0
 40
1.0
 40
1.0
 10
14.9131252721
 20
43.897088399
 30
0.0
 10
15.0334247806
 20
43.7517479621
 30
0.0
 10
15.263736752
 20
43.4489796138
 30
0.0
 10
15.5735022331
 20
42.9681000351
 30
0.0
 10
15.8458348238
 20
42.463999243
 30
0.0
 10
16.0759182804
 20
41.9456737925
 30
0.0
 10
16.2596790118
 20
41.4222287603
 30
0.0
 10
16.3938830706
 20
40.9028725939
 30
0.0
 10
16.4761467496
 20
40.3968007551
 30
0.0
 10
16.4959596567
 20
40.0637952205
 30
0.0
 10
16.4959652041
 20
39.9021276225
 30
0.0
  0
SPLINE
  5
316
100
AcDbEntity
  8
0
100
AcDbSpline
 62
7
  6
BYLAYER
 70
0
 71
3
 72
23
 73
19
 74
0
 42
0.0000001
 43
0.0000001
 44
0.0000000001
 40
0.0
 40
0.0
 40
0.0
 40
0.0
 40
0.0734901006
 40
0.1479574628
 40
0.2227364911
 40
0.2971937555
 40
0.3706820779
 40
0.4425882288
 40
0.5123406083
 40
0.5794311402
 40
0.6434367121
 40
0.7040429187
 40
0.7610723923
 40
0.8145175528
 40
0.864575267
 40
0.911678805
 40
0.956514143
 40
1.0
 40
1.0
 40
1.0
 40
1.0
 10
16.3466881349
 20
45.0823645932
 30
0.0
 10
16.4755073333
 20
44.9267310512
 30
0.0
 10
16.7239368344
 20
44.6041928534
 30
0.0
 10
17.0645039269
 20
44.094810368
 30
0.0
 10
17.3721204966
 20
43.5617763169
 30
0.0
 10
17.6428057779
 20
43.0120731294
 30
0.0
 10
17.87305499
 20
42.4527538626
 30
0.0
 10
18.0598931814
 20
41.8910593125
 30
0.0
 10
18.2009088575
 20
41.334224713
 30
0.0
 10
18.2942770659
 20
40.7894070567
 30
0.0
 10
18.3387723127
 20
40.2635775151
 30
0.0
 10
18.3337616137
 20
39.7634272826
 30
0.0
 10
18.2791829755
 20
39.2952879457
 30
0.0
 10
18.1755070118
 20
38.8650721707
 30
0.0
 10
18.0237010255
 20
38.4782880208
 30
0.0
 10
17.8251488724
 20
38.1400704993
 30
0.0
 10
17.5820677302
 20
37.855440712
 30
0.0
 10
17.3905764393
 20
37.7031819219
 30
0.0
 10
17.2900442242
 20
37.63849388
 30
0.0
  0
SPLINE
  5
317
100
AcDbEntity
  8
0
100
AcDbSpline
 62
7
  6
BYLAYER
 70
0
 71
3
 72
14
 73
10
 74
0
 42
0.0000001
 43
0.0000001
 44
0.0000000001
 40
0.0
 40
0.0
 40
0.0
 40
0.0
 40
0.113988306
 40
0.2291851525
 40
0.3467385286
 40
0.4676770106
 40
0.5928819453
 40
0.7230552471
 40
1.0
 40
1.0
 40
1.0
 40
1.0
 10
12.1188816815
 20
48.21823559
 30
0.0
 10
12.0412389465
 20
48.1734087461
 30
0.0
 10
11.8907173697
 20
48.0731943991
 30
0.0
 10
11.6840003148
 20
47.8942876559
 30
0.0
 10
11.4969768403
 20
47.6874495328
 30
0.0
 10
11.3306365979
 20
47.4539982153
 30
0.0
 10
11.1858522281
 20
47.1951970134
 30
0.0
 10
11.0190680352
 20
46.810591086
 30
0.0
 10
10.9340467702
 20
46.4996781977
 30
0.0
 10
10.8924808159
 20
46.2858584917
 30
0.0
  0
SPLINE
  5
318
100
AcDbEntity
  8
0
100
AcDbSpline
 62
7
  6
BYLAYER
 70
0
 71
3
 72
25
 73
21
 74
0
 42
0.0000001
 43
0.0000001
 44
0.0000000001
 40
0.0
 40
0.0
 40
0.0
 40
0.0
 40
0.0738330762
 40
0.1486563526
 40
0.2237745679
 40
0.2985353198
 40
0.3722689055
 40
0.4443426719
 40
0.5141701048
 40
0.5812326473
 40
0.6451036108
 40
0.7054738844
 40
0.7621836948
 40
0.8152567878
 40
0.8649374723
 40
0.9117232546
 40
0.9342834776
 40
0.9564274356
 40
0.9782862547
 40
1.0
 40
1.0
 40
1.0
 40
1.0
 10
24.9564046258
 20
50.0369019084
 30
0.0
 10
25.0859839186
 20
49.8803500548
 30
0.0
 10
25.3357246322
 20
49.5557463129
 30
0.0
 10
25.6775297958
 20
49.0428328469
 30
0.0
 10
25.9855645371
 20
48.5059782308
 30
0.0
 10
26.2557248699
 20
47.952439789
 30
0.0
 10
26.4844035985
 20
47.3895259786
 30
0.0
 10
26.6685585438
 20
46.8247467002
 30
0.0
 10
26.8057458956
 20
46.2655963312
 30
0.0
 10
26.89413128
 20
45.7194734848
 30
0.0
 10
26.9325118491
 20
45.193573224
 30
0.0
 10
26.9202997808
 20
44.6947809259
 30
0.0
 10
26.8575284774
 20
44.2295985421
 30
0.0
 10
26.7447376677
 20
43.8040571498
 30
0.0
 10
26.5830660726
 20
43.4238618539
 30
0.0
 10
26.4065529222
 20
43.1457053458
 30
0.0
 10
26.2433902108
 20
42.9534696486
 30
0.0
 10
26.1119169314
 20
42.8254466821
 30
0.0
 10
25.9703834194
 20
42.7123622788
 30
0.0
 10
25.8694636274
 20
42.6471223527
 30
0.0
 10
25.8177040384
 20
42.6172403692
 30
0.0
  0
SPLINE
  5
319
100
AcDbEntity
  8
0
100
AcDbSpline
 62
7
  6
BYLAYER
 70
0
 71
3
 72
15
 73
11
 74
0
 42
0.0000001
 43
0.0000001
 44
0.0000000001
 40
0.0
 40
0.0
 40
0.0
 40
0.0
 40
0.1080127572
 40
0.21806165
 40
0.3319990073
 40
0.4513576276
 40
0.5772777375
 40
0.7105000912
 40
0.8513948522
 40
1.0
 40
1.0
 40
1.0
 40
1.0
 10
15.7604664432
 20
50.3206929825
 30
0.0
 10
15.8645797904
 20
50.38080257
 30
0.0
 10
16.0856344416
 20
50.484310526
 30
0.0
 10
16.4433062642
 20
50.583210805
 30
0.0
 10
16.8245926298
 20
50.6257443242
 30
0.0
 10
17.2254365353
 20
50.6117890628
 30
0.0
 10
17.6419730526
 20
50.5419005096
 30
0.0
 10
18.0703052273
 20
50.4170261841
 30
0.0
 10
18.5064297613
 20
50.2385349169
 30
0.0
 10
18.7923280357
 20
50.0888440789
 30
0.0
 10
18.9355672098
 20
50.0061426989
 30
0.0
  0
SPLINE
  5
31A
100
AcDbEntity
  8
0
100
AcDbSpline
 62
7
  6
BYLAYER
 70
0
 71
3
 72
19
 73
15
 74
0
 42
0.0000001
 43
0.0000001
 44
0.0000000001
 40
0.0
 40
0.0
 40
0.0
 40
0.0
 40
0.0475027687
 40
0.0956095808
 40
0.1448869168
 40
0.1958344366
 40
0.2488620505
 40
0.3042861283
 40
0.4229849691
 40
0.4865482974
 40
0.5528696563
 40
0.6932956755
 40
0.842997163
 40
1.0
 40
1.0
 40
1.0
 40
1.0
 10
20.4677358653
 20
51.8837123581
 30
0.0
 10
20.5394684937
 20
51.9251231933
 30
0.0
 10
20.6898796347
 20
51.998477332
 30
0.0
 10
20.9307439453
 20
52.0770925984
 30
0.0
 10
21.1857925244
 20
52.1242324686
 30
0.0
 10
21.4532113334
 20
52.1396014793
 30
0.0
 10
21.7312562183
 20
52.1232987612
 30
0.0
 10
22.1225305608
 20
52.0580576915
 30
0.0
 10
22.5192424636
 20
51.9293727177
 30
0.0
 10
22.913141586
 20
51.7479566513
 30
0.0
 10
23.3258464895
 20
51.5194577802
 30
0.0
 10
23.8370050908
 20
51.1626685427
 30
0.0
 10
24.4208337358
 20
50.6437898029
 30
0.0
 10
24.7818511326
 20
50.2477895614
 30
0.0
 10
24.9564046258
 20
50.0369019084
 30
0.0
  0
SPLINE
  5
31B
100
AcDbEntity
  8
0
100
AcDbSpline
 62
7
  6
BYLAYER
 70
0
 71
3
 72
15
 73
11
 74
0
 42
0.0000001
 43
0.0000001
 44
0.0000000001
 40
0.0
 40
0.0
 40
0.0
 40
0.0
 40
0.1486058177
 40
0.2895003741
 40
0.4227225657
 40
0.5486426469
 40
0.6680011788
 40
0.7819384642
 40
0.8919873012
 40
1.0
 40
1.0
 40
1.0
 40
1.0
 10
23.425594104
 20
42.2291406619
 30
0.0
 10
23.4255952693
 20
42.0637404405
 30
0.0
 10
23.4122819009
 20
41.7412992851
 30
0.0
 10
23.3487941801
 20
41.2743587293
 30
0.0
 10
23.2427700536
 20
40.8409760478
 30
0.0
 10
23.0950253576
 20
40.4453014596
 30
0.0
 10
22.9066869737
 20
40.0911840696
 30
0.0
 10
22.6792071358
 20
39.7822485657
 30
0.0
 10
22.4147199774
 20
39.5219471156
 30
0.0
 10
22.2145513196
 20
39.3822635048
 30
0.0
 10
22.1104380148
 20
39.3221539418
 30
0.0
  0
SPLINE
  5
31C
100
AcDbEntity
  8
0
100
AcDbSpline
 62
7
  6
BYLAYER
 70
0
 71
3
 72
14
 73
10
 74
0
 42
0.0000001
 43
0.0000001
 44
0.0000000001
 40
0.0
 40
0.0
 40
0.0
 40
0.0
 40
0.2769440008
 40
0.4071170909
 40
0.5323220059
 40
0.6532605941
 40
0.770814189
 40
0.8860113439
 40
1.0
 40
1.0
 40
1.0
 40
1.0
 10
16.1822175215
 20
37.1237844471
 30
0.0
 10
16.3881688656
 20
37.0528750871
 30
0.0
 10
16.6999304391
 20
36.9710536218
 30
0.0
 10
17.1163907038
 20
36.9231939169
 30
0.0
 10
17.4129041947
 20
36.9191815404
 30
0.0
 10
17.6982424703
 20
36.9465110824
 30
0.0
 10
17.9708752528
 20
37.0050580208
 30
0.0
 10
18.2291661539
 20
37.0946247423
 30
0.0
 10
18.3912121158
 20
37.1748706278
 30
0.0
 10
18.4688532531
 20
37.2196965493
 30
0.0
  0
SPLINE
  5
31D
100
AcDbEntity
  8
0
100
AcDbSpline
 62
7
  6
BYLAYER
 70
0
 71
3
 72
11
 73
7
 74
0
 42
0.0000001
 43
0.0000001
 44
0.0000000001
 40
0.0
 40
0.0
 40
0.0
 40
0.0
 40
0.2325810675
 40
0.4780121557
 40
0.7345771936
 40
1.0
 40
1.0
 40
1.0
 40
1.0
 10
13.4554753566
 20
45.1684423594
 30
0.0
 10
13.5859659039
 20
45.093103915
 30
0.0
 10
13.8456906449
 20
44.923276472
 30
0.0
 10
14.2177675954
 20
44.6255875821
 30
0.0
 10
14.5779857596
 20
44.2820987371
 30
0.0
 10
14.8034834511
 20
44.0295526991
 30
0.0
 10
14.9131252721
 20
43.897088399
 30
0.0
  0
SPLINE
  5
31E
100
AcDbEntity
  8
0
100
AcDbSpline
 62
7
  6
BYLAYER
 70
0
 71
3
 72
23
 73
19
 74
0
 42
0.0000001
 43
0.0000001
 44
0.0000000001
 40
0.0
 40
0.0
 40
0.0
 40
0.0
 40
0.0437751927
 40
0.0895057346
 40
0.1378467168
 40
0.1892418674
 40
0.2439316908
 40
0.3019760169
 40
0.3632801106
 40
0.4276229416
 40
0.4946816414
 40
0.5640510065
 40
0.6352606098
 40
0.7077954016
 40
0.7811062025
 40
0.8546191859
 40
0.9277849037
 40
1.0
 40
1.0
 40
1.0
 40
1.0
 10
10.5678412405
 20
45.9144938854
 30
0.0
 10
10.4857292697
 20
45.8398300915
 30
0.0
 10
10.3317244929
 20
45.6712581826
 30
0.0
 10
10.1423817149
 20
45.3758058965
 30
0.0
 10
9.9925533476
 20
45.0373888559
 30
0.0
 10
9.8836798151
 20
44.6602258579
 30
0.0
 10
9.8166686151
 20
44.2486563646
 30
0.0
 10
9.7921097303
 20
43.8073743048
 30
0.0
 10
9.8101522634
 20
43.3413958287
 30
0.0
 10
9.8705207362
 20
42.8560375607
 30
0.0
 10
9.9724963368
 20
42.3568631892
 30
0.0
 10
10.1148960647
 20
41.8496246952
 30
0.0
 10
10.2960507113
 20
41.3401758764
 30
0.0
 10
10.5138665963
 20
40.8344140944
 30
0.0
 10
10.7658206002
 20
40.3382204666
 30
0.0
 10
11.0489947946
 20
39.8572954434
 30
0.0
 10
11.3600923501
 20
39.3973179452
 30
0.0
 10
11.5857318898
 20
39.1054902276
 30
0.0
 10
11.7024713835
 20
38.9644508398
 30
0.0
  0
SPLINE
  5
31F
100
AcDbEntity
  8
0
100
AcDbSpline
 62
7
  6
BYLAYER
 70
0
 71
3
 72
15
 73
11
 74
0
 42
0.0000001
 43
0.0000001
 44
0.0000000001
 40
0.0
 40
0.0
 40
0.0
 40
0.0
 40
0.1473794062
 40
0.2873211352
 40
0.4199499876
 40
0.545687634
 40
0.6652942136
 40
0.7798735399
 40
0.8908707905
 40
1.0
 40
1.0
 40
1.0
 40
1.0
 10
16.493878393
 20
39.8979168188
 30
0.0
 10
16.4905128732
 20
39.7969844762
 30
0.0
 10
16.4758939854
 20
39.6003491293
 30
0.0
 10
16.4280216483
 20
39.316151677
 30
0.0
 10
16.3550894503
 20
39.0525819503
 30
0.0
 10
16.2575912704
 20
38.8119533397
 30
0.0
 10
16.1362639139
 20
38.5963837253
 30
0.0
 10
15.991944366
 20
38.4079016659
 30
0.0
 10
15.825912296
 20
38.2483880148
 30
0.0
 10
15.7012106414
 20
38.1621516172
 30
0.0
 10
15.6364525921
 20
38.1247591552
 30
0.0
  0
SPLINE
  5
320
100
AcDbEntity
  8
0
100
AcDbSpline
 62
7
  6
BYLAYER
 70
0
 71
3
 72
19
 73
15
 74
0
 42
0.0000001
 43
0.0000001
 44
0.0000000001
 40
0.0
 40
0.0
 40
0.0
 40
0.0
 40
0.0473860703
 40
0.0955427395
 40
0.1449918764
 40
0.1961874301
 40
0.24949568
 40
0.3051950424
 40
0.4243241346
 40
0.4879958681
 40
0.554342826
 40
0.6945676534
 40
0.843753245
 40
1.0
 40
1.0
 40
1.0
 40
1.0
 10
11.8911329964
 20
46.987425263
 30
0.0
 10
11.9640572156
 20
47.025030636
 30
0.0
 10
12.1164771041
 20
47.0908695962
 30
0.0
 10
12.3588432015
 20
47.1589208387
 30
0.0
 10
12.6144221582
 20
47.1964803911
 30
0.0
 10
12.881494835
 20
47.2033244948
 30
0.0
 10
13.1584111631
 20
47.1795880351
 30
0.0
 10
13.5470409519
 20
47.105783937
 30
0.0
 10
13.9400011027
 20
46.9711598871
 30
0.0
 10
14.3298028794
 20
46.7858296512
 30
0.0
 10
14.7372884808
 20
46.5550231198
 30
0.0
 10
15.2415246895
 20
46.1981949068
 30
0.0
 10
15.817582842
 20
45.6827088011
 30
0.0
 10
16.1741837395
 20
45.2907766185
 30
0.0
 10
16.3466881349
 20
45.0823645932
 30
0.0
  0
SPLINE
  5
321
100
AcDbEntity
  8
0
100
AcDbSpline
 62
7
  6
BYLAYER
 70
0
 71
3
 72
11
 73
7
 74
0
 42
0.0000001
 43
0.0000001
 44
0.0000000001
 40
0.0
 40
0.0
 40
0.0
 40
0.0
 40
0.2325800134
 40
0.4780150728
 40
0.7345715043
 40
1.0
 40
1.0
 40
1.0
 40
1.0
 10
18.9355672098
 20
50.0061426989
 30
0.0
 10
19.128266125
 20
49.8948849629
 30
0.0
 10
19.5118213557
 20
49.644100487
 30
0.0
 10
20.0612736543
 20
49.2044848049
 30
0.0
 10
20.593229003
 20
48.6972436022
 30
0.0
 10
20.9262267681
 20
48.3242966247
 30
0.0
 10
21.0881432552
 20
48.1286764323
 30
0.0
  0
SPLINE
  5
322
100
AcDbEntity
  8
0
100
AcDbSpline
 62
7
  6
BYLAYER
 70
0
 71
3
 72
11
 73
7
 74
0
 42
0.0000001
 43
0.0000001
 44
0.0000000001
 40
0.0
 40
0.0
 40
0.0
 40
0.0
 40
0.2654284957
 40
0.5219849272
 40
0.7674199866
 40
1.0
 40
1.0
 40
1.0
 40
1.0
 10
21.4562406316
 20
48.0160933468
 30
0.0
 10
21.3198228039
 20
48.1809072097
 30
0.0
 10
21.0392656317
 20
48.4951223796
 30
0.0
 10
20.5910827788
 20
48.922483078
 30
0.0
 10
20.1281584013
 20
49.292867944
 30
0.0
 10
19.8050055692
 20
49.5041588017
 30
0.0
 10
19.6426529398
 20
49.5978956344
 30
0.0
  0
SPLINE
  5
323
100
AcDbEntity
  8
0
100
AcDbSpline
 62
7
  6
BYLAYER
 70
0
 71
3
 72
19
 73
15
 74
0
 42
0.0000001
 43
0.0000001
 44
0.0000000001
 40
0.0
 40
0.0
 40
0.0
 40
0.0
 40
0.1569986078
 40
0.3066953435
 40
0.4471181793
 40
0.5769104817
 40
0.6376876102
 40
0.6957230253
 40
0.7511452353
 40
0.8041717831
 40
0.855117365
 40
0.9043935906
 40
0.9524987045
 40
1.0
 40
1.0
 40
1.0
 40
1.0
 10
17.4465584936
 20
46.0262190399
 30
0.0
 10
17.2393779376
 20
46.2765252375
 30
0.0
 10
16.8109057419
 20
46.7465264452
 30
0.0
 10
16.1178462998
 20
47.3624661786
 30
0.0
 10
15.4034468785
 20
47.8611083629
 30
0.0
 10
14.7914703424
 20
48.1751391816
 30
0.0
 10
14.3077845836
 20
48.3522089347
 30
0.0
 10
13.9590111062
 20
48.4458441128
 30
0.0
 10
13.6185599985
 20
48.5025944498
 30
0.0
 10
13.2885608743
 20
48.5219605052
 30
0.0
 10
12.9711551719
 20
48.5036948358
 30
0.0
 10
12.6684301285
 20
48.4477722776
 30
0.0
 10
12.382555259
 20
48.3544314757
 30
0.0
 10
12.2040200652
 20
48.2673900285
 30
0.0
 10
12.1188816815
 20
48.21823559
 30
0.0
  0
SPLINE
  5
324
100
AcDbEntity
  8
0
100
AcDbSpline
 62
7
  6
BYLAYER
 70
0
 71
3
 72
14
 73
10
 74
0
 42
0.0000001
 43
0.0000001
 44
0.0000000001
 40
0.0
 40
0.0
 40
0.0
 40
0.0
 40
0.2107415876
 40
0.3266989125
 40
0.4496021358
 40
0.5790888791
 40
0.7145367589
 40
0.8551743981
 40
1.0
 40
1.0
 40
1.0
 40
1.0
 10
13.1505735256
 20
47.1811392992
 30
0.0
 10
13.4245005169
 20
47.1527989761
 30
0.0
 10
13.8433977169
 20
47.0423344468
 30
0.0
 10
14.3794255767
 20
46.8009998083
 30
0.0
 10
14.7970026083
 20
46.559765443
 30
0.0
 10
15.211578396
 20
46.2672490176
 30
0.0
 10
15.6185724674
 20
45.9268956821
 30
0.0
 10
16.0129633874
 20
45.5428376935
 30
0.0
 10
16.2613925581
 20
45.264097738
 30
0.0
 10
16.382544347
 20
45.1187058706
 30
0.0
  0
SPLINE
  5
325
100
AcDbEntity
  8
0
100
AcDbSpline
 62
7
  6
BYLAYER
 70
0
 71
3
 72
15
 73
11
 74
0
 42
0.0000001
 43
0.0000001
 44
0.0000000001
 40
0.0
 40
0.0
 40
0.0
 40
0.0
 40
0.1108498626
 40
0.2281958599
 40
0.3510459644
 40
0.478166297
 40
0.6081537931
 40
0.7394929966
 40
0.8706298908
 40
1.0
 40
1.0
 40
1.0
 40
1.0
 10
23.4255889845
 20
43.0456183276
 30
0.0
 10
23.4255875674
 20
43.2467619165
 30
0.0
 10
23.4009251874
 20
43.6610791139
 30
0.0
 10
23.2985806466
 20
44.2907191304
 30
0.0
 10
23.1316118896
 20
44.9368920432
 30
0.0
 10
22.9029795247
 20
45.5881531523
 30
0.0
 10
22.6167170451
 20
46.233060022
 30
0.0
 10
22.27787657
 20
46.8602453599
 30
0.0
 10
21.8924767005
 20
47.4585593196
 30
0.0
 10
21.605922559
 20
47.8352543973
 30
0.0
 10
21.4562406316
 20
48.0160933468
 30
0.0
  0
SPLINE
  5
326
100
AcDbEntity
  8
0
100
AcDbSpline
 62
7
  6
BYLAYER
 70
0
 71
3
 72
19
 73
15
 74
0
 42
0.0000001
 43
0.0000001
 44
0.0000000001
 40
0.0
 40
0.0
 40
0.0
 40
0.0
 40
0.0483854114
 40
0.0973101017
 40
0.147284901
 40
0.1987651081
 40
0.2521373323
 40
0.3077061613
 40
0.426145719
 40
0.4893480395
 40
0.5552023091
 40
0.6945572101
 40
0.8433425025
 40
1.0
 40
1.0
 40
1.0
 40
1.0
 10
18.4688532531
 20
37.2196965493
 30
0.0
 10
18.5484896986
 20
37.2656744572
 30
0.0
 10
18.7027742821
 20
37.3687603918
 30
0.0
 10
18.9140810518
 20
37.553436378
 30
0.0
 10
19.104599467
 20
37.7674323004
 30
0.0
 10
19.273264919
 20
38.0093224084
 30
0.0
 10
19.4191624357
 20
38.2777034468
 30
0.0
 10
19.5858636627
 20
38.6770557575
 30
0.0
 10
19.6987142022
 20
39.1163227618
 30
0.0
 10
19.762315068
 20
39.5826167494
 30
0.0
 10
19.7943204056
 20
40.0921590944
 30
0.0
 10
19.7676194152
 20
40.7663392468
 30
0.0
 10
19.6367295291
 20
41.6030202966
 30
0.0
 10
19.4882603386
 20
42.1653590645
 30
0.0
 10
19.3990272653
 20
42.4493987094
 30
0.0
  0
SPLINE
  5
327
100
AcDbEntity
  8
0
100
AcDbSpline
 62
7
  6
BYLAYER
 70
0
 71
3
 72
11
 73
7
 74
0
 42
0.0000001
 43
0.0000001
 44
0.0000000001
 40
0.0
 40
0.0
 40
0.0
 40
0.0
 40
0.2460997841
 40
0.497755593
 40
0.7505399275
 40
1.0
 40
1.0
 40
1.0
 40
1.0
 10
19.3990272653
 20
42.4493987094
 30
0.0
 10
19.2982656029
 20
42.7701352456
 30
0.0
 10
19.0604287892
 20
43.4085787764
 30
0.0
 10
18.6111297011
 20
44.3318145449
 30
0.0
 10
18.0750326945
 20
45.2128694855
 30
0.0
 10
17.6638491965
 20
45.763698219
 30
0.0
 10
17.4465584936
 20
46.0262190399
 30
0.0
  0
SPLINE
  5
328
100
AcDbEntity
  8
0
100
AcDbSpline
 62
7
  6
BYLAYER
 70
0
 71
3
 72
18
 73
14
 74
0
 42
0.0000001
 43
0.0000001
 44
0.0000000001
 40
0.0
 40
0.0
 40
0.0
 40
0.0
 40
0.155568788
 40
0.3042849924
 40
0.4443175935
 40
0.5743611077
 40
0.6938605183
 40
0.7498045652
 40
0.8033683765
 40
0.8547993953
 40
0.9044273808
 40
0.9526665538
 40
1.0
 40
1.0
 40
1.0
 40
1.0
 10
16.2052673674
 20
45.0007157624
 30
0.0
 10
16.0360269179
 20
45.2051844357
 30
0.0
 10
15.6863413349
 20
45.5901942171
 30
0.0
 10
15.1219562869
 20
46.0983025612
 30
0.0
 10
14.5396400063
 20
46.5153359018
 30
0.0
 10
13.9527235354
 20
46.8314690166
 30
0.0
 10
13.4596233502
 20
47.0083280608
 30
0.0
 10
13.0767420012
 20
47.0888202759
 30
0.0
 10
12.8032951196
 20
47.1187090893
 30
0.0
 10
12.5389451332
 20
47.1192367919
 30
0.0
 10
12.2852540732
 20
47.0902323231
 30
0.0
 10
12.0438468065
 20
47.0318563177
 30
0.0
 10
11.8911376868
 20
46.9731056493
 30
0.0
 10
11.8178710918
 20
46.9391371757
 30
0.0
  0
SPLINE
  5
329
100
AcDbEntity
  8
0
100
AcDbSpline
 62
7
  6
BYLAYER
 70
0
 71
3
 72
21
 73
17
 74
0
 42
0.0000001
 43
0.0000001
 44
0.0000000001
 40
0.0
 40
0.0
 40
0.0
 40
0.0
 40
0.1600287765
 40
0.3116365721
 40
0.3835711206
 40
0.4525931488
 40
0.5185597853
 40
0.5814069056
 40
0.6411643784
 40
0.6979705232
 40
0.7520838405
 40
0.8038953127
 40
0.8539228362
 40
0.9028005887
 40
0.9512437765
 40
1.0
 40
1.0
 40
1.0
 40
1.0
 10
15.2083235977
 20
44.3506116994
 30
0.0
 10
15.0236045022
 20
44.5737809741
 30
0.0
 10
14.6407973852
 20
44.9899350941
 30
0.0
 10
14.1132088749
 20
45.4443508055
 30
0.0
 10
13.6788418999
 20
45.748059896
 30
0.0
 10
13.3569028033
 20
45.9402632738
 30
0.0
 10
13.0356203959
 20
46.0994139142
 30
0.0
 10
12.7173901055
 20
46.2242361193
 30
0.0
 10
12.4046163495
 20
46.3137355354
 30
0.0
 10
12.0996490935
 20
46.3671424401
 30
0.0
 10
11.8047994
 20
46.3838816122
 30
0.0
 10
11.5223581295
 20
46.3636989578
 30
0.0
 10
11.2546193088
 20
46.3065091121
 30
0.0
 10
11.0038436433
 20
46.2126440349
 30
0.0
 10
10.7723064526
 20
46.08284205
 30
0.0
 10
10.6331441251
 20
45.9738733045
 30
0.0
 10
10.5678412405
 20
45.9144938854
 30
0.0
  0
SPLINE
  5
32A
100
AcDbEntity
  8
0
100
AcDbSpline
 62
7
  6
BYLAYER
 70
0
 71
3
 72
18
 73
14
 74
0
 42
0.0000001
 43
0.0000001
 44
0.0000000001
 40
0.0
 40
0.0
 40
0.0
 40
0.0
 40
0.1377044036
 40
0.2771480106
 40
0.4153269623
 40
0.5493000305
 40
0.6138961215
 40
0.6764873839
 40
0.7368274264
 40
0.7947175619
 40
0.8500200656
 40
0.9026660789
 40
1.0
 40
1.0
 40
1.0
 40
1.0
 10
16.4004481955
 20
45.0971476466
 30
0.0
 10
16.6030564178
 20
44.8523655361
 30
0.0
 10
16.9837514677
 20
44.3367037075
 30
0.0
 10
17.4705327518
 20
43.5092638179
 30
0.0
 10
17.8654798633
 20
42.6436265273
 30
0.0
 10
18.1105689108
 20
41.9043183858
 30
0.0
 10
18.2484956099
 20
41.3173483032
 30
0.0
 10
18.3209780612
 20
40.8904268482
 30
0.0
 10
18.3631677702
 20
40.4749737843
 30
0.0
 10
18.3746926537
 20
40.07435396
 30
0.0
 10
18.3554250633
 20
39.6916369283
 30
0.0
 10
18.2906411837
 20
39.2221443385
 30
0.0
 10
18.1949218522
 20
38.8859659855
 30
0.0
 10
18.1072317639
 20
38.6791920747
 30
0.0
  0
SPLINE
  5
32B
100
AcDbEntity
  8
0
100
AcDbSpline
 62
7
  6
BYLAYER
 70
0
 71
3
 72
19
 73
15
 74
0
 42
0.0000001
 43
0.0000001
 44
0.0000000001
 40
0.0
 40
0.0
 40
0.0
 40
0.0
 40
0.0475024755
 40
0.0956090279
 40
0.1448865275
 40
0.1958334134
 40
0.2488616733
 40
0.3042848989
 40
0.4229836987
 40
0.4865478023
 40
0.5528692466
 40
0.6932951343
 40
0.8429992409
 40
1.0
 40
1.0
 40
1.0
 40
1.0
 10
15.6364525921
 20
38.1247591552
 30
0.0
 10
15.5808128169
 20
38.0926317486
 30
0.0
 10
15.4641308779
 20
38.0357486969
 30
0.0
 10
15.2773000991
 20
37.9747450607
 30
0.0
 10
15.0794551057
 20
37.938201182
 30
0.0
 10
14.8720195061
 20
37.9262553767
 30
0.0
 10
14.6563415033
 20
37.9389241061
 30
0.0
 10
14.3528271334
 20
37.9895074842
 30
0.0
 10
14.0450964074
 20
38.0893351246
 30
0.0
 10
13.7395527566
 20
38.2300703318
 30
0.0
 10
13.4194106445
 20
38.4073076733
 30
0.0
 10
13.0229037205
 20
38.6840762813
 30
0.0
 10
12.5700285116
 20
39.0865730782
 30
0.0
 10
12.2899858484
 20
39.3937511695
 30
0.0
 10
12.1545862537
 20
39.5573348492
 30
0.0
  0
SPLINE
  5
32C
100
AcDbEntity
  8
0
100
AcDbSpline
 62
7
  6
BYLAYER
 70
0
 71
3
 72
15
 73
11
 74
0
 42
0.0000001
 43
0.0000001
 44
0.0000000001
 40
0.0
 40
0.0
 40
0.0
 40
0.0
 40
0.1293672771
 40
0.2605099173
 40
0.3918460899
 40
0.52183356
 40
0.6489544628
 40
0.7718007184
 40
0.8891544134
 40
1.0
 40
1.0
 40
1.0
 40
1.0
 10
11.997669709
 20
39.4179741402
 30
0.0
 10
11.8773664098
 20
39.563319157
 30
0.0
 10
11.6470508301
 20
39.8660911205
 30
0.0
 10
11.3372838672
 20
40.3469796142
 30
0.0
 10
11.0649495471
 20
40.85108393
 30
0.0
 10
10.8348642334
 20
41.3694183898
 30
0.0
 10
10.651112238
 20
41.8928636697
 30
0.0
 10
10.5168991695
 20
42.4122245966
 30
0.0
 10
10.4346521289
 20
42.9182953891
 30
0.0
 10
10.4148256724
 20
43.251304822
 30
0.0
 10
10.4148256724
 20
43.412966514
 30
0.0
  0
SPLINE
  5
32D
100
AcDbEntity
  8
0
100
AcDbSpline
 62
7
  6
BYLAYER
 70
0
 71
3
 72
26
 73
22
 74
0
 42
0.0000001
 43
0.0000001
 44
0.0000000001
 40
0.0
 40
0.0
 40
0.0
 40
0.0
 40
0.0679375564
 40
0.1311825782
 40
0.1898903469
 40
0.2445927866
 40
0.2962401784
 40
0.3213632671
 40
0.3462524469
 40
0.3711130471
 40
0.3961521621
 40
0.4215688842
 40
0.4475485787
 40
0.5017664147
 40
0.5598847415
 40
0.6224916821
 40
0.6897880123
 40
0.7616589309
 40
0.8377218027
 40
0.9174211624
 40
1.0
 40
1.0
 40
1.0
 40
1.0
 10
16.4959652041
 20
39.9021276225
 30
0.0
 10
16.4959702275
 20
39.755728357
 30
0.0
 10
16.4807172904
 20
39.4726725717
 30
0.0
 10
16.4066279766
 20
39.0689825487
 30
0.0
 10
16.2828333423
 20
38.7072609936
 30
0.0
 10
16.1107594813
 20
38.3937336033
 30
0.0
 10
15.9267955657
 20
38.1752995108
 30
0.0
 10
15.7598344938
 20
38.0328736392
 30
0.0
 10
15.625954988
 20
37.9422078104
 30
0.0
 10
15.4829107143
 20
37.867234663
 30
0.0
 10
15.3313404575
 20
37.8082854609
 30
0.0
 10
15.1719284035
 20
37.7655714205
 30
0.0
 10
14.9467654999
 20
37.7300365351
 30
0.0
 10
14.6467423344
 20
37.7287403473
 30
0.0
 10
14.2737309439
 20
37.7934868279
 30
0.0
 10
13.8882516437
 20
37.9225476084
 30
0.0
 10
13.4964191015
 20
38.1134500962
 30
0.0
 10
13.1043799261
 20
38.3629008748
 30
0.0
 10
12.7183516994
 20
38.6667583016
 30
0.0
 10
12.3446810987
 20
39.0200166999
 30
0.0
 10
12.1111347638
 20
39.2808907816
 30
0.0
 10
11.997669709
 20
39.4179741402
 30
0.0
  0
SPLINE
  5
32E
100
AcDbEntity
  8
0
100
AcDbSpline
 62
7
  6
BYLAYER
 70
0
 71
3
 72
15
 73
11
 74
0
 42
0.0000001
 43
0.0000001
 44
0.0000000001
 40
0.0
 40
0.0
 40
0.0
 40
0.0
 40
0.1293701092
 40
0.2605070034
 40
0.3918462069
 40
0.521833703
 40
0.6489540356
 40
0.7718041401
 40
0.8891501374
 40
1.0
 40
1.0
 40
1.0
 40
1.0
 10
21.0881432552
 20
48.1286764323
 30
0.0
 10
21.2658031129
 20
47.9140358101
 30
0.0
 10
21.6059187763
 20
47.4669304374
 30
0.0
 10
22.0633560045
 20
46.7567820927
 30
0.0
 10
22.4655311478
 20
46.0123658505
 30
0.0
 10
22.805300633
 20
45.2469156407
 30
0.0
 10
23.0766680193
 20
44.4739234832
 30
0.0
 10
23.2748458899
 20
43.7069705867
 30
0.0
 10
23.3963202513
 20
42.9596408475
 30
0.0
 10
23.4255924219
 20
42.4678811833
 30
0.0
 10
23.425594104
 20
42.2291406619
 30
0.0
  0
SPLINE
  5
32F
100
AcDbEntity
  8
0
100
AcDbSpline
 62
7
  6
BYLAYER
 70
0
 71
3
 72
26
 73
22
 74
0
 42
0.0000001
 43
0.0000001
 44
0.0000000001
 40
0.0
 40
0.0
 40
0.0
 40
0.0
 40
0.0223122612
 40
0.0444531659
 40
0.0665907975
 40
0.0888935837
 40
0.1115234048
 40
0.1346308041
 40
0.1827466365
 40
0.2341369929
 40
0.2893114981
 40
0.3484746552
 40
0.4115723418
 40
0.4783406332
 40
0.5483497647
 40
0.6210414173
 40
0.6957601782
 40
0.771786303
 40
0.8483500672
 40
0.9246868269
 40
1.0
 40
1.0
 40
1.0
 40
1.0
 10
15.6982346034
 20
37.0283384113
 30
0.0
 10
15.757428911
 20
37.0472503776
 30
0.0
 10
15.8735088011
 20
37.0910783425
 30
0.0
 10
16.0393468464
 20
37.1748643541
 30
0.0
 10
16.1952423028
 20
37.2759450244
 30
0.0
 10
16.3405013925
 20
37.3939380899
 30
0.0
 10
16.4745947693
 20
37.528318178
 30
0.0
 10
16.6399358
 20
37.7312598269
 30
0.0
 10
16.8158899677
 20
38.0263658778
 30
0.0
 10
16.9712491044
 20
38.430028985
 30
0.0
 10
17.0723594868
 20
38.8818830258
 30
0.0
 10
17.1181212356
 20
39.3750989958
 30
0.0
 10
17.1081687023
 20
39.9024308481
 30
0.0
 10
17.0427855025
 20
40.456065812
 30
0.0
 10
16.9230183284
 20
41.0277519859
 30
0.0
 10
16.7506921215
 20
41.6089060643
 30
0.0
 10
16.5284240093
 20
42.1907739505
 30
0.0
 10
16.2595735511
 20
42.7645360106
 30
0.0
 10
15.9482214625
 20
43.321557648
 30
0.0
 10
15.5990897854
 20
43.8532981505
 30
0.0
 10
15.3420684246
 20
44.1890272354
 30
0.0
 10
15.2083235977
 20
44.3506116994
 30
0.0
  0
SPLINE
  5
330
100
AcDbEntity
  8
0
100
AcDbSpline
 62
7
  6
BYLAYER
 70
0
 71
3
 72
23
 73
19
 74
0
 42
0.0000001
 43
0.0000001
 44
0.0000000001
 40
0.0
 40
0.0
 40
0.0
 40
0.0
 40
0.0738409047
 40
0.1486720199
 40
0.2237981394
 40
0.2985669637
 40
0.3723087692
 40
0.4443901324
 40
0.5142247372
 40
0.5812942875
 40
0.6451720501
 40
0.7055488424
 40
0.7622647555
 40
0.8153435146
 40
0.8650294053
 40
0.9118200412
 40
0.9564793857
 40
1.0
 40
1.0
 40
1.0
 40
1.0
 10
12.1545862537
 20
39.5573348492
 30
0.0
 10
12.0540712786
 20
39.6787725058
 30
0.0
 10
11.860346778
 20
39.9305681493
 30
0.0
 10
11.5952075598
 20
40.3284359057
 30
0.0
 10
11.3562639303
 20
40.7448751397
 30
0.0
 10
11.146699409
 20
41.1742571962
 30
0.0
 10
10.9693127035
 20
41.6109119623
 30
0.0
 10
10.8264636908
 20
42.0490130611
 30
0.0
 10
10.720048426
 20
42.4827468784
 30
0.0
 10
10.6514887417
 20
42.9063751589
 30
0.0
 10
10.6217180195
 20
43.3143176639
 30
0.0
 10
10.6311909141
 20
43.701231768
 30
0.0
 10
10.6798858897
 20
44.0620779879
 30
0.0
 10
10.7673695696
 20
44.3921625718
 30
0.0
 10
10.892811991
 20
44.6871100837
 30
0.0
 10
11.0550385097
 20
44.9428261619
 30
0.0
 10
11.2521494384
 20
45.1552780797
 30
0.0
 10
11.4060094271
 20
45.2663237361
 30
0.0
 10
11.4864723998
 20
45.3127786052
 30
0.0
  0
SPLINE
  5
331
100
AcDbEntity
  8
0
100
AcDbSpline
 62
7
  6
BYLAYER
 70
0
 71
3
 72
11
 73
7
 74
0
 42
0.0000001
 43
0.0000001
 44
0.0000000001
 40
0.0
 40
0.0
 40
0.0
 40
0.0
 40
0.2224605835
 40
0.4617902292
 40
0.7206799047
 40
1.0
 40
1.0
 40
1.0
 40
1.0
 10
11.8734000653
 20
45.5691881869
 30
0.0
 10
11.9954277072
 20
45.5845847861
 30
0.0
 10
12.252766935
 20
45.5885571623
 30
0.0
 10
12.6471767908
 20
45.5201578238
 30
0.0
 10
13.0552029531
 20
45.3800150145
 30
0.0
 10
13.3217332739
 20
45.245658071
 30
0.0
 10
13.4554753566
 20
45.1684423594
 30
0.0
  0
SPLINE
  5
332
100
AcDbEntity
  8
0
100
AcDbSpline
 62
7
  6
BYLAYER
 70
0
 71
3
 72
23
 73
19
 74
0
 42
0.0000001
 43
0.0000001
 44
0.0000000001
 40
0.0
 40
0.0
 40
0.0
 40
0.0
 40
0.0434980038
 40
0.0885152515
 40
0.1359042243
 40
0.1862870533
 40
0.2400446193
 40
0.2973357598
 40
0.3581285784
 40
0.4222328624
 40
0.4893303335
 40
0.5590014323
 40
0.6307474318
 40
0.7040105925
 40
0.7781933357
 40
0.8526668784
 40
0.9268182667
 40
1.0
 40
1.0
 40
1.0
 40
1.0
 10
17.2106231762
 20
37.5985729828
 30
0.0
 10
17.3075420791
 20
37.6667546887
 30
0.0
 10
17.4914880323
 20
37.825372046
 30
0.0
 10
17.7231891506
 20
38.1165456144
 30
0.0
 10
17.911123007
 20
38.4590733929
 30
0.0
 10
18.0532773556
 20
38.8480918519
 30
0.0
 10
18.1483893377
 20
39.2786231113
 30
0.0
 10
18.1955889548
 20
39.7453121405
 30
0.0
 10
18.1944826832
 20
40.242415828
 30
0.0
 10
18.1451891101
 20
40.7637957548
 30
0.0
 10
18.0483818437
 20
41.3029810071
 30
0.0
 10
17.9052956784
 20
41.8532451888
 30
0.0
 10
17.7177346211
 20
42.4076967533
 30
0.0
 10
17.4880546929
 20
42.9593748507
 30
0.0
 10
17.2191478155
 20
43.5013192107
 30
0.0
 10
16.9144067605
 20
44.0267573379
 30
0.0
 10
16.5776733144
 20
44.5289805469
 30
0.0
 10
16.3323869698
 20
44.8471355958
 30
0.0
 10
16.2052673674
 20
45.0007157624
 30
0.0
  0
SPLINE
  5
333
100
AcDbEntity
  8
0
100
AcDbSpline
 62
7
  6
BYLAYER
 70
0
 71
3
 72
15
 73
11
 74
0
 42
0.0000001
 43
0.0000001
 44
0.0000000001
 40
0.0
 40
0.0
 40
0.0
 40
0.0
 40
0.1518164472
 40
0.2932855675
 40
0.4247027399
 40
0.5472248988
 40
0.6628834887
 40
0.774569605
 40
0.8857666821
 40
1.0
 40
1.0
 40
1.0
 40
1.0
 10
10.4148256724
 20
43.412966514
 30
0.0
 10
10.4148256724
 20
43.5577483886
 30
0.0
 10
10.429750512
 20
43.8377983565
 30
0.0
 10
10.502187599
 20
44.2375069871
 30
0.0
 10
10.6232173729
 20
44.5962900366
 30
0.0
 10
10.7915224032
 20
44.9081899684
 30
0.0
 10
11.0051652701
 20
45.16751634
 30
0.0
 10
11.2609604321
 20
45.3688435335
 30
0.0
 10
11.5538600585
 20
45.5075434773
 30
0.0
 10
11.765316793
 20
45.5555509912
 30
0.0
 10
11.8734000653
 20
45.5691881869
 30
0.0
  0
SPLINE
  5
334
100
AcDbEntity
  8
0
100
AcDbSpline
 62
7
  6
BYLAYER
 70
0
 71
3
 72
9
 73
5
 74
0
 42
0.0000001
 43
0.0000001
 44
0.0000000001
 40
0.0
 40
0.0
 40
0.0
 40
0.0
 40
0.5173175624
 40
1.0
 40
1.0
 40
1.0
 40
1.0
 10
40.3624638767
 20
80.2249479228
 30
0.0
 10
41.4859599829
 20
80.3964183547
 30
0.0
 10
43.6610854191
 20
80.7066871676
 30
0.0
 10
45.8451425239
 20
80.949503811
 30
0.0
 10
46.9013518015
 20
81.0438565746
 30
0.0
  0
SPLINE
  5
335
100
AcDbEntity
  8
0
100
AcDbSpline
 62
7
  6
BYLAYER
 70
0
 71
3
 72
9
 73
5
 74
0
 42
0.0000001
 43
0.0000001
 44
0.0000000001
 40
0.0
 40
0.0
 40
0.0
 40
0.0
 40
0.5220649667
 40
1.0
 40
1.0
 40
1.0
 40
1.0
 10
46.9013518015
 20
81.0438565746
 30
0.0
 10
47.8692759621
 20
81.1303226981
 30
0.0
 10
49.7269437712
 20
81.2588119111
 30
0.0
 10
51.588436108
 20
81.3038047099
 30
0.0
 10
52.4780639541
 20
81.3072520287
 30
0.0
  0
SPLINE
  5
336
100
AcDbEntity
  8
0
100
AcDbSpline
 62
7
  6
BYLAYER
 70
0
 71
3
 72
10
 73
6
 74
0
 42
0.0000001
 43
0.0000001
 44
0.0000000001
 40
0.0
 40
0.0
 40
0.0
 40
0.0
 40
0.5017004551
 40
0.7513723571
 40
1.0
 40
1.0
 40
1.0
 40
1.0
 10
52.9495721697
 20
81.0954463475
 30
0.0
 10
54.1261677128
 20
79.9134018383
 30
0.0
 10
55.8542312261
 20
78.1081207256
 30
0.0
 10
58.0533380835
 20
75.6146303404
 30
0.0
 10
59.1114918757
 20
74.339718201
 30
0.0
 10
59.6293268541
 20
73.6955285569
 30
0.0
  0
SPLINE
  5
337
100
AcDbEntity
  8
0
100
AcDbSpline
 62
7
  6
BYLAYER
 70
0
 71
3
 72
9
 73
5
 74
0
 42
0.0000001
 43
0.0000001
 44
0.0000000001
 40
0.0
 40
0.0
 40
0.0
 40
0.0
 40
0.2442388972
 40
1.0
 40
1.0
 40
1.0
 40
1.0
 10
59.9579527515
 20
46.9503000923
 30
0.0
 10
60.2453059365
 20
46.9866010311
 30
0.0
 10
61.4212187047
 20
47.140077449
 30
0.0
 10
62.5948073634
 20
47.3110351604
 30
0.0
 10
63.4806745864
 20
47.4469890219
 30
0.0
  0
SPLINE
  5
338
100
AcDbEntity
  8
0
100
AcDbSpline
 62
7
  6
BYLAYER
 70
0
 71
3
 72
10
 73
6
 74
0
 42
0.0000001
 43
0.0000001
 44
0.0000000001
 40
0.0
 40
0.0
 40
0.0
 40
0.0
 40
0.2441325353
 40
0.4924923685
 40
1.0
 40
1.0
 40
1.0
 40
1.0
 10
65.9933185783
 20
57.2933435512
 30
0.0
 10
65.9933185783
 20
56.6120473913
 30
0.0
 10
65.9710466477
 20
55.2375638654
 30
0.0
 10
65.8420288049
 20
52.4495613814
 30
0.0
 10
65.6601064075
 20
50.347046442
 30
0.0
 10
65.5122264893
 20
48.9384957448
 30
0.0
  0
SPLINE
  5
339
100
AcDbEntity
  8
0
100
AcDbSpline
 62
7
  6
BYLAYER
 70
0
 71
3
 72
10
 73
6
 74
0
 42
0.0000001
 43
0.0000001
 44
0.0000000001
 40
0.0
 40
0.0
 40
0.0
 40
0.0
 40
0.2518831696
 40
0.5024896748
 40
1.0
 40
1.0
 40
1.0
 40
1.0
 10
59.6293268541
 20
73.6955285569
 30
0.0
 10
60.1446925291
 20
73.0544107474
 30
0.0
 10
61.1529155791
 20
71.7592688704
 30
0.0
 10
63.0795532169
 20
69.1219623895
 30
0.0
 10
64.4367830996
 20
67.0888894852
 30
0.0
 10
65.3101222335
 20
65.7188495854
 30
0.0
  0
SPLINE
  5
33A
100
AcDbEntity
  8
0
100
AcDbSpline
 62
7
  6
BYLAYER
 70
0
 71
3
 72
11
 73
7
 74
0
 42
0.0000001
 43
0.0000001
 44
0.0000000001
 40
0.0
 40
0.0
 40
0.0
 40
0.0
 40
0.2437723439
 40
0.4913812317
 40
0.7433442837
 40
1.0
 40
1.0
 40
1.0
 40
1.0
 10
65.5122264893
 20
65.0926773793
 30
0.0
 10
65.5875924137
 20
64.4618443187
 30
0.0
 10
65.724088087
 20
63.1883360771
 30
0.0
 10
65.8770610391
 20
61.2568078189
 30
0.0
 10
65.9722136148
 20
59.2879069323
 30
0.0
 10
65.9933185783
 20
57.9622392878
 30
0.0
 10
65.9933185783
 20
57.2933435512
 30
0.0
  0
SPLINE
  5
33B
100
AcDbEntity
  8
0
100
AcDbSpline
 62
7
  6
BYLAYER
 70
0
 71
3
 72
11
 73
7
 74
0
 42
0.0000001
 43
0.0000001
 44
0.0000000001
 40
0.0
 40
0.0
 40
0.0
 40
0.0
 40
0.2437723439
 40
0.4913812317
 40
0.7433442837
 40
1.0
 40
1.0
 40
1.0
 40
1.0
 10
63.6459953186
 20
47.8610331076
 30
0.0
 10
63.5706293941
 20
48.4918661682
 30
0.0
 10
63.4341337208
 20
49.7653744098
 30
0.0
 10
63.2811607688
 20
51.696902668
 30
0.0
 10
63.186008193
 20
53.6658035547
 30
0.0
 10
63.1649032295
 20
54.9914711992
 30
0.0
 10
63.1649032295
 20
55.6603669357
 30
0.0
  0
SPLINE
  5
33C
100
AcDbEntity
  8
0
100
AcDbSpline
 62
7
  6
BYLAYER
 70
0
 71
3
 72
9
 73
5
 74
0
 42
0.0000001
 43
0.0000001
 44
0.0000000001
 40
0.0
 40
0.0
 40
0.0
 40
0.0
 40
0.5220650339
 40
1.0
 40
1.0
 40
1.0
 40
1.0
 10
44.0729366196
 20
79.4108799975
 30
0.0
 10
43.1050137575
 20
79.3244140859
 30
0.0
 10
41.2473487193
 20
79.1959246114
 30
0.0
 10
39.385859114
 20
79.1509325993
 30
0.0
 10
38.4962327087
 20
79.1474852872
 30
0.0
  0
SPLINE
  5
33D
100
AcDbEntity
  8
0
100
AcDbSpline
 62
7
  6
BYLAYER
 70
0
 71
3
 72
9
 73
5
 74
0
 42
0.0000001
 43
0.0000001
 44
0.0000000001
 40
0.0
 40
0.0
 40
0.0
 40
0.0
 40
0.5173169979
 40
1.0
 40
1.0
 40
1.0
 40
1.0
 10
50.6118327734
 20
80.2297893858
 30
0.0
 10
49.4883364941
 20
80.0583189278
 30
0.0
 10
47.3132078996
 20
79.7480531417
 30
0.0
 10
45.1291484595
 20
79.5052328565
 30
0.0
 10
44.0729366196
 20
79.4108799975
 30
0.0
  0
SPLINE
  5
33E
100
AcDbEntity
  8
0
100
AcDbSpline
 62
7
  6
BYLAYER
 70
0
 71
3
 72
10
 73
6
 74
0
 42
0.0000001
 43
0.0000001
 44
0.0000000001
 40
0.0
 40
0.0
 40
0.0
 40
0.0
 40
0.2518833026
 40
0.5024896861
 40
1.0
 40
1.0
 40
1.0
 40
1.0
 10
56.8009116401
 20
72.0625518629
 30
0.0
 10
56.2855464589
 20
72.7036692419
 30
0.0
 10
55.2773137609
 20
73.9988010042
 30
0.0
 10
53.3506941583
 20
76.6361156068
 30
0.0
 10
51.9934624926
 20
78.6691824908
 30
0.0
 10
51.1201245248
 20
80.0392205622
 30
0.0
  0
SPLINE
  5
33F
100
AcDbEntity
  8
0
100
AcDbSpline
 62
7
  6
BYLAYER
 70
0
 71
3
 72
10
 73
6
 74
0
 42
0.0000001
 43
0.0000001
 44
0.0000000001
 40
0.0
 40
0.0
 40
0.0
 40
0.0
 40
0.5017004583
 40
0.7513723597
 40
1.0
 40
1.0
 40
1.0
 40
1.0
 10
63.480674586
 20
64.6626237984
 30
0.0
 10
62.3040774805
 20
65.8446698775
 30
0.0
 10
60.5760117133
 20
67.6499534236
 30
0.0
 10
58.3769022065
 20
70.143447331
 30
0.0
 10
57.3187471611
 20
71.4183612646
 30
0.0
 10
56.8009116401
 20
72.0625518629
 30
0.0
  0
SPLINE
  5
340
100
AcDbEntity
  8
0
100
AcDbSpline
 62
7
  6
BYLAYER
 70
0
 71
3
 72
10
 73
6
 74
0
 42
0.0000001
 43
0.0000001
 44
0.0000000001
 40
0.0
 40
0.0
 40
0.0
 40
0.0
 40
0.2441325353
 40
0.4924923685
 40
1.0
 40
1.0
 40
1.0
 40
1.0
 10
63.1649032295
 20
55.6603669357
 30
0.0
 10
63.1649032295
 20
56.3416630956
 30
0.0
 10
63.1871751601
 20
57.7161466215
 30
0.0
 10
63.3161930029
 20
60.5041491056
 30
0.0
 10
63.4981154003
 20
62.606664045
 30
0.0
 10
63.6459953186
 20
64.0152147421
 30
0.0
  0
SPLINE
  5
341
100
AcDbEntity
  8
0
100
AcDbSpline
 62
7
  6
BYLAYER
 70
0
 71
3
 72
15
 73
11
 74
0
 42
0.0000001
 43
0.0000001
 44
0.0000000001
 40
0.0
 40
0.0
 40
0.0
 40
0.0
 40
0.1491363321
 40
0.2932607248
 40
0.4309986171
 40
0.5612444539
 40
0.6832502543
 40
0.7967301416
 40
0.9019803493
 40
1.0
 40
1.0
 40
1.0
 40
1.0
 10
56.8009115305
 20
72.062551956
 30
0.0
 10
56.3264294753
 20
72.652810236
 30
0.0
 10
55.3477393093
 20
73.7777808303
 30
0.0
 10
53.7769502532
 20
75.3055845148
 30
0.0
 10
52.1491437995
 20
76.6257440093
 30
0.0
 10
50.4914148977
 20
77.7159132775
 30
0.0
 10
48.8309514648
 20
78.5576810192
 30
0.0
 10
47.1942189896
 20
79.1362791058
 30
0.0
 10
45.6081296131
 20
79.4405803888
 30
0.0
 10
44.5687158583
 20
79.4551690192
 30
0.0
 10
44.0729406505
 20
79.4108803465
 30
0.0
  0
SPLINE
  5
342
100
AcDbEntity
  8
0
100
AcDbSpline
 62
7
  6
BYLAYER
 70
0
 71
3
 72
15
 73
11
 74
0
 42
0.0000001
 43
0.0000001
 44
0.0000000001
 40
0.0
 40
0.0
 40
0.0
 40
0.0
 40
0.1108410466
 40
0.2280578217
 40
0.3507094054
 40
0.4776259773
 40
0.6074737905
 40
0.7388131852
 40
0.870152484
 40
1.0
 40
1.0
 40
1.0
 40
1.0
 10
63.1649032295
 20
55.6603669357
 30
0.0
 10
63.1649032295
 20
56.3217689318
 30
0.0
 10
63.0856814927
 20
57.6833901611
 30
0.0
 10
62.7562872643
 20
59.752949113
 30
0.0
 10
62.2185021037
 20
61.8773742748
 30
0.0
 10
61.4814470399
 20
64.0206470268
 30
0.0
 10
60.557582019
 20
66.1467550799
 30
0.0
 10
59.4624891189
 20
68.2197945593
 30
0.0
 10
58.2148105678
 20
70.2045600542
 30
0.0
 10
57.2863534931
 20
71.4586597517
 30
0.0
 10
56.8009115305
 20
72.062551956
 30
0.0
  0
SPLINE
  5
343
100
AcDbEntity
  8
0
100
AcDbSpline
 62
7
  6
BYLAYER
 70
0
 71
3
 72
15
 73
11
 74
0
 42
0.0000001
 43
0.0000001
 44
0.0000000001
 40
0.0
 40
0.0
 40
0.0
 40
0.0
 40
0.1077143025
 40
0.2184130358
 40
0.3334172855
 40
0.4537806095
 40
0.5802627347
 40
0.7133430463
 40
0.8532816947
 40
1.0
 40
1.0
 40
1.0
 40
1.0
 10
60.1186655442
 20
47.8786111548
 30
0.0
 10
60.3639162508
 20
48.0688554857
 30
0.0
 10
60.832336374
 20
48.4933323377
 30
0.0
 10
61.4450006723
 20
49.2373254232
 30
0.0
 10
61.9702600626
 20
50.08837577
 30
0.0
 10
62.4042927036
 20
51.0391303651
 30
0.0
 10
62.7443150781
 20
52.0819914698
 30
0.0
 10
62.9881195297
 20
53.2089346234
 30
0.0
 10
63.1340598347
 20
54.4111093496
 30
0.0
 10
63.1649032295
 20
55.2375853285
 30
0.0
 10
63.1649032295
 20
55.6603669357
 30
0.0
  0
SPLINE
  5
344
100
AcDbEntity
  8
0
100
AcDbSpline
 62
7
  6
BYLAYER
 70
0
 71
3
 72
9
 73
5
 74
0
 42
0.0000001
 43
0.0000001
 44
0.0000000001
 40
0.0
 40
0.0
 40
0.0
 40
0.0
 40
0.2421786136
 40
1.0
 40
1.0
 40
1.0
 40
1.0
 10
60.5536777528
 20
81.4177222759
 30
0.0
 10
60.6954727473
 20
81.3496108603
 30
0.0
 10
61.2753153954
 20
81.0566556608
 30
0.0
 10
61.8322791154
 20
80.7191198561
 30
0.0
 10
62.2403975545
 20
80.4439161747
 30
0.0
  0
SPLINE
  5
345
100
AcDbEntity
  8
0
100
AcDbSpline
 62
7
  6
BYLAYER
 70
0
 71
3
 72
25
 73
21
 74
0
 42
0.0000001
 43
0.0000001
 44
0.0000000001
 40
0.0
 40
0.0
 40
0.0
 40
0.0
 40
0.0734442116
 40
0.1478472194
 40
0.2225451182
 40
0.2968859372
 40
0.3702159961
 40
0.4419162252
 40
0.5114157823
 40
0.5782157423
 40
0.6419123385
 40
0.7022238424
 40
0.7590202376
 40
0.8123551263
 40
0.862496169
 40
0.9099453132
 40
0.9329063339
 40
0.9554874128
 40
0.9778100079
 40
1.0
 40
1.0
 40
1.0
 40
1.0
 10
70.7689022154
 20
79.353570506
 30
0.0
 10
71.1128322788
 20
78.938049725
 30
0.0
 10
71.7755425546
 20
78.0766044537
 30
0.0
 10
72.6822714121
 20
76.7153425096
 30
0.0
 10
73.4991227087
 20
75.2906449295
 30
0.0
 10
74.2152568662
 20
73.821521679
 30
0.0
 10
74.8211823146
 20
72.3272872957
 30
0.0
 10
75.3088632807
 20
70.827642747
 30
0.0
 10
75.6717828511
 20
69.3422065461
 30
0.0
 10
75.9050170545
 20
67.890277807
 30
0.0
 10
76.0052183284
 20
66.4905268648
 30
0.0
 10
75.9705431349
 20
65.1607422615
 30
0.0
 10
75.8005280949
 20
63.9176977201
 30
0.0
 10
75.4957987765
 20
62.7770762952
 30
0.0
 10
75.0583398257
 20
61.7541070013
 30
0.0
 10
74.5799629991
 20
61.0032975259
 30
0.0
 10
74.1367723577
 20
60.4825414961
 30
0.0
 10
73.7787853683
 20
60.1345976024
 30
0.0
 10
73.3929842807
 20
59.8268476377
 30
0.0
 10
73.1178955411
 20
59.6490268479
 30
0.0
 10
72.9767599303
 20
59.5675426514
 30
0.0
  0
SPLINE
  5
346
100
AcDbEntity
  8
0
100
AcDbSpline
 62
7
  6
BYLAYER
 70
0
 71
3
 72
11
 73
7
 74
0
 42
0.0000001
 43
0.0000001
 44
0.0000000001
 40
0.0
 40
0.0
 40
0.0
 40
0.0
 40
0.2365724749
 40
0.4830510295
 40
0.7380646674
 40
1.0
 40
1.0
 40
1.0
 40
1.0
 10
66.695151729
 20
83.0158543441
 30
0.0
 10
67.0512860927
 20
82.7757047245
 30
0.0
 10
67.7579011808
 20
82.2542997083
 30
0.0
 10
68.7737493009
 20
81.3785786016
 30
0.0
 10
69.7580497538
 20
80.4011126558
 30
0.0
 10
70.3793868403
 20
79.6965806388
 30
0.0
 10
70.6826338949
 20
79.3302112329
 30
0.0
  0
SPLINE
  5
347
100
AcDbEntity
  8
0
100
AcDbSpline
 62
7
  6
BYLAYER
 70
0
 71
3
 72
16
 73
12
 74
0
 42
0.0000001
 43
0.0000001
 44
0.0000000001
 40
0.0
 40
0.0
 40
0.0
 40
0.0
 40
0.1104987965
 40
0.2226668271
 40
0.338052805
 40
0.4579882445
 40
0.5200294937
 40
0.583575076
 40
0.7154674897
 40
0.8542321665
 40
1.0
 40
1.0
 40
1.0
 40
1.0
 10
58.7268263602
 20
84.2492989288
 30
0.0
 10
58.9354437885
 20
84.3697528809
 30
0.0
 10
59.3751350992
 20
84.580605897
 30
0.0
 10
60.0823609044
 20
84.7967925823
 30
0.0
 10
60.8334948019
 20
84.9125293819
 30
0.0
 10
61.483550962
 20
84.9246958093
 30
0.0
 10
62.0176534322
 20
84.8859577823
 30
0.0
 10
62.5744566248
 20
84.8126241779
 30
0.0
 10
63.2876532502
 20
84.6563699364
 30
0.0
 10
64.1516141325
 20
84.3734184201
 30
0.0
 10
64.7219816942
 20
84.1272571986
 30
0.0
 10
65.0084319272
 20
83.9896604453
 30
0.0
  0
SPLINE
  5
348
100
AcDbEntity
  8
0
100
AcDbSpline
 62
7
  6
BYLAYER
 70
0
 71
3
 72
29
 73
25
 74
0
 42
0.0000001
 43
0.0000001
 44
0.0000000001
 40
0.0
 40
0.0
 40
0.0
 40
0.0
 40
0.0068171294
 40
0.0125968942
 40
0.0184984718
 40
0.0246615295
 40
0.0310494303
 40
0.0376165383
 40
0.0511531358
 40
0.0650877924
 40
0.0793118872
 40
0.0937585036
 40
0.1083831463
 40
0.1380491373
 40
0.1681458296
 40
0.1985739028
 40
0.229268407
 40
0.2912863864
 40
0.3539609325
 40
0.4807534147
 40
0.6089889557
 40
0.7383525295
 40
0.8686997365
 40
1.0
 40
1.0
 40
1.0
 40
1.0
 10
66.695151729
 20
83.0158543441
 30
0.0
 10
66.6973780202
 20
83.0171396863
 30
0.0
 10
66.701006127
 20
83.0209492171
 30
0.0
 10
66.7012511612
 20
83.0282551745
 30
0.0
 10
66.6993143115
 20
83.0347240993
 30
0.0
 10
66.6962370376
 20
83.0409929708
 30
0.0
 10
66.6924074261
 20
83.0471082188
 30
0.0
 10
66.6865334382
 20
83.0551958628
 30
0.0
 10
66.6782354401
 20
83.0650073821
 30
0.0
 10
66.6674024317
 20
83.0764090803
 30
0.0
 10
66.6558751454
 20
83.0876052575
 30
0.0
 10
66.6438322592
 20
83.0986313929
 30
0.0
 10
66.6271555269
 20
83.1132104892
 30
0.0
 10
66.6055324824
 20
83.1310874412
 30
0.0
 10
66.5787743283
 20
83.1520842613
 30
0.0
 10
66.5513051468
 20
83.1727918093
 30
0.0
 10
66.5137986563
 20
83.200171454
 30
0.0
 10
66.4658266908
 20
83.2338273346
 30
0.0
 10
66.3872210156
 20
83.2868852413
 30
0.0
 10
66.2865354758
 20
83.3518334668
 30
0.0
 10
66.1632648317
 20
83.428102071
 30
0.0
 10
66.037726532
 20
83.5032213843
 30
0.0
 10
65.9102340561
 20
83.5772993011
 30
0.0
 10
65.8243128507
 20
83.6258077969
 30
0.0
 10
65.781037491
 20
83.6498646
 30
0.0
  0
SPLINE
  5
349
100
AcDbEntity
  8
0
100
AcDbSpline
 62
7
  6
BYLAYER
 70
0
 71
3
 72
24
 73
20
 74
0
 42
0.0000001
 43
0.0000001
 44
0.0000000001
 40
0.0
 40
0.0
 40
0.0
 40
0.0
 40
0.1198419377
 40
0.2403854953
 40
0.3617522873
 40
0.4841367344
 40
0.5458050903
 40
0.6078665235
 40
0.6704068811
 40
0.7335541039
 40
0.797515454
 40
0.8299099038
 40
0.8626764226
 40
0.8959397473
 40
0.9299158969
 40
0.9472907591
 40
0.9650145293
 40
0.9830666189
 40
1.0
 40
1.0
 40
1.0
 40
1.0
 10
65.7694136862
 20
83.6563171806
 30
0.0
 10
65.7401615275
 20
83.6725326159
 30
0.0
 10
65.6813386092
 20
83.7047935797
 30
0.0
 10
65.5923342886
 20
83.7524523828
 30
0.0
 10
65.5021488558
 20
83.7993951974
 30
0.0
 10
65.4259822462
 20
83.8376682496
 30
0.0
 10
65.3641816628
 20
83.8676459897
 30
0.0
 10
65.317158618
 20
83.8898134653
 30
0.0
 10
65.2694650918
 20
83.9115173544
 30
0.0
 10
65.2209223674
 20
83.9326185275
 30
0.0
 10
65.1797021118
 20
83.949442057
 30
0.0
 10
65.1460086558
 20
83.9622272442
 30
0.0
 10
65.1201202829
 20
83.971420389
 30
0.0
 10
65.0935563492
 20
83.9799905169
 30
0.0
 10
65.0707743056
 20
83.9862836624
 30
0.0
 10
65.0519375275
 20
83.9903579572
 30
0.0
 10
65.0372327876
 20
83.9926551966
 30
0.0
 10
65.0226458731
 20
83.9934788814
 30
0.0
 10
65.0125246205
 20
83.9920233488
 30
0.0
 10
65.0084319272
 20
83.9896604453
 30
0.0
  0
SPLINE
  5
34A
100
AcDbEntity
  8
0
100
AcDbSpline
 62
7
  6
BYLAYER
 70
0
 71
3
 72
25
 73
21
 74
0
 42
0.0000001
 43
0.0000001
 44
0.0000000001
 40
0.0
 40
0.0
 40
0.0
 40
0.0
 40
0.0738803227
 40
0.1487258203
 40
0.2238622635
 40
0.2986277164
 40
0.372357481
 40
0.4444206674
 40
0.5142323652
 40
0.5812765488
 40
0.6451286792
 40
0.7054821189
 40
0.7621785194
 40
0.815242674
 40
0.8649197585
 40
0.9117076395
 40
0.9342706308
 40
0.9564183962
 40
0.9782814726
 40
1.0
 40
1.0
 40
1.0
 40
1.0
 10
70.7038115697
 20
79.304587139
 30
0.0
 10
71.0480416629
 20
78.8874618331
 30
0.0
 10
71.7113677079
 20
78.0228653208
 30
0.0
 10
72.6190224007
 20
76.6570666001
 30
0.0
 10
73.4367680103
 20
75.2280591453
 30
0.0
 10
74.1537100709
 20
73.7549943692
 30
0.0
 10
74.7603195154
 20
72.2573514959
 30
0.0
 10
75.2485519816
 20
70.755038661
 30
0.0
 10
75.6119161366
 20
69.2679346248
 30
0.0
 10
75.845569193
 20
67.8156705194
 30
0.0
 10
75.9463443128
 20
66.4173272938
 30
0.0
 10
75.9127247508
 20
65.0911643306
 30
0.0
 10
75.7447907465
 20
63.8544242906
 30
0.0
 10
75.4439793892
 20
62.7231064682
 30
0.0
 10
75.0133149206
 20
61.7123531539
 30
0.0
 10
74.5434701345
 20
60.9728400774
 30
0.0
 10
74.1092574652
 20
60.4617397205
 30
0.0
 10
73.7594679184
 20
60.1212817441
 30
0.0
 10
73.3828863792
 20
59.820593452
 30
0.0
 10
73.1144396825
 20
59.6470438685
 30
0.0
 10
72.976757296
 20
59.5675472142
 30
0.0
  0
SPLINE
  5
34B
100
AcDbEntity
  8
0
100
AcDbSpline
 62
7
  6
BYLAYER
 70
0
 71
3
 72
9
 73
5
 74
0
 42
0.0000001
 43
0.0000001
 44
0.0000000001
 40
0.0
 40
0.0
 40
0.0
 40
0.0
 40
0.2534132489
 40
1.0
 40
1.0
 40
1.0
 40
1.0
 10
32.5516062757
 20
75.6198475816
 30
0.0
 10
32.4989042888
 20
75.1250235427
 30
0.0
 10
32.3033304784
 20
73.1711442857
 30
0.0
 10
32.164422905
 20
71.2111383789
 30
0.0
 10
32.1060529551
 20
69.7462429071
 30
0.0
  0
SPLINE
  5
34C
100
AcDbEntity
  8
0
100
AcDbSpline
 62
7
  6
BYLAYER
 70
0
 71
3
 72
9
 73
5
 74
0
 42
0.0000001
 43
0.0000001
 44
0.0000000001
 40
0.0
 40
0.0
 40
0.0
 40
0.0
 40
0.4792635519
 40
1.0
 40
1.0
 40
1.0
 40
1.0
 10
45.9179910936
 20
43.0794564982
 30
0.0
 10
46.7540620346
 20
43.087123777
 30
0.0
 10
48.4984358221
 20
43.1369592967
 30
0.0
 10
50.2392342216
 20
43.2597357842
 30
0.0
 10
51.1440892034
 20
43.340567844
 30
0.0
  0
SPLINE
  5
34D
100
AcDbEntity
  8
0
100
AcDbSpline
 62
7
  6
BYLAYER
 70
0
 71
3
 72
9
 73
5
 74
0
 42
0.0000001
 43
0.0000001
 44
0.0000000001
 40
0.0
 40
0.0
 40
0.0
 40
0.0
 40
0.5173170029
 40
1.0
 40
1.0
 40
1.0
 40
1.0
 10
34.7056331761
 20
76.9589946902
 30
0.0
 10
35.8291280799
 20
77.1304649387
 30
0.0
 10
38.0042539595
 20
77.4407305702
 30
0.0
 10
40.1883107099
 20
77.6835504977
 30
0.0
 10
41.2445212253
 20
77.7779033558
 30
0.0
  0
SPLINE
  5
34E
100
AcDbEntity
  8
0
100
AcDbSpline
 62
7
  6
BYLAYER
 70
0
 71
3
 72
9
 73
5
 74
0
 42
0.0000001
 43
0.0000001
 44
0.0000000001
 40
0.0
 40
0.0
 40
0.0
 40
0.0
 40
0.5220650213
 40
1.0
 40
1.0
 40
1.0
 40
1.0
 10
41.2445212253
 20
77.7779033558
 30
0.0
 10
42.2124454647
 20
77.8643694979
 30
0.0
 10
44.070113212
 20
77.9928590938
 30
0.0
 10
45.9316055213
 20
78.037851474
 30
0.0
 10
46.8212332461
 20
78.0412987919
 30
0.0
  0
SPLINE
  5
34F
100
AcDbEntity
  8
0
100
AcDbSpline
 62
7
  6
BYLAYER
 70
0
 71
3
 72
10
 73
6
 74
0
 42
0.0000001
 43
0.0000001
 44
0.0000000001
 40
0.0
 40
0.0
 40
0.0
 40
0.0
 40
0.5017004551
 40
0.7513723571
 40
1.0
 40
1.0
 40
1.0
 40
1.0
 10
47.2927414711
 20
77.8294931161
 30
0.0
 10
48.469337043
 20
76.647448578
 30
0.0
 10
50.1974006066
 20
74.8421674275
 30
0.0
 10
52.3965074919
 20
72.3486769603
 30
0.0
 10
53.4546613506
 20
71.0737648225
 30
0.0
 10
53.9724963101
 20
70.4295751373
 30
0.0
  0
SPLINE
  5
350
100
AcDbEntity
  8
0
100
AcDbSpline
 62
7
  6
BYLAYER
 70
0
 71
3
 72
10
 73
6
 74
0
 42
0.0000001
 43
0.0000001
 44
0.0000000001
 40
0.0
 40
0.0
 40
0.0
 40
0.0
 40
0.2518832828
 40
0.5024896894
 40
1.0
 40
1.0
 40
1.0
 40
1.0
 10
53.9724963101
 20
70.4295751373
 30
0.0
 10
54.4878622336
 20
69.7884570486
 30
0.0
 10
55.4960946877
 20
68.4933223597
 30
0.0
 10
57.4227198213
 20
65.8560065078
 30
0.0
 10
58.7799524212
 20
63.8229362185
 30
0.0
 10
59.6532915331
 20
62.4528963529
 30
0.0
  0
SPLINE
  5
351
100
AcDbEntity
  8
0
100
AcDbSpline
 62
7
  6
BYLAYER
 70
0
 71
3
 72
11
 73
7
 74
0
 42
0.0000001
 43
0.0000001
 44
0.0000000001
 40
0.0
 40
0.0
 40
0.0
 40
0.0
 40
0.2437723439
 40
0.4913812317
 40
0.7433442837
 40
1.0
 40
1.0
 40
1.0
 40
1.0
 10
59.8553957916
 20
61.8267241483
 30
0.0
 10
59.930761716
 20
61.1958910877
 30
0.0
 10
60.0672573893
 20
59.9223828461
 30
0.0
 10
60.2202303414
 20
57.9908545879
 30
0.0
 10
60.3153829171
 20
56.0219537013
 30
0.0
 10
60.3364878806
 20
54.6962860568
 30
0.0
 10
60.3364878806
 20
54.0273903202
 30
0.0
  0
SPLINE
  5
352
100
AcDbEntity
  8
0
100
AcDbSpline
 62
7
  6
BYLAYER
 70
0
 71
3
 72
9
 73
5
 74
0
 42
0.0000001
 43
0.0000001
 44
0.0000000001
 40
0.0
 40
0.0
 40
0.0
 40
0.0
 40
0.4824504973
 40
1.0
 40
1.0
 40
1.0
 40
1.0
 10
51.1440892034
 20
43.340567844
 30
0.0
 10
52.222615386
 20
43.4369142101
 30
0.0
 10
54.4537996237
 20
43.6860061435
 30
0.0
 10
56.6756885491
 20
44.0048286255
 30
0.0
 10
57.8238438878
 20
44.1810357905
 30
0.0
  0
SPLINE
  5
353
100
AcDbEntity
  8
0
100
AcDbSpline
 62
7
  6
BYLAYER
 70
0
 71
3
 72
10
 73
6
 74
0
 42
0.0000001
 43
0.0000001
 44
0.0000000001
 40
0.0
 40
0.0
 40
0.0
 40
0.0
 40
0.2441325353
 40
0.4924923685
 40
1.0
 40
1.0
 40
1.0
 40
1.0
 10
60.3364878806
 20
54.0273903202
 30
0.0
 10
60.3364878806
 20
53.3460941603
 30
0.0
 10
60.31421595
 20
51.9716106344
 30
0.0
 10
60.1851981072
 20
49.1836081504
 30
0.0
 10
60.0032757098
 20
47.081093211
 30
0.0
 10
59.8553957916
 20
45.6725425138
 30
0.0
  0
SPLINE
  5
354
100
AcDbEntity
  8
0
100
AcDbSpline
 62
7
  6
BYLAYER
 70
0
 71
3
 72
9
 73
5
 74
0
 42
0.0000001
 43
0.0000001
 44
0.0000000001
 40
0.0
 40
0.0
 40
0.0
 40
0.0
 40
0.5173169186
 40
1.0
 40
1.0
 40
1.0
 40
1.0
 10
44.9550020655
 20
76.9638361489
 30
0.0
 10
43.8315059412
 20
76.7923657149
 30
0.0
 10
41.6563772686
 20
76.4821002627
 30
0.0
 10
39.4723178338
 20
76.2392796459
 30
0.0
 10
38.4161058054
 20
76.1449267573
 30
0.0
  0
SPLINE
  5
355
100
AcDbEntity
  8
0
100
AcDbSpline
 62
7
  6
BYLAYER
 70
0
 71
3
 72
10
 73
6
 74
0
 42
0.0000001
 43
0.0000001
 44
0.0000000001
 40
0.0
 40
0.0
 40
0.0
 40
0.0
 40
0.2518833659
 40
0.5024896761
 40
1.0
 40
1.0
 40
1.0
 40
1.0
 10
51.144080858
 20
68.7965987396
 30
0.0
 10
50.6287155676
 20
69.4377162906
 30
0.0
 10
49.6204760891
 20
70.7328428048
 30
0.0
 10
47.6938691998
 20
73.3701667848
 30
0.0
 10
46.3366318073
 20
75.4032292389
 30
0.0
 10
45.4632938263
 20
76.7732673307
 30
0.0
  0
SPLINE
  5
356
100
AcDbEntity
  8
0
100
AcDbSpline
 62
7
  6
BYLAYER
 70
0
 71
3
 72
9
 73
5
 74
0
 42
0.0000001
 43
0.0000001
 44
0.0000000001
 40
0.0
 40
0.0
 40
0.0
 40
0.0
 40
0.5220657161
 40
1.0
 40
1.0
 40
1.0
 40
1.0
 10
38.4161058054
 20
76.1449267573
 30
0.0
 10
37.4481816824
 20
76.0584607479
 30
0.0
 10
35.5905168651
 20
75.9299674817
 30
0.0
 10
33.7290271385
 20
75.8849793619
 30
0.0
 10
32.8394020081
 20
75.8815320545
 30
0.0
  0
SPLINE
  5
357
100
AcDbEntity
  8
0
100
AcDbSpline
 62
7
  6
BYLAYER
 70
0
 71
3
 72
10
 73
6
 74
0
 42
0.0000001
 43
0.0000001
 44
0.0000000001
 40
0.0
 40
0.0
 40
0.0
 40
0.0
 40
0.5017004583
 40
0.7513723598
 40
1.0
 40
1.0
 40
1.0
 40
1.0
 10
57.8238438855
 20
61.3966705659
 30
0.0
 10
56.647246764
 20
62.5787166612
 30
0.0
 10
54.9191809843
 20
64.3840002414
 30
0.0
 10
52.7200714281
 20
66.8774941674
 30
0.0
 10
51.6619164145
 20
68.1524081554
 30
0.0
 10
51.144080858
 20
68.7965987396
 30
0.0
  0
SPLINE
  5
358
100
AcDbEntity
  8
0
100
AcDbSpline
 62
7
  6
BYLAYER
 70
0
 71
3
 72
10
 73
6
 74
0
 42
0.0000001
 43
0.0000001
 44
0.0000000001
 40
0.0
 40
0.0
 40
0.0
 40
0.0
 40
0.2441325353
 40
0.4924923685
 40
1.0
 40
1.0
 40
1.0
 40
1.0
 10
57.5080725318
 20
52.3944137047
 30
0.0
 10
57.5080725318
 20
53.0757098647
 30
0.0
 10
57.5303444624
 20
54.4501933905
 30
0.0
 10
57.6593623052
 20
57.2381958746
 30
0.0
 10
57.8412847026
 20
59.340710814
 30
0.0
 10
57.9891646209
 20
60.7492615112
 30
0.0
  0
SPLINE
  5
359
100
AcDbEntity
  8
0
100
AcDbSpline
 62
7
  6
BYLAYER
 70
0
 71
3
 72
15
 73
11
 74
0
 42
0.0000001
 43
0.0000001
 44
0.0000000001
 40
0.0
 40
0.0
 40
0.0
 40
0.0
 40
0.1491363321
 40
0.2932607248
 40
0.4309986171
 40
0.5612444539
 40
0.6832502543
 40
0.7967301416
 40
0.9019803493
 40
1.0
 40
1.0
 40
1.0
 40
1.0
 10
51.1440808328
 20
68.796598725
 30
0.0
 10
50.6695987332
 20
69.3868569694
 30
0.0
 10
49.6909086315
 20
70.5118276153
 30
0.0
 10
48.1201195505
 20
72.0396312797
 30
0.0
 10
46.492313103
 20
73.3597907796
 30
0.0
 10
44.8345841997
 20
74.4499600455
 30
0.0
 10
43.1741207669
 20
75.2917277909
 30
0.0
 10
41.5373882927
 20
75.8703258659
 30
0.0
 10
39.9512989128
 20
76.1746271879
 30
0.0
 10
38.9118851659
 20
76.1892157278
 30
0.0
 10
38.4161099528
 20
76.1449271155
 30
0.0
  0
SPLINE
  5
35A
100
AcDbEntity
  8
0
100
AcDbSpline
 62
7
  6
BYLAYER
 70
0
 71
3
 72
15
 73
11
 74
0
 42
0.0000001
 43
0.0000001
 44
0.0000000001
 40
0.0
 40
0.0
 40
0.0
 40
0.0
 40
0.1214977238
 40
0.2393439366
 40
0.3559133541
 40
0.4737685984
 40
0.5953083996
 40
0.7225805658
 40
0.8571403581
 40
1.0
 40
1.0
 40
1.0
 40
1.0
 10
38.4161099528
 20
76.1449271155
 30
0.0
 10
38.0391564579
 20
76.1112530985
 30
0.0
 10
37.3000413833
 20
75.9861770792
 30
0.0
 10
36.2502153586
 20
75.612481039
 30
0.0
 10
35.2949427564
 20
75.0600646937
 30
0.0
 10
34.4470543013
 20
74.3364091787
 30
0.0
 10
33.7166329712
 20
73.4513999245
 30
0.0
 10
33.1112337445
 20
72.4166615293
 30
0.0
 10
32.6364238049
 20
71.244872809
 30
0.0
 10
32.4162955769
 20
70.4067199621
 30
0.0
 10
32.3270933696
 20
69.9707571519
 30
0.0
  0
SPLINE
  5
35B
100
AcDbEntity
  8
0
100
AcDbSpline
 62
7
  6
BYLAYER
 70
0
 71
3
 72
11
 73
7
 74
0
 42
0.0000001
 43
0.0000001
 44
0.0000000001
 40
0.0
 40
0.0
 40
0.0
 40
0.0
 40
0.2667712538
 40
0.5217107599
 40
0.7657365428
 40
1.0
 40
1.0
 40
1.0
 40
1.0
 10
47.4112634697
 20
43.8441167685
 30
0.0
 10
47.7311124822
 20
43.737487396
 30
0.0
 10
48.3657565454
 20
43.5549423763
 30
0.0
 10
49.3182429924
 20
43.3752626803
 30
0.0
 10
50.2433279201
 20
43.2974457231
 30
0.0
 10
50.8491933805
 20
43.3142241817
 30
0.0
 10
51.1440891781
 20
43.3405678294
 30
0.0
  0
SPLINE
  5
35C
100
AcDbEntity
  8
0
100
AcDbSpline
 62
7
  6
BYLAYER
 70
0
 71
3
 72
9
 73
5
 74
0
 42
0.0000001
 43
0.0000001
 44
0.0000000001
 40
0.0
 40
0.0
 40
0.0
 40
0.0
 40
0.4811712871
 40
1.0
 40
1.0
 40
1.0
 40
1.0
 10
57.0416430622
 20
48.7214852278
 30
0.0
 10
57.2022125997
 20
49.2946249577
 30
0.0
 10
57.4383449185
 20
50.514149083
 30
0.0
 10
57.5080725318
 20
51.752624296
 30
0.0
 10
57.5080725318
 20
52.3944137047
 30
0.0
  0
SPLINE
  5
35D
100
AcDbEntity
  8
0
100
AcDbSpline
 62
7
  6
BYLAYER
 70
0
 71
3
 72
15
 73
11
 74
0
 42
0.0000001
 43
0.0000001
 44
0.0000000001
 40
0.0
 40
0.0
 40
0.0
 40
0.0
 40
0.1108410466
 40
0.2280578217
 40
0.3507094054
 40
0.4776259773
 40
0.6074737905
 40
0.7388131852
 40
0.870152484
 40
1.0
 40
1.0
 40
1.0
 40
1.0
 10
57.5080725318
 20
52.3944137047
 30
0.0
 10
57.5080725318
 20
53.0558157009
 30
0.0
 10
57.428850795
 20
54.4174369301
 30
0.0
 10
57.0994565666
 20
56.486995882
 30
0.0
 10
56.5616714062
 20
58.6114210439
 30
0.0
 10
55.8246163415
 20
60.7546937953
 30
0.0
 10
54.9007513238
 20
62.8808018509
 30
0.0
 10
53.805658412
 20
64.9538413209
 30
0.0
 10
52.5579799043
 20
66.9386068507
 30
0.0
 10
51.6295227225
 20
68.1927064621
 30
0.0
 10
51.1440808328
 20
68.796598725
 30
0.0
  0
SPLINE
  5
35E
100
AcDbEntity
  8
0
100
AcDbSpline
 62
7
  6
BYLAYER
 70
0
 71
3
 72
11
 73
7
 74
0
 42
0.0000001
 43
0.0000001
 44
0.0000000001
 40
0.0
 40
0.0
 40
0.0
 40
0.0
 40
0.2437723439
 40
0.4913812317
 40
0.7433442837
 40
1.0
 40
1.0
 40
1.0
 40
1.0
 10
57.9891646209
 20
44.5950798766
 30
0.0
 10
57.9137986964
 20
45.2259129372
 30
0.0
 10
57.7773030231
 20
46.4994211788
 30
0.0
 10
57.624330071
 20
48.4309494371
 30
0.0
 10
57.5291774953
 20
50.3998503237
 30
0.0
 10
57.5080725318
 20
51.7255179682
 30
0.0
 10
57.5080725318
 20
52.3944137047
 30
0.0
  0
SPLINE
  5
35F
100
AcDbEntity
  8
0
100
AcDbSpline
 62
7
  6
BYLAYER
 70
0
 71
3
 72
11
 73
7
 74
0
 42
0.0000001
 43
0.0000001
 44
0.0000000001
 40
0.0
 40
0.0
 40
0.0
 40
0.0
 40
0.2656571855
 40
0.5183336573
 40
0.7616332453
 40
1.0
 40
1.0
 40
1.0
 40
1.0
 10
32.5286097954
 20
36.7972369889
 30
0.0
 10
32.858045108
 20
36.7561239495
 30
0.0
 10
33.5072463519
 20
36.7180596315
 30
0.0
 10
34.4588882662
 20
36.8060765675
 30
0.0
 10
35.3505029007
 20
37.0408864275
 30
0.0
 10
35.9001067138
 20
37.2954592623
 30
0.0
 10
36.1580872313
 20
37.444396041
 30
0.0
  0
SPLINE
  5
360
100
AcDbEntity
  8
0
100
AcDbSpline
 62
7
  6
BYLAYER
 70
0
 71
3
 72
11
 73
7
 74
0
 42
0.0000001
 43
0.0000001
 44
0.0000000001
 40
0.0
 40
0.0
 40
0.0
 40
0.0
 40
0.2386531245
 40
0.4821096114
 40
0.7347122411
 40
1.0
 40
1.0
 40
1.0
 40
1.0
 10
21.15817275
 20
63.4251651147
 30
0.0
 10
20.9038350858
 20
63.2783314206
 30
0.0
 10
20.4153616664
 20
62.9353234007
 30
0.0
 10
19.7734778791
 20
62.292747851
 30
0.0
 10
19.2257874539
 20
61.52799581
 30
0.0
 10
18.9347983002
 20
60.9582296063
 30
0.0
 10
18.8055478956
 20
60.6584504262
 30
0.0
  0
SPLINE
  5
361
100
AcDbEntity
  8
0
100
AcDbSpline
 62
7
  6
BYLAYER
 70
0
 71
3
 72
15
 73
11
 74
0
 42
0.0000001
 43
0.0000001
 44
0.0000000001
 40
0.0
 40
0.0
 40
0.0
 40
0.0
 40
0.1293680644
 40
0.260508678
 40
0.3918462371
 40
0.5218337941
 40
0.6489535017
 40
0.7718039141
 40
0.8891500967
 40
1.0
 40
1.0
 40
1.0
 40
1.0
 10
61.8181583321
 20
74.391141045
 30
0.0
 10
62.2322251116
 20
73.8908842489
 30
0.0
 10
63.0249348765
 20
72.8488012893
 30
0.0
 10
64.0910980481
 20
71.1936587226
 30
0.0
 10
65.0284409251
 20
69.4586238691
 30
0.0
 10
65.8203475588
 20
67.6745963167
 30
0.0
 10
66.4528201033
 20
65.8729764316
 30
0.0
 10
66.9147215909
 20
64.0854348464
 30
0.0
 10
67.1978375147
 20
62.3436248825
 30
0.0
 10
67.2660855815
 20
61.1974755718
 30
0.0
 10
67.2660771837
 20
60.6410408268
 30
0.0
  0
SPLINE
  5
362
100
AcDbEntity
  8
0
100
AcDbSpline
 62
7
  6
BYLAYER
 70
0
 71
3
 72
11
 73
7
 74
0
 42
0.0000001
 43
0.0000001
 44
0.0000000001
 40
0.0
 40
0.0
 40
0.0
 40
0.0
 40
0.2768820872
 40
0.535259634
 40
0.7756621126
 40
1.0
 40
1.0
 40
1.0
 40
1.0
 10
67.2660839126
 20
60.4777419955
 30
0.0
 10
67.2660765644
 20
59.9825532046
 30
0.0
 10
67.2160525533
 20
59.0241325379
 30
0.0
 10
66.9732333731
 20
57.6542580789
 30
0.0
 10
66.5680213383
 20
56.4211706212
 30
0.0
 10
66.180026374
 20
55.6802813876
 30
0.0
 10
65.9604461493
 20
55.3444852497
 30
0.0
  0
SPLINE
  5
363
100
AcDbEntity
  8
0
100
AcDbSpline
 62
7
  6
BYLAYER
 70
0
 71
3
 72
11
 73
7
 74
0
 42
0.0000001
 43
0.0000001
 44
0.0000000001
 40
0.0
 40
0.0
 40
0.0
 40
0.0
 40
0.2325810675
 40
0.4780121557
 40
0.7345771936
 40
1.0
 40
1.0
 40
1.0
 40
1.0
 10
56.8011307159
 20
78.7669639784
 30
0.0
 10
57.2502609717
 20
78.5076595651
 30
0.0
 10
58.1441972896
 20
77.9231372033
 30
0.0
 10
59.4248342354
 20
76.8985335821
 30
0.0
 10
60.6646548936
 20
75.7162929062
 30
0.0
 10
61.4407864828
 20
74.8470646825
 30
0.0
 10
61.8181583321
 20
74.391141045
 30
0.0
  0
SPLINE
  5
364
100
AcDbEntity
  8
0
100
AcDbSpline
 62
7
  6
BYLAYER
 70
0
 71
3
 72
23
 73
19
 74
0
 42
0.0000001
 43
0.0000001
 44
0.0000000001
 40
0.0
 40
0.0
 40
0.0
 40
0.0
 40
0.0736965196
 40
0.1483856311
 40
0.2233712391
 40
0.2980148976
 40
0.3716550155
 40
0.4436669006
 40
0.5134714367
 40
0.5805518863
 40
0.6444829269
 40
0.7049542011
 40
0.7617984272
 40
0.8150253098
 40
0.8648598518
 40
0.9117739409
 40
0.9564991111
 40
1.0
 40
1.0
 40
1.0
 40
1.0
 10
29.9084200854
 20
55.610541819
 30
0.0
 10
30.2382062935
 20
55.2121090057
 30
0.0
 10
30.8739913731
 20
54.3860925832
 30
0.0
 10
31.744751534
 20
53.0811927006
 30
0.0
 10
32.5301987829
 20
51.7154796598
 30
0.0
 10
33.2199791568
 20
50.3072406448
 30
0.0
 10
33.8050108176
 20
48.8748208354
 30
0.0
 10
34.2776079062
 20
47.4371002721
 30
0.0
 10
34.6315899576
 20
46.0129395412
 30
0.0
 10
34.8622295748
 20
44.6209562768
 30
0.0
 10
34.9664383312
 20
43.2792910684
 30
0.0
 10
34.9427249779
 20
42.005308915
 30
0.0
 10
34.791057314
 20
40.8154062845
 30
0.0
 10
34.5127141753
 20
39.724893548
 30
0.0
 10
34.1103426099
 20
38.7480252503
 30
0.0
 10
33.5877063136
 20
37.8981015938
 30
0.0
 10
32.9508077067
 20
37.1881464268
 30
0.0
 10
32.4517519246
 20
36.8135289701
 30
0.0
 10
32.1903812954
 20
36.6557625477
 30
0.0
  0
SPLINE
  5
365
100
AcDbEntity
  8
0
100
AcDbSpline
 62
7
  6
BYLAYER
 70
0
 71
3
 72
18
 73
14
 74
0
 42
0.0000001
 43
0.0000001
 44
0.0000000001
 40
0.0
 40
0.0
 40
0.0
 40
0.0
 40
0.0474540479
 40
0.0955795103
 40
0.1449253226
 40
0.1959731656
 40
0.2491153756
 40
0.3046532141
 40
0.4235345115
 40
0.5534000724
 40
0.69376309
 40
0.8432780245
 40
1.0
 40
1.0
 40
1.0
 40
1.0
 10
18.488469517
 20
60.381784141
 30
0.0
 10
18.6727232824
 20
60.4836082582
 30
0.0
 10
19.0585772746
 20
60.6631962636
 30
0.0
 10
19.6747299946
 20
60.8530961492
 30
0.0
 10
20.3260808069
 20
60.9636851073
 30
0.0
 10
21.0081063323
 20
60.9942619262
 30
0.0
 10
21.7164332299
 20
60.9451398286
 30
0.0
 10
22.7122214205
 20
60.7699757058
 30
0.0
 10
24.0008323986
 20
60.342664096
 30
0.0
 10
25.5382567562
 20
59.5454489978
 30
0.0
 10
27.0665153506
 20
58.4730484179
 30
0.0
 10
28.5484407374
 20
57.1524097154
 30
0.0
 10
29.4651084396
 20
56.1461309427
 30
0.0
 10
29.9084200854
 20
55.610541819
 30
0.0
  0
SPLINE
  5
366
100
AcDbEntity
  8
0
100
AcDbSpline
 62
7
  6
BYLAYER
 70
0
 71
3
 72
15
 73
11
 74
0
 42
0.0000001
 43
0.0000001
 44
0.0000000001
 40
0.0
 40
0.0
 40
0.0
 40
0.0
 40
0.1080062682
 40
0.2180569067
 40
0.3319963044
 40
0.4513541534
 40
0.5772746929
 40
0.7104991659
 40
0.8513935136
 40
1.0
 40
1.0
 40
1.0
 40
1.0
 10
16.4341716402
 20
59.1966904931
 30
0.0
 10
16.209562497
 20
59.0670135997
 30
0.0
 10
15.7777217867
 20
58.7656451393
 30
0.0
 10
15.2070667248
 20
58.2040873638
 30
0.0
 10
14.7163151053
 20
57.5375309571
 30
0.0
 10
14.3099516007
 20
56.7735438118
 30
0.0
 10
13.9911743622
 20
55.9198835079
 30
0.0
 10
13.7624676795
 20
54.9848546821
 30
0.0
 10
13.6254633311
 20
53.9774389365
 30
0.0
 10
13.5967465128
 20
53.2817771817
 30
0.0
 10
13.5967411852
 20
52.924928125
 30
0.0
  0
SPLINE
  5
367
100
AcDbEntity
  8
0
100
AcDbSpline
 62
7
  6
BYLAYER
 70
0
 71
3
 72
15
 73
11
 74
0
 42
0.0000001
 43
0.0000001
 44
0.0000000001
 40
0.0
 40
0.0
 40
0.0
 40
0.0
 40
0.1486054466
 40
0.2894984127
 40
0.4227228586
 40
0.5486422503
 40
0.6680002485
 40
0.7819387684
 40
0.8919873519
 40
1.0
 40
1.0
 40
1.0
 40
1.0
 10
23.2838927586
 20
36.1461893414
 30
0.0
 10
23.5929327084
 20
35.9677693229
 30
0.0
 10
24.2097438519
 20
35.6448048217
 30
0.0
 10
25.1506889159
 20
35.2597528038
 30
0.0
 10
26.0747885515
 20
34.9902829927
 30
0.0
 10
26.9734682151
 20
34.8395341364
 30
0.0
 10
27.8382753938
 20
34.8094438893
 30
0.0
 10
28.6609027294
 20
34.9011522611
 30
0.0
 10
29.4325573335
 20
35.1145842257
 30
0.0
 10
29.909491035
 20
35.3378691795
 30
0.0
 10
30.134106251
 20
35.4675660437
 30
0.0
  0
SPLINE
  5
368
100
AcDbEntity
  8
0
100
AcDbSpline
 62
7
  6
BYLAYER
 70
0
 71
3
 72
11
 73
7
 74
0
 42
0.0000001
 43
0.0000001
 44
0.0000000001
 40
0.0
 40
0.0
 40
0.0
 40
0.0
 40
0.2332368442
 40
0.47883455
 40
0.7351501377
 40
1.0
 40
1.0
 40
1.0
 40
1.0
 10
56.7993659605
 20
78.7669308449
 30
0.0
 10
57.2420266664
 20
78.5046331273
 30
0.0
 10
58.1225132759
 20
77.9173614141
 30
0.0
 10
59.3844566749
 20
76.8955614028
 30
0.0
 10
60.6062025728
 20
75.7230600889
 30
0.0
 10
61.3719895054
 20
74.8637549753
 30
0.0
 10
61.7445388568
 20
74.4136576621
 30
0.0
  0
SPLINE
  5
369
100
AcDbEntity
  8
0
100
AcDbSpline
 62
7
  6
BYLAYER
 70
0
 71
3
 72
15
 73
11
 74
0
 42
0.0000001
 43
0.0000001
 44
0.0000000001
 40
0.0
 40
0.0
 40
0.0
 40
0.0
 40
0.129224374
 40
0.2601650357
 40
0.3913015854
 40
0.5211379855
 40
0.6482024567
 40
0.7711334436
 40
0.888725686
 40
1.0
 40
1.0
 40
1.0
 40
1.0
 10
61.781727332
 20
74.3686162009
 30
0.0
 10
62.1938095313
 20
73.8682719221
 30
0.0
 10
62.983072783
 20
72.8270099573
 30
0.0
 10
64.0461300112
 20
71.174900977
 30
0.0
 10
64.982651558
 20
69.4442841662
 30
0.0
 10
65.7765500439
 20
67.6650167776
 30
0.0
 10
66.414221739
 20
65.8674624821
 30
0.0
 10
66.8847777008
 20
64.0822670695
 30
0.0
 10
67.1801136551
 20
62.3400817364
 30
0.0
 10
67.2591174856
 20
61.1922282467
 30
0.0
 10
67.2652267135
 20
60.6341053654
 30
0.0
  0
SPLINE
  5
36A
100
AcDbEntity
  8
0
100
AcDbSpline
 62
7
  6
BYLAYER
 70
0
 71
3
 72
19
 73
15
 74
0
 42
0.0000001
 43
0.0000001
 44
0.0000000001
 40
0.0
 40
0.0
 40
0.0
 40
0.0
 40
0.1570021645
 40
0.3067040945
 40
0.4471306283
 40
0.5134522992
 40
0.5770158524
 40
0.6957145636
 40
0.7511385831
 40
0.804166145
 40
0.8551136406
 40
0.9043907447
 40
0.952497486
 40
1.0
 40
1.0
 40
1.0
 40
1.0
 10
33.7432269031
 20
58.2471891688
 30
0.0
 10
33.2538264048
 20
58.8384607642
 30
0.0
 10
32.2416285227
 20
59.9487418654
 30
0.0
 10
30.6047255257
 20
61.4035451854
 30
0.0
 10
29.1715670774
 20
62.4038975528
 30
0.0
 10
28.0144413611
 20
63.0445439172
 30
0.0
 10
26.9100527667
 20
63.5531962502
 30
0.0
 10
25.7977739842
 20
63.9139933059
 30
0.0
 10
24.700742777
 20
64.0969061779
 30
0.0
 10
23.9211783224
 20
64.1426158531
 30
0.0
 10
23.1714062181
 20
64.0995286272
 30
0.0
 10
22.4563204627
 20
63.9673504266
 30
0.0
 10
21.7809975396
 20
63.7469485087
 30
0.0
 10
21.3592892437
 20
63.5412732728
 30
0.0
 10
21.15817275
 20
63.4251651147
 30
0.0
  0
SPLINE
  5
36B
100
AcDbEntity
  8
0
100
AcDbSpline
 62
7
  6
BYLAYER
 70
0
 71
3
 72
20
 73
16
 74
0
 42
0.0000001
 43
0.0000001
 44
0.0000000001
 40
0.0
 40
0.0
 40
0.0
 40
0.0
 40
0.047496928
 40
0.0955978622
 40
0.144869607
 40
0.1958105431
 40
0.2488326101
 40
0.3042493631
 40
0.3622804391
 40
0.4230510853
 40
0.4866077655
 40
0.5529214645
 40
0.6933309526
 40
0.8430175762
 40
1.0
 40
1.0
 40
1.0
 40
1.0
 10
20.8889295791
 20
61.7686221426
 30
0.0
 10
21.0726078732
 20
61.874681292
 30
0.0
 10
21.4577987168
 20
62.0624638874
 30
0.0
 10
22.0745660069
 20
62.2638494267
 30
0.0
 10
22.7276904827
 20
62.3844880969
 30
0.0
 10
23.4124871777
 20
62.4239242679
 30
0.0
 10
24.1244475921
 20
62.3820997348
 30
0.0
 10
24.8589813816
 20
62.2597174415
 30
0.0
 10
25.6114128662
 20
62.0576351171
 30
0.0
 10
26.3770508807
 20
61.7774572181
 30
0.0
 10
27.1510664498
 20
61.4209276864
 30
0.0
 10
28.207787966
 20
60.8358970111
 30
0.0
 10
29.5168086883
 20
59.9221923313
 30
0.0
 10
31.0118176705
 20
58.5934802934
 30
0.0
 10
31.9363017212
 20
57.5794195893
 30
0.0
 10
32.3832835157
 20
57.0393963576
 30
0.0
  0
SPLINE
  5
36C
100
AcDbEntity
  8
0
100
AcDbSpline
 62
7
  6
BYLAYER
 70
0
 71
3
 72
23
 73
19
 74
0
 42
0.0000001
 43
0.0000001
 44
0.0000000001
 40
0.0
 40
0.0
 40
0.0
 40
0.0
 40
0.0738383392
 40
0.1486725296
 40
0.2237975382
 40
0.2985659881
 40
0.3723078206
 40
0.4443888126
 40
0.5142235647
 40
0.5812930499
 40
0.6451702255
 40
0.7055469736
 40
0.7622633463
 40
0.815342079
 40
0.8650274776
 40
0.9118180837
 40
0.9564770308
 40
1.0
 40
1.0
 40
1.0
 40
1.0
 10
32.3832835157
 20
57.0393963576
 30
0.0
 10
32.7150924775
 20
56.6385197444
 30
0.0
 10
33.3546109667
 20
55.8072821694
 30
0.0
 10
34.2298999105
 20
54.4938514166
 30
0.0
 10
35.0187074346
 20
53.1190903864
 30
0.0
 10
35.7105178368
 20
51.7016213633
 30
0.0
 10
36.2960985945
 20
50.2601364283
 30
0.0
 10
36.767674913
 20
48.8138778767
 30
0.0
 10
37.1189903603
 20
47.3820401495
 30
0.0
 10
37.3453204079
 20
45.983559284
 30
0.0
 10
37.4435763178
 20
44.6368610504
 30
0.0
 10
37.4123157621
 20
43.3595807759
 30
0.0
 10
37.2515924104
 20
42.168346683
 30
0.0
 10
36.9627934138
 20
41.0786683106
 30
0.0
 10
36.5486570311
 20
40.104999127
 30
0.0
 10
36.0131186915
 20
39.260842296
 30
0.0
 10
35.3624706426
 20
38.5594147767
 30
0.0
 10
34.8544910969
 20
38.1928841386
 30
0.0
 10
34.5888604255
 20
38.0395042131
 30
0.0
  0
SPLINE
  5
36D
100
AcDbEntity
  8
0
100
AcDbSpline
 62
7
  6
BYLAYER
 70
0
 71
3
 72
23
 73
19
 74
0
 42
0.0000001
 43
0.0000001
 44
0.0000000001
 40
0.0
 40
0.0
 40
0.0
 40
0.0
 40
0.0435197567
 40
0.0881872813
 40
0.1349941333
 40
0.1846992574
 40
0.2377976096
 40
0.2945308037
 40
0.3549199381
 40
0.4188041228
 40
0.4858750218
 40
0.5557062141
 40
0.6277777215
 40
0.7015049411
 40
0.7762566362
 40
0.8513635464
 40
0.9261796734
 40
1.0
 40
1.0
 40
1.0
 40
1.0
 10
32.1949174755
 20
36.6573984027
 30
0.0
 10
32.4599834448
 20
36.8113672543
 30
0.0
 10
32.9667770412
 20
37.1789878617
 30
0.0
 10
33.615592101
 20
37.8815670643
 30
0.0
 10
34.1494094033
 20
38.7265033736
 30
0.0
 10
34.5619737062
 20
39.7006075899
 30
0.0
 10
34.8493719011
 20
40.7904028824
 30
0.0
 10
35.0088855587
 20
41.9814612271
 30
0.0
 10
35.0391377143
 20
43.2583017532
 30
0.0
 10
34.9400864863
 20
44.6043287466
 30
0.0
 10
34.7131810728
 20
46.0019471713
 30
0.0
 10
34.3615069343
 20
47.4327630164
 30
0.0
 10
33.8897999872
 20
48.8778794922
 30
0.0
 10
33.304294008
 20
50.3181458308
 30
0.0
 10
32.6127602023
 20
51.7343815994
 30
0.0
 10
31.8243975402
 20
53.1079476794
 30
0.0
 10
30.9497019952
 20
54.4202561314
 30
0.0
 10
30.3106736709
 20
55.2508107006
 30
0.0
 10
29.9791304691
 20
55.6513662344
 30
0.0
  0
SPLINE
  5
36E
100
AcDbEntity
  8
0
100
AcDbSpline
 62
7
  6
BYLAYER
 70
0
 71
3
 72
20
 73
16
 74
0
 42
0.0000001
 43
0.0000001
 44
0.0000000001
 40
0.0
 40
0.0
 40
0.0
 40
0.0
 40
0.1411264678
 40
0.2838908919
 40
0.4246394612
 40
0.4931769468
 40
0.5599262314
 40
0.6245214564
 40
0.6866511517
 40
0.7460658993
 40
0.8025918893
 40
0.8561510384
 40
0.9067735249
 40
0.9546205249
 40
1.0
 40
1.0
 40
1.0
 40
1.0
 10
29.9621801461
 20
55.6253248724
 30
0.0
 10
30.5262139195
 20
54.9438847223
 30
0.0
 10
31.5787720968
 20
53.5031752277
 30
0.0
 10
32.8987440288
 20
51.1859950384
 30
0.0
 10
33.7694145346
 20
49.1522575789
 30
0.0
 10
34.3033837498
 20
47.5055328228
 30
0.0
 10
34.6140315568
 20
46.2908428673
 30
0.0
 10
34.835238987
 20
45.0975018828
 30
0.0
 10
34.9649506839
 20
43.9369025959
 30
0.0
 10
35.0018470074
 20
42.8201099843
 30
0.0
 10
34.9454047465
 20
41.7577225043
 30
0.0
 10
34.7960953484
 20
40.7598151835
 30
0.0
 10
34.5548796397
 20
39.8357862568
 30
0.0
 10
34.2237731306
 20
38.9947137153
 30
0.0
 10
33.9378610989
 20
38.4824271723
 30
0.0
 10
33.7808230871
 20
38.2452656925
 30
0.0
  0
SPLINE
  5
36F
100
AcDbEntity
  8
0
100
AcDbSpline
 62
7
  6
BYLAYER
 70
0
 71
3
 72
18
 73
14
 74
0
 42
0.0000001
 43
0.0000001
 44
0.0000000001
 40
0.0
 40
0.0
 40
0.0
 40
0.0
 40
0.1146446698
 40
0.1707040845
 40
0.2264075566
 40
0.2822056144
 40
0.3385413037
 40
0.3958274894
 40
0.4544444532
 40
0.5768339035
 40
0.7079041266
 40
0.8488304944
 40
1.0
 40
1.0
 40
1.0
 40
1.0
 10
18.1759839578
 20
59.5312595226
 30
0.0
 10
17.8416052576
 20
59.4890699435
 30
0.0
 10
17.3475191026
 20
59.3774378154
 30
0.0
 10
16.7295270942
 20
59.1276669091
 30
0.0
 10
16.2946611972
 20
58.8940656414
 30
0.0
 10
15.8873292331
 20
58.6139206583
 30
0.0
 10
15.5091415324
 20
58.288376107
 30
0.0
 10
15.1615640209
 20
57.9189064509
 30
0.0
 10
14.734957803
 20
57.3619661872
 30
0.0
 10
14.2863698852
 20
56.5552939647
 30
0.0
 10
13.8999752379
 20
55.4573092378
 30
0.0
 10
13.6610263593
 20
54.2326680113
 30
0.0
 10
13.6037888962
 20
53.3735775467
 30
0.0
 10
13.597863006
 20
52.929212394
 30
0.0
  0
SPLINE
  5
370
100
AcDbEntity
  8
0
100
AcDbSpline
 62
7
  6
BYLAYER
 70
0
 71
3
 72
15
 73
11
 74
0
 42
0.0000001
 43
0.0000001
 44
0.0000000001
 40
0.0
 40
0.0
 40
0.0
 40
0.0
 40
0.1498605238
 40
0.2944068541
 40
0.4322623128
 40
0.5623895932
 40
0.6841014265
 40
0.7972036056
 40
0.9021267479
 40
1.0
 40
1.0
 40
1.0
 40
1.0
 10
27.7193072816
 20
54.2816439095
 30
0.0
 10
27.3590815972
 20
54.7168523243
 30
0.0
 10
26.6174785352
 20
55.5445325987
 30
0.0
 10
25.4302369642
 20
56.6636650821
 30
0.0
 10
24.2037886325
 20
57.6238228975
 30
0.0
 10
22.9586413517
 20
58.4088190068
 30
0.0
 10
21.7150540817
 20
59.0052726006
 30
0.0
 10
20.4928308808
 20
59.4027199767
 30
0.0
 10
19.3120623326
 20
59.593098766
 30
0.0
 10
18.542048264
 20
59.577446971
 30
0.0
 10
18.1759839578
 20
59.5312595226
 30
0.0
  0
SPLINE
  5
371
100
AcDbEntity
  8
0
100
AcDbSpline
 62
7
  6
BYLAYER
 70
0
 71
3
 72
14
 73
10
 74
0
 42
0.0000001
 43
0.0000001
 44
0.0000000001
 40
0.0
 40
0.0
 40
0.0
 40
0.0
 40
0.2104488836
 40
0.326338169
 40
0.4492310601
 40
0.5787610957
 40
0.7142946463
 40
0.8550539082
 40
1.0
 40
1.0
 40
1.0
 40
1.0
 10
21.6380746779
 20
60.9456948927
 30
0.0
 10
22.3416197972
 20
60.8763425309
 30
0.0
 10
23.4184663707
 20
60.5958031988
 30
0.0
 10
24.7961401481
 20
59.977805068
 30
0.0
 10
25.869842437
 20
59.3582422042
 30
0.0
 10
26.9357571993
 20
58.605789243
 30
0.0
 10
27.9819626942
 20
57.7294466603
 30
0.0
 10
28.9953044868
 20
56.7400287998
 30
0.0
 10
29.6332223643
 20
56.0217353978
 30
0.0
 10
29.9441771529
 20
55.6470465226
 30
0.0
  0
SPLINE
  5
372
100
AcDbEntity
  8
0
100
AcDbSpline
 62
7
  6
BYLAYER
 70
0
 71
3
 72
15
 73
11
 74
0
 42
0.0000001
 43
0.0000001
 44
0.0000000001
 40
0.0
 40
0.0
 40
0.0
 40
0.0
 40
0.1498605652
 40
0.2944069766
 40
0.432262509
 40
0.5623898204
 40
0.6841016211
 40
0.7972037172
 40
0.9021267764
 40
1.0
 40
1.0
 40
1.0
 40
1.0
 10
27.9285293412
 20
54.4674581882
 30
0.0
 10
27.5629667869
 20
54.9091143685
 30
0.0
 10
26.8103770412
 20
55.7490575653
 30
0.0
 10
25.6055471453
 20
56.8847719499
 30
0.0
 10
24.3609293399
 20
57.8591563224
 30
0.0
 10
23.0973352358
 20
58.6557829935
 30
0.0
 10
21.8353241085
 20
59.2610724288
 30
0.0
 10
20.5949936647
 20
59.6644059825
 30
0.0
 10
19.3967322293
 20
59.8576025167
 30
0.0
 10
18.6153109164
 20
59.8417175895
 30
0.0
 10
18.2438234496
 20
59.7948458844
 30
0.0
  0
SPLINE
  5
373
100
AcDbEntity
  8
0
100
AcDbSpline
 62
7
  6
BYLAYER
 70
0
 71
3
 72
23
 73
19
 74
0
 42
0.0000001
 43
0.0000001
 44
0.0000000001
 40
0.0
 40
0.0
 40
0.0
 40
0.0
 40
0.0435229692
 40
0.0881819163
 40
0.1349725224
 40
0.184657921
 40
0.2377366537
 40
0.2944530264
 40
0.3548297745
 40
0.4187069501
 40
0.4857764353
 40
0.5556111874
 40
0.6276921794
 40
0.7014340119
 40
0.7762024618
 40
0.8513274704
 40
0.9261616608
 40
1.0
 40
1.0
 40
1.0
 40
1.0
 10
30.134106251
 20
35.4675660437
 30
0.0
 10
30.3997369225
 20
35.6209459693
 30
0.0
 10
30.9077164682
 20
35.9874766073
 30
0.0
 10
31.5583645171
 20
36.6889041266
 30
0.0
 10
32.0939028567
 20
37.5330609576
 30
0.0
 10
32.5080392394
 20
38.5067301412
 30
0.0
 10
32.7968382359
 20
39.5964085136
 30
0.0
 10
32.9575615877
 20
40.7876426065
 30
0.0
 10
32.9888221433
 20
42.0649228811
 30
0.0
 10
32.8905662335
 20
43.4116211146
 30
0.0
 10
32.6642361858
 20
44.8101019801
 30
0.0
 10
32.3129207386
 20
46.2419397073
 30
0.0
 10
31.8413444201
 20
47.688198259
 30
0.0
 10
31.2557636623
 20
49.1296831939
 30
0.0
 10
30.5639532601
 20
50.547152217
 30
0.0
 10
29.775145736
 20
51.9219132473
 30
0.0
 10
28.8998567923
 20
53.235344
 30
0.0
 10
28.2603383031
 20
54.066581575
 30
0.0
 10
27.9285293412
 20
54.4674581882
 30
0.0
  0
SPLINE
  5
374
100
AcDbEntity
  8
0
100
AcDbSpline
 62
7
  6
BYLAYER
 70
0
 71
3
 72
30
 73
26
 74
0
 42
0.0000001
 43
0.0000001
 44
0.0000000001
 40
0.0
 40
0.0
 40
0.0
 40
0.0
 40
0.0618681063
 40
0.0907611367
 40
0.1183184573
 40
0.1446274364
 40
0.1698226927
 40
0.1940909325
 40
0.2176653284
 40
0.2408206938
 40
0.2638574256
 40
0.2870839656
 40
0.3107966869
 40
0.3352608943
 40
0.3607006192
 40
0.3872889997
 40
0.4151508255
 40
0.4748985209
 40
0.540119428
 40
0.6103762269
 40
0.6848325494
 40
0.762366917
 40
0.8416790409
 40
0.9213635216
 40
1.0
 40
1.0
 40
1.0
 40
1.0
 10
23.2881633156
 20
36.1450135686
 30
0.0
 10
23.7877906054
 20
35.8653656608
 30
0.0
 10
24.5512826303
 20
35.5040700541
 30
0.0
 10
25.5950174941
 20
35.1690083726
 30
0.0
 10
26.3443996608
 20
35.0045887854
 30
0.0
 10
27.0729159503
 20
34.9225857499
 30
0.0
 10
27.7758118438
 20
34.9239676078
 30
0.0
 10
28.4482643689
 20
35.0088899831
 30
0.0
 10
29.0854734365
 20
35.1773124759
 30
0.0
 10
29.6827812607
 20
35.4280861464
 30
0.0
 10
30.2355704037
 20
35.759707111
 30
0.0
 10
30.7398151105
 20
36.1694492347
 30
0.0
 10
31.1917414324
 20
36.6542966175
 30
0.0
 10
31.5884964814
 20
37.2103680186
 30
0.0
 10
31.9274144194
 20
37.8336903556
 30
0.0
 10
32.2066837709
 20
38.5198011715
 30
0.0
 10
32.5039300911
 20
39.535594679
 30
0.0
 10
32.7071765632
 20
40.9429359012
 30
0.0
 10
32.6906251423
 20
42.7551132739
 30
0.0
 10
32.4215899459
 20
44.6841119264
 30
0.0
 10
31.9074951536
 20
46.6797148992
 30
0.0
 10
31.1620379573
 20
48.6900938658
 30
0.0
 10
30.2047796888
 20
50.6624145532
 30
0.0
 10
29.0611837375
 20
52.5444849061
 30
0.0
 10
28.1833374518
 20
53.7210235996
 30
0.0
 10
27.7193072816
 20
54.2816439095
 30
0.0
  0
SPLINE
  5
375
100
AcDbEntity
  8
0
100
AcDbSpline
 62
7
  6
BYLAYER
 70
0
 71
3
 72
25
 73
21
 74
0
 42
0.0000001
 43
0.0000001
 44
0.0000000001
 40
0.0
 40
0.0
 40
0.0
 40
0.0
 40
0.0217137578
 40
0.0435725838
 40
0.0657165398
 40
0.0882767627
 40
0.1350625397
 40
0.1847432461
 40
0.2378164165
 40
0.2945263656
 40
0.3548967858
 40
0.4187677868
 40
0.4858302176
 40
0.5556573906
 40
0.6277310665
 40
0.7014649944
 40
0.7762258215
 40
0.8513438992
 40
0.9261670015
 40
1.0
 40
1.0
 40
1.0
 40
1.0
 10
36.1580872313
 20
37.444396041
 30
0.0
 10
36.3032080008
 20
37.5281768634
 30
0.0
 10
36.5861613707
 20
37.7110920153
 30
0.0
 10
36.9829849697
 20
38.0281506931
 30
0.0
 10
37.3516028375
 20
38.3870926771
 30
0.0
 10
37.8090683616
 20
38.9260715439
 30
0.0
 10
38.3039656977
 20
39.7059496986
 30
0.0
 10
38.7572493783
 20
40.7719196315
 30
0.0
 10
39.073483453
 20
41.9650291257
 30
0.0
 10
39.2494757752
 20
43.2692822956
 30
0.0
 10
39.2837140783
 20
44.6677682816
 30
0.0
 10
39.1761053883
 20
46.1422560177
 30
0.0
 10
38.9282974422
 20
47.6734396788
 30
0.0
 10
38.5436625733
 20
49.2411484916
 30
0.0
 10
38.027340359
 20
50.824642335
 30
0.0
 10
37.3861838419
 20
52.4029081912
 30
0.0
 10
36.6287226898
 20
53.9548870695
 30
0.0
 10
35.7650726367
 20
55.4600847452
 30
0.0
 10
34.8067402991
 20
56.8981568485
 30
0.0
 10
34.1065330646
 20
57.8082590605
 30
0.0
 10
33.7432269031
 20
58.2471891688
 30
0.0
  0
ELLIPSE
  5
376
100
AcDbEntity
  8
0
100
AcDbEllipse
 62
7
  6
BYLAYER
 10
40.9577546709
 20
62.4459832422
 30
0.0
 11
25.6693976586
 21
1.074728493
 31
0.0
 40
0.5607003361
 41
1.2164194471
 42
1.242058827
  0
ELLIPSE
  5
377
100
AcDbEntity
  8
0
100
AcDbEllipse
 62
7
  6
BYLAYER
 10
40.9399542447
 20
62.9270291983
 30
0.0
 11
25.7041710666
 21
0.000086921
 31
0.0
 40
0.5377539929
 41
1.1982675425
 42
1.2276384485
  0
ELLIPSE
  5
378
100
AcDbEntity
  8
0
100
AcDbEllipse
 62
7
  6
BYLAYER
 10
40.9577546709
 20
63.3875214576
 30
0.0
 11
25.6714220041
 21
-0.990796206
 31
0.0
 40
0.5138422122
 41
1.1774546168
 42
1.2068255228
  0
ELLIPSE
  5
379
100
AcDbEntity
  8
0
100
AcDbEllipse
 62
7
  6
BYLAYER
 10
41.0110204777
 20
63.823955396
 30
0.0
 11
25.5765102646
 21
-1.9046128171
 31
0.0
 40
0.4891411839
 41
1.1533697171
 42
1.1827406231
  0
ELLIPSE
  5
37A
100
AcDbEntity
  8
0
100
AcDbEllipse
 62
7
  6
BYLAYER
 10
41.0993462801
 20
64.2330094876
 30
0.0
 11
25.4235744323
 21
-2.7478070601
 31
0.0
 40
0.4637735253
 41
1.1263386505
 42
1.1557095565
  0
ELLIPSE
  5
37B
100
AcDbEntity
  8
0
100
AcDbEllipse
 62
7
  6
BYLAYER
 10
41.2220598654
 20
64.6115705838
 30
0.0
 11
25.2158380038
 21
-3.526315637
 31
0.0
 40
0.4378168535
 41
1.0966392795
 42
1.1260101855
  0
ELLIPSE
  5
37C
100
AcDbEntity
  8
0
100
AcDbEllipse
 62
7
  6
BYLAYER
 10
41.3782273091
 20
64.9567576062
 30
0.0
 11
24.9558704224
 21
-4.2454987115
 31
0.0
 40
0.4113114298
 41
1.0645001417
 42
1.0938710477
  0
ELLIPSE
  5
37D
100
AcDbEntity
  8
0
100
AcDbEllipse
 62
7
  6
BYLAYER
 10
41.5666600827
 20
65.2659434729
 30
0.0
 11
24.6457923828
 21
-4.9101776717
 31
0.0
 40
0.3842666715
 41
1.0301020743
 42
1.0594729803
  0
ELLIPSE
  5
37E
100
AcDbEntity
  8
0
100
AcDbEllipse
 62
7
  6
BYLAYER
 10
41.7859240989
 20
65.536775093
 30
0.0
 11
24.2874286681
 21
-5.5247273254
 31
0.0
 40
0.3566666052
 41
0.9935809255
 42
1.0229518315
  0
ELLIPSE
  5
37F
100
AcDbEntity
  8
0
100
AcDbEllipse
 62
7
  6
BYLAYER
 10
42.0343506263
 20
65.7671912741
 30
0.0
 11
23.8824165252
 21
-6.0931919811
 31
0.0
 40
0.3284744764
 41
0.9550302356
 42
0.9844011416
  0
ELLIPSE
  5
380
100
AcDbEntity
  8
0
100
AcDbEllipse
 62
7
  6
BYLAYER
 10
42.310048989
 20
65.9554384102
 30
0.0
 11
23.4322780087
 21
-6.6194089738
 31
0.0
 40
0.2996367937
 41
0.9145032477
 42
0.9438741537
  0
ELLIPSE
  5
381
100
AcDbEntity
  8
0
100
AcDbEllipse
 62
7
  6
BYLAYER
 10
42.6109209559
 20
66.1000838267
 30
0.0
 11
22.9384634115
 21
-7.1071318569
 31
0.0
 40
0.2700871321
 41
0.8720138726
 42
0.9013847787
  0
ELLIPSE
  5
382
100
AcDbEntity
  8
0
100
AcDbEllipse
 62
7
  6
BYLAYER
 10
42.9346767096
 20
66.2000266848
 30
0.0
 11
22.4023710467
 21
-7.5601506281
 31
0.0
 40
0.2397500614
 41
0.8275363612
 42
0.8569072672
  0
ELLIPSE
  5
383
100
AcDbEntity
  8
0
100
AcDbEllipse
 62
7
  6
BYLAYER
 10
43.2788522736
 20
66.2545063588
 30
0.0
 11
21.8253467446
 21
-7.9824093347
 31
0.0
 40
0.2085456475
 41
0.7810034854
 42
0.8103743914
  0
ELLIPSE
  5
384
100
AcDbEntity
  8
0
100
AcDbEllipse
 62
7
  6
BYLAYER
 10
43.6408282637
 20
66.2631082257
 30
0.0
 11
21.2086646264
 21
-8.3781229955
 31
0.0
 40
0.1763950854
 41
0.7323030402
 42
0.7616739462
  0
ELLIPSE
  5
385
100
AcDbEntity
  8
0
100
AcDbEllipse
 62
7
  6
BYLAYER
 10
44.0178498243
 20
66.2257668201
 30
0.0
 11
20.5534890178
 21
-8.7518963634
 31
0.0
 40
0.1432282066
 41
0.6812724776
 42
0.7106433836
  0
ELLIPSE
  5
386
100
AcDbEntity
  8
0
100
AcDbEllipse
 62
7
  6
BYLAYER
 10
44.4070475936
 20
66.1427663325
 30
0.0
 11
19.8608157951
 21
-9.1088465383
 31
0.0
 40
0.1089938613
 41
0.6276915302
 42
0.6570624363
  0
ELLIPSE
  5
387
100
AcDbEntity
  8
0
100
AcDbEllipse
 62
7
  6
BYLAYER
 10
44.8054595415
 20
66.0147384467
 30
0.0
 11
19.1313901816
 21
-9.4547292795
 31
0.0
 40
0.0736745289
 41
0.5712728325
 42
0.6006437385
  0
ELLIPSE
  5
388
100
AcDbEntity
  8
0
100
AcDbEllipse
 62
7
  6
BYLAYER
 10
45.2100535126
 20
65.8426575324
 30
0.0
 11
18.3655976129
 21
-9.7960637338
 31
0.0
 40
0.0373069534
 41
0.5116509495
 42
0.5410218555
  0
ELLIPSE
  5
389
100
AcDbEntity
  8
0
100
AcDbEllipse
 62
7
  6
BYLAYER
 10
52.2108392086
 20
62.1800513204
 30
0.0
 11
12.7728995674
 21
-12.1637800007
 31
0.0
 40
0.1802679208
 41
-0.7152556095
 42
-0.6854864656
  0
ELLIPSE
  5
38A
100
AcDbEntity
  8
0
100
AcDbEllipse
 62
7
  6
BYLAYER
 10
52.4782088797
 20
61.8978075378
 30
0.0
 11
13.7482720826
 21
-11.6467418337
 31
0.0
 40
0.1479435082
 41
-0.8048242028
 42
-0.7750550589
  0
ELLIPSE
  5
38B
100
AcDbEntity
  8
0
100
AcDbEllipse
 62
7
  6
BYLAYER
 10
52.7542134653
 20
61.6379729636
 30
0.0
 11
14.6749845951
 21
-11.1707553666
 31
0.0
 40
0.1126524607
 41
-0.8880574594
 42
-0.8582883155
  0
ELLIPSE
  5
38C
100
AcDbEntity
  8
0
100
AcDbEllipse
 62
7
  6
BYLAYER
 10
53.0367524037
 20
61.4025250956
 30
0.0
 11
15.555815755
 21
-10.7301881851
 31
0.0
 40
0.075645413
 41
-0.9654261992
 42
-0.9356570553
  0
ELLIPSE
  5
38D
100
AcDbEntity
  8
0
100
AcDbEllipse
 62
7
  6
BYLAYER
 10
53.3236754031
 20
61.1932558344
 30
0.0
 11
16.3937576474
 21
-10.3176993668
 31
0.0
 40
0.0378667741
 41
-1.0375468103
 42
-1.0077776664
  0
ELLIPSE
  5
38E
100
AcDbEntity
  8
0
100
AcDbEllipse
 62
7
  6
BYLAYER
 10
44.0178498243
 20
56.0743242951
 30
0.0
 11
16.7468455804
 21
19.2939077364
 31
0.0
 40
0.6210078725
 41
-1.2707561777
 42
-1.2450269221
  0
ELLIPSE
  5
38F
100
AcDbEntity
  8
0
100
AcDbEllipse
 62
7
  6
BYLAYER
 10
44.4070475936
 20
55.7079280758
 30
0.0
 11
15.71445288
 21
20.2197073913
 31
0.0
 40
0.6026692941
 41
-1.2667078272
 42
-1.2403744802
  0
ELLIPSE
  5
390
100
AcDbEntity
  8
0
100
AcDbEllipse
 62
7
  6
BYLAYER
 10
44.8054595415
 20
55.3759198781
 30
0.0
 11
14.719481364
 21
21.0161139063
 31
0.0
 40
0.5824385664
 41
-1.257959292
 42
-1.2303313439
  0
ELLIPSE
  5
391
100
AcDbEntity
  8
0
100
AcDbEllipse
 62
7
  6
BYLAYER
 10
45.2100535126
 20
55.0808264851
 30
0.0
 11
13.7653683003
 21
21.6930379501
 31
0.0
 40
0.5606959025
 41
-1.2448101526
 42
-1.2164162369
  0
ELLIPSE
  5
392
100
AcDbEntity
  8
0
100
AcDbEllipse
 62
7
  6
BYLAYER
 10
45.6177503025
 20
54.8248937356
 30
0.0
 11
12.8520989679
 21
22.2604573694
 31
0.0
 40
0.5377493467
 41
-1.2276346747
 42
-1.1982637687
  0
ELLIPSE
  5
393
100
AcDbEntity
  8
0
100
AcDbEllipse
 62
7
  6
BYLAYER
 10
46.0254470923
 20
54.6100694323
 30
0.0
 11
11.9776042824
 21
22.7275228925
 31
0.0
 40
0.5138373942
 41
-1.206821066
 42
-1.17745016
  0
ELLIPSE
  5
394
100
AcDbEntity
  8
0
100
AcDbEllipse
 62
7
  6
BYLAYER
 10
46.4300410634
 20
54.437988518
 30
0.0
 11
11.1387686691
 21
23.1022219776
 31
0.0
 40
0.4891362233
 41
-1.1827355521
 42
-1.1533646461
  0
ELLIPSE
  5
395
100
AcDbEntity
  8
0
100
AcDbEllipse
 62
7
  6
BYLAYER
 10
46.8284530113
 20
54.3099606323
 30
0.0
 11
10.3320806258
 21
23.3913606125
 31
0.0
 40
0.4637684418
 41
-1.1557039313
 42
-1.1263330252
  0
ELLIPSE
  5
396
100
AcDbEntity
  8
0
100
AcDbEllipse
 62
7
  6
BYLAYER
 10
47.2176507806
 20
54.2269601446
 30
0.0
 11
9.5540106162
 21
23.6006986072
 31
0.0
 40
0.4378116585
 41
-1.1260040561
 42
-1.0966331501
  0
ELLIPSE
  5
397
100
AcDbEntity
  8
0
100
AcDbEllipse
 62
7
  6
BYLAYER
 10
47.5946723412
 20
54.189618739
 30
0.0
 11
8.8012013936
 21
23.7351411148
 31
0.0
 40
0.4113061279
 41
-1.0938644546
 42
-1.0644935486
  0
ELLIPSE
  5
398
100
AcDbEntity
  8
0
100
AcDbEllipse
 62
7
  6
BYLAYER
 10
47.9566483314
 20
54.1982206059
 30
0.0
 11
8.070537932
 21
23.798935309
 31
0.0
 40
0.384261262
 41
-1.0594659548
 42
-1.0300950488
  0
ELLIPSE
  5
399
100
AcDbEntity
  8
0
100
AcDbEllipse
 62
7
  6
BYLAYER
 10
48.3008238953
 20
54.25270028
 30
0.0
 11
7.3591439915
 21
23.7958488382
 31
0.0
 40
0.3566610828
 41
-1.0229443962
 42
-0.9935734902
  0
ELLIPSE
  5
39A
100
AcDbEntity
  8
0
100
AcDbEllipse
 62
7
  6
BYLAYER
 10
48.6245796491
 20
54.352643138
 30
0.0
 11
6.6643357711
 21
23.7293217161
 31
0.0
 40
0.3284688319
 41
-0.984393311
 42
-0.955022405
  0
ELLIPSE
  5
39B
100
AcDbEntity
  8
0
100
AcDbEllipse
 62
7
  6
BYLAYER
 10
48.925451616
 20
54.4972885546
 30
0.0
 11
5.9835511014
 21
23.6025907318
 31
0.0
 40
0.2996310152
 41
-0.9438659345
 42
-0.9144950285
  0
ELLIPSE
  5
39C
100
AcDbEntity
  8
0
100
AcDbEllipse
 62
7
  6
BYLAYER
 10
49.2011499786
 20
54.6855356906
 30
0.0
 11
5.3142644707
 21
23.4187886534
 31
0.0
 40
0.2700812053
 41
-0.9013761696
 42
-0.8720052636
  0
ELLIPSE
  5
39D
100
AcDbEntity
  8
0
100
AcDbEllipse
 62
7
  6
BYLAYER
 10
49.449576506
 20
54.9159518717
 30
0.0
 11
4.6538927957
 21
23.1810214688
 31
0.0
 40
0.2397439709
 41
-0.8568982592
 42
-0.8275273532
  0
ELLIPSE
  5
39E
100
AcDbEntity
  8
0
100
AcDbEllipse
 62
7
  6
BYLAYER
 10
49.6688405223
 20
55.1867834918
 30
0.0
 11
3.9996933207
 21
22.8924267498
 31
0.0
 40
0.2085393773
 41
-0.8103649669
 42
-0.7809940609
  0
ELLIPSE
  5
39F
100
AcDbEntity
  8
0
100
AcDbEllipse
 62
7
  6
BYLAYER
 10
49.8572732958
 20
55.4959693586
 30
0.0
 11
3.3486527442
 21
22.5562154605
 31
0.0
 40
0.1763886204
 41
-0.7616640781
 42
-0.7322931721
  0
ELLIPSE
  5
3A0
100
AcDbEntity
  8
0
100
AcDbEllipse
 62
7
  6
BYLAYER
 10
50.0134407395
 20
55.8411563809
 30
0.0
 11
2.6973653227
 21
22.1756983519
 31
0.0
 40
0.1432215345
 41
-0.7106330344
 42
-0.6812621283
  0
ELLIPSE
  5
3A1
100
AcDbEntity
  8
0
100
AcDbEllipse
 62
7
  6
BYLAYER
 10
50.1361543248
 20
56.2197174771
 30
0.0
 11
2.0418973541
 21
21.7542964701
 31
0.0
 40
0.1089869747
 41
-0.6570515559
 42
-0.6276806499
  0
ELLIPSE
  5
3A2
100
AcDbEntity
  8
0
100
AcDbEllipse
 62
7
  6
BYLAYER
 10
50.2244801272
 20
56.6287715687
 30
0.0
 11
1.3776366849
 21
21.2955331191
 31
0.0
 40
0.0736674289
 41
-0.6006322628
 42
-0.5712613568
  0
ELLIPSE
  5
3A3
100
AcDbEntity
  8
0
100
AcDbEllipse
 62
7
  6
BYLAYER
 10
50.277745934
 20
57.0652055071
 30
0.0
 11
0.6991301214
 21
20.8030017059
 31
0.0
 40
0.0372996543
 41
-0.5410097036
 42
-0.5116387976
  0
ELLIPSE
  5
3A4
100
AcDbEntity
  8
0
100
AcDbEllipse
 62
7
  6
BYLAYER
 10
50.3081031873
 20
66.4163511314
 30
0.0
 11
-0.738560584
 21
19.3561636224
 31
0.0
 40
0.0378742831
 41
1.0077638622
 42
1.0375330061
  0
ELLIPSE
  5
3A5
100
AcDbEntity
  8
0
100
AcDbEllipse
 62
7
  6
BYLAYER
 10
50.3458773168
 20
66.0632315903
 30
0.0
 11
-1.5147682668
 21
18.8367283507
 31
0.0
 40
0.0756528438
 41
0.9356422756
 42
0.9589345226
  0
ELLIPSE
  5
3A6
100
AcDbEntity
  8
0
100
AcDbEllipse
 62
7
  6
BYLAYER
 10
52.4782088797
 20
69.0968330927
 30
0.0
 11
9.2949651699
 21
22.7068268769
 31
0.0
 40
0.4525326233
 41
-1.7649662711
 42
-1.7351971272
  0
ELLIPSE
  5
3A7
100
AcDbEntity
  8
0
100
AcDbEllipse
 62
7
  6
BYLAYER
 10
52.2108392086
 20
69.1233142291
 30
0.0
 11
8.5894470919
 21
22.8388025077
 31
0.0
 40
0.4249108978
 41
-1.7315422176
 42
-1.7017730738
  0
ELLIPSE
  5
3A8
100
AcDbEntity
  8
0
100
AcDbEllipse
 62
7
  6
BYLAYER
 10
51.9541392965
 20
69.1172141049
 30
0.0
 11
7.9024553998
 21
22.9069205658
 31
0.0
 40
0.3966858117
 41
-1.6959030448
 42
-1.6661339009
  0
ELLIPSE
  5
3A9
100
AcDbEntity
  8
0
100
AcDbEllipse
 62
7
  6
BYLAYER
 10
51.7100627848
 20
69.0785791459
 30
0.0
 11
7.2306756799
 21
22.9148275608
 31
0.0
 40
0.3678497859
 41
-1.6581944826
 42
-1.6284253387
  0
ELLIPSE
  5
3AA
100
AcDbEntity
  8
0
100
AcDbEllipse
 62
7
  6
BYLAYER
 10
51.4804672432
 20
69.0077033874
 30
0.0
 11
6.5710751754
 21
22.8657625
 31
0.0
 40
0.3383778468
 41
-1.6185174929
 42
-1.5887483491
  0
ELLIPSE
  5
3AB
100
AcDbEntity
  8
0
100
AcDbEllipse
 62
7
  6
BYLAYER
 10
51.2671000323
 20
68.9051262366
 30
0.0
 11
5.9208257354
 21
22.7626851509
 31
0.0
 40
0.3082317889
 41
-1.5769309902
 42
-1.5471618463
  0
ELLIPSE
  5
3AC
100
AcDbEntity
  8
0
100
AcDbEllipse
 62
7
  6
BYLAYER
 10
51.0715850054
 20
68.7716283678
 30
0.0
 11
5.277216253
 21
22.6083774188
 31
0.0
 40
0.2773641221
 41
-1.5334533421
 42
-1.5036841982
  0
ELLIPSE
  5
3AD
100
AcDbEntity
  8
0
100
AcDbEllipse
 62
7
  6
BYLAYER
 10
50.89541015
 20
68.6082257802
 30
0.0
 11
4.6375585468
 21
22.4055220844
 31
0.0
 40
0.2457221809
 41
-1.4880624903
 42
-1.4582933464
  0
ELLIPSE
  5
3AE
100
AcDbEntity
  8
0
100
AcDbEllipse
 62
7
  6
BYLAYER
 10
50.739916263
 20
68.4161620662
 30
0.0
 11
3.9990874935
 21
22.1567625074
 31
0.0
 40
0.2132528315
 41
-1.4406945771
 42
-1.4109254332
  0
ELLIPSE
  5
3AF
100
AcDbEntity
  8
0
100
AcDbEllipse
 62
7
  6
BYLAYER
 10
50.6062867469
 20
68.1968989466
 30
0.0
 11
3.358854402
 21
21.8647458064
 31
0.0
 40
0.1799083165
 41
-1.3912409812
 42
-1.3614718373
  0
ELLIPSE
  5
3B0
100
AcDbEntity
  8
0
100
AcDbEllipse
 62
7
  6
BYLAYER
 10
50.4955386029
 20
67.9521051462
 30
0.0
 11
2.7136118285
 21
21.5321506385
 31
0.0
 40
0.1456539223
 41
-1.3395436911
 42
-1.3097745472
  0
ELLIPSE
  5
3B1
100
AcDbEntity
  8
0
100
AcDbEllipse
 62
7
  6
BYLAYER
 10
50.4085146914
 20
67.6836436937
 30
0.0
 11
2.0596883802
 21
21.1616989884
 31
0.0
 40
0.1104783762
 41
-1.2853890178
 42
-1.2556198739
  0
ELLIPSE
  5
3B2
100
AcDbEntity
  8
0
100
AcDbEllipse
 62
7
  6
BYLAYER
 10
50.3458773168
 20
67.3935577427
 30
0.0
 11
1.3928541488
 21
20.7561492695
 31
0.0
 40
0.0744081482
 41
-1.2284998547
 42
-1.1987307108
  0
ELLIPSE
  5
3B3
100
AcDbEntity
  8
0
100
AcDbEllipse
 62
7
  6
BYLAYER
 10
50.3081031873
 20
67.0840550225
 30
0.0
 11
0.7081826227
 21
20.3182655047
 31
0.0
 40
0.0375271535
 41
-1.1685271495
 42
-1.1387580056
  0
ELLIPSE
  5
3B4
100
AcDbEntity
  8
0
100
AcDbEllipse
 62
7
  6
BYLAYER
 10
55.0147584037
 20
67.5045073493
 30
0.0
 11
17.0970456043
 21
17.6195982925
 31
0.0
 40
0.658822818
 41
-1.9114517877
 42
-1.8880356368
  0
ELLIPSE
  5
3B5
100
AcDbEntity
  8
0
100
AcDbEllipse
 62
7
  6
BYLAYER
 10
54.7473887326
 20
67.7867511319
 30
0.0
 11
16.0740002066
 21
18.6382543117
 31
0.0
 40
0.6422712193
 41
-1.918470146
 42
-1.8887010022
  0
ELLIPSE
  5
3B6
100
AcDbEntity
  8
0
100
AcDbEllipse
 62
7
  6
BYLAYER
 10
54.471384147
 20
68.0465857061
 30
0.0
 11
15.0860420609
 21
19.5192824082
 31
0.0
 40
0.6233201663
 41
-1.9139153407
 42
-1.8841461968
  0
ELLIPSE
  5
3B7
100
AcDbEntity
  8
0
100
AcDbEllipse
 62
7
  6
BYLAYER
 10
54.1888452086
 20
68.2820335741
 30
0.0
 11
14.1404275877
 21
20.2728289326
 31
0.0
 40
0.6024229982
 41
-1.9043570977
 42
-1.8745879538
  0
ELLIPSE
  5
3B8
100
AcDbEntity
  8
0
100
AcDbEllipse
 62
7
  6
BYLAYER
 10
53.9019222092
 20
68.4913028353
 30
0.0
 11
13.2390488645
 21
20.9104611346
 31
0.0
 40
0.5799606162
 41
-1.8901776123
 42
-1.8604084684
  0
ELLIPSE
  5
3B9
100
AcDbEntity
  8
0
100
AcDbEllipse
 62
7
  6
BYLAYER
 10
53.6127988061
 20
68.6728008243
 30
0.0
 11
12.380371053
 21
21.4433867095
 31
0.0
 40
0.5562374973
 41
-1.8718232704
 42
-1.8420541266
  0
ELLIPSE
  5
3BA
100
AcDbEntity
  8
0
100
AcDbEllipse
 62
7
  6
BYLAYER
 10
53.3236754031
 20
68.8251462319
 30
0.0
 11
11.5609645157
 21
21.8816127571
 31
0.0
 40
0.5314869125
 41
-1.8497404071
 42
-1.8199712632
  0
ELLIPSE
  5
3BB
100
AcDbEntity
  8
0
100
AcDbEllipse
 62
7
  6
BYLAYER
 10
53.0367524037
 20
68.9471796175
 30
0.0
 11
10.7765541815
 21
22.2336922154
 31
0.0
 40
0.5058801257
 41
-1.8243399288
 42
-1.7945707849
  0
ELLIPSE
  5
3BC
100
AcDbEntity
  8
0
100
AcDbEllipse
 62
7
  6
BYLAYER
 10
53.9019222092
 20
60.8594124377
 30
0.0
 11
17.9503226148
 21
-9.5458470099
 31
0.0
 40
0.0375345275
 41
1.1387702134
 42
1.1685393573
  0
ELLIPSE
  5
3BD
100
AcDbEntity
  8
0
100
AcDbEllipse
 62
7
  6
BYLAYER
 10
54.1888452086
 20
60.7373790522
 30
0.0
 11
18.6718714293
 21
-9.1718501484
 31
0.0
 40
0.074415375
 41
1.1987422684
 42
1.2285114123
  0
ELLIPSE
  5
3BE
100
AcDbEntity
  8
0
100
AcDbEllipse
 62
7
  6
BYLAYER
 10
54.471384147
 20
60.6465864364
 30
0.0
 11
19.3564995502
 21
-8.7971324392
 31
0.0
 40
0.1104854318
 41
1.2556308579
 42
1.2854000018
  0
ELLIPSE
  5
3BF
100
AcDbEntity
  8
0
100
AcDbEllipse
 62
7
  6
BYLAYER
 10
54.7473887326
 20
60.5877255769
 30
0.0
 11
20.0042764695
 21
-8.4160455158
 31
0.0
 40
0.1456607967
 41
1.3097850194
 42
1.3395541633
  0
ELLIPSE
  5
3C0
100
AcDbEntity
  8
0
100
AcDbEllipse
 62
7
  6
BYLAYER
 10
55.0147584037
 20
60.5612444406
 30
0.0
 11
20.6149282535
 21
-8.0235470724
 31
0.0
 40
0.1799150085
 41
1.3614818461
 42
1.3912509899
  0
ELLIPSE
  5
3C1
100
AcDbEntity
  8
0
100
AcDbEllipse
 62
7
  6
BYLAYER
 10
55.2714583158
 20
60.5673445647
 30
0.0
 11
21.1879332732
 21
-7.6150966827
 31
0.0
 40
0.2132593463
 41
1.410935015
 42
1.4407041589
  0
ELLIPSE
  5
3C2
100
AcDbEntity
  8
0
100
AcDbEllipse
 62
7
  6
BYLAYER
 10
55.5155348275
 20
60.6059795238
 30
0.0
 11
21.7225954581
 21
-7.1865427116
 31
0.0
 40
0.2457285267
 41
1.4583025276
 42
1.4880716714
  0
ELLIPSE
  5
3C3
100
AcDbEntity
  8
0
100
AcDbEllipse
 62
7
  6
BYLAYER
 10
55.7451303691
 20
60.6768552823
 30
0.0
 11
22.2180966816
 21
-6.7340079971
 31
0.0
 40
0.2773703094
 41
1.5036929955
 42
1.5334621394
  0
ELLIPSE
  5
3C4
100
AcDbEntity
  8
0
100
AcDbEllipse
 62
7
  6
BYLAYER
 10
55.95849758
 20
60.779432433
 30
0.0
 11
22.6735302925
 21
-6.2537762083
 31
0.0
 40
0.3082378281
 41
1.5471702683
 42
1.5769394122
  0
ELLIPSE
  5
3C5
100
AcDbEntity
  8
0
100
AcDbEllipse
 62
7
  6
BYLAYER
 10
56.1540126069
 20
60.9129303019
 30
0.0
 11
23.0879170304
 21
-5.7421779141
 31
0.0
 40
0.3383837481
 41
1.5887563961
 42
1.61852554
  0
ELLIPSE
  5
3C6
100
AcDbEntity
  8
0
100
AcDbEllipse
 62
7
  6
BYLAYER
 10
56.3301874623
 20
61.0763328895
 30
0.0
 11
23.4602032511
 21
-5.1954742436
 31
0.0
 40
0.3678555579
 41
1.6284330032
 42
1.6582021471
  0
ELLIPSE
  5
3C7
100
AcDbEntity
  8
0
100
AcDbEllipse
 62
7
  6
BYLAYER
 10
56.4856813493
 20
61.2683966035
 30
0.0
 11
23.7892397943
 21
-4.6097360067
 31
0.0
 40
0.3966914607
 41
1.666141167
 42
1.6959103109
  0
ELLIPSE
  5
3C8
100
AcDbEntity
  8
0
100
AcDbEllipse
 62
7
  6
BYLAYER
 10
56.6193108654
 20
61.487659723
 30
0.0
 11
24.0737379637
 21
-3.9807171728
 31
0.0
 40
0.4249164272
 41
1.7017799172
 42
1.7315490611
  0
ELLIPSE
  5
3C9
100
AcDbEntity
  8
0
100
AcDbEllipse
 62
7
  6
BYLAYER
 10
56.7300590093
 20
61.7324535234
 30
0.0
 11
24.3121969692
 21
-3.3037240113
 31
0.0
 40
0.4525380327
 41
1.7352035145
 42
1.7649726584
  0
ELLIPSE
  5
3CA
100
AcDbEntity
  8
0
100
AcDbEllipse
 62
7
  6
BYLAYER
 10
56.8170829209
 20
62.000914976
 30
0.0
 11
24.502794857
 21
-2.5734857904
 31
0.0
 40
0.4795417348
 41
1.7662177942
 42
1.7959869381
  0
ELLIPSE
  5
3CB
100
AcDbEntity
  8
0
100
AcDbEllipse
 62
7
  6
BYLAYER
 10
56.8797202955
 20
62.291000927
 30
0.0
 11
24.6432328068
 21
-1.7840411968
 31
0.0
 40
0.5058852725
 41
1.7945761185
 42
1.8243452623
  0
ELLIPSE
  5
3CC
100
AcDbEntity
  8
0
100
AcDbEllipse
 62
7
  6
BYLAYER
 10
56.917494425
 20
62.6005036472
 30
0.0
 11
24.7305217616
 21
-0.9286688719
 31
0.0
 40
0.5314919031
 41
1.8199759772
 42
1.8497451211
  0
ELLIPSE
  5
3CD
100
AcDbEntity
  8
0
100
AcDbEllipse
 62
7
  6
BYLAYER
 10
56.9301178254
 20
62.927067634
 30
0.0
 11
24.7607031609
 21
0.0000861829
 31
0.0
 40
0.5562423032
 41
1.8420581444
 42
1.8718272883
  0
ELLIPSE
  5
3CE
100
AcDbEntity
  8
0
100
AcDbEllipse
 62
7
  6
BYLAYER
 10
56.917494425
 20
63.2682075382
 30
0.0
 11
24.7285072235
 21
1.0102028488
 31
0.0
 40
0.5799651978
 41
1.8604117045
 42
1.8901808484
  0
ELLIPSE
  5
3CF
100
AcDbEntity
  8
0
100
AcDbEllipse
 62
7
  6
BYLAYER
 10
56.8797202955
 20
63.6213270793
 30
0.0
 11
24.6269820389
 21
2.1096547814
 31
0.0
 40
0.6024273025
 41
1.8745903182
 42
1.8861464276
  0
ELLIPSE
  5
3D0
100
AcDbEntity
  8
0
100
AcDbEllipse
 62
7
  6
BYLAYER
 10
52.7542134653
 20
69.0379722333
 30
0.0
 11
10.0226631519
 21
22.5067805604
 31
0.0
 40
0.479536451
 41
-1.7959810505
 42
-1.7662119067
  0
ENDSEC
  0
SECTION
  2
OBJECTS
  0
DICTIONARY
  5
C
100
AcDbDictionary
280
0
281
1
  3
ACAD_GROUP
350
D
  3
ACAD_MLINESTYLE
350
17
  3
ACAD_LAYOUT
350
1A
  3
ACAD_PLOTSETTINGS
350
19
  3
ACAD_PLOTSTYLENAME
350
E
  0
DICTIONARY
  5
D
102
{ACAD_REACTORS
330
C
102
}
100
AcDbDictionary
280
0
281
1
  0
ACDBDICTIONARYWDFLT
  5
E
102
{ACAD_REACTORS
330
C
102
}
100
AcDbDictionary
281
1
  3
Normal
350
F
100
AcDbDictionaryWithDefault
340
F
  0
DICTIONARY
  5
17
102
{ACAD_REACTORS
330
C
102
}
100
AcDbDictionary
280
0
281
1
  3
Standard
350
18
  0
DICTIONARY
  5
19
102
{ACAD_REACTORS
330
C
102
}
100
AcDbDictionary
281
1
  0
DICTIONARY
  5
1A
102
{ACAD_REACTORS
330
C
102
}
100
AcDbDictionary
281
1
  3
Model
350
3D1
  3
Layout1
350
3D2
  0
ACDBPLACEHOLDER
  5
F
102
{ACAD_REACTORS
330
E
102
}
  0
MLINESTYLE
  5
18
102
{ACAD_REACTORS
330
17
102
}
100
AcDbMlineStyle
  2
STANDARD
 70
0
  3

 62
256
 51
90.0
 52
90.0
 71
2
 49
0.5
 62
256
  6
BYLAYER
 49
-0.5
 62
256
  6
BYLAYER
  0
LAYOUT
  5
3D1
102
{ACAD_REACTORS
330
1A
102
}
100
AcDbPlotSettings
  1

  2
none_device
  4

  6

 40
0.0
 41
0.0
 42
0.0
 43
0.0
 44
210.0
 45
297.0
 46
0.0
 47
0.0
 48
0.0
 49
0.0
140
0.0
141
0.0
142
1.0
143
1.0
 70
1024
 72
1
 73
0
 74
0
  7

 75
0
147
1.0
148
0.0
149
0.0
100
AcDbLayout
  1
Model
 70
0
 71
0
 10
0.0
 20
0.0
 11
210.0
 21
297.0
 12
0.0
 22
0.0
 32
0.0
 14
0.0
 24
0.0
 34
0.0
 15
0.0
 25
0.0
 35
0.0
146
0.0
 13
0.0
 23
0.0
 33
0.0
 16
1.0
 26
0.0
 36
0.0
 17
0.0
 27
1.0
 37
0.0
 76
0
330
210
345
0
346
0
  0
LAYOUT
  5
3D2
102
{ACAD_REACTORS
330
1A
102
}
100
AcDbPlotSettings
  1

  2
none_device
  4

  6

 40
0.0
 41
0.0
 42
0.0
 43
0.0
 44
210.0
 45
297.0
 46
0.0
 47
0.0
 48
0.0
 49
0.0
140
0.0
141
0.0
142
1.0
143
1.0
 70
0
 72
1
 73
0
 74
0
  7

 75
0
147
1.0
148
0.0
149
0.0
100
AcDbLayout
  1
Layout1
 70
0
 71
1
 10
0.0
 20
0.0
 11
210.0
 21
297.0
 12
0.0
 22
0.0
 32
0.0
 14
0.0
 24
0.0
 34
0.0
 15
0.0
 25
0.0
 35
0.0
146
0.0
 13
0.0
 23
0.0
 33
0.0
 16
1.0
 26
0.0
 36
0.0
 17
0.0
 27
1.0
 37
0.0
 76
0
330
211
345
0
346
0
  0
ENDSEC
  0
EOF
