999
DXF file: C:\Users\sesa63760\Dev\_Creo\CAD\MCADID0003858_3D-CAD\drw0001_1.dxf
999
Pro/ENGINEER 2019471 by Parametric Technology Corporation
  0
SECTION
  2
HEADER
  9
$ACADVER
  1
AC1024
  9
$DWGCODEPAGE
  3
ANSI_1252
  9
$EXTMAX
 10
64.5888527324
 20
91.3470917215
 30
0.0
  9
$EXTMIN
 10
0.0
 20
0.0
 30
0.0
  9
$LIMMIN
 10
0.0
 20
0.0
  9
$LIMMAX
 10
64.5888527324
 20
91.3470917215
  9
$VIEWCTR
 10
32.2944263662
 20
45.6735458607
  9
$VIEWSIZE
 40
91.3470917215
  9
$CLAYER
  8
0
  9
$LTSCALE
 40
5.95447709
  9
$CELTYPE
  6
BYLAYER
  9
$DIMSCALE
 40
1.0
  9
$DIMASZ
 40
0.7689149135
  9
$DIMEXO
 40
1.0
  9
$DIMDLI
 40
4.1140023531
  9
$DIMEXE
 40
1.0
  9
$DIMCEN
 40
0.9743689784
  9
$DIMLFAC
 40
1.0
  9
$DIMBLK
  1
_FILLED
  9
$DIMALT
 70
0
  9
$DIMALTF
 40
0.0393700787
  9
$DIMTXT
 40
1.0764808789
  9
$DIMTOL
 70
1
  9
$DIMLIM
 70
0
  9
$DIMTFAC
 40
1.0
  9
$DIMTP
 40
0.01
  9
$DIMTM
 40
0.01
  9
$DIMGAP
 40
0.625
  9
$DIMDSEP
 70
46
  9
$AUNITS
 70
0
  9
$PDMODE
 70
3
  9
$PDSIZE
 40
0.3125
  9
$HANDSEED
  5
3AF
  9
$TILEMODE
 70
1
  9
$MEASUREMENT
 70
1
  9
$INSUNITS
 70
4
  0
ENDSEC
  0
SECTION
  2
CLASSES
  0
CLASS
  1
ACDBDICTIONARYWDFLT
  2
AcDbDictionaryWithDefault
  3
AutoCAD 2000
 90
0
 91
1
280
0
281
0
  0
CLASS
  1
ACDBPLACEHOLDER
  2
AcDbPlaceHolder
  3
AutoCAD 2000
 90
0
 91
1
280
0
281
0
  0
CLASS
  1
LAYOUT
  2
AcDbLayout
  3
AutoCAD 2000
 90
0
 91
0
280
0
281
0
  0
ENDSEC
  0
SECTION
  2
TABLES
  0
TABLE
  2
VPORT
  5
8
100
AcDbSymbolTable
 70
2
  0
VPORT
  5
1F4
100
AcDbSymbolTableRecord
100
AcDbViewportTableRecord
  2
*ACTIVE
 70
0
 10
0.0
 20
0.0
 11
1.0
 21
1.0
 12
32.2944263662
 22
45.6735458607
 13
0.0
 23
0.0
 14
1.0
 24
1.0
 15
0.0
 25
0.0
 16
0.0
 26
0.0
 36
1.0
 17
0.0
 27
0.0
 37
0.0
 40
91.3470917215
 41
0.7070707071
 42
50.0
 43
0.0
 44
0.0
 50
0.0
 51
0.0
 71
0
 72
100
 73
1
 74
1
 75
0
 76
0
 77
0
 78
0
  0
ENDTAB
  0
TABLE
  2
LTYPE
  5
5
100
AcDbSymbolTable
 70
6
  0
LTYPE
  5
14
100
AcDbSymbolTableRecord
100
AcDbLinetypeTableRecord
  2
BYBLOCK
 70
0
  3

 72
65
 73
0
 40
0.0
  0
LTYPE
  5
15
100
AcDbSymbolTableRecord
100
AcDbLinetypeTableRecord
  2
BYLAYER
 70
0
  3

 72
65
 73
0
 40
0.0
  0
LTYPE
  5
16
100
AcDbSymbolTableRecord
100
AcDbLinetypeTableRecord
  2
CONTINUOUS
 70
64
  3
Solid line
 72
65
 73
0
 40
0.0
  0
LTYPE
  5
1F5
100
AcDbSymbolTableRecord
100
AcDbLinetypeTableRecord
  2
CENTER
 70
64
  3
____ _ ____ _ ____ _ ____ _ ____ _ ____ _ ____
 72
65
 73
4
 40
0.6
 49
0.375
 74
0
 49
-0.075
 74
0
 49
0.075
 74
0
 49
-0.075
 74
0
  0
LTYPE
  5
1F6
100
AcDbSymbolTableRecord
100
AcDbLinetypeTableRecord
  2
HIDDEN
 70
64
  3
- - - - - - - - - - - - - - - - - - - -
 72
65
 73
2
 40
0.2
 49
0.1
 74
0
 49
-0.1
 74
0
  0
LTYPE
  5
1F7
100
AcDbSymbolTableRecord
100
AcDbLinetypeTableRecord
  2
PHANTOM
 70
64
  3
_____ _ _ _____ _ _ _____ _ _ _____
 72
65
 73
6
 40
0.8
 49
0.45
 74
0
 49
-0.05
 74
0
 49
0.1
 74
0
 49
-0.05
 74
0
 49
0.1
 74
0
 49
-0.05
 74
0
  0
LTYPE
  5
1F8
100
AcDbSymbolTableRecord
100
AcDbLinetypeTableRecord
  2
DOT
 70
64
  3
. . . . . . . . . . . . . . . . . . . .
 72
65
 73
2
 40
0.2
 49
0.1
 74
0
 49
-0.1
 74
0
  0
LTYPE
  5
1F9
100
AcDbSymbolTableRecord
100
AcDbLinetypeTableRecord
  2
DASHED
 70
64
  3
- - - - - - - - - - - - - - - - - - - -
 72
65
 73
2
 40
0.2
 49
0.1
 74
0
 49
-0.1
 74
0
  0
ENDTAB
  0
TABLE
  2
LAYER
  5
2
100
AcDbSymbolTable
 70
36
  0
LAYER
  5
10
100
AcDbSymbolTableRecord
100
AcDbLayerTableRecord
  2
0
 70
0
 62
7
  6
CONTINUOUS
370
-3
390
F
  0
LAYER
  5
1FA
100
AcDbSymbolTableRecord
100
AcDbLayerTableRecord
  2
DEFAULT_1
 70
0
 62
7
  6
CENTER
370
-3
390
F
  0
LAYER
  5
1FB
100
AcDbSymbolTableRecord
100
AcDbLayerTableRecord
  2
DEFAULT_2
 70
0
 62
7
  6
HIDDEN
370
-3
390
F
  0
LAYER
  5
1FC
100
AcDbSymbolTableRecord
100
AcDbLayerTableRecord
  2
DEFAULT_3
 70
0
 62
7
  6
PHANTOM
370
-3
390
F
  0
LAYER
  5
1FD
100
AcDbSymbolTableRecord
100
AcDbLayerTableRecord
  2
00_COMPONENTS
 70
0
 62
7
  6
CONTINUOUS
370
-3
390
F
  0
LAYER
  5
1FE
100
AcDbSymbolTableRecord
100
AcDbLayerTableRecord
  2
01_1_DEFAULT_DATUMS
 70
0
 62
7
  6
CONTINUOUS
370
-3
390
F
  0
LAYER
  5
1FF
100
AcDbSymbolTableRecord
100
AcDbLayerTableRecord
  2
01_PLANES
 70
0
 62
7
  6
CONTINUOUS
370
-3
390
F
  0
LAYER
  5
200
100
AcDbSymbolTableRecord
100
AcDbLayerTableRecord
  2
02_COORD_SYS
 70
0
 62
7
  6
CONTINUOUS
370
-3
390
F
  0
LAYER
  5
201
100
AcDbSymbolTableRecord
100
AcDbLayerTableRecord
  2
03_AXES
 70
0
 62
7
  6
CONTINUOUS
370
-3
390
F
  0
LAYER
  5
202
100
AcDbSymbolTableRecord
100
AcDbLayerTableRecord
  2
04_POINTS
 70
0
 62
7
  6
CONTINUOUS
370
-3
390
F
  0
LAYER
  5
203
100
AcDbSymbolTableRecord
100
AcDbLayerTableRecord
  2
05_CURVES
 70
0
 62
7
  6
CONTINUOUS
370
-3
390
F
  0
LAYER
  5
204
100
AcDbSymbolTableRecord
100
AcDbLayerTableRecord
  2
06_SURFS
 70
0
 62
7
  6
CONTINUOUS
370
-3
390
F
  0
LAYER
  5
205
100
AcDbSymbolTableRecord
100
AcDbLayerTableRecord
  2
07_COSMETICS
 70
0
 62
7
  6
CONTINUOUS
370
-3
390
F
  0
LAYER
  5
206
100
AcDbSymbolTableRecord
100
AcDbLayerTableRecord
  2
10_NOTES
 70
0
 62
7
  6
CONTINUOUS
370
-3
390
F
  0
LAYER
  5
207
100
AcDbSymbolTableRecord
100
AcDbLayerTableRecord
  2
11_NOTES_PUB
 70
0
 62
7
  6
CONTINUOUS
370
-3
390
F
  0
LAYER
  5
208
100
AcDbSymbolTableRecord
100
AcDbLayerTableRecord
  2
13_REF_GTOL
 70
0
 62
7
  6
CONTINUOUS
370
-3
390
F
  0
LAYER
  5
209
100
AcDbSymbolTableRecord
100
AcDbLayerTableRecord
  2
16_MISC
 70
0
 62
7
  6
CONTINUOUS
370
-3
390
F
  0
LAYER
  5
20A
100
AcDbSymbolTableRecord
100
AcDbLayerTableRecord
  2
17_NO_PRINT
 70
0
 62
7
  6
CONTINUOUS
370
-3
390
F
  0
LAYER
  5
20B
100
AcDbSymbolTableRecord
100
AcDbLayerTableRecord
  2
18_DATUM_CAMS_JOINTS
 70
0
 62
7
  6
CONTINUOUS
370
-3
390
F
  0
LAYER
  5
20C
100
AcDbSymbolTableRecord
100
AcDbLayerTableRecord
  2
19_DATUM_FUNCTIONAL
 70
0
 62
7
  6
CONTINUOUS
370
-3
390
F
  0
LAYER
  5
20D
100
AcDbSymbolTableRecord
100
AcDbLayerTableRecord
  2
20_DATUM_KINEMATIC_SCHEME
 70
0
 62
7
  6
CONTINUOUS
370
-3
390
F
  0
ENDTAB
  0
TABLE
  2
STYLE
  5
3
100
AcDbSymbolTable
 70
1
  0
STYLE
  5
11
100
AcDbSymbolTableRecord
100
AcDbTextStyleTableRecord
  2
STANDARD
 70
0
 40
0.0
 41
1.0
 50
0.0
 71
0
 42
0.2
  3
ARIAL.TTF
  4

  0
STYLE
  5
20E
100
AcDbSymbolTableRecord
100
AcDbTextStyleTableRecord
  2
TEXTSTYLE_1
 70
0
 40
0.0
 41
0.8
 50
0.0
 71
0
 42
0.2
  3
gdt
  4

  0
ENDTAB
  0
TABLE
  2
VIEW
  5
6
100
AcDbSymbolTable
 70
0
  0
ENDTAB
  0
TABLE
  2
UCS
  5
7
100
AcDbSymbolTable
 70
0
  0
ENDTAB
  0
TABLE
  2
APPID
  5
9
100
AcDbSymbolTable
 70
1
  0
APPID
  5
20F
100
AcDbSymbolTableRecord
100
AcDbRegAppTableRecord
  2
ACAD
 70
0
  0
ENDTAB
  0
TABLE
  2
BLOCK_RECORD
  5
1
100
AcDbSymbolTable
 70
0
  0
BLOCK_RECORD
  5
210
100
AcDbSymbolTableRecord
100
AcDbBlockTableRecord
  2
*Model_Space
  0
BLOCK_RECORD
  5
211
100
AcDbSymbolTableRecord
100
AcDbBlockTableRecord
  2
*Paper_Space
  0
BLOCK_RECORD
  5
212
100
AcDbSymbolTableRecord
100
AcDbBlockTableRecord
  2
_FILLED
  0
ENDTAB
  0
TABLE
  2
DIMSTYLE
  5
A
100
AcDbSymbolTable
 70
1
100
AcDbDimStyleTable
 71
0
  0
DIMSTYLE
105
213
100
AcDbSymbolTableRecord
100
AcDbDimStyleTableRecord
  2
STANDARD
 70
0
  3

  4

 40
1.0
 41
0.7689149135
 42
1.0
 43
0.38
 44
1.0
 45
0.0
 46
0.0
 47
0.01
 48
0.01
140
1.0764808789
141
0.09
142
0.0
143
25.4
144
1.0
145
0.0
146
1.0
147
0.625
 71
1
 72
0
 73
0
 74
0
 75
0
 76
0
 77
1
 78
8
 79
2
170
0
171
1
172
0
173
0
174
0
175
0
176
0
177
0
178
0
270
2
179
2
271
2
272
2
273
2
274
2
275
0
280
0
281
0
282
0
283
1
284
8
285
0
286
0
287
3
288
0
340
11
278
46
341
212
342
212
343
212
344
212
  0
ENDTAB
  0
ENDSEC
  0
SECTION
  2
BLOCKS
  0
BLOCK
  5
20
100
AcDbEntity
  8
0
100
AcDbBlockBegin
  2
*Model_Space
 70
0
 10
0.0
 20
0.0
 30
0.0
  3
*Model_Space
  1

  0
ENDBLK
  5
21
100
AcDbEntity
  8
0
100
AcDbBlockEnd
  0
BLOCK
  5
1C
100
AcDbEntity
  8
0
100
AcDbBlockBegin
  2
*Paper_Space
 70
0
 10
0.0
 20
0.0
 30
0.0
  3
*Paper_Space
  1

  0
ENDBLK
  5
1D
100
AcDbEntity
  8
0
100
AcDbBlockEnd
  0
BLOCK
  5
214
100
AcDbEntity
  8
0
100
AcDbBlockBegin
  2
_FILLED
 70
64
 10
0.0
 20
0.0
  3
_FILLED
  1

  0
SOLID
  5
215
100
AcDbEntity
  8
0
  6
BYBLOCK
 62
0
100
AcDbTrace
 10
0.0
 20
0.0
 11
-1.0
 21
0.25
 12
-1.0
 22
-0.25
 13
-1.0
 23
-0.25
  0
ENDBLK
  5
216
100
AcDbEntity
  8
0
  6
BYBLOCK
 62
0
100
AcDbBlockEnd
  0
ENDSEC
  0
SECTION
  2
ENTITIES
  0
LINE
  5
217
100
AcDbEntity
  8
0
100
AcDbLine
 62
7
  6
BYLAYER
 10
14.1812429342
 20
30.9771306432
 11
14.0121261707
 21
31.0747680433
  0
LINE
  5
218
100
AcDbEntity
  8
0
100
AcDbLine
 62
7
  6
BYLAYER
 10
14.0121261707
 20
32.0545709439
 11
14.0493875122
 21
32.033058585
  0
LINE
  5
219
100
AcDbEntity
  8
0
100
AcDbLine
 62
7
  6
BYLAYER
 10
17.3355901772
 20
40.750170443
 11
16.8759844527
 21
41.0155315188
  0
LINE
  5
21A
100
AcDbEntity
  8
0
100
AcDbLine
 62
7
  6
BYLAYER
 10
21.1185303329
 20
34.1978867797
 11
21.11853416
 21
33.6671760086
  0
LINE
  5
21B
100
AcDbEntity
  8
0
100
AcDbLine
 62
7
  6
BYLAYER
 10
8.2607729661
 20
37.0667728318
 11
9.0519997602
 21
37.7862055502
  0
LINE
  5
21C
100
AcDbEntity
  8
0
100
AcDbLine
 62
7
  6
BYLAYER
 10
26.1430785757
 20
35.2893311544
 11
26.1496457354
 21
35.2885041738
  0
LINE
  5
21D
100
AcDbEntity
  8
0
100
AcDbLine
 62
7
  6
BYLAYER
 10
26.1644518987
 20
35.2085701778
 11
26.1711806545
 21
35.2074953976
  0
LINE
  5
21E
100
AcDbEntity
  8
0
100
AcDbLine
 62
7
  6
BYLAYER
 10
39.6534144983
 20
60.0648128168
 11
38.4096291505
 21
59.346717298
  0
LINE
  5
21F
100
AcDbEntity
  8
0
100
AcDbLine
 62
7
  6
BYLAYER
 10
43.359356011
 20
62.2044263751
 11
44.6031413028
 21
62.9225218616
  0
LINE
  5
220
100
AcDbEntity
  8
0
100
AcDbLine
 62
7
  6
BYLAYER
 10
9.3675818038
 20
38.0170636544
 11
9.0519997602
 21
37.7862055502
  0
LINE
  5
221
100
AcDbEntity
  8
0
100
AcDbLine
 62
7
  6
BYLAYER
 10
45.0514721737
 20
60.5470291251
 11
43.8076868879
 21
59.828933642
  0
LINE
  5
222
100
AcDbEntity
  8
0
100
AcDbLine
 62
7
  6
BYLAYER
 10
48.7574136926
 20
62.6866426869
 11
50.0011990342
 21
63.4047382022
  0
LINE
  5
223
100
AcDbEntity
  8
0
100
AcDbLine
 62
7
  6
BYLAYER
 10
45.5031212641
 20
60.3237578411
 11
44.3358377931
 21
59.6498304377
  0
LINE
  5
224
100
AcDbEntity
  8
0
100
AcDbLine
 62
7
  6
BYLAYER
 10
49.2855645786
 20
62.5075394715
 11
50.4528481464
 21
63.1814669308
  0
LINE
  5
225
100
AcDbEntity
  8
0
100
AcDbLine
 62
7
  6
BYLAYER
 10
41.0504230683
 20
57.0018706879
 11
21.724741833
 21
45.8442500264
  0
LINE
  5
226
100
AcDbEntity
  8
0
100
AcDbLine
 62
7
  6
BYLAYER
 10
13.8758892399
 20
41.3127399184
 11
9.9868181353
 21
39.0673970721
  0
LINE
  5
227
100
AcDbEntity
  8
0
100
AcDbLine
 62
7
  6
BYLAYER
 10
20.8002968792
 20
44.5599704395
 11
15.5069135641
 21
41.5038524002
  0
LINE
  5
228
100
AcDbEntity
  8
0
100
AcDbLine
 62
7
  6
BYLAYER
 10
9.3675818038
 20
38.0170636544
 11
9.5128183113
 21
38.1009001376
  0
LINE
  5
229
100
AcDbEntity
  8
0
100
AcDbLine
 62
7
  6
BYLAYER
 10
9.5090287751
 20
38.0986670848
 11
9.5130327168
 21
38.1005280637
  0
LINE
  5
22A
100
AcDbEntity
  8
0
100
AcDbLine
 62
7
  6
BYLAYER
 10
51.6761886052
 20
47.374578122
 11
51.7172080378
 21
47.3829377243
  0
LINE
  5
22B
100
AcDbEntity
  8
0
100
AcDbLine
 62
7
  6
BYLAYER
 10
23.4227200444
 20
44.7451815162
 11
22.5128250058
 21
44.8692011248
  0
LINE
  5
22C
100
AcDbEntity
  8
0
100
AcDbLine
 62
7
  6
BYLAYER
 10
27.6218932695
 20
37.4719567254
 11
27.2743454878
 21
36.6219564995
  0
LINE
  5
22D
100
AcDbEntity
  8
0
100
AcDbLine
 62
7
  6
BYLAYER
 10
44.013293899
 20
60.6111883548
 11
44.0536210043
 21
60.6567390681
  0
LINE
  5
22E
100
AcDbEntity
  8
0
100
AcDbLine
 62
7
  6
BYLAYER
 10
12.056826436
 20
35.6147012575
 11
11.857940799
 21
35.4998752668
  0
LINE
  5
22F
100
AcDbEntity
  8
0
100
AcDbLine
 62
7
  6
BYLAYER
 10
13.0073086337
 20
34.4603994898
 11
11.3579430374
 21
33.508143503
  0
LINE
  5
230
100
AcDbEntity
  8
0
100
AcDbLine
 62
7
  6
BYLAYER
 10
51.6844984458
 20
56.5979230889
 11
51.7703762137
 21
56.643152577
  0
LINE
  5
231
100
AcDbEntity
  8
0
100
AcDbLine
 62
7
  6
BYLAYER
 10
52.4451264603
 20
56.4516180279
 11
52.1096382711
 21
56.2749255096
  0
LINE
  5
232
100
AcDbEntity
  8
0
100
AcDbLine
 62
7
  6
BYLAYER
 10
52.2590333335
 20
55.7708688864
 11
52.1731555656
 21
55.7256393983
  0
LINE
  5
233
100
AcDbEntity
  8
0
100
AcDbLine
 62
7
  6
BYLAYER
 10
13.5121220537
 20
33.5971530988
 11
11.857940799
 21
32.6421168069
  0
LINE
  5
234
100
AcDbEntity
  8
0
100
AcDbLine
 62
7
  6
BYLAYER
 10
13.7121275138
 20
32.0842855113
 11
14.0010610381
 21
32.2511003635
  0
LINE
  5
235
100
AcDbEntity
  8
0
100
AcDbLine
 62
7
  6
BYLAYER
 10
9.179409593
 20
36.4650495073
 11
9.7275888349
 21
36.6462424873
  0
LINE
  5
236
100
AcDbEntity
  8
0
100
AcDbLine
 62
7
  6
BYLAYER
 10
14.0121261707
 20
32.0545709439
 11
14.0409333137
 21
32.0712026563
  0
LINE
  5
237
100
AcDbEntity
  8
0
100
AcDbLine
 62
7
  6
BYLAYER
 10
51.1461289358
 20
53.3038232031
 11
49.9788453697
 21
52.6298957448
  0
LINE
  5
238
100
AcDbEntity
  8
0
100
AcDbLine
 62
7
  6
BYLAYER
 10
54.928572252
 20
55.4876048345
 11
56.0958557216
 21
56.1615322371
  0
LINE
  5
239
100
AcDbEntity
  8
0
100
AcDbLine
 62
7
  6
BYLAYER
 10
51.3680920844
 20
52.6891164657
 11
50.1243072933
 21
51.9710212682
  0
LINE
  5
23A
100
AcDbEntity
  8
0
100
AcDbLine
 62
7
  6
BYLAYER
 10
55.0740340946
 20
54.8287303111
 11
56.3178189331
 21
55.5468255359
  0
LINE
  5
23B
100
AcDbEntity
  8
0
100
AcDbLine
 62
7
  6
BYLAYER
 10
37.664678576
 20
55.0590795867
 11
37.6658833109
 21
55.0478174119
  0
LINE
  5
23C
100
AcDbEntity
  8
0
100
AcDbLine
 62
7
  6
BYLAYER
 10
37.664678576
 20
55.0590795867
 11
37.6653126003
 21
55.047487914
  0
LINE
  5
23D
100
AcDbEntity
  8
0
100
AcDbLine
 62
7
  6
BYLAYER
 10
37.664678576
 20
55.0590795867
 11
37.6646837516
 21
55.0471241245
  0
LINE
  5
23E
100
AcDbEntity
  8
0
100
AcDbLine
 62
7
  6
BYLAYER
 10
50.9331936008
 20
57.6924319737
 11
51.0030304079
 21
57.7631051799
  0
LINE
  5
23F
100
AcDbEntity
  8
0
100
AcDbLine
 62
7
  6
BYLAYER
 10
51.7051256148
 20
57.6253864256
 11
51.4323026885
 21
57.349296041
  0
LINE
  5
240
100
AcDbEntity
  8
0
100
AcDbLine
 62
7
  6
BYLAYER
 10
51.5750941924
 20
56.9529033924
 11
51.5052573853
 21
56.8822301862
  0
LINE
  5
241
100
AcDbEntity
  8
0
100
AcDbLine
 62
7
  6
BYLAYER
 10
26.1502729279
 20
35.2934847907
 11
20.8452193732
 21
32.2306289756
  0
LINE
  5
242
100
AcDbEntity
  8
0
100
AcDbLine
 62
7
  6
BYLAYER
 10
14.9089783961
 20
28.7456241668
 11
14.7675576287
 21
28.6639753361
  0
LINE
  5
243
100
AcDbEntity
  8
0
100
AcDbLine
 62
7
  6
BYLAYER
 10
56.8573930649
 20
52.2715888122
 11
56.7558239536
 21
52.2129482084
  0
LINE
  5
244
100
AcDbEntity
  8
0
100
AcDbLine
 62
7
  6
BYLAYER
 10
46.9215487768
 20
46.5351606797
 11
27.7247149717
 21
35.4519296727
  0
LINE
  5
245
100
AcDbEntity
  8
0
100
AcDbLine
 62
7
  6
BYLAYER
 10
19.8758623787
 20
30.9204195647
 11
15.986791274
 21
28.6750767184
  0
LINE
  5
246
100
AcDbEntity
  8
0
100
AcDbLine
 62
7
  6
BYLAYER
 10
52.8102576202
 20
54.5370909487
 11
52.7110990736
 21
54.5187588916
  0
LINE
  5
247
100
AcDbEntity
  8
0
100
AcDbLine
 62
7
  6
BYLAYER
 10
53.0577947147
 20
55.2107870125
 11
52.6704241292
 21
55.1391714035
  0
LINE
  5
248
100
AcDbEntity
  8
0
100
AcDbLine
 62
7
  6
BYLAYER
 10
52.3215544604
 20
55.4250885699
 11
52.420713007
 21
55.443420627
  0
LINE
  5
249
100
AcDbEntity
  8
0
100
AcDbLine
 62
7
  6
BYLAYER
 10
42.8351583788
 20
60.5588173541
 11
42.8333207011
 21
60.5469478554
  0
LINE
  5
24A
100
AcDbEntity
  8
0
100
AcDbLine
 62
7
  6
BYLAYER
 10
42.8445675457
 20
60.5621125872
 11
42.8424466041
 21
60.5501517647
  0
LINE
  5
24B
100
AcDbEntity
  8
0
100
AcDbLine
 62
7
  6
BYLAYER
 10
14.4098368078
 20
28.5061041706
 11
14.7675576287
 21
28.6639753361
  0
LINE
  5
24C
100
AcDbEntity
  8
0
100
AcDbLine
 62
7
  6
BYLAYER
 10
50.0917874812
 20
58.6734368081
 11
50.1433387151
 21
58.7672822373
  0
LINE
  5
24D
100
AcDbEntity
  8
0
100
AcDbLine
 62
7
  6
BYLAYER
 10
50.8615764144
 20
58.6943663235
 11
50.6601875042
 21
58.3277518448
  0
LINE
  5
24E
100
AcDbEntity
  8
0
100
AcDbLine
 62
7
  6
BYLAYER
 10
50.7804225636
 20
58.0452029051
 11
50.7288713298
 21
57.9513574759
  0
LINE
  5
24F
100
AcDbEntity
  8
0
100
AcDbLine
 62
7
  6
BYLAYER
 10
51.3680920844
 20
45.4916847473
 11
50.124307246
 21
44.7735895225
  0
LINE
  5
250
100
AcDbEntity
  8
0
100
AcDbLine
 62
7
  6
BYLAYER
 10
55.0740340946
 20
47.6312985927
 11
56.3178188857
 21
48.3493937903
  0
LINE
  5
251
100
AcDbEntity
  8
0
100
AcDbLine
 62
7
  6
BYLAYER
 10
51.1461289367
 20
45.044938343
 11
49.9788453907
 21
44.3710108963
  0
LINE
  5
252
100
AcDbEntity
  8
0
100
AcDbLine
 62
7
  6
BYLAYER
 10
54.9285722512
 20
47.2287199734
 11
56.095855819
 21
47.9026474327
  0
LINE
  5
253
100
AcDbEntity
  8
0
100
AcDbLine
 62
7
  6
BYLAYER
 10
53.2110502503
 20
53.2912242174
 11
53.1017979623
 21
53.3003787987
  0
LINE
  5
254
100
AcDbEntity
  8
0
100
AcDbLine
 62
7
  6
BYLAYER
 10
53.5234387162
 20
53.9427747092
 11
53.0966361437
 21
53.978537794
  0
LINE
  5
255
100
AcDbEntity
  8
0
100
AcDbLine
 62
7
  6
BYLAYER
 10
52.8238861402
 20
54.2116242831
 11
52.9331384282
 21
54.2024697018
  0
LINE
  5
256
100
AcDbEntity
  8
0
100
AcDbLine
 62
7
  6
BYLAYER
 10
49.1873235722
 20
59.5094072895
 11
49.2189323337
 21
59.6234086725
  0
LINE
  5
257
100
AcDbEntity
  8
0
100
AcDbLine
 62
7
  6
BYLAYER
 10
13.3911747176
 20
28.1806032919
 11
14.4098368078
 21
28.5061041706
  0
LINE
  5
258
100
AcDbEntity
  8
0
100
AcDbLine
 62
7
  6
BYLAYER
 10
53.448529419
 20
52.0733118743
 11
53.332694848
 21
52.1096588583
  0
LINE
  5
259
100
AcDbEntity
  8
0
100
AcDbLine
 62
7
  6
BYLAYER
 10
48.2488720879
 20
60.173474639
 11
48.2595224455
 21
60.3039678774
  0
LINE
  5
25A
100
AcDbEntity
  8
0
100
AcDbLine
 62
7
  6
BYLAYER
 10
49.9415912242
 20
59.6241998281
 11
49.8181091355
 21
59.1788445462
  0
LINE
  5
25B
100
AcDbEntity
  8
0
100
AcDbLine
 62
7
  6
BYLAYER
 10
49.9005598472
 20
59.0126600195
 11
49.8689510857
 21
58.8986586365
  0
LINE
  5
25C
100
AcDbEntity
  8
0
100
AcDbLine
 62
7
  6
BYLAYER
 10
45.5412062308
 20
60.9502438308
 11
45.5314950661
 21
60.9486025574
  0
LINE
  5
25D
100
AcDbEntity
  8
0
100
AcDbLine
 62
7
  6
BYLAYER
 10
45.5412062308
 20
60.9502438308
 11
45.5313939003
 21
60.9488479521
  0
LINE
  5
25E
100
AcDbEntity
  8
0
100
AcDbLine
 62
7
  6
BYLAYER
 10
45.4891605469
 20
60.9488348973
 11
45.5308594985
 21
60.9523631141
  0
LINE
  5
25F
100
AcDbEntity
  8
0
100
AcDbLine
 62
7
  6
BYLAYER
 10
53.8270922835
 20
52.6883360767
 11
53.3745755099
 21
52.8303284004
  0
LINE
  5
260
100
AcDbEntity
  8
0
100
AcDbLine
 62
7
  6
BYLAYER
 10
53.1753481316
 20
52.9965319691
 11
53.2911827025
 21
52.9601849851
  0
LINE
  5
261
100
AcDbEntity
  8
0
100
AcDbLine
 62
7
  6
BYLAYER
 10
53.5150623503
 20
50.9224986243
 11
53.3963685148
 21
50.9848697889
  0
LINE
  5
262
100
AcDbEntity
  8
0
100
AcDbLine
 62
7
  6
BYLAYER
 10
47.3065956311
 20
60.6442951853
 11
47.2959452736
 21
60.7870861192
  0
LINE
  5
263
100
AcDbEntity
  8
0
100
AcDbLine
 62
7
  6
BYLAYER
 10
48.0002083828
 20
60.4536795343
 11
48.0108587404
 21
60.3108886005
  0
LINE
  5
264
100
AcDbEntity
  8
0
100
AcDbLine
 62
7
  6
BYLAYER
 10
48.9747391255
 20
60.3850013256
 11
48.933132674
 21
59.8752193257
  0
LINE
  5
265
100
AcDbEntity
  8
0
100
AcDbLine
 62
7
  6
BYLAYER
 10
48.9637855548
 20
59.8241798678
 11
48.9531351972
 21
59.6936866293
  0
LINE
  5
266
100
AcDbEntity
  8
0
100
AcDbLine
 62
7
  6
BYLAYER
 10
53.9589957411
 20
51.4877898049
 11
53.4953090277
 21
51.7314476173
  0
LINE
  5
267
100
AcDbEntity
  8
0
100
AcDbLine
 62
7
  6
BYLAYER
 10
53.3646441569
 20
51.8188656946
 11
53.4833379925
 21
51.75649453
  0
LINE
  5
268
100
AcDbEntity
  8
0
100
AcDbLine
 62
7
  6
BYLAYER
 10
53.4085106212
 20
49.8757725521
 11
53.2907724386
 21
49.9621632368
  0
LINE
  5
269
100
AcDbEntity
  8
0
100
AcDbLine
 62
7
  6
BYLAYER
 10
53.3856900863
 20
50.7164766228
 11
53.5034282689
 21
50.6300859381
  0
LINE
  5
26A
100
AcDbEntity
  8
0
100
AcDbLine
 62
7
  6
BYLAYER
 10
53.1322988918
 20
48.9667762949
 11
53.0193005643
 21
49.074409832
  0
LINE
  5
26B
100
AcDbEntity
  8
0
100
AcDbLine
 62
7
  6
BYLAYER
 10
46.3907797426
 20
60.9067363689
 11
46.3591709811
 21
61.0572355801
  0
LINE
  5
26C
100
AcDbEntity
  8
0
100
AcDbLine
 62
7
  6
BYLAYER
 10
46.1589777438
 20
60.8870940725
 11
46.1527625752
 21
60.8889875119
  0
LINE
  5
26D
100
AcDbEntity
  8
0
100
AcDbLine
 62
7
  6
BYLAYER
 10
53.2378094863
 20
49.7247964454
 11
53.3508078138
 21
49.6171629083
  0
LINE
  5
26E
100
AcDbEntity
  8
0
100
AcDbLine
 62
7
  6
BYLAYER
 10
52.6953048345
 20
48.2247257403
 11
52.5906782212
 21
48.3501426994
  0
LINE
  5
26F
100
AcDbEntity
  8
0
100
AcDbLine
 62
7
  6
BYLAYER
 10
52.9257553609
 20
48.8756985793
 11
53.0303819742
 21
48.7502816202
  0
LINE
  5
270
100
AcDbEntity
  8
0
100
AcDbLine
 62
7
  6
BYLAYER
 10
52.1115737977
 20
47.6734710037
 11
52.0186816841
 21
47.8126403805
  0
LINE
  5
271
100
AcDbEntity
  8
0
100
AcDbLine
 62
7
  6
BYLAYER
 10
52.4595573866
 20
48.1964737286
 11
52.5524495001
 21
48.0573043518
  0
LINE
  5
272
100
AcDbEntity
  8
0
100
AcDbLine
 62
7
  6
BYLAYER
 10
44.4893546146
 20
60.846757259
 11
44.5752323825
 21
60.7023669094
  0
LINE
  5
273
100
AcDbEntity
  8
0
100
AcDbLine
 62
7
  6
BYLAYER
 10
51.8541995498
 20
47.7089527388
 11
51.9323715347
 21
47.5605039625
  0
LINE
  5
274
100
AcDbEntity
  8
0
100
AcDbLine
 62
7
  6
BYLAYER
 10
44.754473443
 20
60.7797089398
 11
44.6846366359
 21
60.9310209204
  0
LINE
  5
275
100
AcDbEntity
  8
0
100
AcDbLine
 62
7
  6
BYLAYER
 10
45.2567004204
 20
61.0806752915
 11
45.3265372275
 21
60.9293633109
  0
LINE
  5
276
100
AcDbEntity
  8
0
100
AcDbLine
 62
7
  6
BYLAYER
 10
45.5308594985
 20
60.9523631141
 11
45.4793082647
 21
61.1057334342
  0
LINE
  5
277
100
AcDbEntity
  8
0
100
AcDbLine
 62
7
  6
BYLAYER
 10
46.1163921132
 20
61.0921883455
 11
46.1679433471
 21
60.9388180254
  0
LINE
  5
278
100
AcDbEntity
  8
0
100
AcDbLine
 62
7
  6
BYLAYER
 10
47.0407984946
 20
60.880926382
 11
47.0724072561
 21
60.7304271708
  0
LINE
  5
279
100
AcDbEntity
  8
0
100
AcDbLine
 62
7
  6
BYLAYER
 10
53.2447271451
 20
49.7530789961
 11
53.2548140673
 21
49.8202269711
  0
LINE
  5
27A
100
AcDbEntity
  8
0
100
AcDbLine
 62
7
  6
BYLAYER
 10
53.2317727065
 20
49.6684268973
 11
53.2402721632
 21
49.7244226417
  0
LINE
  5
27B
100
AcDbEntity
  8
0
100
AcDbLine
 62
7
  6
BYLAYER
 10
48.0047589196
 20
60.3887987324
 11
47.9970876729
 21
60.3920848817
  0
LINE
  5
27C
100
AcDbEntity
  8
0
100
AcDbLine
 62
7
  6
BYLAYER
 10
48.0057715489
 20
60.379093336
 11
47.9980613375
 21
60.3828619216
  0
LINE
  5
27D
100
AcDbEntity
  8
0
100
AcDbLine
 62
7
  6
BYLAYER
 10
48.0034447196
 20
60.4102894841
 11
47.9831012642
 21
60.4209094828
  0
LINE
  5
27E
100
AcDbEntity
  8
0
100
AcDbLine
 62
7
  6
BYLAYER
 10
53.2548140673
 20
49.8202269711
 11
53.2586831621
 21
49.8118188049
  0
ARC
  5
27F
100
AcDbEntity
  8
0
100
AcDbCircle
 62
7
  6
BYLAYER
 10
21.1625530279
 20
-2.1766418568
 40
62.868827799
100
AcDbArc
 50
59.0631709568
 51
59.188798999
  0
ARC
  5
280
100
AcDbEntity
  8
0
100
AcDbCircle
 62
7
  6
BYLAYER
 10
13.041295271
 20
37.4939470728
 40
40.1676169938
100
AcDbArc
 50
14.8857566908
 51
15.3054562475
  0
ARC
  5
281
100
AcDbEntity
  8
0
100
AcDbCircle
 62
7
  6
BYLAYER
 10
19.7356751676
 20
36.3189637051
 40
34.8421948207
100
AcDbArc
 50
44.1089188661
 51
44.3245340479
  0
ARC
  5
282
100
AcDbEntity
  8
0
100
AcDbCircle
 62
7
  6
BYLAYER
 10
35.9309717673
 20
34.0559147351
 40
28.9276846922
100
AcDbArc
 50
67.3575718206
 51
68.0986518524
  0
ARC
  5
283
100
AcDbEntity
  8
0
100
AcDbCircle
 62
7
  6
BYLAYER
 10
37.7284116561
 20
33.4801956843
 40
28.6742487424
100
AcDbArc
 50
72.9146946331
 51
73.5264404867
  0
ARC
  5
284
100
AcDbEntity
  8
0
100
AcDbCircle
 62
7
  6
BYLAYER
 10
34.8291755711
 20
35.2592039125
 40
28.3926501579
100
AcDbArc
 50
62.4005020116
 51
63.1941645113
  0
ARC
  5
285
100
AcDbEntity
  8
0
100
AcDbCircle
 62
7
  6
BYLAYER
 10
38.0328649946
 20
34.4725995365
 40
27.6361942026
100
AcDbArc
 50
72.5795049185
 51
72.9000927993
  0
ARC
  5
286
100
AcDbEntity
  8
0
100
AcDbCircle
 62
7
  6
BYLAYER
 10
40.0870326721
 20
33.793536773
 40
27.5055980215
100
AcDbArc
 50
78.5770153585
 51
79.5494648535
  0
ARC
  5
287
100
AcDbEntity
  8
0
100
AcDbCircle
 62
7
  6
BYLAYER
 10
34.5387198783
 20
36.9948623415
 40
27.0316454449
100
AcDbArc
 50
57.8253198592
 51
58.7386294253
  0
ARC
  5
288
100
AcDbEntity
  8
0
100
AcDbCircle
 62
7
  6
BYLAYER
 10
40.3590914213
 20
32.5939902362
 40
24.093985665
100
AcDbArc
 50
57.447037983
 51
57.8642101754
  0
ARC
  5
289
100
AcDbEntity
  8
0
100
AcDbCircle
 62
7
  6
BYLAYER
 10
6.1999082624
 20
29.9686100559
 40
8.6911620664
100
AcDbArc
 50
31.5728268212
 51
39.5513962868
  0
ARC
  5
28A
100
AcDbEntity
  8
0
100
AcDbCircle
 62
7
  6
BYLAYER
 10
9.3732993847
 20
33.0045266903
 40
3.7594481386
100
AcDbArc
 50
60.6153201533
 51
61.8690809778
  0
ARC
  5
28B
100
AcDbEntity
  8
0
100
AcDbCircle
 62
7
  6
BYLAYER
 10
26.4265738578
 20
38.0449052922
 40
2.7733484347
100
AcDbArc
 50
264.9552569007
 51
266.265803589
  0
ARC
  5
28C
100
AcDbEntity
  8
0
100
AcDbCircle
 62
7
  6
BYLAYER
 10
10.4337775596
 20
36.4810172385
 40
1.8639106657
100
AcDbArc
 50
108.3524777552
 51
109.8904067966
  0
ARC
  5
28D
100
AcDbEntity
  8
0
100
AcDbCircle
 62
7
  6
BYLAYER
 10
13.9975206063
 20
30.3224837288
 40
1.8213239416
100
AcDbArc
 50
300.3077188127
 51
311.6328715507
  0
ARC
  5
28E
100
AcDbEntity
  8
0
100
AcDbCircle
 62
7
  6
BYLAYER
 10
10.41558634
 20
36.5277344068
 40
1.8137917548
100
AcDbArc
 50
109.8521269625
 51
119.8495473741
  0
ARC
  5
28F
100
AcDbEntity
  8
0
100
AcDbCircle
 62
7
  6
BYLAYER
 10
10.2709412674
 20
36.452041218
 40
1.8070223164
100
AcDbArc
 50
114.8349064049
 51
119.9943252211
  0
ARC
  5
290
100
AcDbEntity
  8
0
100
AcDbCircle
 62
7
  6
BYLAYER
 10
13.8648609478
 20
30.2273833533
 40
1.805292789
100
AcDbArc
 50
300.0017217358
 51
305.0437003846
  0
ARC
  5
291
100
AcDbEntity
  8
0
100
AcDbCircle
 62
7
  6
BYLAYER
 10
14.008233192
 20
30.3058427128
 40
1.8015514531
100
AcDbArc
 50
299.9986947818
 51
300.2806640561
  0
ARC
  5
292
100
AcDbEntity
  8
0
100
AcDbCircle
 62
7
  6
BYLAYER
 10
11.6079419182
 20
35.9328886149
 40
0.5
100
AcDbArc
 50
134.5215199549
 51
299.9998519061
  0
ARC
  5
293
100
AcDbEntity
  8
0
100
AcDbCircle
 62
7
  6
BYLAYER
 10
11.6079419182
 20
33.0751301549
 40
0.5
100
AcDbArc
 50
119.9998519061
 51
299.9998519061
  0
ARC
  5
294
100
AcDbEntity
  8
0
100
AcDbCircle
 62
7
  6
BYLAYER
 10
14.0828259562
 20
31.6462875141
 40
0.5
100
AcDbArc
 50
173.5990839153
 51
242.7057137736
  0
ARC
  5
295
100
AcDbEntity
  8
0
100
AcDbCircle
 62
7
  6
BYLAYER
 10
11.5257398864
 20
35.7282331981
 40
0.4357572228
100
AcDbArc
 50
355.4845087214
 51
0.0703499896
  0
ARC
  5
296
100
AcDbEntity
  8
0
100
AcDbCircle
 62
7
  6
BYLAYER
 10
25.2416982942
 20
51.1998836971
 40
28.2586576412
100
AcDbArc
 50
0.1928035519
 51
0.573900782
  0
ARC
  5
297
100
AcDbEntity
  8
0
100
AcDbCircle
 62
7
  6
BYLAYER
 10
23.7620177998
 20
43.4605658304
 40
3.2406579957
100
AcDbArc
 50
159.2444762695
 51
161.1712720475
  0
ARC
  5
298
100
AcDbEntity
  8
0
100
AcDbCircle
 62
7
  6
BYLAYER
 10
23.3418214952
 20
43.4139416151
 40
2.7960425315
100
AcDbArc
 50
154.2074626439
 51
155.4374425023
  0
ARC
  5
299
100
AcDbEntity
  8
0
100
AcDbCircle
 62
7
  6
BYLAYER
 10
11.2115173597
 20
58.775876123
 40
37.7527759657
100
AcDbArc
 50
1.3930591452
 51
1.6167982486
  0
ARC
  5
29A
100
AcDbEntity
  8
0
100
AcDbCircle
 62
7
  6
BYLAYER
 10
24.5581080078
 20
54.1020988787
 40
29.0144187344
100
AcDbArc
 50
350.5970237724
 51
351.2102371971
  0
ARC
  5
29B
100
AcDbEntity
  8
0
100
AcDbCircle
 62
7
  6
BYLAYER
 10
24.7193499352
 20
52.4590823816
 40
28.7883586449
100
AcDbArc
 50
355.6275515563
 51
356.4328930585
  0
ARC
  5
29C
100
AcDbEntity
  8
0
100
AcDbCircle
 62
7
  6
BYLAYER
 10
25.2635600444
 20
55.9769451594
 40
28.4879268586
100
AcDbArc
 50
345.0267666403
 51
345.6560356069
  0
ARC
  5
29D
100
AcDbEntity
  8
0
100
AcDbCircle
 62
7
  6
BYLAYER
 10
26.1659273551
 20
51.2080454522
 40
27.3343932151
100
AcDbArc
 50
0.5761981166
 51
1.097173355
  0
ARC
  5
29E
100
AcDbEntity
  8
0
100
AcDbCircle
 62
7
  6
BYLAYER
 10
27.6504303831
 20
50.4584633195
 40
25.8332612433
100
AcDbArc
 50
4.3564598513
 51
5.2679961385
  0
ARC
  5
29F
100
AcDbEntity
  8
0
100
AcDbCircle
 62
7
  6
BYLAYER
 10
35.1020148009
 20
39.1203318159
 40
24.8778488904
100
AcDbArc
 50
53.7340562947
 51
54.6629709731
  0
ARC
  5
2A0
100
AcDbEntity
  8
0
100
AcDbCircle
 62
7
  6
BYLAYER
 10
30.4269733078
 20
50.3364726219
 40
22.9603626237
100
AcDbArc
 50
8.1855053213
 51
9.1270388312
  0
ARC
  5
2A1
100
AcDbEntity
  8
0
100
AcDbCircle
 62
7
  6
BYLAYER
 10
31.5291248133
 20
41.4712568331
 40
22.0245267092
100
AcDbArc
 50
17.955982715
 51
18.5792220469
  0
ARC
  5
2A2
100
AcDbEntity
  8
0
100
AcDbCircle
 62
7
  6
BYLAYER
 10
36.6393850636
 20
41.6516556193
 40
21.7870394133
100
AcDbArc
 50
49.9438015614
 51
50.9105929723
  0
ARC
  5
2A3
100
AcDbEntity
  8
0
100
AcDbCircle
 62
7
  6
BYLAYER
 10
33.9022498556
 20
50.8999445097
 40
19.240982569
100
AcDbArc
 50
11.7284513541
 51
12.7279924967
  0
ARC
  5
2A4
100
AcDbEntity
  8
0
100
AcDbCircle
 62
7
  6
BYLAYER
 10
31.450334839
 20
48.6731842386
 40
18.5558058634
100
AcDbArc
 50
40.6222659992
 51
41.3170027361
  0
ARC
  5
2A5
100
AcDbEntity
  8
0
100
AcDbCircle
 62
7
  6
BYLAYER
 10
33.9212265207
 20
46.7366923506
 40
18.4343285976
100
AcDbArc
 50
18.838327952
 51
20.8697451085
  0
ARC
  5
2A6
100
AcDbEntity
  8
0
100
AcDbCircle
 62
7
  6
BYLAYER
 10
38.8959375937
 20
49.6034240728
 40
18.4077692933
100
AcDbArc
 50
18.8368589304
 51
20.8712074081
  0
ARC
  5
2A7
100
AcDbEntity
  8
0
100
AcDbCircle
 62
7
  6
BYLAYER
 10
39.0788681573
 20
44.3779842712
 40
17.9126288899
100
AcDbArc
 50
46.3976343763
 51
47.4342288217
  0
ARC
  5
2A8
100
AcDbEntity
  8
0
100
AcDbCircle
 62
7
  6
BYLAYER
 10
38.084384584
 20
49.1599861926
 40
13.7445132851
100
AcDbArc
 50
11.6340532846
 51
14.8782825404
  0
ARC
  5
2A9
100
AcDbEntity
  8
0
100
AcDbCircle
 62
7
  6
BYLAYER
 10
38.7323824943
 20
48.7374248445
 40
13.12530677
100
AcDbArc
 50
31.430085355
 51
33.0285766823
  0
ARC
  5
2AA
100
AcDbEntity
  8
0
100
AcDbCircle
 62
7
  6
BYLAYER
 10
39.5801399358
 20
48.9107780816
 40
12.8583752786
100
AcDbArc
 50
62.5720920914
 51
64.8172234514
  0
ARC
  5
2AB
100
AcDbEntity
  8
0
100
AcDbCircle
 62
7
  6
BYLAYER
 10
39.3296460236
 20
49.1696620907
 40
12.3877637317
100
AcDbArc
 50
37.446474438
 51
39.10860144
  0
ARC
  5
2AC
100
AcDbEntity
  8
0
100
AcDbCircle
 62
7
  6
BYLAYER
 10
40.390617798
 20
50.1182127717
 40
10.9639211856
100
AcDbArc
 50
43.7929877606
 51
45.5969399897
  0
ARC
  5
2AD
100
AcDbEntity
  8
0
100
AcDbCircle
 62
7
  6
BYLAYER
 10
26.2479040525
 20
55.724509582
 40
27.4717298621
100
AcDbArc
 50
345.6575003344
 51
345.9802641592
  0
ARC
  5
2AE
100
AcDbEntity
  8
0
100
AcDbCircle
 62
7
  6
BYLAYER
 10
26.8103657523
 20
57.8927381272
 40
27.2683865868
100
AcDbArc
 50
338.8467333589
 51
339.8259710936
  0
ARC
  5
2AF
100
AcDbEntity
  8
0
100
AcDbCircle
 62
7
  6
BYLAYER
 10
29.0599996158
 20
59.6626071632
 40
25.4982375682
100
AcDbArc
 50
332.8132202278
 51
333.0255659806
  0
ARC
  5
2B0
100
AcDbEntity
  8
0
100
AcDbCircle
 62
7
  6
BYLAYER
 10
26.8989510232
 20
58.0437244365
 40
22.9859047104
100
AcDbArc
 50
2.1315420487
 51
2.5912645337
  0
ARC
  5
2B1
100
AcDbEntity
  8
0
100
AcDbCircle
 62
7
  6
BYLAYER
 10
30.1602605043
 20
56.9445186738
 40
22.0466146079
100
AcDbArc
 50
356.8307032387
 51
357.5415131619
  0
ARC
  5
2B2
100
AcDbEntity
  8
0
100
AcDbCircle
 62
7
  6
BYLAYER
 10
30.8300242008
 20
56.9431821865
 40
22.0149782172
100
AcDbArc
 50
353.6774163114
 51
354.4424410425
  0
ARC
  5
2B3
100
AcDbEntity
  8
0
100
AcDbCircle
 62
7
  6
BYLAYER
 10
29.7010803897
 20
57.1110189613
 40
21.8053772901
100
AcDbArc
 50
359.3988238969
 51
0.0510158927
  0
ARC
  5
2B4
100
AcDbEntity
  8
0
100
AcDbCircle
 62
7
  6
BYLAYER
 10
29.0776134997
 20
57.4759548363
 40
21.6564764746
100
AcDbArc
 50
1.2578571121
 51
1.835482643
  0
ARC
  5
2B5
100
AcDbEntity
  8
0
100
AcDbCircle
 62
7
  6
BYLAYER
 10
31.8078434488
 20
57.0596856314
 40
21.6232487542
100
AcDbArc
 50
349.9879752101
 51
350.8080540096
  0
ARC
  5
2B6
100
AcDbEntity
  8
0
100
AcDbCircle
 62
7
  6
BYLAYER
 10
33.070785676
 20
57.2472784129
 40
20.9031121603
100
AcDbArc
 50
345.7719171455
 51
346.6500548847
  0
ARC
  5
2B7
100
AcDbEntity
  8
0
100
AcDbCircle
 62
7
  6
BYLAYER
 10
34.466472993
 20
57.4954789314
 40
20.0182161011
100
AcDbArc
 50
341.020233528
 51
341.7108351575
  0
ARC
  5
2B8
100
AcDbEntity
  8
0
100
AcDbCircle
 62
7
  6
BYLAYER
 10
38.0486310616
 20
63.5244376063
 40
19.9504534918
100
AcDbArc
 50
321.474183719
 51
322.8914481008
  0
ARC
  5
2B9
100
AcDbEntity
  8
0
100
AcDbCircle
 62
7
  6
BYLAYER
 10
34.6658691757
 20
57.4292977559
 40
19.8081239434
100
AcDbArc
 50
341.7116014705
 51
341.9596198529
  0
ARC
  5
2BA
100
AcDbEntity
  8
0
100
AcDbCircle
 62
7
  6
BYLAYER
 10
38.3394713444
 20
63.2936272552
 40
19.5791569272
100
AcDbArc
 50
320.8131108498
 51
321.4724701325
  0
ARC
  5
2BB
100
AcDbEntity
  8
0
100
AcDbCircle
 62
7
  6
BYLAYER
 10
33.9991600805
 20
53.8428159257
 40
19.2722907542
100
AcDbArc
 50
332.838254726
 51
334.3213540289
  0
ARC
  5
2BC
100
AcDbEntity
  8
0
100
AcDbCircle
 62
7
  6
BYLAYER
 10
36.0751357809
 20
57.7300520553
 40
18.8869860546
100
AcDbArc
 50
335.7145684813
 51
336.7161195576
  0
ARC
  5
2BD
100
AcDbEntity
  8
0
100
AcDbCircle
 62
7
  6
BYLAYER
 10
39.3215425679
 20
56.5153724895
 40
18.8562090026
100
AcDbArc
 50
332.8218932444
 51
334.3377204569
  0
ARC
  5
2BE
100
AcDbEntity
  8
0
100
AcDbCircle
 62
7
  6
BYLAYER
 10
37.6003352417
 20
58.029981612
 40
17.8310615928
100
AcDbArc
 50
329.851322424
 51
330.9136006127
  0
ARC
  5
2BF
100
AcDbEntity
  8
0
100
AcDbCircle
 62
7
  6
BYLAYER
 10
38.9986866347
 20
58.4271573118
 40
16.9200608387
100
AcDbArc
 50
323.4470015267
 51
324.5621806627
  0
ARC
  5
2C0
100
AcDbEntity
  8
0
100
AcDbCircle
 62
7
  6
BYLAYER
 10
40.2092842037
 20
58.9970310024
 40
16.2650687805
100
AcDbArc
 50
316.5570048571
 51
317.7101099612
  0
ARC
  5
2C1
100
AcDbEntity
  8
0
100
AcDbCircle
 62
7
  6
BYLAYER
 10
37.7726060572
 20
52.1307802842
 40
14.9239549837
100
AcDbArc
 50
15.0215972364
 51
16.122033936
  0
ARC
  5
2C2
100
AcDbEntity
  8
0
100
AcDbCircle
 62
7
  6
BYLAYER
 10
39.5383135544
 20
55.6471731797
 40
8.5316109884
100
AcDbArc
 50
37.5027409598
 51
38.2601419253
  0
ARC
  5
2C3
100
AcDbEntity
  8
0
100
AcDbCircle
 62
7
  6
BYLAYER
 10
41.7899024355
 20
37.6447606832
 40
22.034266439
100
AcDbArc
 50
64.7310658639
 51
65.483339768
  0
ARC
  5
2C4
100
AcDbEntity
  8
0
100
AcDbCircle
 62
7
  6
BYLAYER
 10
41.5235781636
 20
37.1042895216
 40
21.9828581089
100
AcDbArc
 50
61.7719742854
 51
62.4695363198
  0
ARC
  5
2C5
100
AcDbEntity
  8
0
100
AcDbCircle
 62
7
  6
BYLAYER
 10
42.3177787212
 20
38.3782159589
 40
21.7331820385
100
AcDbArc
 50
68.2339718525
 51
69.0408479628
  0
ARC
  5
2C6
100
AcDbEntity
  8
0
100
AcDbCircle
 62
7
  6
BYLAYER
 10
41.4469092135
 20
35.707506455
 40
21.7218318883
100
AcDbArc
 50
57.8608881213
 51
58.4153495077
  0
ARC
  5
2C7
100
AcDbEntity
  8
0
100
AcDbCircle
 62
7
  6
BYLAYER
 10
41.4857879989
 20
36.6093502033
 40
21.7128037132
100
AcDbArc
 50
59.4265001579
 51
60.0628566821
  0
ARC
  5
2C8
100
AcDbEntity
  8
0
100
AcDbCircle
 62
7
  6
BYLAYER
 10
43.0655234735
 20
39.328686967
 40
21.0888100467
100
AcDbArc
 50
72.2607269943
 51
73.1248816631
  0
ARC
  5
2C9
100
AcDbEntity
  8
0
100
AcDbCircle
 62
7
  6
BYLAYER
 10
43.9639898847
 20
40.4515831233
 40
20.1820023895
100
AcDbArc
 50
76.8173994363
 51
77.742121493
  0
ARC
  5
2CA
100
AcDbEntity
  8
0
100
AcDbCircle
 62
7
  6
BYLAYER
 10
44.9408448208
 20
41.6318392328
 40
19.1590776982
100
AcDbArc
 50
81.9211971231
 51
82.9070503101
  0
ARC
  5
2CB
100
AcDbEntity
  8
0
100
AcDbCircle
 62
7
  6
BYLAYER
 10
45.9587442268
 20
42.8258548765
 40
18.0860424148
100
AcDbArc
 50
87.5836160861
 51
88.6312004645
  0
ARC
  5
2CC
100
AcDbEntity
  8
0
100
AcDbCircle
 62
7
  6
BYLAYER
 10
46.9949889234
 20
43.8872700926
 40
17.1277866289
100
AcDbArc
 50
93.8007166496
 51
94.9037825006
  0
ARC
  5
2CD
100
AcDbEntity
  8
0
100
AcDbCircle
 62
7
  6
BYLAYER
 10
42.2177801667
 20
47.035860153
 40
13.535478766
100
AcDbArc
 50
43.0456895732
 51
44.2026638104
  0
ARC
  5
2CE
100
AcDbEntity
  8
0
100
AcDbCircle
 62
7
  6
BYLAYER
 10
43.0198956213
 20
45.1321664193
 40
10.636897864
100
AcDbArc
 50
20.9376713804
 51
21.7242952919
  0
ARC
  5
2CF
100
AcDbEntity
  8
0
100
AcDbCircle
 62
7
  6
BYLAYER
 10
40.558847545
 20
49.7912911537
 40
13.1394969483
100
AcDbArc
 50
31.4309485672
 51
33.0277134702
  0
ARC
  5
2D0
100
AcDbEntity
  8
0
100
AcDbCircle
 62
7
  6
BYLAYER
 10
40.6707481438
 20
49.8454395998
 40
13.0153396371
100
AcDbArc
 50
25.4743134789
 51
27.0819894851
  0
ARC
  5
2D1
100
AcDbEntity
  8
0
100
AcDbCircle
 62
7
  6
BYLAYER
 10
40.7367018226
 20
49.8945528488
 40
12.8370332819
100
AcDbArc
 50
31.4792664563
 51
32.979395581
  0
ARC
  5
2D2
100
AcDbEntity
  8
0
100
AcDbCircle
 62
7
  6
BYLAYER
 10
40.8148287977
 20
49.9304810043
 40
12.7512920043
100
AcDbArc
 50
25.5250676052
 51
27.0312353588
  0
ARC
  5
2D3
100
AcDbEntity
  8
0
100
AcDbCircle
 62
7
  6
BYLAYER
 10
41.1295234925
 20
50.2006429232
 40
12.4369198032
100
AcDbArc
 50
37.4497593884
 51
39.1053164896
  0
ARC
  5
2D4
100
AcDbEntity
  8
0
100
AcDbCircle
 62
7
  6
BYLAYER
 10
41.3200220227
 20
50.3166036803
 40
12.1167615641
100
AcDbArc
 50
37.4976827159
 51
39.057393162
  0
ARC
  5
2D5
100
AcDbEntity
  8
0
100
AcDbCircle
 62
7
  6
BYLAYER
 10
41.5259725818
 20
50.2033625536
 40
12.0878571562
100
AcDbArc
 50
19.3195695256
 51
21.0092803961
  0
ARC
  5
2D6
100
AcDbEntity
  8
0
100
AcDbCircle
 62
7
  6
BYLAYER
 10
41.6207396575
 20
50.2718412044
 40
11.8757055293
100
AcDbArc
 50
19.3751187087
 51
20.953731213
  0
ARC
  5
2D7
100
AcDbEntity
  8
0
100
AcDbCircle
 62
7
  6
BYLAYER
 10
42.1757408406
 20
51.1268656607
 40
11.0389574396
100
AcDbArc
 50
43.799119358
 51
45.5908083923
  0
ARC
  5
2D8
100
AcDbEntity
  8
0
100
AcDbCircle
 62
7
  6
BYLAYER
 10
42.3572074017
 20
51.2436264199
 40
10.7250086905
100
AcDbArc
 50
43.8486404008
 51
45.5412873495
  0
ARC
  5
2D9
100
AcDbEntity
  8
0
100
AcDbCircle
 62
7
  6
BYLAYER
 10
43.0188119248
 20
50.6488390947
 40
10.5291937593
100
AcDbArc
 50
12.6807151143
 51
14.5342073218
  0
ARC
  5
2DA
100
AcDbEntity
  8
0
100
AcDbCircle
 62
7
  6
BYLAYER
 10
41.6402991586
 20
53.9099531426
 40
10.3784590717
100
AcDbArc
 50
18.0775742952
 51
19.3533128699
  0
ARC
  5
2DB
100
AcDbEntity
  8
0
100
AcDbCircle
 62
7
  6
BYLAYER
 10
43.0579027428
 20
50.7082949651
 40
10.3729807568
100
AcDbArc
 50
12.7440353457
 51
14.4708870903
  0
ARC
  5
2DC
100
AcDbEntity
  8
0
100
AcDbCircle
 62
7
  6
BYLAYER
 10
43.4042503555
 20
52.496425642
 40
9.1980657546
100
AcDbArc
 50
50.7900730527
 51
52.8125678705
  0
ARC
  5
2DD
100
AcDbEntity
  8
0
100
AcDbCircle
 62
7
  6
BYLAYER
 10
43.5595617861
 20
52.5984054683
 40
8.9125556881
100
AcDbArc
 50
50.8434106921
 51
52.759230231
  0
ARC
  5
2DE
100
AcDbEntity
  8
0
100
AcDbCircle
 62
7
  6
BYLAYER
 10
43.6822794704
 20
58.5790453378
 40
2.3034451153
100
AcDbArc
 50
64.8406819263
 51
67.1910408575
  0
ARC
  5
2DF
100
AcDbEntity
  8
0
100
AcDbCircle
 62
7
  6
BYLAYER
 10
44.4675879942
 20
51.642500836
 40
12.9988875534
100
AcDbArc
 50
62.5842364332
 51
64.8050960711
  0
ARC
  5
2E0
100
AcDbEntity
  8
0
100
AcDbCircle
 62
7
  6
BYLAYER
 10
45.7211285029
 20
49.3401090657
 40
9.0510680971
100
AcDbArc
 50
39.8443911531
 51
41.2137210373
  0
ARC
  5
2E1
100
AcDbEntity
  8
0
100
AcDbCircle
 62
7
  6
BYLAYER
 10
44.9026432284
 20
50.974058481
 40
8.6162943778
100
AcDbArc
 50
5.2101431069
 51
7.3296819247
  0
ARC
  5
2E2
100
AcDbEntity
  8
0
100
AcDbCircle
 62
7
  6
BYLAYER
 10
44.890015874
 20
51.0349139568
 40
8.5108110578
100
AcDbArc
 50
5.2851470274
 51
7.2546780042
  0
ARC
  5
2E3
100
AcDbEntity
  8
0
100
AcDbCircle
 62
7
  6
BYLAYER
 10
44.5185138717
 20
54.1236378423
 40
7.2243771006
100
AcDbArc
 50
58.8131086128
 51
61.1880139135
  0
ARC
  5
2E4
100
AcDbEntity
  8
0
100
AcDbCircle
 62
7
  6
BYLAYER
 10
46.8540921919
 20
51.0410776238
 40
6.6620255502
100
AcDbArc
 50
356.4630799932
 51
358.9801247459
  0
ARC
  5
2E5
100
AcDbEntity
  8
0
100
AcDbCircle
 62
7
  6
BYLAYER
 10
46.8024220632
 20
51.1128109198
 40
6.595187544
100
AcDbArc
 50
356.5547647415
 51
358.8884399975
  0
ARC
  5
2E6
100
AcDbEntity
  8
0
100
AcDbCircle
 62
7
  6
BYLAYER
 10
47.4654435148
 20
51.6227645171
 40
6.0347994519
100
AcDbArc
 50
356.7263340732
 51
358.5915721594
  0
ARC
  5
2E7
100
AcDbEntity
  8
0
100
AcDbCircle
 62
7
  6
BYLAYER
 10
44.6388468402
 20
54.1954232866
 40
6.9835077333
100
AcDbArc
 50
58.8730645802
 51
61.1280579461
  0
ARC
  5
2E8
100
AcDbEntity
  8
0
100
AcDbCircle
 62
7
  6
BYLAYER
 10
45.0474095095
 20
56.0076917953
 40
6.0733808913
100
AcDbArc
 50
20.8526313438
 51
22.4579138318
  0
ARC
  5
2E9
100
AcDbEntity
  8
0
100
AcDbCircle
 62
7
  6
BYLAYER
 10
45.3010075555
 20
55.7567400592
 40
5.4114838983
100
AcDbArc
 50
68.367682945
 51
71.2463498774
  0
ARC
  5
2EA
100
AcDbEntity
  8
0
100
AcDbCircle
 62
7
  6
BYLAYER
 10
45.9255091279
 20
55.5456709479
 40
5.2705944339
100
AcDbArc
 50
66.8559251559
 51
67.1635698225
  0
ARC
  5
2EB
100
AcDbEntity
  8
0
100
AcDbCircle
 62
7
  6
BYLAYER
 10
45.3872068548
 20
55.7870162145
 40
5.2227590673
100
AcDbArc
 50
68.4381890438
 51
71.1758437786
  0
ARC
  5
2EC
100
AcDbEntity
  8
0
100
AcDbCircle
 62
7
  6
BYLAYER
 10
45.6716559784
 20
57.1424530055
 40
3.9746948921
100
AcDbArc
 50
80.0392777256
 51
83.5756135845
  0
ARC
  5
2ED
100
AcDbEntity
  8
0
100
AcDbCircle
 62
7
  6
BYLAYER
 10
45.7328732834
 20
57.1269172684
 40
3.8366487123
100
AcDbArc
 50
80.1261507196
 51
83.4887405905
  0
ARC
  5
2EE
100
AcDbEntity
  8
0
100
AcDbCircle
 62
7
  6
BYLAYER
 10
45.7059553306
 20
58.0909650575
 40
3.0232759149
100
AcDbArc
 50
94.29934788
 51
98.5457286614
  0
ARC
  5
2EF
100
AcDbEntity
  8
0
100
AcDbCircle
 62
7
  6
BYLAYER
 10
45.7540934057
 20
58.0473253251
 40
2.9135797976
100
AcDbArc
 50
95.2171322713
 51
98.4383992269
  0
ARC
  5
2F0
100
AcDbEntity
  8
0
100
AcDbCircle
 62
7
  6
BYLAYER
 10
45.9337382927
 20
58.1552635598
 40
2.8224093903
100
AcDbArc
 50
98.1956344817
 51
99.0457614208
  0
ARC
  5
2F1
100
AcDbEntity
  8
0
100
AcDbCircle
 62
7
  6
BYLAYER
 10
45.9263457395
 20
58.2011972909
 40
2.775884653
100
AcDbArc
 50
99.0441357455
 51
101.2034143054
  0
ARC
  5
2F2
100
AcDbEntity
  8
0
100
AcDbCircle
 62
7
  6
BYLAYER
 10
46.038122923
 20
58.9305826158
 40
2.6285817714
100
AcDbArc
 50
125.7905991221
 51
126.4067395872
  0
ARC
  5
2F3
100
AcDbEntity
  8
0
100
AcDbCircle
 62
7
  6
BYLAYER
 10
45.6078011749
 20
58.5231602841
 40
2.5787643572
100
AcDbArc
 50
110.9766322279
 51
115.7035006716
  0
ARC
  5
2F4
100
AcDbEntity
  8
0
100
AcDbCircle
 62
7
  6
BYLAYER
 10
47.5159381137
 20
58.0831792847
 40
2.5496026708
100
AcDbArc
 50
23.0865590026
 51
25.4510363798
  0
ARC
  5
2F5
100
AcDbEntity
  8
0
100
AcDbCircle
 62
7
  6
BYLAYER
 10
45.6601556893
 20
58.4344120941
 40
2.5140957869
100
AcDbArc
 50
111.1150429772
 51
115.5650899223
  0
ARC
  5
2F6
100
AcDbEntity
  8
0
100
AcDbCircle
 62
7
  6
BYLAYER
 10
45.8522520692
 20
58.4744125491
 40
2.49236286
100
AcDbArc
 50
108.1424382961
 51
118.5376946034
  0
ARC
  5
2F7
100
AcDbEntity
  8
0
100
AcDbCircle
 62
7
  6
BYLAYER
 10
55.2449609664
 20
41.0507298675
 40
24.8630559808
100
AcDbArc
 50
132.619183233
 51
133.4640162454
  0
ARC
  5
2F8
100
AcDbEntity
  8
0
100
AcDbCircle
 62
7
  6
BYLAYER
 10
48.0744782907
 20
44.7199775247
 40
16.3993111232
100
AcDbArc
 50
100.5346888975
 51
101.6801377246
  0
ARC
  5
2F9
100
AcDbEntity
  8
0
100
AcDbCircle
 62
7
  6
BYLAYER
 10
48.7791980922
 20
47.9592076108
 40
3.08516798
100
AcDbArc
 50
355.3473137477
 51
357.2782914415
  0
ARC
  5
2FA
100
AcDbEntity
  8
0
100
AcDbCircle
 62
7
  6
BYLAYER
 10
48.4370535989
 20
54.4236923105
 40
9.675991642
100
AcDbArc
 50
38.2667454417
 51
39.2697768496
  0
ARC
  5
2FB
100
AcDbEntity
  8
0
100
AcDbCircle
 62
7
  6
BYLAYER
 10
48.5231526956
 20
54.4939583046
 40
9.5648594944
100
AcDbArc
 50
39.2703773583
 51
39.6146423576
  0
ARC
  5
2FC
100
AcDbEntity
  8
0
100
AcDbCircle
 62
7
  6
BYLAYER
 10
48.8050664111
 20
54.6439950538
 40
9.2943763316
100
AcDbArc
 50
38.5745225411
 51
39.6139409273
  0
ARC
  5
2FD
100
AcDbEntity
  8
0
100
AcDbCircle
 62
7
  6
BYLAYER
 10
52.305941495
 20
55.0177107028
 40
5.7941210988
100
AcDbArc
 50
0.0062879082
 51
1.4684488711
  0
ARC
  5
2FE
100
AcDbEntity
  8
0
100
AcDbCircle
 62
7
  6
BYLAYER
 10
50.9719075819
 20
57.3699293316
 40
5.7701321548
100
AcDbArc
 50
58.4217070095
 51
59.9937912835
  0
ARC
  5
2FF
100
AcDbEntity
  8
0
100
AcDbCircle
 62
7
  6
BYLAYER
 10
49.1335636481
 20
51.0184780773
 40
4.9465035259
100
AcDbArc
 50
36.7564328502
 51
38.5431365206
  0
ARC
  5
300
100
AcDbEntity
  8
0
100
AcDbCircle
 62
7
  6
BYLAYER
 10
48.5578334647
 20
50.8223474951
 40
4.9421729026
100
AcDbArc
 50
345.8856904512
 51
348.9579065762
  0
ARC
  5
301
100
AcDbEntity
  8
0
100
AcDbCircle
 62
7
  6
BYLAYER
 10
48.484632339
 20
50.9099509788
 40
4.8987023038
100
AcDbArc
 50
345.999382994
 51
348.8442140334
  0
ARC
  5
302
100
AcDbEntity
  8
0
100
AcDbCircle
 62
7
  6
BYLAYER
 10
49.7882383157
 20
50.4087879557
 40
3.6417219508
100
AcDbArc
 50
332.9081569458
 51
336.6735325743
  0
ARC
  5
303
100
AcDbEntity
  8
0
100
AcDbCircle
 62
7
  6
BYLAYER
 10
49.7108040317
 20
50.5105416255
 40
3.6067469879
100
AcDbArc
 50
333.0460930694
 51
336.5355964506
  0
ARC
  5
304
100
AcDbEntity
  8
0
100
AcDbCircle
 62
7
  6
BYLAYER
 10
51.3244403936
 20
50.1228879417
 40
3.4352408854
100
AcDbArc
 50
274.2671100148
 51
275.104030971
  0
ARC
  5
305
100
AcDbEntity
  8
0
100
AcDbCircle
 62
7
  6
BYLAYER
 10
50.4649999759
 20
49.9831161407
 40
2.8401050266
100
AcDbArc
 50
317.3063928641
 51
321.7474679943
  0
ARC
  5
306
100
AcDbEntity
  8
0
100
AcDbCircle
 62
7
  6
BYLAYER
 10
50.3956294756
 20
50.0903327285
 40
2.8011605333
100
AcDbArc
 50
317.4605265953
 51
321.5933342632
  0
ARC
  5
307
100
AcDbEntity
  8
0
100
AcDbCircle
 62
7
  6
BYLAYER
 10
51.1695014
 20
50.08806822
 40
2.7600149495
100
AcDbArc
 50
281.4458967162
 51
289.7008823388
  0
ARC
  5
308
100
AcDbEntity
  8
0
100
AcDbCircle
 62
7
  6
BYLAYER
 10
51.2199967593
 20
49.951355007
 40
2.6142821212
100
AcDbArc
 50
289.6690536647
 51
307.5076045126
  0
ARC
  5
309
100
AcDbEntity
  8
0
100
AcDbCircle
 62
7
  6
BYLAYER
 10
50.6657904576
 20
49.7683310815
 40
2.5453345973
100
AcDbArc
 50
299.8419299123
 51
304.6117875641
  0
ARC
  5
30A
100
AcDbEntity
  8
0
100
AcDbCircle
 62
7
  6
BYLAYER
 10
50.6100715589
 20
49.8648468593
 40
2.489123122
100
AcDbArc
 50
299.9884766235
 51
304.4652408528
  0
ARC
  5
30B
100
AcDbEntity
  8
0
100
AcDbCircle
 62
7
  6
BYLAYER
 10
50.7432991858
 20
50.0072702332
 40
2.4627426196
100
AcDbArc
 50
296.9875992239
 51
307.4661182524
  0
ARC
  5
30C
100
AcDbEntity
  8
0
100
AcDbCircle
 62
7
  6
BYLAYER
 10
54.3791263399
 20
59.9370142621
 40
18.9503510942
100
AcDbArc
 50
236.09280971
 51
237.9959621918
  0
ARC
  5
30D
100
AcDbEntity
  8
0
100
AcDbCircle
 62
7
  6
BYLAYER
 10
54.7065192727
 20
79.3614674107
 40
17.7042830065
100
AcDbArc
 50
250.3650382208
 51
252.1699556008
  0
ARC
  5
30E
100
AcDbEntity
  8
0
100
AcDbCircle
 62
7
  6
BYLAYER
 10
49.6681594095
 20
76.2423851275
 40
17.4283254457
100
AcDbArc
 50
250.3507407786
 51
252.1842391824
  0
ARC
  5
30F
100
AcDbEntity
  8
0
100
AcDbCircle
 62
7
  6
BYLAYER
 10
50.2138287034
 20
62.5529913675
 40
15.9148604478
100
AcDbArc
 50
274.8922216794
 51
275.1053764247
  0
ARC
  5
310
100
AcDbEntity
  8
0
100
AcDbCircle
 62
7
  6
BYLAYER
 10
60.6993238005
 20
43.3680718252
 40
25.6023970688
100
AcDbArc
 50
132.6313844727
 51
133.4518199833
  0
ARC
  5
311
100
AcDbEntity
  8
0
100
AcDbCircle
 62
7
  6
BYLAYER
 10
69.8809179506
 20
56.6782470134
 40
20.3096440394
100
AcDbArc
 50
191.4978681421
 51
193.4014742393
  0
ARC
  5
312
100
AcDbEntity
  8
0
100
AcDbCircle
 62
7
  6
BYLAYER
 10
61.5078751648
 20
40.4328487373
 40
12.183088653
100
AcDbArc
 50
159.1273321937
 51
161.1405202283
  0
ARC
  5
313
100
AcDbEntity
  8
0
100
AcDbCircle
 62
7
  6
BYLAYER
 10
66.2387749525
 20
43.3696263378
 40
11.950451407
100
AcDbArc
 50
159.1077383674
 51
161.1601207725
  0
ARC
  5
314
100
AcDbEntity
  8
0
100
AcDbCircle
 62
7
  6
BYLAYER
 10
61.4764778436
 20
65.8615901406
 40
27.9465044613
100
AcDbArc
 50
229.7929651585
 51
230.7847040543
  0
ARC
  5
315
100
AcDbEntity
  8
0
100
AcDbCircle
 62
7
  6
BYLAYER
 10
74.685047611
 20
59.5038109891
 40
20.1605612641
100
AcDbArc
 50
191.4908259565
 51
193.4085101316
  0
SPLINE
  5
316
100
AcDbEntity
  8
0
100
AcDbSpline
 62
7
  6
BYLAYER
 70
0
 71
3
 72
15
 73
11
 74
0
 42
0.0000001
 43
0.0000001
 44
0.0000000001
 40
0.0
 40
0.0
 40
0.0
 40
0.0
 40
0.1141474765
 40
0.2373368178
 40
0.3669776594
 40
0.5000010819
 40
0.633024354
 40
0.7626647561
 40
0.8858534048
 40
1.0
 40
1.0
 40
1.0
 40
1.0
 10
13.5878603357
 20
31.8096139463
 30
0.0
 10
13.5878603357
 20
31.7760787359
 30
0.0
 10
13.5940072108
 20
31.7062873507
 30
0.0
 10
13.6184895456
 20
31.6010010027
 30
0.0
 10
13.6577273969
 20
31.4943567234
 30
0.0
 10
13.7102249109
 20
31.3903618131
 30
0.0
 10
13.77403878
 20
31.2929005872
 30
0.0
 10
13.8467767286
 20
31.2055981408
 30
0.0
 10
13.9257162531
 20
31.1317535453
 30
0.0
 10
13.9830838866
 20
31.0915352346
 30
0.0
 10
14.0121261707
 20
31.0747680433
 30
0.0
  0
SPLINE
  5
317
100
AcDbEntity
  8
0
100
AcDbSpline
 62
7
  6
BYLAYER
 70
0
 71
3
 72
13
 73
9
 74
0
 42
0.0000001
 43
0.0000001
 44
0.0000000001
 40
0.0
 40
0.0
 40
0.0
 40
0.0
 40
0.1080942654
 40
0.2182331488
 40
0.3322568368
 40
0.4516850086
 40
0.7106223278
 40
1.0
 40
1.0
 40
1.0
 40
1.0
 10
13.712129719
 20
32.0842816917
 30
0.0
 10
13.7022926093
 20
32.0786022673
 30
0.0
 10
13.6833749221
 20
32.0654092588
 30
0.0
 10
13.6583921129
 20
32.0408064245
 30
0.0
 10
13.6368949489
 20
32.0116206221
 30
0.0
 10
13.6125205943
 20
31.9658000254
 30
0.0
 10
13.5924445783
 20
31.897814014
 30
0.0
 10
13.5878603357
 20
31.840022699
 30
0.0
 10
13.5878603357
 20
31.8096139463
 30
0.0
  0
SPLINE
  5
318
100
AcDbEntity
  8
0
100
AcDbSpline
 62
7
  6
BYLAYER
 70
0
 71
3
 72
13
 73
9
 74
0
 42
0.0000001
 43
0.0000001
 44
0.0000000001
 40
0.0
 40
0.0
 40
0.0
 40
0.0
 40
0.2893766917
 40
0.5483136645
 40
0.6677419416
 40
0.7817659142
 40
0.8919052276
 40
1.0
 40
1.0
 40
1.0
 40
1.0
 10
14.0121261707
 20
32.0545709439
 30
0.0
 10
13.9857920639
 20
32.0697746036
 30
0.0
 10
13.9334524888
 20
32.0946989632
 30
0.0
 10
13.8645387173
 20
32.1113045838
 30
0.0
 10
13.812671118
 20
32.1131057314
 30
0.0
 10
13.7766477873
 20
32.1090815167
 30
0.0
 10
13.7428504929
 20
32.0997473935
 30
0.0
 10
13.7219666115
 20
32.0899609906
 30
0.0
 10
13.712129719
 20
32.0842816917
 30
0.0
  0
SPLINE
  5
319
100
AcDbEntity
  8
0
100
AcDbSpline
 62
7
  6
BYLAYER
 70
0
 71
3
 72
12
 73
8
 74
0
 42
0.0000001
 43
0.0000001
 44
0.0000000001
 40
0.0
 40
0.0
 40
0.0
 40
0.0
 40
0.1081588022
 40
0.2183521463
 40
0.4513532897
 40
0.710426048
 40
1.0
 40
1.0
 40
1.0
 40
1.0
 10
11.8579412029
 20
32.6421161071
 30
0.0
 10
11.8661385701
 20
32.6468491138
 30
0.0
 10
11.8818994973
 20
32.6578486251
 30
0.0
 10
11.9101697987
 20
32.6856614533
 30
0.0
 10
11.9381754802
 20
32.7313103722
 30
0.0
 10
11.9576550201
 20
32.797480702
 30
0.0
 10
11.9614967807
 20
32.8456674081
 30
0.0
 10
11.9614967807
 20
32.8710097777
 30
0.0
  0
SPLINE
  5
31A
100
AcDbEntity
  8
0
100
AcDbSpline
 62
7
  6
BYLAYER
 70
0
 71
3
 72
11
 73
7
 74
0
 42
0.0000001
 43
0.0000001
 44
0.0000000001
 40
0.0
 40
0.0
 40
0.0
 40
0.0
 40
0.222632035
 40
0.4579457054
 40
0.7153432827
 40
1.0
 40
1.0
 40
1.0
 40
1.0
 10
11.8579412029
 20
35.4998745671
 30
0.0
 10
11.8725727394
 20
35.5083225428
 30
0.0
 10
11.9001135445
 20
35.530518951
 30
0.0
 10
11.9311951365
 20
35.5757864924
 30
0.0
 10
11.9519774659
 20
35.6315059036
 30
0.0
 10
11.9584344387
 20
35.6723921769
 30
0.0
 10
11.9601445554
 20
35.6939266275
 30
0.0
  0
SPLINE
  5
31B
100
AcDbEntity
  8
0
100
AcDbSpline
 62
7
  6
BYLAYER
 70
0
 71
3
 72
20
 73
16
 74
0
 42
0.0000001
 43
0.0000001
 44
0.0000000001
 40
0.0
 40
0.0
 40
0.0
 40
0.0
 40
0.0623905849
 40
0.128806762
 40
0.2702975723
 40
0.4173613603
 40
0.5616147669
 40
0.6302508569
 40
0.6953778332
 40
0.756360748
 40
0.8128308048
 40
0.8647637883
 40
0.9125655836
 40
0.9571671477
 40
1.0
 40
1.0
 40
1.0
 40
1.0
 10
11.9614967807
 20
32.8710097777
 30
0.0
 10
11.9614967807
 20
32.8917430866
 30
0.0
 10
11.9586772084
 20
32.934577612
 30
0.0
 10
11.942938785
 20
33.0231481069
 30
0.0
 10
11.9048949166
 20
33.1356010192
 30
0.0
 10
11.836161526
 20
33.2626223291
 30
0.0
 10
11.7621185942
 20
33.3574550464
 30
0.0
 10
11.6954827184
 20
33.4216353953
 30
0.0
 10
11.6444253854
 20
33.4616130443
 30
0.0
 10
11.5925368858
 20
33.4933539331
 30
0.0
 10
11.5408742805
 20
33.5161851227
 30
0.0
 10
11.4904658306
 20
33.5295851009
 30
0.0
 10
11.4422988534
 20
33.5331205712
 30
0.0
 10
11.3974425768
 20
33.5265570352
 30
0.0
 10
11.3702722669
 20
33.5152566238
 30
0.0
 10
11.3579439995
 20
33.5081418363
 30
0.0
  0
SPLINE
  5
31C
100
AcDbEntity
  8
0
100
AcDbSpline
 62
7
  6
BYLAYER
 70
0
 71
3
 72
9
 73
5
 74
0
 42
0.0000001
 43
0.0000001
 44
0.0000000001
 40
0.0
 40
0.0
 40
0.0
 40
0.0
 40
0.2553986663
 40
1.0
 40
1.0
 40
1.0
 40
1.0
 10
52.4809169264
 20
48.2611157425
 30
0.0
 10
52.4793097663
 20
48.2555463649
 30
0.0
 10
52.4728154696
 20
48.23379869
 30
0.0
 10
52.4655005112
 20
48.2122940177
 30
0.0
 10
52.4595573866
 20
48.1964737286
 30
0.0
  0
SPLINE
  5
31D
100
AcDbEntity
  8
0
100
AcDbSpline
 62
7
  6
BYLAYER
 70
0
 71
3
 72
9
 73
5
 74
0
 42
0.0000001
 43
0.0000001
 44
0.0000000001
 40
0.0
 40
0.0
 40
0.0
 40
0.0
 40
0.2676262465
 40
1.0
 40
1.0
 40
1.0
 40
1.0
 10
48.9492634122
 20
59.8410596714
 30
0.0
 10
48.9479649599
 20
59.8441703316
 30
0.0
 10
48.942997704
 20
59.8557437093
 30
0.0
 10
48.9375371102
 20
59.867114434
 30
0.0
 10
48.933132674
 20
59.8752193257
 30
0.0
  0
SPLINE
  5
31E
100
AcDbEntity
  8
0
100
AcDbSpline
 62
7
  6
BYLAYER
 70
0
 71
3
 72
9
 73
5
 74
0
 42
0.0000001
 43
0.0000001
 44
0.0000000001
 40
0.0
 40
0.0
 40
0.0
 40
0.0
 40
0.2428857083
 40
1.0
 40
1.0
 40
1.0
 40
1.0
 10
53.3745755098
 20
52.8303284004
 30
0.0
 10
53.3705965262
 20
52.8362902441
 30
0.0
 10
53.3540436996
 20
52.8607220529
 30
0.0
 10
53.3368547451
 20
52.8847205036
 30
0.0
 10
53.3235585879
 20
52.9026764643
 30
0.0
  0
SPLINE
  5
31F
100
AcDbEntity
  8
0
100
AcDbSpline
 62
7
  6
BYLAYER
 70
0
 71
3
 72
9
 73
5
 74
0
 42
0.0000001
 43
0.0000001
 44
0.0000000001
 40
0.0
 40
0.0
 40
0.0
 40
0.0
 40
0.2171700394
 40
1.0
 40
1.0
 40
1.0
 40
1.0
 10
53.4953090277
 20
51.7314476173
 30
0.0
 10
53.4945407153
 20
51.7327400665
 30
0.0
 10
53.4908050423
 20
51.7385738227
 30
0.0
 10
53.4864763181
 20
51.7440058124
 30
0.0
 10
53.4829584449
 20
51.7481289123
 30
0.0
  0
SPLINE
  5
320
100
AcDbEntity
  8
0
100
AcDbSpline
 62
7
  6
BYLAYER
 70
0
 71
3
 72
11
 73
7
 74
0
 42
0.0000001
 43
0.0000001
 44
0.0000000001
 40
0.0
 40
0.0
 40
0.0
 40
0.0
 40
0.2369362209
 40
0.4817765332
 40
0.7358502298
 40
1.0
 40
1.0
 40
1.0
 40
1.0
 10
56.3178188872
 20
55.5468255094
 30
0.0
 10
56.3863687876
 20
55.2885652223
 30
0.0
 10
56.5110295821
 20
54.7593662412
 30
0.0
 10
56.6506112499
 20
53.9407516495
 30
0.0
 10
56.7376620393
 20
53.0839640412
 30
0.0
 10
56.7565822756
 20
52.4993212145
 30
0.0
 10
56.7565822756
 20
52.2014282986
 30
0.0
  0
SPLINE
  5
321
100
AcDbEntity
  8
0
100
AcDbSpline
 62
7
  6
BYLAYER
 70
0
 71
3
 72
11
 73
7
 74
0
 42
0.0000001
 43
0.0000001
 44
0.0000000001
 40
0.0
 40
0.0
 40
0.0
 40
0.0
 40
0.2543809818
 40
0.505829403
 40
0.7542971266
 40
1.0
 40
1.0
 40
1.0
 40
1.0
 10
53.7513639215
 20
59.946900865
 30
0.0
 10
53.9884197348
 20
59.6520052561
 30
0.0
 10
54.4406996236
 20
59.0499571731
 30
0.0
 10
55.0554867408
 20
58.1106203518
 30
0.0
 10
55.6066037152
 20
57.1475647346
 30
0.0
 10
55.9382489514
 20
56.4912563261
 30
0.0
 10
56.0958557216
 20
56.1615322371
 30
0.0
  0
SPLINE
  5
322
100
AcDbEntity
  8
0
100
AcDbSpline
 62
7
  6
BYLAYER
 70
0
 71
3
 72
9
 73
5
 74
0
 42
0.0000001
 43
0.0000001
 44
0.0000000001
 40
0.0
 40
0.0
 40
0.0
 40
0.0
 40
0.2524686707
 40
1.0
 40
1.0
 40
1.0
 40
1.0
 10
43.0914194824
 20
61.9542075503
 30
0.0
 10
43.0669410749
 20
61.8373416487
 30
0.0
 10
42.9725799979
 20
61.3739152086
 30
0.0
 10
42.8893411464
 20
60.9081764781
 30
0.0
 10
42.8351583788
 20
60.5588173541
 30
0.0
  0
SPLINE
  5
323
100
AcDbEntity
  8
0
100
AcDbSpline
 62
7
  6
BYLAYER
 70
0
 71
3
 72
11
 73
7
 74
0
 42
0.0000001
 43
0.0000001
 44
0.0000000001
 40
0.0
 40
0.0
 40
0.0
 40
0.0
 40
0.2389827885
 40
0.4861216545
 40
0.7402452202
 40
1.0
 40
1.0
 40
1.0
 40
1.0
 10
56.7565822756
 20
52.2014282986
 30
0.0
 10
56.7565822756
 20
51.8921011442
 30
0.0
 10
56.7354527596
 20
51.2627498045
 30
0.0
 10
56.6468241933
 20
50.3082715746
 30
0.0
 10
56.5064917557
 20
49.3329532072
 30
0.0
 10
56.3847573047
 20
48.6788762223
 30
0.0
 10
56.3178188857
 20
48.3493937903
 30
0.0
  0
SPLINE
  5
324
100
AcDbEntity
  8
0
100
AcDbSpline
 62
7
  6
BYLAYER
 70
0
 71
3
 72
11
 73
7
 74
0
 42
0.0000001
 43
0.0000001
 44
0.0000000001
 40
0.0
 40
0.0
 40
0.0
 40
0.0
 40
0.2248493973
 40
0.4683883804
 40
0.7278160123
 40
1.0
 40
1.0
 40
1.0
 40
1.0
 10
51.630056506
 20
46.701269635
 30
0.0
 10
51.8795513217
 20
46.7235571414
 30
0.0
 10
52.3982382464
 20
46.7819728465
 30
0.0
 10
53.2003454116
 20
46.9012360014
 30
0.0
 10
54.050746488
 20
47.0517806885
 30
0.0
 10
54.631646193
 20
47.1672587294
 30
0.0
 10
54.9285722512
 20
47.2287199734
 30
0.0
  0
SPLINE
  5
325
100
AcDbEntity
  8
0
100
AcDbSpline
 62
7
  6
BYLAYER
 70
0
 71
3
 72
11
 73
7
 74
0
 42
0.0000001
 43
0.0000001
 44
0.0000000001
 40
0.0
 40
0.0
 40
0.0
 40
0.0
 40
0.2517023474
 40
0.5026364111
 40
0.752273952
 40
1.0
 40
1.0
 40
1.0
 40
1.0
 10
50.4528480496
 20
63.1814668749
 30
0.0
 10
50.7553583694
 20
62.937982815
 30
0.0
 10
51.3502630082
 20
62.4401452989
 30
0.0
 10
52.2051583565
 20
61.6544521
 30
0.0
 10
53.0112128819
 20
60.827076054
 30
0.0
 10
53.5119130384
 20
60.2447824199
 30
0.0
 10
53.7513639215
 20
59.946900865
 30
0.0
  0
SPLINE
  5
326
100
AcDbEntity
  8
0
100
AcDbSpline
 62
7
  6
BYLAYER
 70
0
 71
3
 72
11
 73
7
 74
0
 42
0.0000001
 43
0.0000001
 44
0.0000000001
 40
0.0
 40
0.0
 40
0.0
 40
0.0
 40
0.289032404
 40
0.5505025038
 40
0.7863777215
 40
1.0
 40
1.0
 40
1.0
 40
1.0
 10
47.740931206
 20
63.4169473274
 30
0.0
 10
47.9582305262
 20
63.4363591968
 30
0.0
 10
48.3729357617
 20
63.4650131821
 30
0.0
 10
48.9666624573
 20
63.4765529309
 30
0.0
 10
49.5032408842
 20
63.4571742107
 30
0.0
 10
49.8412343154
 20
63.425011721
 30
0.0
 10
50.0011990342
 20
63.4047382022
 30
0.0
  0
SPLINE
  5
327
100
AcDbEntity
  8
0
100
AcDbSpline
 62
7
  6
BYLAYER
 70
0
 71
3
 72
11
 73
7
 74
0
 42
0.0000001
 43
0.0000001
 44
0.0000000001
 40
0.0
 40
0.0
 40
0.0
 40
0.0
 40
0.2717549026
 40
0.5308665852
 40
0.7744631113
 40
1.0
 40
1.0
 40
1.0
 40
1.0
 10
44.6031413588
 20
62.922521894
 30
0.0
 10
44.8852158274
 20
62.9800443347
 30
0.0
 10
45.4371460622
 20
63.0880646717
 30
0.0
 10
46.2454802278
 20
63.2288065757
 30
0.0
 10
47.0089056901
 20
63.3405757047
 30
0.0
 10
47.5029593545
 20
63.3956891375
 30
0.0
 10
47.740931206
 20
63.4169473274
 30
0.0
  0
SPLINE
  5
328
100
AcDbEntity
  8
0
100
AcDbSpline
 62
7
  6
BYLAYER
 70
0
 71
3
 72
9
 73
5
 74
0
 42
0.0000001
 43
0.0000001
 44
0.0000000001
 40
0.0
 40
0.0
 40
0.0
 40
0.0
 40
0.2548460768
 40
1.0
 40
1.0
 40
1.0
 40
1.0
 10
45.3870113365
 20
60.9241833589
 30
0.0
 10
45.3818995024
 20
60.9248653037
 30
0.0
 10
45.3618111123
 20
60.9273098772
 30
0.0
 10
45.3416065113
 20
60.9288193657
 30
0.0
 10
45.3265372275
 20
60.9293633109
 30
0.0
  0
SPLINE
  5
329
100
AcDbEntity
  8
0
100
AcDbSpline
 62
7
  6
BYLAYER
 70
0
 71
3
 72
9
 73
5
 74
0
 42
0.0000001
 43
0.0000001
 44
0.0000000001
 40
0.0
 40
0.0
 40
0.0
 40
0.0
 40
0.5038384335
 40
1.0
 40
1.0
 40
1.0
 40
1.0
 10
44.0536237125
 20
60.656735371
 30
0.0
 10
44.1178367996
 20
60.7292602032
 30
0.0
 10
44.2526397133
 20
60.8668804066
 30
0.0
 10
44.401251068
 20
60.989512655
 30
0.0
 10
44.4780239968
 20
61.0461282827
 30
0.0
  0
SPLINE
  5
32A
100
AcDbEntity
  8
0
100
AcDbSpline
 62
7
  6
BYLAYER
 70
0
 71
3
 72
30
 73
26
 74
0
 42
0.0000001
 43
0.0000001
 44
0.0000000001
 40
0.0
 40
0.0
 40
0.0
 40
0.0
 40
0.021474358
 40
0.0430034231
 40
0.0648270768
 40
0.0871688072
 40
0.1102262712
 40
0.1341635573
 40
0.1591088856
 40
0.1851539844
 40
0.2406981819
 40
0.2702621645
 40
0.3009783924
 40
0.3656225924
 40
0.4340549639
 40
0.5054445555
 40
0.5788064136
 40
0.6530602616
 40
0.7270845777
 40
0.7997677112
 40
0.8700627666
 40
0.9040267891
 40
0.9370621051
 40
0.9690842769
 40
1.0
 40
1.0
 40
1.0
 40
1.0
 10
44.5008636643
 20
61.0627824422
 30
0.0
 10
44.5928234935
 20
61.129082785
 30
0.0
 10
44.785848844
 20
61.2500359409
 30
0.0
 10
45.0979824076
 20
61.3926343947
 30
0.0
 10
45.4302682873
 20
61.4952168966
 30
0.0
 10
45.780564011
 20
61.5572537538
 30
0.0
 10
46.1467795276
 20
61.5784827764
 30
0.0
 10
46.5267593816
 20
61.5589313539
 30
0.0
 10
46.9183675406
 20
61.4988289823
 30
0.0
 10
47.4646290089
 20
61.3622838442
 30
0.0
 10
48.0134497084
 20
61.146626307
 30
0.0
 10
48.5563178836
 20
60.864653718
 30
0.0
 10
49.1205851058
 20
60.5223702551
 30
0.0
 10
49.816583493
 20
60.0057209274
 30
0.0
 10
50.610660405
 20
59.2719201621
 30
0.0
 10
51.3601868176
 20
58.4301337708
 30
0.0
 10
52.0484036024
 20
57.4992095343
 30
0.0
 10
52.6599618482
 20
56.4999402394
 30
0.0
 10
53.1811705593
 20
55.4546764041
 30
0.0
 10
53.6003393847
 20
54.3868935133
 30
0.0
 10
53.8598042139
 20
53.4878323743
 30
0.0
 10
54.0068033498
 20
52.777796175
 30
0.0
 10
54.0852927877
 20
52.2606832599
 30
0.0
 10
54.1327658185
 20
51.7559763638
 30
0.0
 10
54.143829505
 20
51.4236345343
 30
0.0
 10
54.143829505
 20
51.2604231614
 30
0.0
  0
SPLINE
  5
32B
100
AcDbEntity
  8
0
100
AcDbSpline
 62
7
  6
BYLAYER
 70
0
 71
3
 72
9
 73
5
 74
0
 42
0.0000001
 43
0.0000001
 44
0.0000000001
 40
0.0
 40
0.0
 40
0.0
 40
0.0
 40
0.2579321655
 40
1.0
 40
1.0
 40
1.0
 40
1.0
 10
47.9710355407
 20
60.4031381254
 30
0.0
 10
47.913036705
 20
60.4275617133
 30
0.0
 10
47.6865064916
 20
60.5181893606
 30
0.0
 10
47.4531272987
 20
60.5920781472
 30
0.0
 10
47.2772859875
 20
60.6352072064
 30
0.0
  0
SPLINE
  5
32C
100
AcDbEntity
  8
0
100
AcDbSpline
 62
7
  6
BYLAYER
 70
0
 71
3
 72
13
 73
9
 74
0
 42
0.0000001
 43
0.0000001
 44
0.0000000001
 40
0.0
 40
0.0
 40
0.0
 40
0.0
 40
0.2711320084
 40
0.5252270584
 40
0.6471824417
 40
0.7664744439
 40
0.8838209395
 40
1.0
 40
1.0
 40
1.0
 40
1.0
 10
47.2772859875
 20
60.6352072064
 30
0.0
 10
47.0961642853
 20
60.679631401
 30
0.0
 10
46.7387496627
 20
60.7419071911
 30
0.0
 10
46.2912238376
 20
60.746413883
 30
0.0
 10
45.9529008194
 20
60.702488374
 30
0.0
 10
45.7120909093
 20
60.6472740957
 30
0.0
 10
45.4817718881
 20
60.5695837451
 30
0.0
 10
45.3353430046
 20
60.5027392776
 30
0.0
 10
45.2644782258
 20
60.4658089923
 30
0.0
  0
SPLINE
  5
32D
100
AcDbEntity
  8
0
100
AcDbSpline
 62
7
  6
BYLAYER
 70
0
 71
3
 72
14
 73
10
 74
0
 42
0.0000001
 43
0.0000001
 44
0.0000000001
 40
0.0
 40
0.0
 40
0.0
 40
0.0
 40
0.1189879428
 40
0.2376664948
 40
0.3571398782
 40
0.4784745041
 40
0.6026565628
 40
0.7305557559
 40
1.0
 40
1.0
 40
1.0
 40
1.0
 10
51.7577484864
 20
48.3243524561
 30
0.0
 10
51.8424815747
 20
48.3574857469
 30
0.0
 10
52.008037664
 20
48.4336183411
 30
0.0
 10
52.2414066367
 20
48.5766055788
 30
0.0
 10
52.4576718818
 20
48.7472971245
 30
0.0
 10
52.6557690716
 20
48.9447135408
 30
0.0
 10
52.8347473157
 20
49.1679267413
 30
0.0
 10
53.0504774162
 20
49.5039594121
 30
0.0
 10
53.1753287822
 20
49.7834570935
 30
0.0
 10
53.243766819
 20
49.9777808911
 30
0.0
  0
SPLINE
  5
32E
100
AcDbEntity
  8
0
100
AcDbSpline
 62
7
  6
BYLAYER
 70
0
 71
3
 72
9
 73
5
 74
0
 42
0.0000001
 43
0.0000001
 44
0.0000000001
 40
0.0
 40
0.0
 40
0.0
 40
0.0
 40
0.2421692699
 40
1.0
 40
1.0
 40
1.0
 40
1.0
 10
53.243766819
 20
49.9777808911
 30
0.0
 10
53.2632183192
 20
50.0330117182
 30
0.0
 10
53.3382390724
 20
50.2629326241
 30
0.0
 10
53.3925061946
 20
50.4994490726
 30
0.0
 10
53.4234102391
 20
50.6800660768
 30
0.0
  0
SPLINE
  5
32F
100
AcDbEntity
  8
0
100
AcDbSpline
 62
7
  6
BYLAYER
 70
0
 71
3
 72
9
 73
5
 74
0
 42
0.0000001
 43
0.0000001
 44
0.0000000001
 40
0.0
 40
0.0
 40
0.0
 40
0.0
 40
0.246649246
 40
1.0
 40
1.0
 40
1.0
 40
1.0
 10
52.4809170538
 20
48.2611156418
 30
0.0
 10
52.5082984314
 20
48.2881014706
 30
0.0
 10
52.6168984616
 20
48.3999423757
 30
0.0
 10
52.7156798794
 20
48.5212442228
 30
0.0
 10
52.7842259202
 20
48.6165828827
 30
0.0
  0
SPLINE
  5
330
100
AcDbEntity
  8
0
100
AcDbSpline
 62
7
  6
BYLAYER
 70
0
 71
3
 72
15
 73
11
 74
0
 42
0.0000001
 43
0.0000001
 44
0.0000000001
 40
0.0
 40
0.0
 40
0.0
 40
0.0
 40
0.1108410465
 40
0.2280578197
 40
0.3507094003
 40
0.4776259691
 40
0.60747378
 40
0.7388131747
 40
0.8701524766
 40
1.0
 40
1.0
 40
1.0
 40
1.0
 10
54.635270764
 20
50.976695837
 30
0.0
 10
54.635270764
 20
51.2890244417
 30
0.0
 10
54.5978605272
 20
51.9320120007
 30
0.0
 10
54.4423133644
 20
52.9093033598
 30
0.0
 10
54.1883594385
 20
53.9125037553
 30
0.0
 10
53.8403059037
 20
54.9246044188
 30
0.0
 10
53.4040365853
 20
55.9285995416
 30
0.0
 10
52.8869097904
 20
56.9075346251
 30
0.0
 10
52.2977283548
 20
57.8447845657
 30
0.0
 10
51.8592912138
 20
58.4369987327
 30
0.0
 10
51.630054423
 20
58.7221696565
 30
0.0
  0
SPLINE
  5
331
100
AcDbEntity
  8
0
100
AcDbSpline
 62
7
  6
BYLAYER
 70
0
 71
3
 72
20
 73
16
 74
0
 42
0.0000001
 43
0.0000001
 44
0.0000000001
 40
0.0
 40
0.0
 40
0.0
 40
0.0
 40
0.0583200612
 40
0.1153282934
 40
0.1714029082
 40
0.2269993601
 40
0.2825983525
 40
0.3386705245
 40
0.3956661589
 40
0.4539997058
 40
0.575953923
 40
0.6402638418
 40
0.7070129732
 40
0.8482026042
 40
1.0
 40
1.0
 40
1.0
 40
1.0
 10
51.6300544411
 20
46.7012684429
 30
0.0
 10
51.7420127596
 20
46.7112693598
 30
0.0
 10
51.9626183784
 20
46.7420255094
 30
0.0
 10
52.2837936126
 20
46.8219508263
 30
0.0
 10
52.5893846632
 20
46.9348785147
 30
0.0
 10
52.8779139151
 20
47.0802486499
 30
0.0
 10
53.1480579361
 20
47.2574569175
 30
0.0
 10
53.3986283235
 20
47.4656125919
 30
0.0
 10
53.6284636773
 20
47.7038291967
 30
0.0
 10
53.9100518189
 20
48.0650708503
 30
0.0
 10
54.1416350914
 20
48.4795196237
 30
0.0
 10
54.3226920789
 20
48.9326900378
 30
0.0
 10
54.4773596076
 20
49.4346847907
 30
0.0
 10
54.6045007449
 20
50.1187570065
 30
0.0
 10
54.635270764
 20
50.6841266854
 30
0.0
 10
54.635270764
 20
50.976695837
 30
0.0
  0
SPLINE
  5
332
100
AcDbEntity
  8
0
100
AcDbSpline
 62
7
  6
BYLAYER
 70
0
 71
3
 72
15
 73
11
 74
0
 42
0.0000001
 43
0.0000001
 44
0.0000000001
 40
0.0
 40
0.0
 40
0.0
 40
0.0
 40
0.1274309344
 40
0.2517377626
 40
0.3740158589
 40
0.4955635692
 40
0.6177095162
 40
0.7417308445
 40
0.8688131364
 40
1.0
 40
1.0
 40
1.0
 40
1.0
 10
45.6196217683
 20
62.1922160587
 30
0.0
 10
45.4937110109
 20
62.1809688338
 30
0.0
 10
45.2459421156
 20
62.1448718941
 30
0.0
 10
44.8869300654
 20
62.0477521536
 30
0.0
 10
44.5481441469
 20
61.9087893542
 30
0.0
 10
44.231702892
 20
61.7288194622
 30
0.0
 10
43.9394388823
 20
61.5089143279
 30
0.0
 10
43.6730616634
 20
61.2503817135
 30
0.0
 10
43.4340507892
 20
60.9548745927
 30
0.0
 10
43.2962397171
 20
60.7381771957
 30
0.0
 10
43.232190975
 20
60.6248914618
 30
0.0
  0
SPLINE
  5
333
100
AcDbEntity
  8
0
100
AcDbSpline
 62
7
  6
BYLAYER
 70
0
 71
3
 72
16
 73
12
 74
0
 42
0.0000001
 43
0.0000001
 44
0.0000000001
 40
0.0
 40
0.0
 40
0.0
 40
0.0
 40
0.1491232978
 40
0.2932350965
 40
0.4309609541
 40
0.5611954104
 40
0.6831905489
 40
0.7966605172
 40
0.8503030691
 40
0.9019889224
 40
1.0
 40
1.0
 40
1.0
 40
1.0
 10
51.630054423
 20
58.7221696565
 30
0.0
 10
51.4059938669
 20
59.0009032665
 30
0.0
 10
50.9438342865
 20
59.5321389947
 30
0.0
 10
50.2020711109
 20
60.2536033876
 30
0.0
 10
49.4333903926
 20
60.8770094596
 30
0.0
 10
48.650553297
 20
61.3918221285
 30
0.0
 10
47.8665143754
 20
61.7892895669
 30
0.0
 10
47.2104686645
 20
62.0212351486
 30
0.0
 10
46.6983958761
 20
62.1382952146
 30
0.0
 10
46.215458944
 20
62.2080549231
 30
0.0
 10
45.8537378659
 20
62.2131308294
 30
0.0
 10
45.6196217683
 20
62.1922160587
 30
0.0
  0
SPLINE
  5
334
100
AcDbEntity
  8
0
100
AcDbSpline
 62
7
  6
BYLAYER
 70
0
 71
3
 72
15
 73
11
 74
0
 42
0.0000001
 43
0.0000001
 44
0.0000000001
 40
0.0
 40
0.0
 40
0.0
 40
0.0
 40
0.1467895654
 40
0.2867837411
 40
0.4198772181
 40
0.5463382122
 40
0.6666659825
 40
0.7816257178
 40
0.8922902582
 40
1.0
 40
1.0
 40
1.0
 40
1.0
 10
54.143829505
 20
51.2604231614
 30
0.0
 10
54.143829505
 20
51.0763203981
 30
0.0
 10
54.1303333301
 20
50.7164406962
 30
0.0
 10
54.0665105654
 20
50.193054323
 30
0.0
 10
53.9598674969
 20
49.7026018824
 30
0.0
 10
53.8111290591
 20
49.2489930595
 30
0.0
 10
53.6213179051
 20
48.8357195712
 30
0.0
 10
53.3915883088
 20
48.4661428798
 30
0.0
 10
53.1236798592
 20
48.1434724405
 30
0.0
 10
52.9189237388
 20
47.9597482435
 30
0.0
 10
52.8117461409
 20
47.8775167984
 30
0.0
  0
SPLINE
  5
335
100
AcDbEntity
  8
0
100
AcDbSpline
 62
7
  6
BYLAYER
 70
0
 71
3
 72
11
 73
7
 74
0
 42
0.0000001
 43
0.0000001
 44
0.0000000001
 40
0.0
 40
0.0
 40
0.0
 40
0.0
 40
0.238982068
 40
0.4861215604
 40
0.7402439331
 40
1.0
 40
1.0
 40
1.0
 40
1.0
 10
54.635270764
 20
50.976695837
 30
0.0
 10
54.635270764
 20
51.2860221131
 30
0.0
 10
54.6563909465
 20
51.9153739509
 30
0.0
 10
54.7450334551
 20
52.8698492519
 30
0.0
 10
54.8853433477
 20
53.845171987
 30
0.0
 10
55.0070953289
 20
54.4992461891
 30
0.0
 10
55.0740340946
 20
54.8287303111
 30
0.0
  0
SPLINE
  5
336
100
AcDbEntity
  8
0
100
AcDbSpline
 62
7
  6
BYLAYER
 70
0
 71
3
 72
11
 73
7
 74
0
 42
0.0000001
 43
0.0000001
 44
0.0000000001
 40
0.0
 40
0.0
 40
0.0
 40
0.0
 40
0.2517021836
 40
0.5026363535
 40
0.7522743652
 40
1.0
 40
1.0
 40
1.0
 40
1.0
 10
54.928572252
 20
55.4876048345
 30
0.0
 10
54.6260621478
 20
55.7310887138
 30
0.0
 10
54.0311663792
 20
56.2289370378
 30
0.0
 10
53.1762739993
 20
57.0146325499
 30
0.0
 10
52.3701867377
 20
57.8419780883
 30
0.0
 10
51.8695081446
 20
58.4242907695
 30
0.0
 10
51.6300564879
 20
58.7221708487
 30
0.0
  0
SPLINE
  5
337
100
AcDbEntity
  8
0
100
AcDbSpline
 62
7
  6
BYLAYER
 70
0
 71
3
 72
11
 73
7
 74
0
 42
0.0000001
 43
0.0000001
 44
0.0000000001
 40
0.0
 40
0.0
 40
0.0
 40
0.0
 40
0.254381437
 40
0.5058288438
 40
0.7542965745
 40
1.0
 40
1.0
 40
1.0
 40
1.0
 10
51.6300564879
 20
58.7221708487
 30
0.0
 10
51.3930014434
 20
59.0170679098
 30
0.0
 10
50.940698476
 20
59.6190980537
 30
0.0
 10
50.3259493985
 20
60.5584597149
 30
0.0
 10
49.7748309174
 20
61.5215121222
 30
0.0
 10
49.4431716866
 20
62.1778146624
 30
0.0
 10
49.2855645786
 20
62.5075394715
 30
0.0
  0
SPLINE
  5
338
100
AcDbEntity
  8
0
100
AcDbSpline
 62
7
  6
BYLAYER
 70
0
 71
3
 72
11
 73
7
 74
0
 42
0.0000001
 43
0.0000001
 44
0.0000000001
 40
0.0
 40
0.0
 40
0.0
 40
0.0
 40
0.2717549019
 40
0.5308665852
 40
0.7744631129
 40
1.0
 40
1.0
 40
1.0
 40
1.0
 10
48.7574136926
 20
62.6866426869
 30
0.0
 10
48.4753392241
 20
62.6291202388
 30
0.0
 10
47.9234089832
 20
62.5210999126
 30
0.0
 10
47.1150748113
 20
62.3803580028
 30
0.0
 10
46.3516493436
 20
62.2685888691
 30
0.0
 10
45.8575956755
 20
62.2134754396
 30
0.0
 10
45.6196238242
 20
62.1922172501
 30
0.0
  0
SPLINE
  5
339
100
AcDbEntity
  8
0
100
AcDbSpline
 62
7
  6
BYLAYER
 70
0
 71
3
 72
11
 73
7
 74
0
 42
0.0000001
 43
0.0000001
 44
0.0000000001
 40
0.0
 40
0.0
 40
0.0
 40
0.0
 40
0.2890324015
 40
0.550502504
 40
0.7863777221
 40
1.0
 40
1.0
 40
1.0
 40
1.0
 10
45.6196238242
 20
62.1922172501
 30
0.0
 10
45.4023245073
 20
62.1728053812
 30
0.0
 10
44.9876192743
 20
62.1441514015
 30
0.0
 10
44.3938925821
 20
62.1326116437
 30
0.0
 10
43.8573141579
 20
62.1519903728
 30
0.0
 10
43.5193207266
 20
62.1841528426
 30
0.0
 10
43.359356011
 20
62.2044263751
 30
0.0
  0
SPLINE
  5
33A
100
AcDbEntity
  8
0
100
AcDbSpline
 62
7
  6
BYLAYER
 70
0
 71
3
 72
11
 73
7
 74
0
 42
0.0000001
 43
0.0000001
 44
0.0000000001
 40
0.0
 40
0.0
 40
0.0
 40
0.0
 40
0.2369340669
 40
0.4817765276
 40
0.7358490029
 40
1.0
 40
1.0
 40
1.0
 40
1.0
 10
55.0740340946
 20
47.6312985927
 30
0.0
 10
55.0054847844
 20
47.8895566389
 30
0.0
 10
54.8807974793
 20
48.418750093
 30
0.0
 10
54.7412528407
 20
49.2373701102
 30
0.0
 10
54.6541751
 20
50.094157258
 30
0.0
 10
54.635270764
 20
50.678801413
 30
0.0
 10
54.635270764
 20
50.976695837
 30
0.0
  0
SPLINE
  5
33B
100
AcDbEntity
  8
0
100
AcDbSpline
 62
7
  6
BYLAYER
 70
0
 71
3
 72
11
 73
7
 74
0
 42
0.0000001
 43
0.0000001
 44
0.0000000001
 40
0.0
 40
0.0
 40
0.0
 40
0.0
 40
0.2599652468
 40
0.5142401001
 40
0.7613526697
 40
1.0
 40
1.0
 40
1.0
 40
1.0
 10
38.1416926219
 20
59.0964984732
 30
0.0
 10
38.0693483307
 20
58.7511091348
 30
0.0
 10
37.9374610002
 20
58.0654513579
 30
0.0
 10
37.7847471914
 20
57.0429363148
 30
0.0
 10
37.6878667097
 20
56.0425695277
 30
0.0
 10
37.664678576
 20
55.3830265452
 30
0.0
 10
37.664678576
 20
55.0590795867
 30
0.0
  0
SPLINE
  5
33C
100
AcDbEntity
  8
0
100
AcDbSpline
 62
7
  6
BYLAYER
 70
0
 71
3
 72
11
 73
7
 74
0
 42
0.0000001
 43
0.0000001
 44
0.0000000001
 40
0.0
 40
0.0
 40
0.0
 40
0.0
 40
0.2121825532
 40
0.4472994642
 40
0.709137791
 40
1.0
 40
1.0
 40
1.0
 40
1.0
 10
44.335837719
 20
43.866912849
 30
0.0
 10
44.5004436764
 20
43.8442137978
 30
0.0
 10
44.8490878799
 20
43.8076763495
 30
0.0
 10
45.4042451052
 20
43.7839885648
 30
0.0
 10
46.0214352141
 20
43.7938206903
 30
0.0
 10
46.4534540878
 20
43.8232932291
 30
0.0
 10
46.6803296455
 20
43.8435605579
 30
0.0
  0
SPLINE
  5
33D
100
AcDbEntity
  8
0
100
AcDbSpline
 62
7
  6
BYLAYER
 70
0
 71
3
 72
11
 73
7
 74
0
 42
0.0000001
 43
0.0000001
 44
0.0000000001
 40
0.0
 40
0.0
 40
0.0
 40
0.0
 40
0.2717549027
 40
0.5308665851
 40
0.7744631113
 40
1.0
 40
1.0
 40
1.0
 40
1.0
 10
39.6534144983
 20
60.0648128168
 30
0.0
 10
39.9354889656
 20
60.1223352647
 30
0.0
 10
40.4874192024
 20
60.2303555919
 30
0.0
 10
41.2957533674
 20
60.3710974992
 30
0.0
 10
42.0591788296
 20
60.4828666275
 30
0.0
 10
42.553232494
 20
60.5379800604
 30
0.0
 10
42.7912043455
 20
60.5592382503
 30
0.0
  0
SPLINE
  5
33E
100
AcDbEntity
  8
0
100
AcDbSpline
 62
7
  6
BYLAYER
 70
0
 71
3
 72
11
 73
7
 74
0
 42
0.0000001
 43
0.0000001
 44
0.0000000001
 40
0.0
 40
0.0
 40
0.0
 40
0.0
 40
0.289032404
 40
0.5505025041
 40
0.7863777207
 40
1.0
 40
1.0
 40
1.0
 40
1.0
 10
42.7912043455
 20
60.5592382503
 30
0.0
 10
43.0085036657
 20
60.5786501197
 30
0.0
 10
43.4232089013
 20
60.6073041038
 30
0.0
 10
44.0169355967
 20
60.6188438572
 30
0.0
 10
44.5535140222
 20
60.5994651244
 30
0.0
 10
44.891507456
 20
60.5673026578
 30
0.0
 10
45.0514721737
 20
60.5470291251
 30
0.0
  0
SPLINE
  5
33F
100
AcDbEntity
  8
0
100
AcDbSpline
 62
7
  6
BYLAYER
 70
0
 71
3
 72
11
 73
7
 74
0
 42
0.0000001
 43
0.0000001
 44
0.0000000001
 40
0.0
 40
0.0
 40
0.0
 40
0.0
 40
0.2517021837
 40
0.5026363534
 40
0.752274365
 40
1.0
 40
1.0
 40
1.0
 40
1.0
 10
45.5031212641
 20
60.3237578411
 30
0.0
 10
45.8056313665
 20
60.0802739633
 30
0.0
 10
46.4005271372
 20
59.5824256493
 30
0.0
 10
47.2554195086
 20
58.7967301384
 30
0.0
 10
48.0615067559
 20
57.9693845969
 30
0.0
 10
48.5621853535
 20
57.3870719261
 30
0.0
 10
48.8016370093
 20
57.0891918489
 30
0.0
  0
SPLINE
  5
340
100
AcDbEntity
  8
0
100
AcDbSpline
 62
7
  6
BYLAYER
 70
0
 71
3
 72
11
 73
7
 74
0
 42
0.0000001
 43
0.0000001
 44
0.0000000001
 40
0.0
 40
0.0
 40
0.0
 40
0.0
 40
0.2543814372
 40
0.5058288436
 40
0.7542965742
 40
1.0
 40
1.0
 40
1.0
 40
1.0
 10
48.8016370093
 20
57.0891918489
 30
0.0
 10
49.038692056
 20
56.7942947861
 30
0.0
 10
49.4909950344
 20
56.1922646445
 30
0.0
 10
50.1057441056
 20
55.2529029705
 30
0.0
 10
50.6568625851
 20
54.289850555
 30
0.0
 10
50.9885218267
 20
53.6335480147
 30
0.0
 10
51.1461289358
 20
53.3038232031
 30
0.0
  0
SPLINE
  5
341
100
AcDbEntity
  8
0
100
AcDbSpline
 62
7
  6
BYLAYER
 70
0
 71
3
 72
11
 73
7
 74
0
 42
0.0000001
 43
0.0000001
 44
0.0000000001
 40
0.0
 40
0.0
 40
0.0
 40
0.0
 40
0.239494155
 40
0.485622226
 40
0.7390194504
 40
1.0
 40
1.0
 40
1.0
 40
1.0
 10
51.5465246443
 20
51.9317059546
 30
0.0
 10
51.5883389272
 20
51.7279680695
 30
0.0
 10
51.6632854201
 20
51.3127526575
 30
0.0
 10
51.7454488845
 20
50.6759690552
 30
0.0
 10
51.7958796153
 20
50.0171583067
 30
0.0
 10
51.8068554151
 20
49.5703632247
 30
0.0
 10
51.8068554151
 20
49.3437192215
 30
0.0
  0
SPLINE
  5
342
100
AcDbEntity
  8
0
100
AcDbSpline
 62
7
  6
BYLAYER
 70
0
 71
3
 72
11
 73
7
 74
0
 42
0.0000001
 43
0.0000001
 44
0.0000000001
 40
0.0
 40
0.0
 40
0.0
 40
0.0
 40
0.2248493973
 40
0.4683883805
 40
0.7278160122
 40
1.0
 40
1.0
 40
1.0
 40
1.0
 10
46.6803296455
 20
43.8435605579
 30
0.0
 10
46.9298244612
 20
43.8658480643
 30
0.0
 10
47.4485113859
 20
43.9242637693
 30
0.0
 10
48.250618551
 20
44.0435269246
 30
0.0
 10
49.1010196276
 20
44.1940716102
 30
0.0
 10
49.681919332
 20
44.3095496539
 30
0.0
 10
49.9788453907
 20
44.3710108963
 30
0.0
  0
SPLINE
  5
343
100
AcDbEntity
  8
0
100
AcDbSpline
 62
7
  6
BYLAYER
 70
0
 71
3
 72
11
 73
7
 74
0
 42
0.0000001
 43
0.0000001
 44
0.0000000001
 40
0.0
 40
0.0
 40
0.0
 40
0.0
 40
0.238982068
 40
0.4861215604
 40
0.7402439331
 40
1.0
 40
1.0
 40
1.0
 40
1.0
 10
51.8068554151
 20
49.3437192215
 30
0.0
 10
51.8068554151
 20
49.0343929453
 30
0.0
 10
51.7857352325
 20
48.4050411076
 30
0.0
 10
51.6970927239
 20
47.4505658065
 30
0.0
 10
51.5567828313
 20
46.4752430715
 30
0.0
 10
51.4350308501
 20
45.8211688693
 30
0.0
 10
51.3680920844
 20
45.4916847473
 30
0.0
  0
SPLINE
  5
344
100
AcDbEntity
  8
0
100
AcDbSpline
 62
7
  6
BYLAYER
 70
0
 71
3
 72
11
 73
7
 74
0
 42
0.0000001
 43
0.0000001
 44
0.0000000001
 40
0.0
 40
0.0
 40
0.0
 40
0.0
 40
0.2517023472
 40
0.502636411
 40
0.7522739523
 40
1.0
 40
1.0
 40
1.0
 40
1.0
 10
49.9788454663
 20
52.6298958006
 30
0.0
 10
49.6763351552
 20
52.8733798534
 30
0.0
 10
49.0814305423
 20
53.3712173665
 30
0.0
 10
48.2265352093
 20
54.156910533
 30
0.0
 10
47.4204806832
 20
54.9842865347
 30
0.0
 10
46.9197805538
 20
55.5665801641
 30
0.0
 10
46.6803296755
 20
55.8644617085
 30
0.0
  0
SPLINE
  5
345
100
AcDbEntity
  8
0
100
AcDbSpline
 62
7
  6
BYLAYER
 70
0
 71
3
 72
11
 73
7
 74
0
 42
0.0000001
 43
0.0000001
 44
0.0000000001
 40
0.0
 40
0.0
 40
0.0
 40
0.0
 40
0.2389827885
 40
0.4861216545
 40
0.7402452202
 40
1.0
 40
1.0
 40
1.0
 40
1.0
 10
49.6855439035
 20
48.1189867599
 30
0.0
 10
49.6855439035
 20
48.4283139142
 30
0.0
 10
49.7066734194
 20
49.057665254
 30
0.0
 10
49.7953019857
 20
50.0121434839
 30
0.0
 10
49.9356344234
 20
50.9874618513
 30
0.0
 10
50.0573688743
 20
51.6415388361
 30
0.0
 10
50.1243072933
 20
51.9710212682
 30
0.0
  0
SPLINE
  5
346
100
AcDbEntity
  8
0
100
AcDbSpline
 62
7
  6
BYLAYER
 70
0
 71
3
 72
11
 73
7
 74
0
 42
0.0000001
 43
0.0000001
 44
0.0000000001
 40
0.0
 40
0.0
 40
0.0
 40
0.0
 40
0.2717549018
 40
0.5308665853
 40
0.7744631129
 40
1.0
 40
1.0
 40
1.0
 40
1.0
 10
43.8076868321
 20
59.8289336098
 30
0.0
 10
43.5256123623
 20
59.7714111688
 30
0.0
 10
42.9736821234
 20
59.6633908328
 30
0.0
 10
42.1653479508
 20
59.5226489263
 30
0.0
 10
41.4019224831
 20
59.4108797919
 30
0.0
 10
40.9078688151
 20
59.3557663625
 30
0.0
 10
40.6698969637
 20
59.334508173
 30
0.0
  0
SPLINE
  5
347
100
AcDbEntity
  8
0
100
AcDbSpline
 62
7
  6
BYLAYER
 70
0
 71
3
 72
16
 73
12
 74
0
 42
0.0000001
 43
0.0000001
 44
0.0000000001
 40
0.0
 40
0.0
 40
0.0
 40
0.0
 40
0.1491232978
 40
0.2932350965
 40
0.4309609541
 40
0.5611954104
 40
0.6831905489
 40
0.7966605172
 40
0.8503030691
 40
0.9019889224
 40
1.0
 40
1.0
 40
1.0
 40
1.0
 10
46.6803275625
 20
55.8644605795
 30
0.0
 10
46.4562684187
 20
56.1431953247
 30
0.0
 10
45.9941067922
 20
56.6744294081
 30
0.0
 10
45.2523444099
 20
57.3958944387
 30
0.0
 10
44.4836634926
 20
58.0193003508
 30
0.0
 10
43.7008264462
 20
58.5341130591
 30
0.0
 10
42.9167875126
 20
58.931580488
 30
0.0
 10
42.2607418042
 20
59.1635260714
 30
0.0
 10
41.7486690157
 20
59.2805861379
 30
0.0
 10
41.2657320835
 20
59.3503458457
 30
0.0
 10
40.9040110054
 20
59.3554217523
 30
0.0
 10
40.6698949078
 20
59.3345069816
 30
0.0
  0
SPLINE
  5
348
100
AcDbEntity
  8
0
100
AcDbSpline
 62
7
  6
BYLAYER
 70
0
 71
3
 72
20
 73
16
 74
0
 42
0.0000001
 43
0.0000001
 44
0.0000000001
 40
0.0
 40
0.0
 40
0.0
 40
0.0
 40
0.058320062
 40
0.1153282938
 40
0.1714029086
 40
0.2269993604
 40
0.2825983528
 40
0.3386705248
 40
0.3956661592
 40
0.4539997061
 40
0.5759539232
 40
0.640263842
 40
0.7070129733
 40
0.8482026042
 40
1.0
 40
1.0
 40
1.0
 40
1.0
 10
40.6698949078
 20
59.3345069816
 30
0.0
 10
40.5579365856
 20
59.3245060853
 30
0.0
 10
40.3373309624
 20
59.2937499426
 30
0.0
 10
40.0161557348
 20
59.2138245946
 30
0.0
 10
39.7105646863
 20
59.100896905
 30
0.0
 10
39.4220354297
 20
58.9555267782
 30
0.0
 10
39.1518914075
 20
58.7783185113
 30
0.0
 10
38.9013210207
 20
58.5701628353
 30
0.0
 10
38.6714856662
 20
58.3319462304
 30
0.0
 10
38.3898975231
 20
57.9707045772
 30
0.0
 10
38.1583142502
 20
57.5562558033
 30
0.0
 10
37.9772572621
 20
57.1030853888
 30
0.0
 10
37.8225897328
 20
56.6010906353
 30
0.0
 10
37.6954485951
 20
55.9170184185
 30
0.0
 10
37.664678576
 20
55.3516487388
 30
0.0
 10
37.664678576
 20
55.0590795867
 30
0.0
  0
SPLINE
  5
349
100
AcDbEntity
  8
0
100
AcDbSpline
 62
7
  6
BYLAYER
 70
0
 71
3
 72
11
 73
7
 74
0
 42
0.0000001
 43
0.0000001
 44
0.0000000001
 40
0.0
 40
0.0
 40
0.0
 40
0.0
 40
0.2543809815
 40
0.5058294033
 40
0.7542971272
 40
1.0
 40
1.0
 40
1.0
 40
1.0
 10
46.6803296755
 20
55.8644617085
 30
0.0
 10
46.4432738534
 20
56.1593573238
 30
0.0
 10
45.9909939654
 20
56.7614054352
 30
0.0
 10
45.3762068037
 20
57.7007422666
 30
0.0
 10
44.8250897996
 20
58.6637979058
 30
0.0
 10
44.4934445676
 20
59.3201063399
 30
0.0
 10
44.3358377931
 20
59.6498304377
 30
0.0
  0
SPLINE
  5
34A
100
AcDbEntity
  8
0
100
AcDbSpline
 62
7
  6
BYLAYER
 70
0
 71
3
 72
12
 73
8
 74
0
 42
0.0000001
 43
0.0000001
 44
0.0000000001
 40
0.0
 40
0.0
 40
0.0
 40
0.0
 40
0.2780924409
 40
0.5367090816
 40
0.6589498146
 40
0.7767175934
 40
1.0
 40
1.0
 40
1.0
 40
1.0
 10
43.6658683394
 20
44.6541094569
 30
0.0
 10
43.9199683785
 20
44.5069562435
 30
0.0
 10
44.426459802
 20
44.2493695762
 30
0.0
 10
45.0845169285
 20
44.0159499601
 30
0.0
 10
45.5982343047
 20
43.8980708294
 30
0.0
 10
46.0826487457
 20
43.8277865565
 30
0.0
 10
46.4455019783
 20
43.8225810423
 30
0.0
 10
46.6803275806
 20
43.8435593658
 30
0.0
  0
SPLINE
  5
34B
100
AcDbEntity
  8
0
100
AcDbSpline
 62
7
  6
BYLAYER
 70
0
 71
3
 72
20
 73
16
 74
0
 42
0.0000001
 43
0.0000001
 44
0.0000000001
 40
0.0
 40
0.0
 40
0.0
 40
0.0
 40
0.0583200612
 40
0.1153282934
 40
0.1714029082
 40
0.2269993601
 40
0.2825983525
 40
0.3386705245
 40
0.3956661589
 40
0.4539997058
 40
0.575953923
 40
0.6402638418
 40
0.7070129732
 40
0.8482026042
 40
1.0
 40
1.0
 40
1.0
 40
1.0
 10
46.6803275806
 20
43.8435593658
 30
0.0
 10
46.7922858991
 20
43.8535602827
 30
0.0
 10
47.0128915179
 20
43.8843164323
 30
0.0
 10
47.3340667521
 20
43.9642417492
 30
0.0
 10
47.6396578027
 20
44.0771694376
 30
0.0
 10
47.9281870546
 20
44.2225395728
 30
0.0
 10
48.1983310756
 20
44.3997478404
 30
0.0
 10
48.448901463
 20
44.6079035148
 30
0.0
 10
48.6787368168
 20
44.8461201196
 30
0.0
 10
48.9603249584
 20
45.2073617732
 30
0.0
 10
49.1919082309
 20
45.6218105466
 30
0.0
 10
49.3729652184
 20
46.0749809607
 30
0.0
 10
49.5276327471
 20
46.5769757136
 30
0.0
 10
49.6547738844
 20
47.2610479294
 30
0.0
 10
49.6855439035
 20
47.8264176083
 30
0.0
 10
49.6855439035
 20
48.1189867599
 30
0.0
  0
SPLINE
  5
34C
100
AcDbEntity
  8
0
100
AcDbSpline
 62
7
  6
BYLAYER
 70
0
 71
3
 72
15
 73
11
 74
0
 42
0.0000001
 43
0.0000001
 44
0.0000000001
 40
0.0
 40
0.0
 40
0.0
 40
0.0
 40
0.1108410465
 40
0.2280578197
 40
0.3507094003
 40
0.4776259691
 40
0.60747378
 40
0.7388131747
 40
0.8701524766
 40
1.0
 40
1.0
 40
1.0
 40
1.0
 10
49.6855439035
 20
48.1189867599
 30
0.0
 10
49.6855439035
 20
48.4313153646
 30
0.0
 10
49.6481336665
 20
49.0743029234
 30
0.0
 10
49.4925865048
 20
50.0515942834
 30
0.0
 10
49.2386325748
 20
51.0547946756
 30
0.0
 10
48.8905790558
 20
52.0668953519
 30
0.0
 10
48.4543096765
 20
53.0708904257
 30
0.0
 10
47.9371831125
 20
54.0498256947
 30
0.0
 10
47.3480008167
 20
54.9870749439
 30
0.0
 10
46.9095657958
 20
55.5792908152
 30
0.0
 10
46.6803275625
 20
55.8644605795
 30
0.0
  0
SPLINE
  5
34D
100
AcDbEntity
  8
0
100
AcDbSpline
 62
7
  6
BYLAYER
 70
0
 71
3
 72
11
 73
7
 74
0
 42
0.0000001
 43
0.0000001
 44
0.0000000001
 40
0.0
 40
0.0
 40
0.0
 40
0.0
 40
0.2369362209
 40
0.4817765332
 40
0.7358502298
 40
1.0
 40
1.0
 40
1.0
 40
1.0
 10
50.1243072919
 20
44.773589549
 30
0.0
 10
50.0557573914
 20
45.0318498362
 30
0.0
 10
49.931096597
 20
45.5610488173
 30
0.0
 10
49.7915149291
 20
46.3796634089
 30
0.0
 10
49.7044641397
 20
47.2364510172
 30
0.0
 10
49.6855439035
 20
47.821093844
 30
0.0
 10
49.6855439035
 20
48.1189867599
 30
0.0
  0
SPLINE
  5
34E
100
AcDbEntity
  8
0
100
AcDbSpline
 62
7
  6
BYLAYER
 70
0
 71
3
 72
11
 73
7
 74
0
 42
0.0000001
 43
0.0000001
 44
0.0000000001
 40
0.0
 40
0.0
 40
0.0
 40
0.0
 40
0.2890324016
 40
0.5505025037
 40
0.786377723
 40
1.0
 40
1.0
 40
1.0
 40
1.0
 10
40.6698969637
 20
59.334508173
 30
0.0
 10
40.4525976468
 20
59.3150963041
 30
0.0
 10
40.0378924139
 20
59.2864423232
 30
0.0
 10
39.4441657214
 20
59.27490257
 30
0.0
 10
38.9075872959
 20
59.2942812864
 30
0.0
 10
38.5695938673
 20
59.3264437796
 30
0.0
 10
38.4096291505
 20
59.346717298
 30
0.0
  0
SPLINE
  5
34F
100
AcDbEntity
  8
0
100
AcDbSpline
 62
7
  6
BYLAYER
 70
0
 71
3
 72
11
 73
7
 74
0
 42
0.0000001
 43
0.0000001
 44
0.0000000001
 40
0.0
 40
0.0
 40
0.0
 40
0.0
 40
0.224337825
 40
0.4643547528
 40
0.7225623719
 40
1.0
 40
1.0
 40
1.0
 40
1.0
 10
9.7275888349
 20
36.6462424873
 30
0.0
 10
9.8371526217
 20
36.6600664839
 30
0.0
 10
10.0672847432
 20
36.6653835502
 30
0.0
 10
10.4202782966
 20
36.610914164
 30
0.0
 10
10.7856854863
 20
36.4959128459
 30
0.0
 10
11.0253927228
 20
36.3842683926
 30
0.0
 10
11.1458334763
 20
36.3198808495
 30
0.0
  0
SPLINE
  5
350
100
AcDbEntity
  8
0
100
AcDbSpline
 62
7
  6
BYLAYER
 70
0
 71
3
 72
18
 73
14
 74
0
 42
0.0000001
 43
0.0000001
 44
0.0000000001
 40
0.0
 40
0.0
 40
0.0
 40
0.0
 40
0.1533836344
 40
0.3005402926
 40
0.4398228362
 40
0.5700201661
 40
0.6904956734
 40
0.7471380191
 40
0.8014693152
 40
0.8536528309
 40
0.9039228809
 40
0.9525820097
 40
1.0
 40
1.0
 40
1.0
 40
1.0
 10
9.3954086208
 20
30.1167216654
 30
0.0
 10
9.5480190875
 20
29.9323445868
 30
0.0
 10
9.8629108347
 20
29.583795241
 30
0.0
 10
10.3695724497
 20
29.1192949922
 30
0.0
 10
10.892697905
 20
28.7310358982
 30
0.0
 10
11.4215873999
 20
28.4271146528
 30
0.0
 10
11.8676294512
 20
28.2457530322
 30
0.0
 10
12.2166540363
 20
28.1514442894
 30
0.0
 10
12.4676341497
 20
28.1066230868
 30
0.0
 10
12.7118541411
 20
28.0865632228
 30
0.0
 10
12.9480551652
 20
28.0914188782
 30
0.0
 10
13.1749323558
 20
28.1212326455
 30
0.0
 10
13.32068941
 20
28.1580917158
 30
0.0
 10
13.3911715052
 20
28.1806099825
 30
0.0
  0
SPLINE
  5
351
100
AcDbEntity
  8
0
100
AcDbSpline
 62
7
  6
BYLAYER
 70
0
 71
3
 72
15
 73
11
 74
0
 42
0.0000001
 43
0.0000001
 44
0.0000000001
 40
0.0
 40
0.0
 40
0.0
 40
0.0
 40
0.129364157
 40
0.2605083263
 40
0.3918433232
 40
0.5218308046
 40
0.6489499117
 40
0.7718018208
 40
0.8891493881
 40
1.0
 40
1.0
 40
1.0
 40
1.0
 10
12.6060625094
 20
35.0493592246
 30
0.0
 10
12.726362043
 20
34.9040187573
 30
0.0
 10
12.9566739971
 20
34.6012504706
 30
0.0
 10
13.2664395338
 20
34.1203707672
 30
0.0
 10
13.5387723676
 20
33.6162696015
 30
0.0
 10
13.7688557351
 20
33.0979437786
 30
0.0
 10
13.952616448
 20
32.5744993962
 30
0.0
 10
14.0868201028
 20
32.0551438708
 30
0.0
 10
14.1690839858
 20
31.5490723054
 30
0.0
 10
14.1888969989
 20
31.2160662613
 30
0.0
 10
14.1889025214
 20
31.0543984016
 30
0.0
  0
SPLINE
  5
352
100
AcDbEntity
  8
0
100
AcDbSpline
 62
7
  6
BYLAYER
 70
0
 71
3
 72
23
 73
19
 74
0
 42
0.0000001
 43
0.0000001
 44
0.0000000001
 40
0.0
 40
0.0
 40
0.0
 40
0.0
 40
0.0723112994
 40
0.1455753474
 40
0.2191842395
 40
0.2925827682
 40
0.3651915731
 40
0.436456892
 40
0.5058595602
 40
0.5729261311
 40
0.6372495196
 40
0.6985070337
 40
0.7564803151
 40
0.8110799274
 40
0.8623743498
 40
0.9106167938
 40
0.9562674286
 40
1.0
 40
1.0
 40
1.0
 40
1.0
 10
14.0396253722
 20
36.2346354188
 30
0.0
 10
14.1620533566
 20
36.0867234532
 30
0.0
 10
14.3986485884
 20
35.7806389381
 30
0.0
 10
14.7247138744
 20
35.2981183566
 30
0.0
 10
15.0213450163
 20
34.7935883532
 30
0.0
 10
15.2850619091
 20
34.2730545804
 30
0.0
 10
15.512782204
 20
33.7425463186
 30
0.0
 10
15.7018468645
 20
33.2082838626
 30
0.0
 10
15.850053303
 20
32.6765024819
 30
0.0
 10
15.9556500536
 20
32.153390375
 30
0.0
 10
16.0173984563
 20
31.6450244596
 30
0.0
 10
16.0345565377
 20
31.1572796357
 30
0.0
 10
16.0068540701
 20
30.69576462
 30
0.0
 10
15.9344643618
 20
30.2657674742
 30
0.0
 10
15.8180269509
 20
29.8722346512
 30
0.0
 10
15.6585204239
 20
29.5197394764
 30
0.0
 10
15.457497083
 20
29.2127263925
 30
0.0
 10
15.2943853045
 20
29.0382659425
 30
0.0
 10
15.2075265061
 20
28.9611951397
 30
0.0
  0
SPLINE
  5
353
100
AcDbEntity
  8
0
100
AcDbSpline
 62
7
  6
BYLAYER
 70
0
 71
3
 72
13
 73
9
 74
0
 42
0.0000001
 43
0.0000001
 44
0.0000000001
 40
0.0
 40
0.0
 40
0.0
 40
0.0
 40
0.1181428928
 40
0.2370014017
 40
0.3572689461
 40
0.4795977713
 40
0.7325427082
 40
1.0
 40
1.0
 40
1.0
 40
1.0
 10
9.9868218084
 20
39.06739071
 30
0.0
 10
9.9315715059
 20
39.0354937197
 30
0.0
 10
9.8237301467
 20
38.9661515444
 30
0.0
 10
9.6719275765
 20
38.846649969
 30
0.0
 10
9.5302955937
 20
38.7119306106
 30
0.0
 10
9.3537161557
 20
38.5104483023
 30
0.0
 10
9.1605497493
 20
38.2200113236
 30
0.0
 10
9.0432875872
 20
37.9633535094
 30
0.0
 10
8.9922790511
 20
37.8282352589
 30
0.0
  0
SPLINE
  5
354
100
AcDbEntity
  8
0
100
AcDbSpline
 62
7
  6
BYLAYER
 70
0
 71
3
 72
15
 73
11
 74
0
 42
0.0000001
 43
0.0000001
 44
0.0000000001
 40
0.0
 40
0.0
 40
0.0
 40
0.0
 40
0.1080124997
 40
0.2180618382
 40
0.3319996243
 40
0.4513571054
 40
0.5772778255
 40
0.7105008922
 40
0.8513943405
 40
1.0
 40
1.0
 40
1.0
 40
1.0
 10
13.875892913
 20
41.3127335563
 30
0.0
 10
13.9742687376
 20
41.3695276838
 30
0.0
 10
14.1831299269
 20
41.467349825
 30
0.0
 10
14.521093348
 20
41.5607890608
 30
0.0
 10
14.8813632638
 20
41.6009662479
 30
0.0
 10
15.260113738
 20
41.5877988979
 30
0.0
 10
15.6536916506
 20
41.5217553159
 30
0.0
 10
16.0584115406
 20
41.4037556244
 30
0.0
 10
16.4705034151
 20
41.2351163203
 30
0.0
 10
16.7406386956
 20
41.0936685549
 30
0.0
 10
16.8759844527
 20
41.0155273719
 30
0.0
  0
SPLINE
  5
355
100
AcDbEntity
  8
0
100
AcDbSpline
 62
7
  6
BYLAYER
 70
0
 71
3
 72
17
 73
13
 74
0
 42
0.0000001
 43
0.0000001
 44
0.0000000001
 40
0.0
 40
0.0
 40
0.0
 40
0.0
 40
0.1374571263
 40
0.2766597365
 40
0.4146492733
 40
0.5485261927
 40
0.6756816666
 40
0.736086899
 40
0.7940768641
 40
0.8495088916
 40
0.9023107776
 40
1.0
 40
1.0
 40
1.0
 40
1.0
 10
26.1427373548
 20
42.96224632
 30
0.0
 10
26.3157369229
 20
42.7532360493
 30
0.0
 10
26.6409694185
 20
42.3130495047
 30
0.0
 10
27.0574130506
 20
41.6068910577
 30
0.0
 10
27.3961603892
 20
40.8679235344
 30
0.0
 10
27.6464324394
 20
40.1195187666
 30
0.0
 10
27.7770228075
 20
39.4967816571
 30
0.0
 10
27.8284329356
 20
39.0144861051
 30
0.0
 10
27.8403444172
 20
38.6712800155
 30
0.0
 10
27.8261211296
 20
38.3430519272
 30
0.0
 10
27.7739169392
 20
37.9397481227
 30
0.0
 10
27.6948730635
 20
37.6504380789
 30
0.0
 10
27.6218899119
 20
37.4719601459
 30
0.0
  0
SPLINE
  5
356
100
AcDbEntity
  8
0
100
AcDbSpline
 62
7
  6
BYLAYER
 70
0
 71
3
 72
14
 73
10
 74
0
 42
0.0000001
 43
0.0000001
 44
0.0000000001
 40
0.0
 40
0.0
 40
0.0
 40
0.0
 40
0.2120167007
 40
0.3283583239
 40
0.4514128696
 40
0.5807918476
 40
0.7158848908
 40
0.8559630751
 40
1.0
 40
1.0
 40
1.0
 40
1.0
 10
23.4227227739
 20
44.7451717004
 30
0.0
 10
23.6552239264
 20
44.713485236
 30
0.0
 10
24.0089141942
 20
44.6108113259
 30
0.0
 10
24.4610188454
 20
44.3975732065
 30
0.0
 10
24.812195853
 20
44.1882033662
 30
0.0
 10
25.160387871
 20
43.9369973642
 30
0.0
 10
25.5018884975
 20
43.64674028
 30
0.0
 10
25.8326347849
 20
43.320841236
 30
0.0
 10
26.0410915439
 20
43.0850502013
 30
0.0
 10
26.1427373548
 20
42.96224632
 30
0.0
  0
SPLINE
  5
357
100
AcDbEntity
  8
0
100
AcDbSpline
 62
7
  6
BYLAYER
 70
0
 71
3
 72
12
 73
8
 74
0
 42
0.0000001
 43
0.0000001
 44
0.0000000001
 40
0.0
 40
0.0
 40
0.0
 40
0.0
 40
0.2534576455
 40
0.5036320821
 40
0.7520626399
 40
0.8759705783
 40
1.0
 40
1.0
 40
1.0
 40
1.0
 10
27.2743454878
 20
36.6219564995
 30
0.0
 10
27.2177161653
 20
36.4834577392
 30
0.0
 10
27.0857948633
 20
36.2155889052
 30
0.0
 10
26.8294482295
 20
35.8508710129
 30
0.0
 10
26.5693783676
 20
35.588344404
 30
0.0
 10
26.3372397193
 20
35.4090197306
 30
0.0
 10
26.2136841149
 20
35.3300950381
 30
0.0
 10
26.1502729279
 20
35.2934847907
 30
0.0
  0
SPLINE
  5
358
100
AcDbEntity
  8
0
100
AcDbSpline
 62
7
  6
BYLAYER
 70
0
 71
3
 72
11
 73
7
 74
0
 42
0.0000001
 43
0.0000001
 44
0.0000000001
 40
0.0
 40
0.0
 40
0.0
 40
0.0
 40
0.2325810675
 40
0.4780121557
 40
0.7345771936
 40
1.0
 40
1.0
 40
1.0
 40
1.0
 10
11.1484125939
 20
36.320713185
 30
0.0
 10
11.2789031412
 20
36.2453747406
 30
0.0
 10
11.5386278822
 20
36.0755472976
 30
0.0
 10
11.9107048327
 20
35.7778584077
 30
0.0
 10
12.2709229969
 20
35.4343695627
 30
0.0
 10
12.4964206884
 20
35.1818235247
 30
0.0
 10
12.6060625094
 20
35.0493592246
 30
0.0
  0
SPLINE
  5
359
100
AcDbEntity
  8
0
100
AcDbSpline
 62
7
  6
BYLAYER
 70
0
 71
3
 72
12
 73
8
 74
0
 42
0.0000001
 43
0.0000001
 44
0.0000000001
 40
0.0
 40
0.0
 40
0.0
 40
0.0
 40
0.2534576455
 40
0.5036320821
 40
0.7520626399
 40
0.8759705783
 40
1.0
 40
1.0
 40
1.0
 40
1.0
 10
22.5128250058
 20
44.8692011248
 30
0.0
 10
22.3645670042
 20
44.8894088395
 30
0.0
 10
22.0666252398
 20
44.9090975979
 30
0.0
 10
21.622596758
 20
44.8694561423
 30
0.0
 10
21.2652066288
 20
44.7754941871
 30
0.0
 10
20.9938370063
 20
44.66411996
 30
0.0
 10
20.8637080662
 20
44.5965806868
 30
0.0
 10
20.8002968792
 20
44.5599704395
 30
0.0
  0
SPLINE
  5
35A
100
AcDbEntity
  8
0
100
AcDbSpline
 62
7
  6
BYLAYER
 70
0
 71
3
 72
15
 73
11
 74
0
 42
0.0000001
 43
0.0000001
 44
0.0000000001
 40
0.0
 40
0.0
 40
0.0
 40
0.0
 40
0.1474074955
 40
0.2873708928
 40
0.4200108463
 40
0.5457546093
 40
0.6653532338
 40
0.7799196033
 40
0.890895691
 40
1.0
 40
1.0
 40
1.0
 40
1.0
 10
14.1869018904
 20
31.0529245167
 30
0.0
 10
14.1836103915
 20
30.9518360905
 30
0.0
 10
14.1691123254
 20
30.7548945332
 30
0.0
 10
14.121375309
 20
30.4702421735
 30
0.0
 10
14.048498046
 20
30.2062531508
 30
0.0
 10
13.9510400883
 20
29.9652267124
 30
0.0
 10
13.8296390658
 20
29.7493325553
 30
0.0
 10
13.6852481529
 20
29.5605418778
 30
0.0
 10
13.51904638
 20
29.4008191227
 30
0.0
 10
13.3942227426
 20
29.3144574752
 30
0.0
 10
13.3293890259
 20
29.2770313728
 30
0.0
  0
SPLINE
  5
35B
100
AcDbEntity
  8
0
100
AcDbSpline
 62
7
  6
BYLAYER
 70
0
 71
3
 72
15
 73
11
 74
0
 42
0.0000001
 43
0.0000001
 44
0.0000000001
 40
0.0
 40
0.0
 40
0.0
 40
0.0
 40
0.1486055792
 40
0.2894991288
 40
0.4227228625
 40
0.548642728
 40
0.6680003308
 40
0.7819386355
 40
0.8919875705
 40
1.0
 40
1.0
 40
1.0
 40
1.0
 10
21.1185325966
 20
33.6671769113
 30
0.0
 10
21.1185302775
 20
33.5108936137
 30
0.0
 10
21.1059537737
 20
33.2062260385
 30
0.0
 10
21.0459523907
 20
32.7650246034
 30
0.0
 10
20.9457902152
 20
32.3555250987
 30
0.0
 10
20.8061823614
 20
31.9816601176
 30
0.0
 10
20.6282127365
 20
31.6470696104
 30
0.0
 10
20.4132899381
 20
31.3551483488
 30
0.0
 10
20.1633723836
 20
31.1092000434
 30
0.0
 10
19.97423442
 20
30.9772199908
 30
0.0
 10
19.8758587056
 20
30.9204259268
 30
0.0
  0
SPLINE
  5
35C
100
AcDbEntity
  8
0
100
AcDbSpline
 62
7
  6
BYLAYER
 70
0
 71
3
 72
18
 73
14
 74
0
 42
0.0000001
 43
0.0000001
 44
0.0000000001
 40
0.0
 40
0.0
 40
0.0
 40
0.0
 40
0.0473980727
 40
0.0960111579
 40
0.1981977701
 40
0.2524624623
 40
0.3090458131
 40
0.3680545243
 40
0.4295297903
 40
0.5597287469
 40
0.6990937175
 40
0.8464045529
 40
1.0
 40
1.0
 40
1.0
 40
1.0
 10
9.8469030835
 20
38.2501247307
 30
0.0
 10
9.9205213116
 20
38.2745484621
 30
0.0
 10
10.072883306
 20
38.3147769411
 30
0.0
 10
10.3946189775
 20
38.3601712695
 30
0.0
 10
10.7329510968
 20
38.3500959074
 30
0.0
 10
11.0767569373
 20
38.2907420191
 30
0.0
 10
11.3458213191
 20
38.2195066875
 30
0.0
 10
11.6192654699
 20
38.1227919761
 30
0.0
 10
11.995064327
 20
37.9574896151
 30
0.0
 10
12.4668470047
 20
37.6879139311
 30
0.0
 10
13.0163183698
 20
37.2813783736
 30
0.0
 10
13.5486373804
 20
36.7941610435
 30
0.0
 10
13.8793592191
 20
36.4282617521
 30
0.0
 10
14.0396253722
 20
36.2346354188
 30
0.0
  0
SPLINE
  5
35D
100
AcDbEntity
  8
0
100
AcDbSpline
 62
7
  6
BYLAYER
 70
0
 71
3
 72
23
 73
19
 74
0
 42
0.0000001
 43
0.0000001
 44
0.0000000001
 40
0.0
 40
0.0
 40
0.0
 40
0.0
 40
0.0437747724
 40
0.0895051353
 40
0.1378461539
 40
0.1892414369
 40
0.2439313782
 40
0.3019757234
 40
0.3632797611
 40
0.4276225548
 40
0.4946812493
 40
0.5640505854
 40
0.6352602108
 40
0.7077951163
 40
0.7811061151
 40
0.8546192194
 40
0.9277848654
 40
1.0
 40
1.0
 40
1.0
 40
1.0
 10
8.2607783142
 20
37.0667649475
 30
0.0
 10
8.1786673016
 20
36.9921016807
 30
0.0
 10
8.0246632209
 20
36.823531266
 30
0.0
 10
7.8353210646
 20
36.5280802399
 30
0.0
 10
7.6854920199
 20
36.1896635565
 30
0.0
 10
7.5766175454
 20
35.812500041
 30
0.0
 10
7.5096059707
 20
35.4009298883
 30
0.0
 10
7.4850470782
 20
34.9596476212
 30
0.0
 10
7.5030891428
 20
34.4936693144
 30
0.0
 10
7.5634573475
 20
34.008311245
 30
0.0
 10
7.6654328541
 20
33.5091370326
 30
0.0
 10
7.8078323104
 20
33.0018984872
 30
0.0
 10
7.9889868578
 20
32.492449334
 30
0.0
 10
8.2068028974
 20
31.986686683
 30
0.0
 10
8.4587574305
 20
31.490492079
 30
0.0
 10
8.7419318989
 20
31.0095664824
 30
0.0
 10
9.0530294851
 20
30.5495887212
 30
0.0
 10
9.2786690631
 20
30.2577611306
 30
0.0
 10
9.3954086208
 20
30.1167216654
 30
0.0
  0
SPLINE
  5
35E
100
AcDbEntity
  8
0
100
AcDbSpline
 62
7
  6
BYLAYER
 70
0
 71
3
 72
12
 73
8
 74
0
 42
0.0000001
 43
0.0000001
 44
0.0000000001
 40
0.0
 40
0.0
 40
0.0
 40
0.0
 40
0.2676335448
 40
0.5206648913
 40
0.7630255595
 40
0.8818728697
 40
1.0
 40
1.0
 40
1.0
 40
1.0
 10
14.4095941073
 20
28.4344889379
 30
0.0
 10
14.5527245186
 20
28.4106831516
 30
0.0
 10
14.8349031454
 20
28.3832482134
 30
0.0
 10
15.249597271
 20
28.4087539915
 30
0.0
 10
15.5752530413
 20
28.4876492917
 30
0.0
 10
15.8168870069
 20
28.5841397682
 30
0.0
 10
15.9313246304
 20
28.6430633132
 30
0.0
 10
15.9867876009
 20
28.6750830805
 30
0.0
  0
SPLINE
  5
35F
100
AcDbEntity
  8
0
100
AcDbSpline
 62
7
  6
BYLAYER
 70
0
 71
3
 72
11
 73
7
 74
0
 42
0.0000001
 43
0.0000001
 44
0.0000000001
 40
0.0
 40
0.0
 40
0.0
 40
0.0
 40
0.2654226625
 40
0.5219876773
 40
0.7674185833
 40
1.0
 40
1.0
 40
1.0
 40
1.0
 10
19.1491778689
 20
39.1683641724
 30
0.0
 10
19.0127630494
 20
39.3331744009
 30
0.0
 10
18.7322021875
 20
39.6473889617
 30
0.0
 10
18.2840239854
 20
40.0747532218
 30
0.0
 10
17.821091701
 20
40.4451350993
 30
0.0
 10
17.4979452331
 20
40.6564318813
 30
0.0
 10
17.3355901772
 20
40.7501667453
 30
0.0
  0
SPLINE
  5
360
100
AcDbEntity
  8
0
100
AcDbSpline
 62
7
  6
BYLAYER
 70
0
 71
3
 72
21
 73
17
 74
0
 42
0.0000001
 43
0.0000001
 44
0.0000000001
 40
0.0
 40
0.0
 40
0.0
 40
0.0
 40
0.0474936088
 40
0.0955913316
 40
0.1448591979
 40
0.1957971425
 40
0.2488147634
 40
0.3042283928
 40
0.3622545152
 40
0.4230217675
 40
0.4865734046
 40
0.5528826424
 40
0.6218590608
 40
0.6933534025
 40
0.8430272683
 40
1.0
 40
1.0
 40
1.0
 40
1.0
 10
9.8522024613
 20
38.2391153467
 30
0.0
 10
9.9239340107
 20
38.2805272564
 30
0.0
 10
10.0743432514
 20
38.3538847603
 30
0.0
 10
10.3152086634
 20
38.4324947639
 30
0.0
 10
10.5702550176
 20
38.4796383745
 30
0.0
 10
10.8376772585
 20
38.4950059463
 30
0.0
 10
11.1157079437
 20
38.4787036431
 30
0.0
 10
11.402546179
 20
38.4308838769
 30
0.0
 10
11.6963859357
 20
38.3519932641
 30
0.0
 10
11.9953698852
 20
38.2425595001
 30
0.0
 10
12.2976312264
 20
38.1033463728
 30
0.0
 10
12.6012622733
 20
37.9352524955
 30
0.0
 10
12.9043487398
 20
37.7393599351
 30
0.0
 10
13.3113409735
 20
37.4382202331
 30
0.0
 10
13.8053484303
 20
36.9991418315
 30
0.0
 10
14.1663189315
 20
36.603190795
 30
0.0
 10
14.3408717759
 20
36.392303926
 30
0.0
  0
SPLINE
  5
361
100
AcDbEntity
  8
0
100
AcDbSpline
 62
7
  6
BYLAYER
 70
0
 71
3
 72
21
 73
17
 74
0
 42
0.0000001
 43
0.0000001
 44
0.0000000001
 40
0.0
 40
0.0
 40
0.0
 40
0.0
 40
0.1569727317
 40
0.3066465975
 40
0.3781409392
 40
0.4471173576
 40
0.5134265954
 40
0.5769782325
 40
0.6377454848
 40
0.6957716072
 40
0.7511852366
 40
0.8042028575
 40
0.8551408021
 40
0.9044086684
 40
0.9525063912
 40
1.0
 40
1.0
 40
1.0
 40
1.0
 10
15.0208434696
 20
36.9962003317
 30
0.0
 10
14.8250832703
 20
37.2327089698
 30
0.0
 10
14.42025654
 20
37.6767662069
 30
0.0
 10
13.8662294857
 20
38.1691905826
 30
0.0
 10
13.4097895974
 20
38.5069173512
 30
0.0
 10
13.0698795415
 20
38.7266099423
 30
0.0
 10
12.7293587412
 20
38.9151264402
 30
0.0
 10
12.3903740595
 20
39.0712533119
 30
0.0
 10
12.0550649573
 20
39.1939827669
 30
0.0
 10
11.7255250433
 20
39.2824582205
 30
0.0
 10
11.4038373027
 20
39.3360878648
 30
0.0
 10
11.0920271884
 20
39.3543708217
 30
0.0
 10
10.7921143949
 20
39.3371361617
 30
0.0
 10
10.5060811005
 20
39.2842648227
 30
0.0
 10
10.2359516664
 20
39.196104071
 30
0.0
 10
10.0672684058
 20
39.1138339732
 30
0.0
 10
9.9868218084
 20
39.06739071
 30
0.0
  0
SPLINE
  5
362
100
AcDbEntity
  8
0
100
AcDbSpline
 62
7
  6
BYLAYER
 70
0
 71
3
 72
21
 73
17
 74
0
 42
0.0000001
 43
0.0000001
 44
0.0000000001
 40
0.0
 40
0.0
 40
0.0
 40
0.0
 40
0.1555179597
 40
0.3041914633
 40
0.3753980568
 40
0.4442487741
 40
0.5105947226
 40
0.5743410035
 40
0.6354430184
 40
0.6939186492
 40
0.7498525517
 40
0.8034081931
 40
0.8548303127
 40
0.9044496907
 40
0.9526786525
 40
1.0
 40
1.0
 40
1.0
 40
1.0
 10
13.8982046047
 20
36.152986588
 30
0.0
 10
13.7290210613
 20
36.3573865098
 30
0.0
 10
13.3794821885
 20
36.7422438509
 30
0.0
 10
12.902560516
 20
37.1716834026
 30
0.0
 10
12.5095998403
 20
37.4691646628
 30
0.0
 10
12.2164439544
 20
37.6646955577
 30
0.0
 10
11.9223418029
 20
37.8346419128
 30
0.0
 10
11.6290299832
 20
37.9780351897
 30
0.0
 10
11.3381926063
 20
38.0939797557
 30
0.0
 10
11.0515307283
 20
38.1818047796
 30
0.0
 10
10.7706920449
 20
38.2409122323
 30
0.0
 10
10.4973168997
 20
38.270925541
 30
0.0
 10
10.2330124395
 20
38.2715540591
 30
0.0
 10
9.9793538462
 20
38.2427140352
 30
0.0
 10
9.7379702569
 20
38.184479559
 30
0.0
 10
9.5852516875
 20
38.125865817
 30
0.0
 10
9.5119827665
 20
38.0919533028
 30
0.0
  0
SPLINE
  5
363
100
AcDbEntity
  8
0
100
AcDbSpline
 62
7
  6
BYLAYER
 70
0
 71
3
 72
18
 73
14
 74
0
 42
0.0000001
 43
0.0000001
 44
0.0000000001
 40
0.0
 40
0.0
 40
0.0
 40
0.0
 40
0.0976835262
 40
0.1504813195
 40
0.2059102424
 40
0.2638961641
 40
0.3242970004
 40
0.3869154118
 40
0.4515044237
 40
0.5853736932
 40
0.7233557206
 40
0.8625499799
 40
1.0
 40
1.0
 40
1.0
 40
1.0
 10
27.2743413009
 20
36.6219607634
 30
0.0
 10
27.3570881328
 20
36.8243451182
 30
0.0
 10
27.4467217583
 20
37.1523942873
 30
0.0
 10
27.5059333636
 20
37.6097055779
 30
0.0
 10
27.5220526017
 20
37.9818899978
 30
0.0
 10
27.5085424939
 20
38.3710470602
 30
0.0
 10
27.465590662
 20
38.7742360294
 30
0.0
 10
27.3935095149
 20
39.1882277862
 30
0.0
 10
27.2577668796
 20
39.7569335941
 30
0.0
 10
27.0183604349
 20
40.472755596
 30
0.0
 10
26.6342850193
 20
41.310606852
 30
0.0
 10
26.162058962
 20
42.1113608642
 30
0.0
 10
25.7932724971
 20
42.6104948323
 30
0.0
 10
25.5971031339
 20
42.8474978037
 30
0.0
  0
SPLINE
  5
364
100
AcDbEntity
  8
0
100
AcDbSpline
 62
7
  6
BYLAYER
 70
0
 71
3
 72
22
 73
18
 74
0
 42
0.0000001
 43
0.0000001
 44
0.0000000001
 40
0.0
 40
0.0
 40
0.0
 40
0.0
 40
0.1600157269
 40
0.2370653477
 40
0.3116856421
 40
0.3836148929
 40
0.452631542
 40
0.5185932338
 40
0.5814362517
 40
0.6411899737
 40
0.6979924539
 40
0.7521022229
 40
0.8039103467
 40
0.8539346211
 40
0.9028088949
 40
0.9512480966
 40
1.0
 40
1.0
 40
1.0
 40
1.0
 10
12.901260835
 20
35.502882525
 30
0.0
 10
12.7165432363
 20
35.7260499914
 30
0.0
 10
12.4251781388
 20
36.0428126736
 30
0.0
 10
12.0077596697
 20
36.422900638
 30
0.0
 10
11.691879932
 20
36.676531772
 30
0.0
 10
11.3717811682
 20
36.9003256406
 30
0.0
 10
11.0498500922
 20
37.092529806
 30
0.0
 10
10.7285659364
 20
37.2516807327
 30
0.0
 10
10.4103345996
 20
37.3765043741
 30
0.0
 10
10.0975580661
 20
37.4660054333
 30
0.0
 10
9.7925880019
 20
37.5194128805
 30
0.0
 10
9.4977358395
 20
37.5361521541
 30
0.0
 10
9.2152920345
 20
37.5159698101
 30
0.0
 10
8.947552085
 20
37.4587771103
 30
0.0
 10
8.6967755275
 20
37.3649136723
 30
0.0
 10
8.465241634
 20
37.2351097419
 30
0.0
 10
8.3260800724
 20
37.1261436159
 30
0.0
 10
8.2607783142
 20
37.0667649475
 30
0.0
  0
SPLINE
  5
365
100
AcDbEntity
  8
0
100
AcDbSpline
 62
7
  6
BYLAYER
 70
0
 71
3
 72
21
 73
17
 74
0
 42
0.0000001
 43
0.0000001
 44
0.0000000001
 40
0.0
 40
0.0
 40
0.0
 40
0.0
 40
0.0474936088
 40
0.0955913316
 40
0.1448591979
 40
0.1957971425
 40
0.2488147634
 40
0.3042283928
 40
0.3622545152
 40
0.4230217675
 40
0.4865734046
 40
0.5528826424
 40
0.6218590608
 40
0.6933534025
 40
0.8430272683
 40
1.0
 40
1.0
 40
1.0
 40
1.0
 10
20.8003001544
 20
44.5599647666
 30
0.0
 10
20.8720317038
 20
44.6013766763
 30
0.0
 10
21.0224409445
 20
44.6747341801
 30
0.0
 10
21.2633063565
 20
44.7533441838
 30
0.0
 10
21.5183527108
 20
44.8004877943
 30
0.0
 10
21.7857749517
 20
44.8158553662
 30
0.0
 10
22.0638056369
 20
44.799553063
 30
0.0
 10
22.3506438722
 20
44.7517332968
 30
0.0
 10
22.6444836289
 20
44.672842684
 30
0.0
 10
22.9434675783
 20
44.56340892
 30
0.0
 10
23.2457289195
 20
44.4241957927
 30
0.0
 10
23.5493599664
 20
44.2561019154
 30
0.0
 10
23.852446433
 20
44.060209355
 30
0.0
 10
24.2594386667
 20
43.759069653
 30
0.0
 10
24.7534461234
 20
43.3199912514
 30
0.0
 10
25.1144166246
 20
42.9240402149
 30
0.0
 10
25.288969469
 20
42.7131533459
 30
0.0
  0
SPLINE
  5
366
100
AcDbEntity
  8
0
100
AcDbSpline
 62
7
  6
BYLAYER
 70
0
 71
3
 72
25
 73
21
 74
0
 42
0.0000001
 43
0.0000001
 44
0.0000000001
 40
0.0
 40
0.0
 40
0.0
 40
0.0
 40
0.0738329985
 40
0.1486561008
 40
0.2237741785
 40
0.2985350056
 40
0.3722689335
 40
0.4443426094
 40
0.5141697824
 40
0.5812322132
 40
0.6451032142
 40
0.7054736344
 40
0.7621835835
 40
0.8152567539
 40
0.8649374603
 40
0.9117232373
 40
0.9342834602
 40
0.9564274162
 40
0.9782862422
 40
1.0
 40
1.0
 40
1.0
 40
1.0
 10
14.3408717759
 20
36.392303926
 30
0.0
 10
14.4704509735
 20
36.2357521874
 30
0.0
 10
14.7201915538
 20
35.9111490651
 30
0.0
 10
15.0619967542
 20
35.3982366816
 30
0.0
 10
15.3700319398
 20
34.8613828439
 30
0.0
 10
15.6401930841
 20
34.3078437107
 30
0.0
 10
15.8688722418
 20
33.7449288886
 30
0.0
 10
16.0530271649
 20
33.1801494178
 30
0.0
 10
16.1902136015
 20
32.6209999413
 30
0.0
 10
16.2785984356
 20
32.0748777688
 30
0.0
 10
16.3169788683
 20
31.5489771429
 30
0.0
 10
16.3047672069
 20
31.0501838079
 30
0.0
 10
16.241996612
 20
30.5850001773
 30
0.0
 10
16.1292064587
 20
30.159457791
 30
0.0
 10
15.9675352793
 20
29.7792618483
 30
0.0
 10
15.7910218961
 20
29.5011053065
 30
0.0
 10
15.6278591925
 20
29.3088695106
 30
0.0
 10
15.4963854863
 20
29.1808468697
 30
0.0
 10
15.354851736
 20
29.0677626079
 30
0.0
 10
15.2539317007
 20
29.0025228704
 30
0.0
 10
15.2021719596
 20
28.9726410438
 30
0.0
  0
SPLINE
  5
367
100
AcDbEntity
  8
0
100
AcDbSpline
 62
7
  6
BYLAYER
 70
0
 71
3
 72
21
 73
17
 74
0
 42
0.0000001
 43
0.0000001
 44
0.0000000001
 40
0.0
 40
0.0
 40
0.0
 40
0.0
 40
0.0474937594
 40
0.0955911404
 40
0.1448595599
 40
0.1957967317
 40
0.2488152288
 40
0.3042279469
 40
0.3622551225
 40
0.4230210505
 40
0.4865734884
 40
0.5528829295
 40
0.6218605143
 40
0.6933512284
 40
0.8430310187
 40
1.0
 40
1.0
 40
1.0
 40
1.0
 10
13.3293890259
 20
29.2770313728
 30
0.0
 10
13.2737453186
 20
29.2449103223
 30
0.0
 10
13.1570698688
 20
29.1880156274
 30
0.0
 10
12.9702354991
 20
29.1270187088
 30
0.0
 10
12.7723926353
 20
29.0904717302
 30
0.0
 10
12.5649537256
 20
29.0785274155
 30
0.0
 10
12.3492872196
 20
29.0911960461
 30
0.0
 10
12.1267820969
 20
29.1282685545
 30
0.0
 10
11.8988569241
 20
29.1894836594
 30
0.0
 10
11.6669279242
 20
29.2743532903
 30
0.0
 10
11.4324700979
 20
29.3823550174
 30
0.0
 10
11.196935444
 20
29.5127368695
 30
0.0
 10
10.9618403337
 20
29.6646997879
 30
0.0
 10
10.6461223003
 20
29.8982826306
 30
0.0
 10
10.2629316655
 20
30.2388872384
 30
0.0
 10
9.982921003
 20
30.5460245113
 30
0.0
 10
9.847523491
 20
30.7096056748
 30
0.0
  0
SPLINE
  5
368
100
AcDbEntity
  8
0
100
AcDbSpline
 62
7
  6
BYLAYER
 70
0
 71
3
 72
15
 73
11
 74
0
 42
0.0000001
 43
0.0000001
 44
0.0000000001
 40
0.0
 40
0.0
 40
0.0
 40
0.0
 40
0.1293672771
 40
0.2605099173
 40
0.3918460899
 40
0.52183356
 40
0.6489544628
 40
0.7718007184
 40
0.8891544134
 40
1.0
 40
1.0
 40
1.0
 40
1.0
 10
9.6906069463
 20
30.5702449658
 30
0.0
 10
9.5703036471
 20
30.7155899826
 30
0.0
 10
9.3399880674
 20
31.0183619461
 30
0.0
 10
9.0302211045
 20
31.4992504398
 30
0.0
 10
8.7578867844
 20
32.0033547556
 30
0.0
 10
8.5278014707
 20
32.5216892154
 30
0.0
 10
8.3440494753
 20
33.0451344953
 30
0.0
 10
8.2098364068
 20
33.5644954222
 30
0.0
 10
8.1275893662
 20
34.0705662147
 30
0.0
 10
8.1077629097
 20
34.4035756476
 30
0.0
 10
8.1077629097
 20
34.5652373396
 30
0.0
  0
SPLINE
  5
369
100
AcDbEntity
  8
0
100
AcDbSpline
 62
7
  6
BYLAYER
 70
0
 71
3
 72
15
 73
11
 74
0
 42
0.0000001
 43
0.0000001
 44
0.0000000001
 40
0.0
 40
0.0
 40
0.0
 40
0.0
 40
0.1508618002
 40
0.2925483327
 40
0.4252231057
 40
0.5496037694
 40
0.6670385757
 40
0.7795155903
 40
0.8895618385
 40
1.0
 40
1.0
 40
1.0
 40
1.0
 10
14.1889025214
 20
31.0543984016
 30
0.0
 10
14.1889069615
 20
30.9244142191
 30
0.0
 10
14.1768177887
 20
30.6721039871
 30
0.0
 10
14.1186561822
 20
30.3095364402
 30
0.0
 10
14.0215274381
 20
29.9788925743
 30
0.0
 10
13.8863156794
 20
29.6845137142
 30
0.0
 10
13.7143551589
 20
29.4304390833
 30
0.0
 10
13.5075090133
 20
29.2205203846
 30
0.0
 10
13.2686584886
 20
29.0583315524
 30
0.0
 10
13.0920503153
 20
28.9844970035
 30
0.0
 10
13.0011663585
 20
28.9563096052
 30
0.0
  0
SPLINE
  5
36A
100
AcDbEntity
  8
0
100
AcDbSpline
 62
7
  6
BYLAYER
 70
0
 71
3
 72
17
 73
13
 74
0
 42
0.0000001
 43
0.0000001
 44
0.0000000001
 40
0.0
 40
0.0
 40
0.0
 40
0.0
 40
0.0474415632
 40
0.0961445846
 40
0.1464692063
 40
0.1987137169
 40
0.3096949194
 40
0.4302429564
 40
0.5604576832
 40
0.6996936338
 40
0.8467574555
 40
1.0
 40
1.0
 40
1.0
 40
1.0
 10
13.0011663585
 20
28.9563096052
 30
0.0
 10
12.9425678565
 20
28.938135448
 30
0.0
 10
12.8214440495
 20
28.9085530342
 30
0.0
 10
12.6330930187
 20
28.8852011714
 30
0.0
 10
12.4371109676
 20
28.8823889452
 30
0.0
 10
12.1615988421
 20
28.9065414113
 30
0.0
 10
11.8023385025
 20
28.9909406328
 30
0.0
 10
11.3680547676
 20
29.169001535
 30
0.0
 10
10.930077756
 20
29.4217550365
 30
0.0
 10
10.4970699828
 20
29.7439218468
 30
0.0
 10
10.0776785631
 20
30.1289000011
 30
0.0
 10
9.816968346
 20
30.4175808254
 30
0.0
 10
9.6906069463
 20
30.5702449658
 30
0.0
  0
SPLINE
  5
36B
100
AcDbEntity
  8
0
100
AcDbSpline
 62
7
  6
BYLAYER
 70
0
 71
3
 72
23
 73
19
 74
0
 42
0.0000001
 43
0.0000001
 44
0.0000000001
 40
0.0
 40
0.0
 40
0.0
 40
0.0
 40
0.0457626229
 40
0.0913670247
 40
0.1378779959
 40
0.1862598233
 40
0.2372879012
 40
0.2915098335
 40
0.349245496
 40
0.4106076442
 40
0.475532546
 40
0.5438113626
 40
0.6151166429
 40
0.68902498
 40
0.7650383447
 40
0.8426046759
 40
0.9211330209
 40
1.0
 40
1.0
 40
1.0
 40
1.0
 10
13.3911715052
 20
28.1806099825
 30
0.0
 10
13.4949913108
 20
28.2137792867
 30
0.0
 10
13.6967682752
 20
28.2991952613
 30
0.0
 10
13.9709921292
 20
28.4832579462
 30
0.0
 10
14.2105853828
 20
28.7195229767
 30
0.0
 10
14.4124702413
 20
29.0043956789
 30
0.0
 10
14.5746028992
 20
29.3339434614
 30
0.0
 10
14.6954838596
 20
29.7040114182
 30
0.0
 10
14.7740430719
 20
30.1102076615
 30
0.0
 10
14.8096075068
 20
30.5478196873
 30
0.0
 10
14.8019166885
 20
31.0117986562
 30
0.0
 10
14.7511339576
 20
31.496779014
 30
0.0
 10
14.6578793446
 20
31.9971211307
 30
0.0
 10
14.5232708869
 20
32.5069803518
 30
0.0
 10
14.3489051625
 20
33.0203815403
 30
0.0
 10
14.136822292
 20
33.5313010204
 30
0.0
 10
13.8895257166
 20
34.0336810869
 30
0.0
 10
13.7030272122
 20
34.3591893354
 30
0.0
 10
13.6045640594
 20
34.5191452543
 30
0.0
  0
SPLINE
  5
36C
100
AcDbEntity
  8
0
100
AcDbSpline
 62
7
  6
BYLAYER
 70
0
 71
3
 72
15
 73
11
 74
0
 42
0.0000001
 43
0.0000001
 44
0.0000000001
 40
0.0
 40
0.0
 40
0.0
 40
0.0
 40
0.1293679291
 40
0.260508229
 40
0.3918455681
 40
0.5218335887
 40
0.6489536195
 40
0.7718037832
 40
0.8891499055
 40
1.0
 40
1.0
 40
1.0
 40
1.0
 10
18.9099145743
 20
39.2415431779
 30
0.0
 10
19.0777793639
 20
39.0387365149
 30
0.0
 10
19.3991478456
 20
38.6162711207
 30
0.0
 10
19.8313756512
 20
37.9452683818
 30
0.0
 10
20.2113803233
 20
37.2418761641
 30
0.0
 10
20.5324239438
 20
36.5186203789
 30
0.0
 10
20.7888329407
 20
35.7882329403
 30
0.0
 10
20.9760903945
 20
35.063553652
 30
0.0
 10
21.0908675129
 20
34.3574145644
 30
0.0
 10
21.118535944
 20
33.8927590272
 30
0.0
 10
21.1185325966
 20
33.6671769113
 30
0.0
  0
SPLINE
  5
36D
100
AcDbEntity
  8
0
100
AcDbSpline
 62
7
  6
BYLAYER
 70
0
 71
3
 72
23
 73
19
 74
0
 42
0.0000001
 43
0.0000001
 44
0.0000000001
 40
0.0
 40
0.0
 40
0.0
 40
0.0
 40
0.0434970686
 40
0.0885076217
 40
0.1358862268
 40
0.1862577065
 40
0.2400049998
 40
0.2972875067
 40
0.3580737951
 40
0.4221746146
 40
0.4892722426
 40
0.558946455
 40
0.6306978496
 40
0.7039690266
 40
0.7781612706
 40
0.8526444904
 40
0.9268095687
 40
1.0
 40
1.0
 40
1.0
 40
1.0
 10
14.9014619619
 20
28.7493642764
 30
0.0
 10
14.9985091362
 20
28.8174234818
 30
0.0
 10
15.1827026011
 20
28.9758440784
 30
0.0
 10
15.4147913881
 20
29.2667970477
 30
0.0
 10
15.6030940595
 20
29.6091780583
 30
0.0
 10
15.7455818784
 20
29.9981234092
 30
0.0
 10
15.8409775096
 20
30.428651636
 30
0.0
 10
15.8884226467
 20
30.8953951742
 30
0.0
 10
15.8875277992
 20
31.3926053206
 30
0.0
 10
15.8384028909
 20
31.9141401974
 30
0.0
 10
15.7417075544
 20
32.4535203265
 30
0.0
 10
15.598686703
 20
33.0040104269
 30
0.0
 10
15.4111498177
 20
33.5587116604
 30
0.0
 10
15.1814524829
 20
34.1106534473
 30
0.0
 10
14.9124831959
 20
34.6528615668
 30
0.0
 10
14.6076413029
 20
35.1785651898
 30
0.0
 10
14.2707722557
 20
35.6810311012
 30
0.0
 10
14.0253791233
 20
35.999340074
 30
0.0
 10
13.8982046047
 20
36.152986588
 30
0.0
  0
SPLINE
  5
36E
100
AcDbEntity
  8
0
100
AcDbSpline
 62
7
  6
BYLAYER
 70
0
 71
3
 72
14
 73
10
 74
0
 42
0.0000001
 43
0.0000001
 44
0.0000000001
 40
0.0
 40
0.0
 40
0.0
 40
0.0
 40
0.1440436499
 40
0.2841122197
 40
0.4192056572
 40
0.5485876543
 40
0.6716411137
 40
0.7879822935
 40
1.0
 40
1.0
 40
1.0
 40
1.0
 10
25.5971031339
 20
42.8474978037
 30
0.0
 10
25.4818395262
 20
42.9867540928
 30
0.0
 10
25.2454726728
 20
43.2541232366
 30
0.0
 10
24.8704297996
 20
43.6236595772
 30
0.0
 10
24.4831996299
 20
43.9527800728
 30
0.0
 10
24.0883832054
 20
44.2376405639
 30
0.0
 10
23.6901711273
 20
44.4750442448
 30
0.0
 10
23.1775187272
 20
44.7168346887
 30
0.0
 10
22.7764629754
 20
44.8332549706
 30
0.0
 10
22.5128257987
 20
44.8691982697
 30
0.0
  0
SPLINE
  5
36F
100
AcDbEntity
  8
0
100
AcDbSpline
 62
7
  6
BYLAYER
 70
0
 71
3
 72
24
 73
20
 74
0
 42
0.0000001
 43
0.0000001
 44
0.0000000001
 40
0.0
 40
0.0
 40
0.0
 40
0.0
 40
0.0738332233
 40
0.1486655354
 40
0.2237864171
 40
0.2985508114
 40
0.3722890972
 40
0.4443664231
 40
0.5141977312
 40
0.5812634946
 40
0.6451373255
 40
0.7055112391
 40
0.7622245534
 40
0.815300072
 40
0.8649828906
 40
0.9117714915
 40
0.9564283643
 40
0.9782868583
 40
1.0
 40
1.0
 40
1.0
 40
1.0
 10
9.847523491
 20
30.7096056748
 30
0.0
 10
9.7470135389
 20
30.8310372628
 30
0.0
 10
9.5532908831
 20
31.0828383945
 30
0.0
 10
9.2881454846
 20
31.4807028547
 30
0.0
 10
9.0491974464
 20
31.8971488315
 30
0.0
 10
8.8396369396
 20
32.3265302538
 30
0.0
 10
8.6622527344
 20
32.7631858486
 30
0.0
 10
8.5194015096
 20
33.2012878197
 30
0.0
 10
8.4129796339
 20
33.6350205501
 30
0.0
 10
8.3444262344
 20
34.0586498183
 30
0.0
 10
8.3146628464
 20
34.4665920656
 30
0.0
 10
8.3241279458
 20
34.8535064818
 30
0.0
 10
8.3728191938
 20
35.2143559897
 30
0.0
 10
8.4603064856
 20
35.5444344872
 30
0.0
 10
8.5857726473
 20
35.8393902085
 30
0.0
 10
8.7479232359
 20
36.0950724099
 30
0.0
 10
8.9136099906
 20
36.2735381977
 30
0.0
 10
9.0609845278
 20
36.3912583559
 30
0.0
 10
9.1392634143
 20
36.4418706868
 30
0.0
 10
9.1794095515
 20
36.4650495792
 30
0.0
  0
SPLINE
  5
370
100
AcDbEntity
  8
0
100
AcDbSpline
 62
7
  6
BYLAYER
 70
0
 71
3
 72
11
 73
7
 74
0
 42
0.0000001
 43
0.0000001
 44
0.0000000001
 40
0.0
 40
0.0
 40
0.0
 40
0.0
 40
0.2325814167
 40
0.4780123227
 40
0.7345773375
 40
1.0
 40
1.0
 40
1.0
 40
1.0
 10
16.8759844527
 20
41.0155273719
 30
0.0
 10
17.0580648893
 20
40.91040416
 30
0.0
 10
17.4204721429
 20
40.6734358063
 30
0.0
 10
17.9396485367
 20
40.2580542614
 30
0.0
 10
18.442278296
 20
39.7787672408
 30
0.0
 10
18.7569259916
 20
39.4263770791
 30
0.0
 10
18.9099145743
 20
39.2415431779
 30
0.0
  0
SPLINE
  5
371
100
AcDbEntity
  8
0
100
AcDbSpline
 62
7
  6
BYLAYER
 70
0
 71
3
 72
15
 73
11
 74
0
 42
0.0000001
 43
0.0000001
 44
0.0000000001
 40
0.0
 40
0.0
 40
0.0
 40
0.0
 40
0.1108500945
 40
0.2281962168
 40
0.3510463805
 40
0.4781664113
 40
0.6081544319
 40
0.739491771
 40
0.8706320709
 40
1.0
 40
1.0
 40
1.0
 40
1.0
 10
21.1185289388
 20
34.1978875846
 30
0.0
 10
21.1185319236
 20
34.3990316379
 30
0.0
 10
21.0938609059
 20
34.813349492
 30
0.0
 10
20.9915179753
 20
35.4429901784
 30
0.0
 10
20.8245467457
 20
36.0891625438
 30
0.0
 10
20.5959153901
 20
36.7404246766
 30
0.0
 10
20.3096514952
 20
37.3853277517
 30
0.0
 10
19.9708139959
 20
38.0125191458
 30
0.0
 10
19.5854108692
 20
38.6108299213
 30
0.0
 10
19.2988573064
 20
38.9875282311
 30
0.0
 10
19.1491778689
 20
39.1683641724
 30
0.0
  0
SPLINE
  5
372
100
AcDbEntity
  8
0
100
AcDbSpline
 62
7
  6
BYLAYER
 70
0
 71
3
 72
25
 73
21
 74
0
 42
0.0000001
 43
0.0000001
 44
0.0000000001
 40
0.0
 40
0.0
 40
0.0
 40
0.0
 40
0.0738329985
 40
0.1486561008
 40
0.2237741785
 40
0.2985350056
 40
0.3722689335
 40
0.4443426094
 40
0.5141697824
 40
0.5812322132
 40
0.6451032142
 40
0.7054736344
 40
0.7621835835
 40
0.8152567539
 40
0.8649374603
 40
0.9117232373
 40
0.9342834602
 40
0.9564274162
 40
0.9782862422
 40
1.0
 40
1.0
 40
1.0
 40
1.0
 10
25.288969469
 20
42.7131533459
 30
0.0
 10
25.4185486666
 20
42.5566016073
 30
0.0
 10
25.6682892469
 20
42.231998485
 30
0.0
 10
26.0100944473
 20
41.7190861015
 30
0.0
 10
26.318129633
 20
41.1822322638
 30
0.0
 10
26.5882907772
 20
40.6286931306
 30
0.0
 10
26.816969935
 20
40.0657783085
 30
0.0
 10
27.0011248581
 20
39.5009988377
 30
0.0
 10
27.1383112946
 20
38.9418493611
 30
0.0
 10
27.2266961288
 20
38.3957271887
 30
0.0
 10
27.2650765615
 20
37.8698265628
 30
0.0
 10
27.2528649001
 20
37.3710332278
 30
0.0
 10
27.1900943051
 20
36.9058495972
 30
0.0
 10
27.0773041518
 20
36.4803072109
 30
0.0
 10
26.9156329724
 20
36.1001112682
 30
0.0
 10
26.7391195892
 20
35.8219547263
 30
0.0
 10
26.5759568856
 20
35.6297189305
 30
0.0
 10
26.4444831795
 20
35.5016962896
 30
0.0
 10
26.3029494291
 20
35.3886120278
 30
0.0
 10
26.2020293939
 20
35.3233722903
 30
0.0
 10
26.1502696528
 20
35.2934904636
 30
0.0
  0
SPLINE
  5
373
100
AcDbEntity
  8
0
100
AcDbSpline
 62
7
  6
BYLAYER
 70
0
 71
3
 72
25
 73
21
 74
0
 42
0.0000001
 43
0.0000001
 44
0.0000000001
 40
0.0
 40
0.0
 40
0.0
 40
0.0
 40
0.0217137578
 40
0.0435725838
 40
0.0657165398
 40
0.0882767627
 40
0.1350625397
 40
0.1847432461
 40
0.2378164165
 40
0.2945263656
 40
0.3548967858
 40
0.4187677868
 40
0.4858302176
 40
0.5556573906
 40
0.6277310665
 40
0.7014649944
 40
0.7762258215
 40
0.8513438992
 40
0.9261670015
 40
1.0
 40
1.0
 40
1.0
 40
1.0
 10
15.9867876009
 20
28.6750830805
 30
0.0
 10
16.0448359087
 20
28.7085954095
 30
0.0
 10
16.1580172566
 20
28.7817614702
 30
0.0
 10
16.3167466963
 20
28.9085849414
 30
0.0
 10
16.4641938434
 20
29.052161735
 30
0.0
 10
16.647180053
 20
29.2677532817
 30
0.0
 10
16.8451389875
 20
29.5797045436
 30
0.0
 10
17.0264524597
 20
30.0060925167
 30
0.0
 10
17.1529460896
 20
30.4833363144
 30
0.0
 10
17.2233430184
 20
31.0050375824
 30
0.0
 10
17.2370383397
 20
31.5644319768
 30
0.0
 10
17.1939948637
 20
32.1542270712
 30
0.0
 10
17.0948716852
 20
32.7667005357
 30
0.0
 10
16.9410177377
 20
33.3937840607
 30
0.0
 10
16.734488852
 20
34.0271815981
 30
0.0
 10
16.4780262451
 20
34.6584879406
 30
0.0
 10
16.1750417843
 20
35.2792794919
 30
0.0
 10
15.829581763
 20
35.8813585622
 30
0.0
 10
15.446248828
 20
36.4565874035
 30
0.0
 10
15.1661659342
 20
36.8206282883
 30
0.0
 10
15.0208434696
 20
36.9962003317
 30
0.0
  0
SPLINE
  5
374
100
AcDbEntity
  8
0
100
AcDbSpline
 62
7
  6
BYLAYER
 70
0
 71
3
 72
11
 73
7
 74
0
 42
0.0000001
 43
0.0000001
 44
0.0000000001
 40
0.0
 40
0.0
 40
0.0
 40
0.0
 40
0.2224605835
 40
0.4617902292
 40
0.7206799047
 40
1.0
 40
1.0
 40
1.0
 40
1.0
 10
9.5663373026
 20
36.7214590125
 30
0.0
 10
9.6883649445
 20
36.7368556117
 30
0.0
 10
9.9457041723
 20
36.7408279879
 30
0.0
 10
10.3401140281
 20
36.6724286494
 30
0.0
 10
10.7481401904
 20
36.5322858401
 30
0.0
 10
11.0146705112
 20
36.3979288965
 30
0.0
 10
11.1484125939
 20
36.320713185
 30
0.0
  0
SPLINE
  5
375
100
AcDbEntity
  8
0
100
AcDbSpline
 62
7
  6
BYLAYER
 70
0
 71
3
 72
14
 73
10
 74
0
 42
0.0000001
 43
0.0000001
 44
0.0000000001
 40
0.0
 40
0.0
 40
0.0
 40
0.0
 40
0.1453015966
 40
0.2844524794
 40
0.543780744
 40
0.6647828738
 40
0.7805914055
 40
0.8919940685
 40
1.0
 40
1.0
 40
1.0
 40
1.0
 10
8.1077629097
 20
34.5652373396
 30
0.0
 10
8.1077629097
 20
34.6587356265
 30
0.0
 10
8.114105005
 20
34.8418910166
 30
0.0
 10
8.1529347278
 20
35.1898123359
 30
0.0
 10
8.2309313603
 20
35.5172339738
 30
0.0
 10
8.3521477567
 20
35.8131531565
 30
0.0
 10
8.4598240212
 20
36.0102496116
 30
0.0
 10
8.5856269986
 20
36.1861254793
 30
0.0
 10
8.6823245121
 20
36.2896841049
 30
0.0
 10
8.7331550464
 20
36.3370805116
 30
0.0
  0
SPLINE
  5
376
100
AcDbEntity
  8
0
100
AcDbSpline
 62
7
  6
BYLAYER
 70
0
 71
3
 72
11
 73
7
 74
0
 42
0.0000001
 43
0.0000001
 44
0.0000000001
 40
0.0
 40
0.0
 40
0.0
 40
0.0
 40
0.2485532177
 40
0.4952903941
 40
0.7444947395
 40
1.0
 40
1.0
 40
1.0
 40
1.0
 10
8.7331550464
 20
36.3370805116
 30
0.0
 10
8.7896375365
 20
36.3897470261
 30
0.0
 10
8.9105185971
 20
36.4862033098
 30
0.0
 10
9.1130055525
 20
36.6000480059
 30
0.0
 10
9.3331079763
 20
36.6807438059
 30
0.0
 10
9.487574563
 20
36.7115212777
 30
0.0
 10
9.5663373026
 20
36.7214590125
 30
0.0
  0
SPLINE
  5
377
100
AcDbEntity
  8
0
100
AcDbSpline
 62
7
  6
BYLAYER
 70
0
 71
3
 72
11
 73
7
 74
0
 42
0.0000001
 43
0.0000001
 44
0.0000000001
 40
0.0
 40
0.0
 40
0.0
 40
0.0
 40
0.2224420291
 40
0.4618007538
 40
0.720675398
 40
1.0
 40
1.0
 40
1.0
 40
1.0
 10
51.6499682278
 20
62.9258749201
 30
0.0
 10
51.8202248207
 20
62.947356713
 30
0.0
 10
52.1793090061
 20
62.9528772913
 30
0.0
 10
52.7296504485
 20
62.8574740608
 30
0.0
 10
53.2989921831
 20
62.6618939276
 30
0.0
 10
53.6709013804
 20
62.4744520311
 30
0.0
 10
53.8575151388
 20
62.3666976985
 30
0.0
  0
SPLINE
  5
378
100
AcDbEntity
  8
0
100
AcDbSpline
 62
7
  6
BYLAYER
 70
0
 71
3
 72
15
 73
11
 74
0
 42
0.0000001
 43
0.0000001
 44
0.0000000001
 40
0.0
 40
0.0
 40
0.0
 40
0.0
 40
0.1299859415
 40
0.2613851445
 40
0.3927102292
 40
0.5225205279
 40
0.649379262
 40
0.7719769491
 40
0.8891601698
 40
1.0
 40
1.0
 40
1.0
 40
1.0
 10
56.0713894994
 20
60.4393363008
 30
0.0
 10
56.2262878726
 20
60.2451394373
 30
0.0
 10
56.5224968128
 20
59.8422027446
 30
0.0
 10
56.9204168321
 20
59.205114153
 30
0.0
 10
57.2694759577
 20
58.5403241931
 30
0.0
 10
57.5638796176
 20
57.8590163422
 30
0.0
 10
57.7986736014
 20
57.1724912083
 30
0.0
 10
57.9699424269
 20
56.4921759273
 30
0.0
 10
58.0748273806
 20
55.829465688
 30
0.0
 10
58.1000630337
 20
55.3934625201
 30
0.0
 10
58.1000574087
 20
55.1816444967
 30
0.0
  0
SPLINE
  5
379
100
AcDbEntity
  8
0
100
AcDbSpline
 62
7
  6
BYLAYER
 70
0
 71
3
 72
11
 73
7
 74
0
 42
0.0000001
 43
0.0000001
 44
0.0000000001
 40
0.0
 40
0.0
 40
0.0
 40
0.0
 40
0.2673159802
 40
0.5203352529
 40
0.7629267493
 40
1.0
 40
1.0
 40
1.0
 40
1.0
 10
26.1711806545
 20
35.2074953976
 30
0.0
 10
26.3121732788
 20
35.1851301229
 30
0.0
 10
26.590101752
 20
35.1601139024
 30
0.0
 10
26.9984351801
 20
35.1876022443
 30
0.0
 10
27.3803734281
 20
35.2815663718
 30
0.0
 10
27.6150685835
 20
35.3886330511
 30
0.0
 10
27.7247087086
 20
35.4519405204
 30
0.0
  0
SPLINE
  5
37A
100
AcDbEntity
  8
0
100
AcDbSpline
 62
7
  6
BYLAYER
 70
0
 71
3
 72
15
 73
11
 74
0
 42
0.0000001
 43
0.0000001
 44
0.0000000001
 40
0.0
 40
0.0
 40
0.0
 40
0.0
 40
0.1486048756
 40
0.2894990555
 40
0.4227228722
 40
0.5486415478
 40
0.6680011944
 40
0.7819377907
 40
0.8919873963
 40
1.0
 40
1.0
 40
1.0
 40
1.0
 10
58.1000625588
 20
55.0183465769
 30
0.0
 10
58.1000585037
 20
54.8620641511
 30
0.0
 10
58.0874756234
 20
54.5573973813
 30
0.0
 10
58.0274844261
 20
54.1161954793
 30
0.0
 10
57.9273216031
 20
53.7066953317
 30
0.0
 10
57.7876970152
 20
53.3328386116
 30
0.0
 10
57.6097625155
 20
52.9982279557
 30
0.0
 10
57.3947985503
 20
52.7063378685
 30
0.0
 10
57.144916389
 20
52.460354958
 30
0.0
 10
56.955758606
 20
52.3284006711
 30
0.0
 10
56.8573868018
 20
52.2715996599
 30
0.0
  0
SPLINE
  5
37B
100
AcDbEntity
  8
0
100
AcDbSpline
 62
7
  6
BYLAYER
 70
0
 71
3
 72
11
 73
7
 74
0
 42
0.0000001
 43
0.0000001
 44
0.0000000001
 40
0.0
 40
0.0
 40
0.0
 40
0.0
 40
0.2325802766
 40
0.4780002557
 40
0.734607181
 40
1.0
 40
1.0
 40
1.0
 40
1.0
 10
53.9989322776
 20
62.2850435919
 30
0.0
 10
54.1749366809
 20
62.183415374
 30
0.0
 10
54.5252645413
 20
61.9543694967
 30
0.0
 10
55.0271534548
 20
61.5528136364
 30
0.0
 10
55.5130141147
 20
61.0894881786
 30
0.0
 10
55.8171925731
 20
60.7488482819
 30
0.0
 10
55.9650647358
 20
60.5701958083
 30
0.0
  0
SPLINE
  5
37C
100
AcDbEntity
  8
0
100
AcDbSpline
 62
7
  6
BYLAYER
 70
0
 71
3
 72
9
 73
5
 74
0
 42
0.0000001
 43
0.0000001
 44
0.0000000001
 40
0.0
 40
0.0
 40
0.0
 40
0.0
 40
0.493694339
 40
1.0
 40
1.0
 40
1.0
 40
1.0
 10
50.9860853832
 20
62.7320833558
 30
0.0
 10
51.0888638812
 20
62.7818437375
 30
0.0
 10
51.3060755071
 20
62.8648569901
 30
0.0
 10
51.5337817245
 20
62.9112153151
 30
0.0
 10
51.6499682278
 20
62.9258749201
 30
0.0
  0
SPLINE
  5
37D
100
AcDbEntity
  8
0
100
AcDbSpline
 62
7
  6
BYLAYER
 70
0
 71
3
 72
11
 73
7
 74
0
 42
0.0000001
 43
0.0000001
 44
0.0000000001
 40
0.0
 40
0.0
 40
0.0
 40
0.0
 40
0.2369095174
 40
0.4794134617
 40
0.7324732169
 40
1.0
 40
1.0
 40
1.0
 40
1.0
 10
21.7247480961
 20
45.8442391787
 30
0.0
 10
21.6143022695
 20
45.7804664881
 30
0.0
 10
21.4027147948
 20
45.6294895688
 30
0.0
 10
21.1288599109
 20
45.342887224
 30
0.0
 10
20.9000115067
 20
44.9995001609
 30
0.0
 10
20.7827204285
 20
44.7436617534
 30
0.0
 10
20.7316751083
 20
44.6089940679
 30
0.0
  0
SPLINE
  5
37E
100
AcDbEntity
  8
0
100
AcDbSpline
 62
7
  6
BYLAYER
 70
0
 71
3
 72
14
 73
10
 74
0
 42
0.0000001
 43
0.0000001
 44
0.0000000001
 40
0.0
 40
0.0
 40
0.0
 40
0.0
 40
0.2604108359
 40
0.3912916718
 40
0.5207819719
 40
0.6475487905
 40
0.7703672338
 40
0.8881506046
 40
1.0
 40
1.0
 40
1.0
 40
1.0
 10
56.0340225763
 20
60.4162607592
 30
0.0
 10
56.3420639051
 20
60.0257792535
 30
0.0
 10
56.7614386578
 20
59.4029600918
 30
0.0
 10
57.2257129696
 20
58.5227081826
 30
0.0
 10
57.5225006586
 20
57.8446892267
 30
0.0
 10
57.7624026383
 20
57.1608594796
 30
0.0
 10
57.9417619006
 20
56.4817004178
 30
0.0
 10
58.0578049176
 20
55.8177957281
 30
0.0
 10
58.0926952209
 20
55.3797446254
 30
0.0
 10
58.0981597365
 20
55.1661935269
 30
0.0
  0
SPLINE
  5
37F
100
AcDbEntity
  8
0
100
AcDbSpline
 62
7
  6
BYLAYER
 70
0
 71
3
 72
23
 73
19
 74
0
 42
0.0000001
 43
0.0000001
 44
0.0000000001
 40
0.0
 40
0.0
 40
0.0
 40
0.0
 40
0.0829476767
 40
0.1637531256
 40
0.2418361163
 40
0.3168032626
 40
0.3883307224
 40
0.4561794583
 40
0.5202592698
 40
0.5806354883
 40
0.6375579488
 40
0.6914881677
 40
0.7431036774
 40
0.7932838788
 40
0.8430452358
 40
0.8934476551
 40
0.9454858817
 40
1.0
 40
1.0
 40
1.0
 40
1.0
 10
26.5495451077
 20
43.5872390073
 30
0.0
 10
26.426544321
 20
43.7358430068
 30
0.0
 10
26.174460683
 20
44.0217095761
 30
0.0
 10
25.7752405177
 20
44.418451326
 30
0.0
 10
25.3631666481
 20
44.7741281254
 30
0.0
 10
24.9427296252
 20
45.0848904599
 30
0.0
 10
24.5183303237
 20
45.3475490208
 30
0.0
 10
24.09432976
 20
45.5591980034
 30
0.0
 10
23.6751682135
 20
45.7175980043
 30
0.0
 10
23.265120456
 20
45.8208879777
 30
0.0
 10
22.8684188819
 20
45.8677263534
 30
0.0
 10
22.4892455234
 20
45.8572623059
 30
0.0
 10
22.1318411106
 20
45.7890354477
 30
0.0
 10
21.8004937679
 20
45.66350932
 30
0.0
 10
21.4994832019
 20
45.4818913651
 30
0.0
 10
21.2326014204
 20
45.2465693101
 30
0.0
 10
21.0029577125
 20
44.960788691
 30
0.0
 10
20.8795021144
 20
44.7446847998
 30
0.0
 10
20.8243334382
 20
44.6305383932
 30
0.0
  0
SPLINE
  5
380
100
AcDbEntity
  8
0
100
AcDbSpline
 62
7
  6
BYLAYER
 70
0
 71
3
 72
27
 73
23
 74
0
 42
0.0000001
 43
0.0000001
 44
0.0000000001
 40
0.0
 40
0.0
 40
0.0
 40
0.0
 40
0.0492233859
 40
0.0727933924
 40
0.0958812424
 40
0.1186887821
 40
0.1414319953
 40
0.164329087
 40
0.1875919707
 40
0.211414685
 40
0.2359688665
 40
0.2877568579
 40
0.3438072661
 40
0.4044477218
 40
0.4696220843
 40
0.5389708294
 40
0.6119002423
 40
0.6876418778
 40
0.7653089791
 40
0.8439223073
 40
0.9225010678
 40
1.0
 40
1.0
 40
1.0
 40
1.0
 10
26.2459515186
 20
35.277444884
 30
0.0
 10
26.4135119216
 20
35.266521481
 30
0.0
 10
26.6640813469
 20
35.273337286
 30
0.0
 10
26.98554937
 20
35.3365394806
 30
0.0
 10
27.2118586211
 20
35.4087018881
 30
0.0
 10
27.4254146368
 20
35.5060703281
 30
0.0
 10
27.6251378699
 20
35.6281232201
 30
0.0
 10
27.8100069608
 20
35.7741858526
 30
0.0
 10
27.979015885
 20
35.9435413508
 30
0.0
 10
28.1314286008
 20
36.1352166688
 30
0.0
 10
28.3146651734
 20
36.4242818554
 30
0.0
 10
28.496971471
 20
36.8406579416
 30
0.0
 10
28.634989838
 20
37.4008912679
 30
0.0
 10
28.6949723434
 20
38.0202764034
 30
0.0
 10
28.6762635305
 20
38.687260611
 30
0.0
 10
28.5795206006
 20
39.3895554926
 30
0.0
 10
28.406661322
 20
40.1140188394
 30
0.0
 10
28.160988257
 20
40.8470103752
 30
0.0
 10
27.847167745
 20
41.5745997342
 30
0.0
 10
27.4711972557
 20
42.2830660872
 30
0.0
 10
27.0402173768
 20
42.9587291024
 30
0.0
 10
26.7181153471
 20
43.3835800517
 30
0.0
 10
26.5495451077
 20
43.5872390073
 30
0.0
  0
SPLINE
  5
381
100
AcDbEntity
  8
0
100
AcDbSpline
 62
7
  6
BYLAYER
 70
0
 71
3
 72
17
 73
13
 74
0
 42
0.0000001
 43
0.0000001
 44
0.0000000001
 40
0.0
 40
0.0
 40
0.0
 40
0.0
 40
0.1570329619
 40
0.3067830496
 40
0.447238153
 40
0.5770674791
 40
0.6957943117
 40
0.8041183553
 40
0.8550785523
 40
0.9043673917
 40
0.9524860681
 40
1.0
 40
1.0
 40
1.0
 40
1.0
 10
26.7587671674
 20
43.7730532859
 30
0.0
 10
26.5630163868
 20
44.0095505448
 30
0.0
 10
26.1581407859
 20
44.4536483872
 30
0.0
 10
25.5033296115
 20
45.0356401117
 30
0.0
 10
24.8281848886
 20
45.506846634
 30
0.0
 10
24.1490812005
 20
45.8552992897
 30
0.0
 10
23.4822581318
 20
46.0718191499
 30
0.0
 10
22.9380523858
 20
46.1374462345
 30
0.0
 10
22.5300491383
 20
46.1139904108
 30
0.0
 10
22.2440043475
 20
46.0611083477
 30
0.0
 10
21.9738768008
 20
45.9729570071
 30
0.0
 10
21.8051911189
 20
45.8906879052
 30
0.0
 10
21.7247480961
 20
45.8442391787
 30
0.0
  0
SPLINE
  5
382
100
AcDbEntity
  8
0
100
AcDbSpline
 62
7
  6
BYLAYER
 70
0
 71
3
 72
11
 73
7
 74
0
 42
0.0000001
 43
0.0000001
 44
0.0000000001
 40
0.0
 40
0.0
 40
0.0
 40
0.0
 40
0.2341529001
 40
0.4799808632
 40
0.7359903922
 40
1.0
 40
1.0
 40
1.0
 40
1.0
 10
53.993513359
 20
62.2856514161
 30
0.0
 10
54.1633408709
 20
62.1813005016
 30
0.0
 10
54.5008956524
 20
61.9498383552
 30
0.0
 10
54.9850315238
 20
61.5510828057
 30
0.0
 10
55.453770155
 20
61.0970604994
 30
0.0
 10
55.748145133
 20
60.7658411724
 30
0.0
 10
55.8914452606
 20
60.5927124254
 30
0.0
  0
SPLINE
  5
383
100
AcDbEntity
  8
0
100
AcDbSpline
 62
7
  6
BYLAYER
 70
0
 71
3
 72
23
 73
19
 74
0
 42
0.0000001
 43
0.0000001
 44
0.0000000001
 40
0.0
 40
0.0
 40
0.0
 40
0.0
 40
0.043522869
 40
0.0881819439
 40
0.1349725221
 40
0.1846577541
 40
0.2377369698
 40
0.2944529631
 40
0.3548293335
 40
0.4187073167
 40
0.4857766035
 40
0.5556107188
 40
0.6276921029
 40
0.7014350642
 40
0.7762012598
 40
0.8513257104
 40
0.9261684616
 40
1.0
 40
1.0
 40
1.0
 40
1.0
 10
27.7247087086
 20
35.4519405204
 30
0.0
 10
27.8410433209
 20
35.5191134636
 30
0.0
 10
28.0635246433
 20
35.6796263199
 30
0.0
 10
28.3484732588
 20
35.9868288054
 30
0.0
 10
28.5830137797
 20
36.3565314621
 30
0.0
 10
28.7643987694
 20
36.7829527331
 30
0.0
 10
28.8908622312
 20
37.2601888816
 30
0.0
 10
28.9612593514
 20
37.7818937892
 30
0.0
 10
28.9749656446
 20
38.3412871296
 30
0.0
 10
28.9319112457
 20
38.9310812447
 30
0.0
 10
28.8327900975
 20
39.5435533744
 30
0.0
 10
28.6789500031
 20
40.1706393506
 30
0.0
 10
28.472406368
 20
40.8040361483
 30
0.0
 10
28.2159353283
 20
41.435334785
 30
0.0
 10
27.9129788639
 20
42.0561306176
 30
0.0
 10
27.5675009842
 20
42.6582285013
 30
0.0
 10
27.1841455162
 20
43.2334456397
 30
0.0
 10
26.9040715181
 20
43.597503127
 30
0.0
 10
26.7587671674
 20
43.7730532859
 30
0.0
  0
ELLIPSE
  5
384
100
AcDbEntity
  8
0
100
AcDbEllipse
 62
7
  6
BYLAYER
 10
48.8741084507
 20
54.7644450465
 30
0.0
 11
-3.6066470397
 21
7.2086009469
 31
0.0
 40
0.2453828282
 41
-3.3910696436
 42
-3.3283357449
  0
ELLIPSE
  5
385
100
AcDbEntity
  8
0
100
AcDbEllipse
 62
7
  6
BYLAYER
 10
49.079139889
 20
54.4197159998
 30
0.0
 11
-4.71510858
 21
6.5698679073
 31
0.0
 40
0.2404175762
 41
-3.6158708971
 42
-3.5531369984
  0
ELLIPSE
  5
386
100
AcDbEntity
  8
0
100
AcDbEllipse
 62
7
  6
BYLAYER
 10
49.3158789185
 20
54.1025920825
 30
0.0
 11
5.7735913517
 21
-5.9750700875
 31
0.0
 40
0.1991620239
 41
-0.6858284081
 42
-0.6230945094
  0
ELLIPSE
  5
387
100
AcDbEntity
  8
0
100
AcDbEllipse
 62
7
  6
BYLAYER
 10
49.5767165519
 20
53.8232659185
 30
0.0
 11
6.7370164904
 21
-5.4620904007
 31
0.0
 40
0.1341060615
 41
-0.871821364
 42
-0.8090874652
  0
ELLIPSE
  5
388
100
AcDbEntity
  8
0
100
AcDbEllipse
 62
7
  6
BYLAYER
 10
49.8532692532
 20
53.5907152804
 30
0.0
 11
7.6047994626
 21
-5.0265841444
 31
0.0
 40
0.0584246483
 41
-1.0319727013
 42
-0.9692388025
  0
ELLIPSE
  5
389
100
AcDbEntity
  8
0
100
AcDbEllipse
 62
7
  6
BYLAYER
 10
48.4897738574
 20
56.0246403127
 30
0.0
 11
-0.3625804779
 21
9.2253608163
 31
0.0
 40
0.0389576821
 41
1.0057702097
 42
1.0685041084
  0
ELLIPSE
  5
38A
100
AcDbEntity
  8
0
100
AcDbEllipse
 62
7
  6
BYLAYER
 10
48.5404241578
 20
55.6731130149
 30
0.0
 11
-1.1492953848
 21
8.7030773551
 31
0.0
 40
0.1157674235
 41
0.8513759714
 42
0.9141098701
  0
ELLIPSE
  5
38B
100
AcDbEntity
  8
0
100
AcDbEllipse
 62
7
  6
BYLAYER
 10
48.6400968162
 20
55.3089056353
 30
0.0
 11
-2.0445427629
 21
8.1361040132
 31
0.0
 40
0.1845627073
 41
0.6721415873
 42
0.734875486
  0
ELLIPSE
  5
38C
100
AcDbEntity
  8
0
100
AcDbEllipse
 62
7
  6
BYLAYER
 10
48.7855882714
 20
54.9437240988
 30
0.0
 11
-3.0619007789
 21
7.5264544388
 31
0.0
 40
0.2331297805
 41
0.46637588
 42
0.5291097787
  0
ELLIPSE
  5
38D
100
AcDbEntity
  8
0
100
AcDbEllipse
 62
7
  6
BYLAYER
 10
48.9722223083
 20
54.5893056403
 30
0.0
 11
-4.1619637824
 21
6.8874313125
 31
0.0
 40
0.247895524
 41
0.2430130202
 42
0.3057469189
  0
ELLIPSE
  5
38E
100
AcDbEntity
  8
0
100
AcDbEllipse
 62
7
  6
BYLAYER
 10
50.136648391
 20
53.4124145371
 30
0.0
 11
8.3881569032
 21
-4.6404777574
 31
0.0
 40
0.0193745784
 41
1.1084034071
 42
1.1711373058
  0
ELLIPSE
  5
38F
100
AcDbEntity
  8
0
100
AcDbEllipse
 62
7
  6
BYLAYER
 10
50.4177459265
 20
53.2940944212
 30
0.0
 11
9.0946414578
 21
-4.2727747201
 31
0.0
 40
0.0951330741
 41
1.2316034705
 42
1.2943373693
  0
ELLIPSE
  5
390
100
AcDbEntity
  8
0
100
AcDbEllipse
 62
7
  6
BYLAYER
 10
50.6875271538
 20
53.2395578385
 30
0.0
 11
9.7265685199
 21
-3.8972910534
 31
0.0
 40
0.1672994674
 41
1.3425521994
 42
1.4052860981
  0
ELLIPSE
  5
391
100
AcDbEntity
  8
0
100
AcDbEllipse
 62
7
  6
BYLAYER
 10
50.9373210821
 20
53.2505576397
 30
0.0
 11
10.2828381498
 21
-3.4931435963
 31
0.0
 40
0.2356155066
 41
1.4436328327
 42
1.5063667315
  0
ELLIPSE
  5
392
100
AcDbEntity
  8
0
100
AcDbEllipse
 62
7
  6
BYLAYER
 10
51.1590991292
 20
53.3267402821
 30
0.0
 11
10.7605510813
 21
-3.0431127334
 31
0.0
 40
0.3003714379
 41
1.5361711941
 42
1.5989050928
  0
ELLIPSE
  5
393
100
AcDbEntity
  8
0
100
AcDbEllipse
 62
7
  6
BYLAYER
 10
51.3457331661
 20
53.465657193
 30
0.0
 11
11.1558953492
 21
-2.5316571615
 31
0.0
 40
0.3620131256
 41
1.6206526796
 42
1.6833865783
  0
ELLIPSE
  5
394
100
AcDbEntity
  8
0
100
AcDbEllipse
 62
7
  6
BYLAYER
 10
51.4912246213
 20
53.6628434684
 30
0.0
 11
11.4643549843
 21
-1.9428829031
 31
0.0
 40
0.4209211904
 41
1.6968203838
 42
1.7595542825
  0
ELLIPSE
  5
395
100
AcDbEntity
  8
0
100
AcDbEllipse
 62
7
  6
BYLAYER
 10
51.5908972797
 20
53.9119613794
 30
0.0
 11
11.6801882444
 21
-1.258389704
 31
0.0
 40
0.4772521871
 41
1.7636596284
 42
1.8263935271
  0
ELLIPSE
  5
396
100
AcDbEntity
  8
0
100
AcDbEllipse
 62
7
  6
BYLAYER
 10
51.6415475801
 20
54.2050040711
 30
0.0
 11
11.7948571827
 21
-0.4550705746
 31
0.0
 40
0.5307714873
 41
1.8192944692
 42
1.8820283679
  0
ELLIPSE
  5
397
100
AcDbEntity
  8
0
100
AcDbEllipse
 62
7
  6
BYLAYER
 10
51.6415475801
 20
54.5325529105
 30
0.0
 11
11.7938114461
 21
0.4962090353
 31
0.0
 40
0.580625743
 41
1.860876915
 42
1.9236108137
  0
ELLIPSE
  5
398
100
AcDbEntity
  8
0
100
AcDbEllipse
 62
7
  6
BYLAYER
 10
51.5908972797
 20
54.8840802082
 30
0.0
 11
11.6512877389
 21
1.6276594979
 31
0.0
 40
0.6250306916
 41
1.8847385249
 42
1.9474724236
  0
ELLIPSE
  5
399
100
AcDbEntity
  8
0
100
AcDbEllipse
 62
7
  6
BYLAYER
 10
51.4912246213
 20
55.2482875878
 30
0.0
 11
11.3258556974
 21
2.9590335292
 31
0.0
 40
0.660965281
 41
1.8875136536
 42
1.9502475523
  0
ELLIPSE
  5
39A
100
AcDbEntity
  8
0
100
AcDbEllipse
 62
7
  6
BYLAYER
 10
51.3457331661
 20
55.6134691244
 30
0.0
 11
10.769371867
 21
4.4600629322
 31
0.0
 40
0.6842910997
 41
1.8692829677
 42
1.9320168664
  0
ELLIPSE
  5
39B
100
AcDbEntity
  8
0
100
AcDbEllipse
 62
7
  6
BYLAYER
 10
51.1590991292
 20
55.9678875828
 30
0.0
 11
9.9686030449
 21
6.0103936778
 31
0.0
 40
0.691060192
 41
1.8379037458
 42
1.8914794756
  0
ELLIPSE
  5
39C
100
AcDbEntity
  8
0
100
AcDbEllipse
 62
7
  6
BYLAYER
 10
49.713575511
 20
57.263098802
 30
0.0
 11
4.9329537224
 21
10.6836207232
 31
0.0
 40
0.4909110334
 41
-1.8414411537
 42
-1.778707255
  0
ELLIPSE
  5
39D
100
AcDbEntity
  8
0
100
AcDbEllipse
 62
7
  6
BYLAYER
 10
49.4437942838
 20
57.3176353847
 30
0.0
 11
4.2207639767
 21
10.8736638169
 31
0.0
 40
0.4352410711
 41
-1.7771894694
 42
-1.7144555707
  0
ELLIPSE
  5
39E
100
AcDbEntity
  8
0
100
AcDbEllipse
 62
7
  6
BYLAYER
 10
49.1940003554
 20
57.3066355835
 30
0.0
 11
3.5488150597
 21
10.9314627358
 31
0.0
 40
0.3769795809
 41
-1.7032265171
 42
-1.6404926184
  0
ELLIPSE
  5
39F
100
AcDbEntity
  8
0
100
AcDbEllipse
 62
7
  6
BYLAYER
 10
48.9722223083
 20
57.230452941
 30
0.0
 11
2.9034459426
 21
10.8721111763
 31
0.0
 40
0.3160505287
 41
-1.6207700752
 42
-1.5580361765
  0
ELLIPSE
  5
3A0
100
AcDbEntity
  8
0
100
AcDbEllipse
 62
7
  6
BYLAYER
 10
48.7855882714
 20
57.0915360302
 30
0.0
 11
2.2729000816
 21
10.7078704523
 31
0.0
 40
0.2521150975
 41
-1.530260916
 42
-1.4675270173
  0
ELLIPSE
  5
3A1
100
AcDbEntity
  8
0
100
AcDbEllipse
 62
7
  6
BYLAYER
 10
48.6400968162
 20
56.8943497547
 30
0.0
 11
1.6458003161
 21
10.4499067785
 31
0.0
 40
0.1847269141
 41
-1.4314036489
 42
-1.3686697502
  0
ELLIPSE
  5
3A2
100
AcDbEntity
  8
0
100
AcDbEllipse
 62
7
  6
BYLAYER
 10
51.2572129868
 20
55.7927481766
 30
0.0
 11
10.3972985764
 21
5.2400577578
 31
0.0
 40
0.6899187507
 41
-1.8670549939
 42
-1.8297334279
  0
ELLIPSE
  5
3A3
100
AcDbEntity
  8
0
100
AcDbEllipse
 62
7
  6
BYLAYER
 10
48.5404241578
 20
56.6452318438
 30
0.0
 11
1.0093513794
 21
10.1092829621
 31
0.0
 40
0.1135291806
 41
-1.3230983556
 42
-1.2603644569
  0
ELLIPSE
  5
3A4
100
AcDbEntity
  8
0
100
AcDbEllipse
 62
7
  6
BYLAYER
 10
48.4897738574
 20
56.352189152
 30
0.0
 11
0.3472533399
 21
9.6973413751
 31
0.0
 40
0.0385908566
 41
-1.2032519168
 42
-1.1405180181
  0
ELLIPSE
  5
3A5
100
AcDbEntity
  8
0
100
AcDbEllipse
 62
7
  6
BYLAYER
 10
51.0521815485
 20
56.1374772234
 30
0.0
 11
9.4954169501
 21
6.7472347875
 31
0.0
 40
0.6876505957
 41
-1.924895593
 42
-1.8621616943
  0
ELLIPSE
  5
3A6
100
AcDbEntity
  8
0
100
AcDbEllipse
 62
7
  6
BYLAYER
 10
50.8154425191
 20
56.4546011406
 30
0.0
 11
8.4813414634
 21
8.0475036784
 31
0.0
 40
0.6681503389
 41
-1.9475139678
 42
-1.8847800691
  0
ELLIPSE
  5
3A7
100
AcDbEntity
  8
0
100
AcDbEllipse
 62
7
  6
BYLAYER
 10
50.5546048856
 20
56.7339273046
 30
0.0
 11
7.4760303513
 21
9.0655838576
 31
0.0
 40
0.6349518649
 41
-1.9502324227
 42
-1.887498524
  0
ELLIPSE
  5
3A8
100
AcDbEntity
  8
0
100
AcDbEllipse
 62
7
  6
BYLAYER
 10
50.2780521843
 20
56.9664779427
 30
0.0
 11
6.5453965784
 21
9.8150588292
 31
0.0
 40
0.5923285981
 41
-1.9313869042
 42
-1.8686530055
  0
ELLIPSE
  5
3A9
100
AcDbEntity
  8
0
100
AcDbEllipse
 62
7
  6
BYLAYER
 10
45.6356725802
 20
50.1689718551
 30
0.0
 11
2.2729000816
 21
10.7078704523
 31
0.0
 40
0.2521150975
 41
-0.8755884233
 42
-0.8622656111
  0
ELLIPSE
  5
3AA
100
AcDbEntity
  8
0
100
AcDbEllipse
 62
7
  6
BYLAYER
 10
45.4490385433
 20
50.0300549443
 30
0.0
 11
2.9034459426
 21
10.8721111763
 31
0.0
 40
0.3160505287
 41
-0.96043821
 42
-0.9527747704
  0
ELLIPSE
  5
3AB
100
AcDbEntity
  8
0
100
AcDbEllipse
 62
7
  6
BYLAYER
 10
43.0755276854
 20
53.7948506923
 30
0.0
 11
11.1558953492
 21
-2.5316571615
 31
0.0
 40
0.3620131256
 41
1.0153912734
 42
1.0268759576
  0
ELLIPSE
  5
3AC
100
AcDbEntity
  8
0
100
AcDbEllipse
 62
7
  6
BYLAYER
 10
42.9300362302
 20
53.5976644169
 30
0.0
 11
11.4643549843
 21
-1.9428829031
 31
0.0
 40
0.4209211904
 41
1.0915589776
 42
1.1006845363
  0
ENDSEC
  0
SECTION
  2
OBJECTS
  0
DICTIONARY
  5
C
100
AcDbDictionary
280
0
281
1
  3
ACAD_GROUP
350
D
  3
ACAD_MLINESTYLE
350
17
  3
ACAD_LAYOUT
350
1A
  3
ACAD_PLOTSETTINGS
350
19
  3
ACAD_PLOTSTYLENAME
350
E
  0
DICTIONARY
  5
D
102
{ACAD_REACTORS
330
C
102
}
100
AcDbDictionary
280
0
281
1
  0
ACDBDICTIONARYWDFLT
  5
E
102
{ACAD_REACTORS
330
C
102
}
100
AcDbDictionary
281
1
  3
Normal
350
F
100
AcDbDictionaryWithDefault
340
F
  0
DICTIONARY
  5
17
102
{ACAD_REACTORS
330
C
102
}
100
AcDbDictionary
280
0
281
1
  3
Standard
350
18
  0
DICTIONARY
  5
19
102
{ACAD_REACTORS
330
C
102
}
100
AcDbDictionary
281
1
  0
DICTIONARY
  5
1A
102
{ACAD_REACTORS
330
C
102
}
100
AcDbDictionary
281
1
  3
Model
350
3AD
  3
Layout1
350
3AE
  0
ACDBPLACEHOLDER
  5
F
102
{ACAD_REACTORS
330
E
102
}
  0
MLINESTYLE
  5
18
102
{ACAD_REACTORS
330
17
102
}
100
AcDbMlineStyle
  2
STANDARD
 70
0
  3

 62
256
 51
90.0
 52
90.0
 71
2
 49
0.5
 62
256
  6
BYLAYER
 49
-0.5
 62
256
  6
BYLAYER
  0
LAYOUT
  5
3AD
102
{ACAD_REACTORS
330
1A
102
}
100
AcDbPlotSettings
  1

  2
none_device
  4

  6

 40
0.0
 41
0.0
 42
0.0
 43
0.0
 44
210.0
 45
297.0
 46
0.0
 47
0.0
 48
0.0
 49
0.0
140
0.0
141
0.0
142
1.0
143
1.0
 70
1024
 72
1
 73
0
 74
0
  7

 75
0
147
1.0
148
0.0
149
0.0
100
AcDbLayout
  1
Model
 70
0
 71
0
 10
0.0
 20
0.0
 11
210.0
 21
297.0
 12
0.0
 22
0.0
 32
0.0
 14
0.0
 24
0.0
 34
0.0
 15
0.0
 25
0.0
 35
0.0
146
0.0
 13
0.0
 23
0.0
 33
0.0
 16
1.0
 26
0.0
 36
0.0
 17
0.0
 27
1.0
 37
0.0
 76
0
330
210
345
0
346
0
  0
LAYOUT
  5
3AE
102
{ACAD_REACTORS
330
1A
102
}
100
AcDbPlotSettings
  1

  2
none_device
  4

  6

 40
0.0
 41
0.0
 42
0.0
 43
0.0
 44
210.0
 45
297.0
 46
0.0
 47
0.0
 48
0.0
 49
0.0
140
0.0
141
0.0
142
1.0
143
1.0
 70
0
 72
1
 73
0
 74
0
  7

 75
0
147
1.0
148
0.0
149
0.0
100
AcDbLayout
  1
Layout1
 70
0
 71
1
 10
0.0
 20
0.0
 11
210.0
 21
297.0
 12
0.0
 22
0.0
 32
0.0
 14
0.0
 24
0.0
 34
0.0
 15
0.0
 25
0.0
 35
0.0
146
0.0
 13
0.0
 23
0.0
 33
0.0
 16
1.0
 26
0.0
 36
0.0
 17
0.0
 27
1.0
 37
0.0
 76
0
330
211
345
0
346
0
  0
ENDSEC
  0
EOF
