999
DXF file: C:\Users\sesa63760\Dev\_Creo\CAD\MCADID0003853_3D-CAD\drw0001_1.dxf
999
Pro/ENGINEER 2019471 by Parametric Technology Corporation
  0
SECTION
  2
HEADER
  9
$ACADVER
  1
AC1024
  9
$DWGCODEPAGE
  3
ANSI_1252
  9
$EXTMAX
 10
42.4561139703
 20
60.0450754723
 30
0.0
  9
$EXTMIN
 10
0.0
 20
0.0
 30
0.0
  9
$LIMMIN
 10
0.0
 20
0.0
  9
$LIMMAX
 10
42.4561139703
 20
60.0450754723
  9
$VIEWCTR
 10
21.2280569852
 20
30.0225377362
  9
$VIEWSIZE
 40
60.0450754723
  9
$CLAYER
  8
0
  9
$LTSCALE
 40
3.9140493641
  9
$CELTYPE
  6
BYLAYER
  9
$DIMSCALE
 40
1.0
  9
$DIMASZ
 40
0.5054299282
  9
$DIMEXO
 40
1.0
  9
$DIMDLI
 40
2.7042522879
  9
$DIMEXE
 40
1.0
  9
$DIMCEN
 40
0.640480805
  9
$DIMLFAC
 40
1.0
  9
$DIMBLK
  1
_FILLED
  9
$DIMALT
 70
0
  9
$DIMALTF
 40
0.0393700787
  9
$DIMTXT
 40
0.7076018995
  9
$DIMTOL
 70
1
  9
$DIMLIM
 70
0
  9
$DIMTFAC
 40
1.0
  9
$DIMTP
 40
0.01
  9
$DIMTM
 40
0.01
  9
$DIMGAP
 40
0.625
  9
$DIMDSEP
 70
46
  9
$AUNITS
 70
0
  9
$PDMODE
 70
3
  9
$PDSIZE
 40
0.3125
  9
$HANDSEED
  5
289
  9
$TILEMODE
 70
1
  9
$MEASUREMENT
 70
1
  9
$INSUNITS
 70
4
  0
ENDSEC
  0
SECTION
  2
CLASSES
  0
CLASS
  1
ACDBDICTIONARYWDFLT
  2
AcDbDictionaryWithDefault
  3
AutoCAD 2000
 90
0
 91
1
280
0
281
0
  0
CLASS
  1
ACDBPLACEHOLDER
  2
AcDbPlaceHolder
  3
AutoCAD 2000
 90
0
 91
1
280
0
281
0
  0
CLASS
  1
LAYOUT
  2
AcDbLayout
  3
AutoCAD 2000
 90
0
 91
0
280
0
281
0
  0
ENDSEC
  0
SECTION
  2
TABLES
  0
TABLE
  2
VPORT
  5
8
100
AcDbSymbolTable
 70
2
  0
VPORT
  5
1F4
100
AcDbSymbolTableRecord
100
AcDbViewportTableRecord
  2
*ACTIVE
 70
0
 10
0.0
 20
0.0
 11
1.0
 21
1.0
 12
21.2280569852
 22
30.0225377362
 13
0.0
 23
0.0
 14
1.0
 24
1.0
 15
0.0
 25
0.0
 16
0.0
 26
0.0
 36
1.0
 17
0.0
 27
0.0
 37
0.0
 40
60.0450754723
 41
0.7070707071
 42
50.0
 43
0.0
 44
0.0
 50
0.0
 51
0.0
 71
0
 72
100
 73
1
 74
1
 75
0
 76
0
 77
0
 78
0
  0
ENDTAB
  0
TABLE
  2
LTYPE
  5
5
100
AcDbSymbolTable
 70
6
  0
LTYPE
  5
14
100
AcDbSymbolTableRecord
100
AcDbLinetypeTableRecord
  2
BYBLOCK
 70
0
  3

 72
65
 73
0
 40
0.0
  0
LTYPE
  5
15
100
AcDbSymbolTableRecord
100
AcDbLinetypeTableRecord
  2
BYLAYER
 70
0
  3

 72
65
 73
0
 40
0.0
  0
LTYPE
  5
16
100
AcDbSymbolTableRecord
100
AcDbLinetypeTableRecord
  2
CONTINUOUS
 70
64
  3
Solid line
 72
65
 73
0
 40
0.0
  0
LTYPE
  5
1F5
100
AcDbSymbolTableRecord
100
AcDbLinetypeTableRecord
  2
CENTER
 70
64
  3
____ _ ____ _ ____ _ ____ _ ____ _ ____ _ ____
 72
65
 73
4
 40
0.6
 49
0.375
 74
0
 49
-0.075
 74
0
 49
0.075
 74
0
 49
-0.075
 74
0
  0
LTYPE
  5
1F6
100
AcDbSymbolTableRecord
100
AcDbLinetypeTableRecord
  2
HIDDEN
 70
64
  3
- - - - - - - - - - - - - - - - - - - -
 72
65
 73
2
 40
0.2
 49
0.1
 74
0
 49
-0.1
 74
0
  0
LTYPE
  5
1F7
100
AcDbSymbolTableRecord
100
AcDbLinetypeTableRecord
  2
PHANTOM
 70
64
  3
_____ _ _ _____ _ _ _____ _ _ _____
 72
65
 73
6
 40
0.8
 49
0.45
 74
0
 49
-0.05
 74
0
 49
0.1
 74
0
 49
-0.05
 74
0
 49
0.1
 74
0
 49
-0.05
 74
0
  0
LTYPE
  5
1F8
100
AcDbSymbolTableRecord
100
AcDbLinetypeTableRecord
  2
DOT
 70
64
  3
. . . . . . . . . . . . . . . . . . . .
 72
65
 73
2
 40
0.2
 49
0.1
 74
0
 49
-0.1
 74
0
  0
LTYPE
  5
1F9
100
AcDbSymbolTableRecord
100
AcDbLinetypeTableRecord
  2
DASHED
 70
64
  3
- - - - - - - - - - - - - - - - - - - -
 72
65
 73
2
 40
0.2
 49
0.1
 74
0
 49
-0.1
 74
0
  0
ENDTAB
  0
TABLE
  2
LAYER
  5
2
100
AcDbSymbolTable
 70
36
  0
LAYER
  5
10
100
AcDbSymbolTableRecord
100
AcDbLayerTableRecord
  2
0
 70
0
 62
7
  6
CONTINUOUS
370
-3
390
F
  0
LAYER
  5
1FA
100
AcDbSymbolTableRecord
100
AcDbLayerTableRecord
  2
DEFAULT_1
 70
0
 62
7
  6
CENTER
370
-3
390
F
  0
LAYER
  5
1FB
100
AcDbSymbolTableRecord
100
AcDbLayerTableRecord
  2
DEFAULT_2
 70
0
 62
7
  6
HIDDEN
370
-3
390
F
  0
LAYER
  5
1FC
100
AcDbSymbolTableRecord
100
AcDbLayerTableRecord
  2
DEFAULT_3
 70
0
 62
7
  6
PHANTOM
370
-3
390
F
  0
LAYER
  5
1FD
100
AcDbSymbolTableRecord
100
AcDbLayerTableRecord
  2
00_COMPONENTS
 70
0
 62
7
  6
CONTINUOUS
370
-3
390
F
  0
LAYER
  5
1FE
100
AcDbSymbolTableRecord
100
AcDbLayerTableRecord
  2
01_1_DEFAULT_DATUMS
 70
0
 62
7
  6
CONTINUOUS
370
-3
390
F
  0
LAYER
  5
1FF
100
AcDbSymbolTableRecord
100
AcDbLayerTableRecord
  2
01_PLANES
 70
0
 62
7
  6
CONTINUOUS
370
-3
390
F
  0
LAYER
  5
200
100
AcDbSymbolTableRecord
100
AcDbLayerTableRecord
  2
02_COORD_SYS
 70
0
 62
7
  6
CONTINUOUS
370
-3
390
F
  0
LAYER
  5
201
100
AcDbSymbolTableRecord
100
AcDbLayerTableRecord
  2
03_AXES
 70
0
 62
7
  6
CONTINUOUS
370
-3
390
F
  0
LAYER
  5
202
100
AcDbSymbolTableRecord
100
AcDbLayerTableRecord
  2
04_POINTS
 70
0
 62
7
  6
CONTINUOUS
370
-3
390
F
  0
LAYER
  5
203
100
AcDbSymbolTableRecord
100
AcDbLayerTableRecord
  2
05_CURVES
 70
0
 62
7
  6
CONTINUOUS
370
-3
390
F
  0
LAYER
  5
204
100
AcDbSymbolTableRecord
100
AcDbLayerTableRecord
  2
06_SURFS
 70
0
 62
7
  6
CONTINUOUS
370
-3
390
F
  0
LAYER
  5
205
100
AcDbSymbolTableRecord
100
AcDbLayerTableRecord
  2
07_COSMETICS
 70
0
 62
7
  6
CONTINUOUS
370
-3
390
F
  0
LAYER
  5
206
100
AcDbSymbolTableRecord
100
AcDbLayerTableRecord
  2
10_NOTES
 70
0
 62
7
  6
CONTINUOUS
370
-3
390
F
  0
LAYER
  5
207
100
AcDbSymbolTableRecord
100
AcDbLayerTableRecord
  2
11_NOTES_PUB
 70
0
 62
7
  6
CONTINUOUS
370
-3
390
F
  0
LAYER
  5
208
100
AcDbSymbolTableRecord
100
AcDbLayerTableRecord
  2
13_REF_GTOL
 70
0
 62
7
  6
CONTINUOUS
370
-3
390
F
  0
LAYER
  5
209
100
AcDbSymbolTableRecord
100
AcDbLayerTableRecord
  2
16_MISC
 70
0
 62
7
  6
CONTINUOUS
370
-3
390
F
  0
LAYER
  5
20A
100
AcDbSymbolTableRecord
100
AcDbLayerTableRecord
  2
17_NO_PRINT
 70
0
 62
7
  6
CONTINUOUS
370
-3
390
F
  0
LAYER
  5
20B
100
AcDbSymbolTableRecord
100
AcDbLayerTableRecord
  2
18_DATUM_CAMS_JOINTS
 70
0
 62
7
  6
CONTINUOUS
370
-3
390
F
  0
LAYER
  5
20C
100
AcDbSymbolTableRecord
100
AcDbLayerTableRecord
  2
19_DATUM_FUNCTIONAL
 70
0
 62
7
  6
CONTINUOUS
370
-3
390
F
  0
LAYER
  5
20D
100
AcDbSymbolTableRecord
100
AcDbLayerTableRecord
  2
20_DATUM_KINEMATIC_SCHEME
 70
0
 62
7
  6
CONTINUOUS
370
-3
390
F
  0
ENDTAB
  0
TABLE
  2
STYLE
  5
3
100
AcDbSymbolTable
 70
1
  0
STYLE
  5
11
100
AcDbSymbolTableRecord
100
AcDbTextStyleTableRecord
  2
STANDARD
 70
0
 40
0.0
 41
1.0
 50
0.0
 71
0
 42
0.2
  3
ARIAL.TTF
  4

  0
STYLE
  5
20E
100
AcDbSymbolTableRecord
100
AcDbTextStyleTableRecord
  2
TEXTSTYLE_1
 70
0
 40
0.0
 41
0.8
 50
0.0
 71
0
 42
0.2
  3
gdt
  4

  0
ENDTAB
  0
TABLE
  2
VIEW
  5
6
100
AcDbSymbolTable
 70
0
  0
ENDTAB
  0
TABLE
  2
UCS
  5
7
100
AcDbSymbolTable
 70
0
  0
ENDTAB
  0
TABLE
  2
APPID
  5
9
100
AcDbSymbolTable
 70
1
  0
APPID
  5
20F
100
AcDbSymbolTableRecord
100
AcDbRegAppTableRecord
  2
ACAD
 70
0
  0
ENDTAB
  0
TABLE
  2
BLOCK_RECORD
  5
1
100
AcDbSymbolTable
 70
0
  0
BLOCK_RECORD
  5
210
100
AcDbSymbolTableRecord
100
AcDbBlockTableRecord
  2
*Model_Space
  0
BLOCK_RECORD
  5
211
100
AcDbSymbolTableRecord
100
AcDbBlockTableRecord
  2
*Paper_Space
  0
BLOCK_RECORD
  5
212
100
AcDbSymbolTableRecord
100
AcDbBlockTableRecord
  2
_FILLED
  0
ENDTAB
  0
TABLE
  2
DIMSTYLE
  5
A
100
AcDbSymbolTable
 70
1
100
AcDbDimStyleTable
 71
0
  0
DIMSTYLE
105
213
100
AcDbSymbolTableRecord
100
AcDbDimStyleTableRecord
  2
STANDARD
 70
0
  3

  4

 40
1.0
 41
0.5054299282
 42
1.0
 43
0.38
 44
1.0
 45
0.0
 46
0.0
 47
0.01
 48
0.01
140
0.7076018995
141
0.09
142
0.0
143
25.4
144
1.0
145
0.0
146
1.0
147
0.625
 71
1
 72
0
 73
0
 74
0
 75
0
 76
0
 77
1
 78
8
 79
2
170
0
171
1
172
0
173
0
174
0
175
0
176
0
177
0
178
0
270
2
179
2
271
2
272
2
273
2
274
2
275
0
280
0
281
0
282
0
283
1
284
8
285
0
286
0
287
3
288
0
340
11
278
46
341
212
342
212
343
212
344
212
  0
ENDTAB
  0
ENDSEC
  0
SECTION
  2
BLOCKS
  0
BLOCK
  5
20
100
AcDbEntity
  8
0
100
AcDbBlockBegin
  2
*Model_Space
 70
0
 10
0.0
 20
0.0
 30
0.0
  3
*Model_Space
  1

  0
ENDBLK
  5
21
100
AcDbEntity
  8
0
100
AcDbBlockEnd
  0
BLOCK
  5
1C
100
AcDbEntity
  8
0
100
AcDbBlockBegin
  2
*Paper_Space
 70
0
 10
0.0
 20
0.0
 30
0.0
  3
*Paper_Space
  1

  0
ENDBLK
  5
1D
100
AcDbEntity
  8
0
100
AcDbBlockEnd
  0
BLOCK
  5
214
100
AcDbEntity
  8
0
100
AcDbBlockBegin
  2
_FILLED
 70
64
 10
0.0
 20
0.0
  3
_FILLED
  1

  0
SOLID
  5
215
100
AcDbEntity
  8
0
  6
BYBLOCK
 62
0
100
AcDbTrace
 10
0.0
 20
0.0
 11
-1.0
 21
0.25
 12
-1.0
 22
-0.25
 13
-1.0
 23
-0.25
  0
ENDBLK
  5
216
100
AcDbEntity
  8
0
  6
BYBLOCK
 62
0
100
AcDbBlockEnd
  0
ENDSEC
  0
SECTION
  2
ENTITIES
  0
LINE
  5
217
100
AcDbEntity
  8
0
100
AcDbLine
 62
7
  6
BYLAYER
 10
8.3470082796
 20
19.2023133898
 11
8.6569024579
 21
19.2579422043
  0
LINE
  5
218
100
AcDbEntity
  8
0
100
AcDbLine
 62
7
  6
BYLAYER
 10
14.6628038745
 20
23.8191507885
 11
14.6628082904
 21
23.2067922065
  0
LINE
  5
219
100
AcDbEntity
  8
0
100
AcDbLine
 62
7
  6
BYLAYER
 10
5.4116665597
 20
24.8788888937
 11
6.2028933538
 21
25.598321612
  0
LINE
  5
21A
100
AcDbEntity
  8
0
100
AcDbLine
 62
7
  6
BYLAYER
 10
35.5630082588
 20
40.8949678741
 11
35.8914305123
 21
40.9893028402
  0
LINE
  5
21B
100
AcDbEntity
  8
0
100
AcDbLine
 62
7
  6
BYLAYER
 10
12.3647561164
 20
27.7995100232
 11
11.8344418189
 21
28.1056958799
  0
LINE
  5
21C
100
AcDbEntity
  8
0
100
AcDbLine
 62
7
  6
BYLAYER
 10
6.407437271
 20
25.7479518648
 11
6.2028933538
 21
25.5983216121
  0
LINE
  5
21D
100
AcDbEntity
  8
0
100
AcDbLine
 62
7
  6
BYLAYER
 10
7.3595149134
 20
26.8749802744
 11
9.8343783437
 21
28.303834813
  0
LINE
  5
21E
100
AcDbEntity
  8
0
100
AcDbLine
 62
7
  6
BYLAYER
 10
6.407437271
 20
25.7479518648
 11
6.5488580384
 21
25.8296006956
  0
LINE
  5
21F
100
AcDbEntity
  8
0
100
AcDbLine
 62
7
  6
BYLAYER
 10
11.3661812767
 20
28.3221922582
 11
17.6339669556
 21
31.9408784065
  0
LINE
  5
220
100
AcDbEntity
  8
0
100
AcDbLine
 62
7
  6
BYLAYER
 10
17.6339669556
 20
31.9408784065
 11
18.157188683
 21
32.0911669556
  0
LINE
  5
221
100
AcDbEntity
  8
0
100
AcDbLine
 62
7
  6
BYLAYER
 10
19.7642567913
 20
31.7736089086
 11
35.5630082588
 21
40.8949678741
  0
LINE
  5
222
100
AcDbEntity
  8
0
100
AcDbLine
 62
7
  6
BYLAYER
 10
6.4578573855
 20
23.7418198506
 11
7.6176888802
 21
24.4114448792
  0
LINE
  5
223
100
AcDbEntity
  8
0
100
AcDbLine
 62
7
  6
BYLAYER
 10
9.8343783437
 20
28.303834813
 11
10.4783435466
 21
28.4888053349
  0
LINE
  5
224
100
AcDbEntity
  8
0
100
AcDbLine
 62
7
  6
BYLAYER
 10
6.957855147
 20
22.8757931545
 11
8.3460823777
 21
23.6773064269
  0
LINE
  5
225
100
AcDbEntity
  8
0
100
AcDbLine
 62
7
  6
BYLAYER
 10
8.0034801164
 20
27.0599507964
 11
7.3595149134
 21
26.8749802744
  0
LINE
  5
226
100
AcDbEntity
  8
0
100
AcDbLine
 62
7
  6
BYLAYER
 10
21.7315146219
 20
27.7366069689
 11
21.4057864877
 21
26.9399712194
  0
LINE
  5
227
100
AcDbEntity
  8
0
100
AcDbLine
 62
7
  6
BYLAYER
 10
7.6952994045
 20
21.5985193002
 11
9.0837668381
 21
22.4001465617
  0
LINE
  5
228
100
AcDbEntity
  8
0
100
AcDbLine
 62
7
  6
BYLAYER
 10
8.195297166
 20
20.7324926041
 11
9.354434639
 21
21.4017169414
  0
LINE
  5
229
100
AcDbEntity
  8
0
100
AcDbLine
 62
7
  6
BYLAYER
 10
21.8285788625
 20
28.2542675317
 11
37.602999126
 21
37.3615789538
  0
LINE
  5
22A
100
AcDbEntity
  8
0
100
AcDbLine
 62
7
  6
BYLAYER
 10
18.157188683
 20
32.0911669556
 11
18.4389793178
 21
32.0786626477
  0
LINE
  5
22B
100
AcDbEntity
  8
0
100
AcDbLine
 62
7
  6
BYLAYER
 10
19.2917495806
 20
31.9624292035
 11
18.4389793178
 21
32.0786626477
  0
LINE
  5
22C
100
AcDbEntity
  8
0
100
AcDbLine
 62
7
  6
BYLAYER
 10
14.5929746137
 20
22.6796288404
 11
20.8839524057
 21
26.3117048816
  0
LINE
  5
22D
100
AcDbEntity
  8
0
100
AcDbLine
 62
7
  6
BYLAYER
 10
9.9074216019
 20
19.6857649918
 11
10.0488423693
 21
19.7674138226
  0
LINE
  5
22E
100
AcDbEntity
  8
0
100
AcDbLine
 62
7
  6
BYLAYER
 10
11.3594970059
 20
19.9467667053
 11
13.8343604362
 21
21.3756212438
  0
LINE
  5
22F
100
AcDbEntity
  8
0
100
AcDbLine
 62
7
  6
BYLAYER
 10
9.6755655143
 20
19.5834410883
 11
9.9074216019
 21
19.6857649918
  0
LINE
  5
230
100
AcDbEntity
  8
0
100
AcDbLine
 62
7
  6
BYLAYER
 10
8.6569034241
 20
19.2579402095
 11
9.6755655143
 21
19.5834410882
  0
LINE
  5
231
100
AcDbEntity
  8
0
100
AcDbLine
 62
7
  6
BYLAYER
 10
8.829608724
 20
19.7563124402
 11
8.4049243169
 21
19.6252164421
  0
LINE
  5
232
100
AcDbEntity
  8
0
100
AcDbLine
 62
7
  6
BYLAYER
 10
10.715531803
 20
19.7617961833
 11
11.3594970059
 21
19.9467667053
  0
ARC
  5
233
100
AcDbEntity
  8
0
100
AcDbCircle
 62
7
  6
BYLAYER
 10
5.6061926977
 20
21.2721270517
 40
6.6281292908
100
AcDbArc
 50
36.1369399067
 51
37.9732919491
  0
ARC
  5
234
100
AcDbEntity
  8
0
100
AcDbCircle
 62
7
  6
BYLAYER
 10
34.7016189741
 20
38.0626694462
 40
3.3390070385
100
AcDbArc
 50
37.1828125661
 51
37.979362478
  0
ARC
  5
235
100
AcDbEntity
  8
0
100
AcDbCircle
 62
7
  6
BYLAYER
 10
35.058292114
 20
38.2728472706
 40
2.9725688049
100
AcDbArc
 50
37.9792101929
 51
39.1531853085
  0
ARC
  5
236
100
AcDbEntity
  8
0
100
AcDbCircle
 62
7
  6
BYLAYER
 10
6.9059287687
 20
21.0795285759
 40
2.524242353
100
AcDbArc
 50
356.1757577571
 51
358.1352053677
  0
ARC
  5
237
100
AcDbEntity
  8
0
100
AcDbCircle
 62
7
  6
BYLAYER
 10
6.124028781
 20
22.4718491124
 40
2.5016127231
100
AcDbArc
 50
61.7348555529
 51
63.8550672224
  0
ARC
  5
238
100
AcDbEntity
  8
0
100
AcDbCircle
 62
7
  6
BYLAYER
 10
35.4511489096
 20
38.8614823159
 40
2.2398804717
100
AcDbArc
 50
54.0038415167
 51
55.4977040647
  0
ARC
  5
239
100
AcDbEntity
  8
0
100
AcDbCircle
 62
7
  6
BYLAYER
 10
35.9405187055
 20
38.292542232
 40
2.0849897008
100
AcDbArc
 50
0.0806432049
 51
4.4677577628
  0
ARC
  5
23A
100
AcDbEntity
  8
0
100
AcDbCircle
 62
7
  6
BYLAYER
 10
35.5607993925
 20
39.0254605827
 40
2.042636626
100
AcDbArc
 50
55.427007539
 51
59.9701026591
  0
ARC
  5
23B
100
AcDbEntity
  8
0
100
AcDbCircle
 62
7
  6
BYLAYER
 10
36.1125115059
 20
39.4610557911
 40
1.4954819423
100
AcDbArc
 50
62.5855406055
 51
64.940829729
  0
ARC
  5
23C
100
AcDbEntity
  8
0
100
AcDbCircle
 62
7
  6
BYLAYER
 10
7.1914973099
 20
24.5060084799
 40
1.4875496844
100
AcDbArc
 50
89.413775157
 51
93.0508123385
  0
ARC
  5
23D
100
AcDbEntity
  8
0
100
AcDbCircle
 62
7
  6
BYLAYER
 10
7.1837448612
 20
24.6221384211
 40
1.3711726219
100
AcDbArc
 50
92.9855909285
 51
99.8490348926
  0
ARC
  5
23E
100
AcDbEntity
  8
0
100
AcDbCircle
 62
7
  6
BYLAYER
 10
35.8594706169
 20
39.6543065107
 40
1.3448497871
100
AcDbArc
 50
70.8823762541
 51
73.2216054623
  0
ARC
  5
23F
100
AcDbEntity
  8
0
100
AcDbCircle
 62
7
  6
BYLAYER
 10
9.3069890444
 20
20.7196732651
 40
1.19578716
100
AcDbArc
 50
307.9372678677
 51
310.5755704779
  0
ARC
  5
240
100
AcDbEntity
  8
0
100
AcDbCircle
 62
7
  6
BYLAYER
 10
6.9940082663
 20
24.7315620039
 40
1.1735052246
100
AcDbArc
 50
112.3967935378
 51
119.9897689595
  0
ARC
  5
241
100
AcDbEntity
  8
0
100
AcDbCircle
 62
7
  6
BYLAYER
 10
9.3212486919
 20
20.7008325931
 40
1.1721610576
100
AcDbArc
 50
300.0052219193
 51
307.9537333829
  0
ARC
  5
242
100
AcDbEntity
  8
0
100
AcDbCircle
 62
7
  6
BYLAYER
 10
36.361111348
 20
40.0987023299
 40
0.8442899076
100
AcDbArc
 50
93.0530408749
 51
97.0713854485
  0
ARC
  5
243
100
AcDbEntity
  8
0
100
AcDbCircle
 62
7
  6
BYLAYER
 10
6.7078562662
 20
23.3088065025
 40
0.5
100
AcDbArc
 50
119.9998519061
 51
299.9998519061
  0
ARC
  5
244
100
AcDbEntity
  8
0
100
AcDbCircle
 62
7
  6
BYLAYER
 10
7.9452982853
 20
24.0232644121
 40
0.5
100
AcDbArc
 50
129.5988644059
 51
299.9998519061
  0
ARC
  5
245
100
AcDbEntity
  8
0
100
AcDbCircle
 62
7
  6
BYLAYER
 10
7.9452982853
 20
21.1655059522
 40
0.5
100
AcDbArc
 50
119.9998519061
 51
299.9998519061
  0
ARC
  5
246
100
AcDbEntity
  8
0
100
AcDbCircle
 62
7
  6
BYLAYER
 10
26.1879716055
 20
31.6406892741
 40
0.2321907705
100
AcDbArc
 50
60.0992920918
 51
73.0645881383
  0
SPLINE
  5
247
100
AcDbEntity
  8
0
100
AcDbSpline
 62
7
  6
BYLAYER
 70
0
 71
3
 72
14
 73
10
 74
0
 42
0.0000001
 43
0.0000001
 44
0.0000000001
 40
0.0
 40
0.0
 40
0.0
 40
0.0
 40
0.2849685737
 40
0.417040111
 40
0.5426431067
 40
0.6625472339
 40
0.7778021201
 40
0.8897604923
 40
1.0
 40
1.0
 40
1.0
 40
1.0
 10
9.4245504873
 20
20.9111715282
 30
0.0
 10
9.4159543288
 20
20.7830447706
 30
0.0
 10
9.3886011828
 20
20.5956666005
 30
0.0
 10
9.316213253
 20
20.3616940164
 30
0.0
 10
9.2478466709
 20
20.2054400716
 30
0.0
 10
9.1645728359
 20
20.0652931019
 30
0.0
 10
9.0668743957
 20
19.9424643147
 30
0.0
 10
8.9556015155
 20
19.8380324097
 30
0.0
 10
8.872629803
 20
19.7811517463
 30
0.0
 10
8.8296085273
 20
19.7563127809
 30
0.0
  0
SPLINE
  5
248
100
AcDbEntity
  8
0
100
AcDbSpline
 62
7
  6
BYLAYER
 70
0
 71
3
 72
24
 73
20
 74
0
 42
0.0000001
 43
0.0000001
 44
0.0000000001
 40
0.0
 40
0.0
 40
0.0
 40
0.0
 40
0.0596452189
 40
0.1227207008
 40
0.1886771111
 40
0.2569330317
 40
0.3267835875
 40
0.3974707877
 40
0.4682126336
 40
0.5382218072
 40
0.606737961
 40
0.6730523447
 40
0.7365370899
 40
0.7670641952
 40
0.7967036546
 40
0.853151181
 40
0.9057346693
 40
0.9545674406
 40
1.0
 40
1.0
 40
1.0
 40
1.0
 10
4.9253976898
 20
23.5214046515
 30
0.0
 10
4.9253976898
 20
23.4026392947
 30
0.0
 10
4.9394825911
 20
23.158143798
 30
0.0
 10
4.9979662477
 20
22.7865167783
 30
0.0
 10
5.0935609165
 20
22.4049789753
 30
0.0
 10
5.2246072005
 20
22.0199074499
 30
0.0
 10
5.3889604571
 20
21.6375813432
 30
0.0
 10
5.583897673
 20
21.2643303423
 30
0.0
 10
5.8062059432
 20
20.9063329799
 30
0.0
 10
6.0522061532
 20
20.5695088317
 30
0.0
 10
6.3178267045
 20
20.2594080332
 30
0.0
 10
6.5986818482
 20
19.9811741737
 30
0.0
 10
6.8447889866
 20
19.7770437373
 30
0.0
 10
7.045472692
 20
19.6342274969
 30
0.0
 10
7.241455682
 20
19.5095425109
 30
0.0
 10
7.4862001922
 20
19.3802860797
 30
0.0
 10
7.7812143568
 20
19.2690198197
 30
0.0
 10
8.0679399582
 20
19.2062740525
 30
0.0
 10
8.2566722175
 20
19.1974821762
 30
0.0
 10
8.3470082796
 20
19.2023133898
 30
0.0
  0
SPLINE
  5
249
100
AcDbEntity
  8
0
100
AcDbSpline
 62
7
  6
BYLAYER
 70
0
 71
3
 72
25
 73
21
 74
0
 42
0.0000001
 43
0.0000001
 44
0.0000000001
 40
0.0
 40
0.0
 40
0.0
 40
0.0
 40
0.0482702001
 40
0.0740852792
 40
0.1010761118
 40
0.1586189032
 40
0.2207676405
 40
0.2869725303
 40
0.3564247485
 40
0.4281239955
 40
0.5009532894
 40
0.5737404648
 40
0.6453157467
 40
0.714569483
 40
0.7805136013
 40
0.8423519057
 40
0.8995604536
 40
0.9263860256
 40
0.952033766
 40
1.0
 40
1.0
 40
1.0
 40
1.0
 10
7.2067169887
 20
25.9934803032
 30
0.0
 10
7.3269933936
 20
25.9923152328
 30
0.0
 10
7.511837552
 20
25.9690154017
 30
0.0
 10
7.7551468398
 20
25.9033131264
 30
0.0
 10
8.013807626
 20
25.809036906
 30
0.0
 10
8.3410072885
 20
25.6429966137
 30
0.0
 10
8.7237820598
 20
25.3801564122
 30
0.0
 10
9.0961526863
 20
25.0557166892
 30
0.0
 10
9.4493520091
 20
24.6774433058
 30
0.0
 10
9.7750296201
 20
24.2542879835
 30
0.0
 10
10.0654300729
 20
23.7963596451
 30
0.0
 10
10.3136248997
 20
23.3145955606
 30
0.0
 10
10.5136869606
 20
22.8204947196
 30
0.0
 10
10.6608395895
 20
22.325831036
 30
0.0
 10
10.7515594994
 20
21.842290989
 30
0.0
 10
10.7836441298
 20
21.3813160651
 30
0.0
 10
10.7602347896
 20
21.0171422736
 30
0.0
 10
10.709711973
 20
20.7481956246
 30
0.0
 10
10.6422900733
 20
20.5070016734
 30
0.0
 10
10.5680569112
 20
20.3373684001
 30
0.0
 10
10.5076517848
 20
20.2342308557
 30
0.0
  0
SPLINE
  5
24A
100
AcDbEntity
  8
0
100
AcDbSpline
 62
7
  6
BYLAYER
 70
0
 71
3
 72
11
 73
7
 74
0
 42
0.0000001
 43
0.0000001
 44
0.0000000001
 40
0.0
 40
0.0
 40
0.0
 40
0.0
 40
0.2599425764
 40
0.5115472469
 40
0.757284046
 40
1.0
 40
1.0
 40
1.0
 40
1.0
 10
10.5076517848
 20
20.2342308557
 30
0.0
 10
10.4786831933
 20
20.1847690041
 30
0.0
 10
10.4160815087
 20
20.0905544527
 30
0.0
 10
10.3069085561
 20
19.9636094308
 30
0.0
 10
10.1848715066
 20
19.8545551829
 30
0.0
 10
10.0951925923
 20
19.7941767123
 30
0.0
 10
10.0488420221
 20
19.7674143809
 30
0.0
  0
SPLINE
  5
24B
100
AcDbEntity
  8
0
100
AcDbSpline
 62
7
  6
BYLAYER
 70
0
 71
3
 72
11
 73
7
 74
0
 42
0.0000001
 43
0.0000001
 44
0.0000000001
 40
0.0
 40
0.0
 40
0.0
 40
0.0
 40
0.2243638316
 40
0.4648530532
 40
0.7231920607
 40
1.0
 40
1.0
 40
1.0
 40
1.0
 10
10.4783435466
 20
28.4888053349
 30
0.0
 10
10.5849362646
 20
28.4945059619
 30
0.0
 10
10.8072566713
 20
28.4849429264
 30
0.0
 10
11.1451948853
 20
28.4139613107
 30
0.0
 10
11.4929971979
 20
28.2874966438
 30
0.0
 10
11.7203877563
 20
28.1715389173
 30
0.0
 10
11.8344418189
 20
28.1056938422
 30
0.0
  0
SPLINE
  5
24C
100
AcDbEntity
  8
0
100
AcDbSpline
 62
7
  6
BYLAYER
 70
0
 71
3
 72
9
 73
5
 74
0
 42
0.0000001
 43
0.0000001
 44
0.0000000001
 40
0.0
 40
0.0
 40
0.0
 40
0.0
 40
0.4814183968
 40
1.0
 40
1.0
 40
1.0
 40
1.0
 10
35.8914305123
 20
40.9893028402
 30
0.0
 10
35.9492369096
 20
40.9923943526
 30
0.0
 10
36.0701424579
 20
40.9864368484
 30
0.0
 10
36.1879843627
 20
40.9598981332
 30
0.0
 10
36.2476894596
 20
40.9419039168
 30
0.0
  0
SPLINE
  5
24D
100
AcDbEntity
  8
0
100
AcDbSpline
 62
7
  6
BYLAYER
 70
0
 71
3
 72
9
 73
5
 74
0
 42
0.0000001
 43
0.0000001
 44
0.0000000001
 40
0.0
 40
0.0
 40
0.0
 40
0.0
 40
0.2400603092
 40
1.0
 40
1.0
 40
1.0
 40
1.0
 10
36.2999204107
 20
40.9249854352
 30
0.0
 10
36.32353242
 20
40.9168095894
 30
0.0
 10
36.4209726882
 20
40.8801157662
 30
0.0
 10
36.5145400295
 20
40.8334574817
 30
0.0
 10
36.5830406301
 20
40.7939026196
 30
0.0
  0
SPLINE
  5
24E
100
AcDbEntity
  8
0
100
AcDbSpline
 62
7
  6
BYLAYER
 70
0
 71
3
 72
15
 73
11
 74
0
 42
0.0000001
 43
0.0000001
 44
0.0000000001
 40
0.0
 40
0.0
 40
0.0
 40
0.0
 40
0.1302227225
 40
0.2618426658
 40
0.3931804728
 40
0.5228682659
 40
0.6495900872
 40
0.7720568402
 40
0.8891580658
 40
1.0
 40
1.0
 40
1.0
 40
1.0
 10
37.4013721953
 20
40.102093299
 30
0.0
 10
37.4491183412
 20
40.0409377692
 30
0.0
 10
37.5403866303
 20
39.9142006966
 30
0.0
 10
37.6630148447
 20
39.7143697784
 30
0.0
 10
37.7704289043
 20
39.5063049343
 30
0.0
 10
37.8609096084
 20
39.2935020554
 30
0.0
 10
37.9330192393
 20
39.0793467152
 30
0.0
 10
37.9855933668
 20
38.867262883
 30
0.0
 10
38.0177773392
 20
38.6607036208
 30
0.0
 10
38.0254944094
 20
38.524819837
 30
0.0
 10
38.0254917659
 20
38.458780226
 30
0.0
  0
SPLINE
  5
24F
100
AcDbEntity
  8
0
100
AcDbSpline
 62
7
  6
BYLAYER
 70
0
 71
3
 72
18
 73
14
 74
0
 42
0.0000001
 43
0.0000001
 44
0.0000000001
 40
0.0
 40
0.0
 40
0.0
 40
0.0
 40
0.0623710931
 40
0.128856441
 40
0.2704466157
 40
0.4175574884
 40
0.5618675243
 40
0.6955087454
 40
0.8127497792
 40
0.8647061868
 40
0.9125264144
 40
0.9571478736
 40
1.0
 40
1.0
 40
1.0
 40
1.0
 10
26.0825237801
 20
30.9838024582
 30
0.0
 10
26.1004656758
 20
30.9941611547
 30
0.0
 10
26.1361380009
 20
31.0180348543
 30
0.0
 10
26.2049992726
 20
31.0759320089
 30
0.0
 10
26.2833724156
 20
31.1651203026
 30
0.0
 10
26.3590157078
 20
31.2881814358
 30
0.0
 10
26.4121932901
 20
31.4197753692
 30
0.0
 10
26.4385818397
 20
31.5491498066
 30
0.0
 10
26.4361975893
 20
31.6510881175
 30
0.0
 10
26.4173539938
 20
31.72101777
 30
0.0
 10
26.3963171658
 20
31.7644920428
 30
0.0
 10
26.3682209317
 20
31.8000689856
 30
0.0
 10
26.3448353585
 20
31.8179325743
 30
0.0
 10
26.3325085839
 20
31.8250499159
 30
0.0
  0
SPLINE
  5
250
100
AcDbEntity
  8
0
100
AcDbSpline
 62
7
  6
BYLAYER
 70
0
 71
3
 72
19
 73
15
 74
0
 42
0.0000001
 43
0.0000001
 44
0.0000000001
 40
0.0
 40
0.0
 40
0.0
 40
0.0
 40
0.0558515568
 40
0.1142039672
 40
0.1748214579
 40
0.237404328
 40
0.3670131652
 40
0.4999956754
 40
0.6329769875
 40
0.7625885212
 40
0.8251662603
 40
0.8857933874
 40
0.9441751353
 40
1.0
 40
1.0
 40
1.0
 40
1.0
 10
7.2382505808
 20
24.7172612439
 30
0.0
 10
7.3116910743
 20
24.6748590335
 30
0.0
 10
7.4581427594
 20
24.5815911295
 30
0.0
 10
7.6705829664
 20
24.4220703133
 30
0.0
 10
7.8788466534
 20
24.2411262516
 30
0.0
 10
8.1514802606
 20
23.9705886897
 30
0.0
 10
8.4683557651
 20
23.5902577551
 30
0.0
 10
8.7980290231
 20
23.0867175125
 30
0.0
 10
9.0692748345
 20
22.5494384399
 30
0.0
 10
9.2402034094
 20
22.0848538584
 30
0.0
 10
9.3381991984
 20
21.7134715608
 30
0.0
 10
9.3907705473
 20
21.4425848155
 30
0.0
 10
9.422674418
 20
21.1788245119
 30
0.0
 10
9.430234596
 20
21.0053565994
 30
0.0
 10
9.430234596
 20
20.9205946892
 30
0.0
  0
SPLINE
  5
251
100
AcDbEntity
  8
0
100
AcDbSpline
 62
7
  6
BYLAYER
 70
0
 71
3
 72
9
 73
5
 74
0
 42
0.0000001
 43
0.0000001
 44
0.0000000001
 40
0.0
 40
0.0
 40
0.0
 40
0.0
 40
0.248577497
 40
1.0
 40
1.0
 40
1.0
 40
1.0
 10
25.8325389762
 20
30.9590574176
 30
0.0
 10
25.8356486593
 20
30.9572619215
 30
0.0
 10
25.848387346
 20
30.9504407991
 30
0.0
 10
25.8620088178
 20
30.9452824902
 30
0.0
 10
25.8724726491
 20
30.9423960942
 30
0.0
  0
SPLINE
  5
252
100
AcDbEntity
  8
0
100
AcDbSpline
 62
7
  6
BYLAYER
 70
0
 71
3
 72
11
 73
7
 74
0
 42
0.0000001
 43
0.0000001
 44
0.0000000001
 40
0.0
 40
0.0
 40
0.0
 40
0.0
 40
0.2195120931
 40
0.4567031506
 40
0.7166562671
 40
1.0
 40
1.0
 40
1.0
 40
1.0
 10
25.8724726491
 20
30.9423960942
 30
0.0
 10
25.8879437733
 20
30.9381284613
 30
0.0
 10
25.9214562252
 20
30.933672181
 30
0.0
 10
25.9739567284
 20
30.9390207178
 30
0.0
 10
26.0287957436
 20
30.9558337497
 30
0.0
 10
26.0645833559
 20
30.9734446113
 30
0.0
 10
26.0825237801
 20
30.9838024582
 30
0.0
  0
SPLINE
  5
253
100
AcDbEntity
  8
0
100
AcDbSpline
 62
7
  6
BYLAYER
 70
0
 71
3
 72
23
 73
19
 74
0
 42
0.0000001
 43
0.0000001
 44
0.0000000001
 40
0.0
 40
0.0
 40
0.0
 40
0.0
 40
0.0509141595
 40
0.103946871
 40
0.1596629511
 40
0.2183599799
 40
0.2800437566
 40
0.3444700298
 40
0.4111839866
 40
0.4795693768
 40
0.5489045159
 40
0.6184054272
 40
0.6872811175
 40
0.75477594
 40
0.8202262991
 40
0.8830990106
 40
0.9430608696
 40
1.0
 40
1.0
 40
1.0
 40
1.0
 10
38.0260381605
 20
37.9997036961
 30
0.0
 10
38.0573436926
 20
38.0491972937
 30
0.0
 10
38.1111910086
 20
38.1568804918
 30
0.0
 10
38.1636439939
 20
38.3336653906
 30
0.0
 10
38.1902005677
 20
38.5250676933
 30
0.0
 10
38.1919769301
 20
38.7280976208
 30
0.0
 10
38.1697281915
 20
38.9399081204
 30
0.0
 10
38.1243808648
 20
39.1573640901
 30
0.0
 10
38.0569540438
 20
39.3770518696
 30
0.0
 10
37.9688317054
 20
39.5953610196
 30
0.0
 10
37.8615683036
 20
39.8085103188
 30
0.0
 10
37.7371659522
 20
40.0127905198
 30
0.0
 10
37.5977538207
 20
40.2045365384
 30
0.0
 10
37.4457566668
 20
40.3803799008
 30
0.0
 10
37.2836301537
 20
40.5371942897
 30
0.0
 10
37.1138214301
 20
40.6722303301
 30
0.0
 10
36.9387391399
 20
40.7830278498
 30
0.0
 10
36.8167835892
 20
40.8407607282
 30
0.0
 10
36.7557149115
 20
40.8644249972
 30
0.0
  0
SPLINE
  5
254
100
AcDbEntity
  8
0
100
AcDbSpline
 62
7
  6
BYLAYER
 70
0
 71
3
 72
9
 73
5
 74
0
 42
0.0000001
 43
0.0000001
 44
0.0000000001
 40
0.0
 40
0.0
 40
0.0
 40
0.0
 40
0.2541032553
 40
1.0
 40
1.0
 40
1.0
 40
1.0
 10
36.7557149115
 20
40.8644249972
 30
0.0
 10
36.7428143726
 20
40.869423989
 30
0.0
 10
36.6917483367
 20
40.888315901
 30
0.0
 10
36.6394733366
 20
40.9039845062
 30
0.0
 10
36.6000040773
 20
40.9135510024
 30
0.0
  0
SPLINE
  5
255
100
AcDbEntity
  8
0
100
AcDbSpline
 62
7
  6
BYLAYER
 70
0
 71
3
 72
9
 73
5
 74
0
 42
0.0000001
 43
0.0000001
 44
0.0000000001
 40
0.0
 40
0.0
 40
0.0
 40
0.0
 40
0.508105051
 40
1.0
 40
1.0
 40
1.0
 40
1.0
 10
36.6000040773
 20
40.9135510024
 30
0.0
 10
36.5529247891
 20
40.9249620054
 30
0.0
 10
36.4587105101
 20
40.9415508132
 30
0.0
 10
36.3629741866
 20
40.9442983938
 30
0.0
 10
36.3161441274
 20
40.941793901
 30
0.0
  0
SPLINE
  5
256
100
AcDbEntity
  8
0
100
AcDbSpline
 62
7
  6
BYLAYER
 70
0
 71
3
 72
14
 73
10
 74
0
 42
0.0000001
 43
0.0000001
 44
0.0000000001
 40
0.0
 40
0.0
 40
0.0
 40
0.0
 40
0.1102686127
 40
0.2222447694
 40
0.3375117931
 40
0.4574188655
 40
0.5830347934
 40
0.7151211493
 40
1.0
 40
1.0
 40
1.0
 40
1.0
 10
5.929621707
 20
24.7792672777
 30
0.0
 10
5.9726235793
 20
24.8040936912
 30
0.0
 10
6.0633308492
 20
24.8474643381
 30
0.0
 10
6.2093080041
 20
24.8916515361
 30
0.0
 10
6.3644347011
 20
24.9148149056
 30
0.0
 10
6.527333346
 20
24.9169349072
 30
0.0
 10
6.6967309969
 20
24.8980490489
 30
0.0
 10
6.935366274
 20
24.8438805752
 30
0.0
 10
7.1111867494
 20
24.7740175562
 30
0.0
 10
7.2263476419
 20
24.7175025463
 30
0.0
  0
SPLINE
  5
257
100
AcDbEntity
  8
0
100
AcDbSpline
 62
7
  6
BYLAYER
 70
0
 71
3
 72
14
 73
10
 74
0
 42
0.0000001
 43
0.0000001
 44
0.0000000001
 40
0.0
 40
0.0
 40
0.0
 40
0.0
 40
0.1079491786
 40
0.2192522944
 40
0.3349539964
 40
0.455862712
 40
0.7152258398
 40
0.854525243
 40
1.0
 40
1.0
 40
1.0
 40
1.0
 10
5.4116732342
 20
24.8788790695
 30
0.0
 10
5.372202052
 20
24.8429839111
 30
0.0
 10
5.2970651326
 20
24.7643536749
 30
0.0
 10
5.1992462718
 20
24.6302744408
 30
0.0
 10
5.1155176496
 20
24.4796115258
 30
0.0
 10
5.0211857319
 20
24.2529079281
 30
0.0
 10
4.9605267261
 20
24.0015036903
 30
0.0
 10
4.9303392561
 20
23.7341395208
 30
0.0
 10
4.9253976898
 20
23.5933030237
 30
0.0
 10
4.9253976898
 20
23.5214046515
 30
0.0
  0
SPLINE
  5
258
100
AcDbEntity
  8
0
100
AcDbSpline
 62
7
  6
BYLAYER
 70
0
 71
3
 72
9
 73
5
 74
0
 42
0.0000001
 43
0.0000001
 44
0.0000000001
 40
0.0
 40
0.0
 40
0.0
 40
0.0
 40
0.4946892537
 40
1.0
 40
1.0
 40
1.0
 40
1.0
 10
6.5488583856
 20
25.8296001372
 30
0.0
 10
6.6098275578
 20
25.8648030955
 30
0.0
 10
6.7398334318
 20
25.9248380789
 30
0.0
 10
6.878353236
 20
25.9607708755
 30
0.0
 10
6.9492019877
 20
25.9731025211
 30
0.0
  0
SPLINE
  5
259
100
AcDbEntity
  8
0
100
AcDbSpline
 62
7
  6
BYLAYER
 70
0
 71
3
 72
10
 73
6
 74
0
 42
0.0000001
 43
0.0000001
 44
0.0000000001
 40
0.0
 40
0.0
 40
0.0
 40
0.0
 40
0.2741606715
 40
0.5320933671
 40
1.0
 40
1.0
 40
1.0
 40
1.0
 10
38.0255063411
 20
38.295476832
 30
0.0
 10
38.0255099614
 20
38.2353197515
 30
0.0
 10
38.020013677
 20
38.1183977657
 30
0.0
 10
37.9862479388
 20
37.9014675387
 30
0.0
 10
37.9333740613
 20
37.7483486091
 30
0.0
 10
37.8842691581
 20
37.6581837422
 30
0.0
  0
SPLINE
  5
25A
100
AcDbEntity
  8
0
100
AcDbSpline
 62
7
  6
BYLAYER
 70
0
 71
3
 72
10
 73
6
 74
0
 42
0.0000001
 43
0.0000001
 44
0.0000000001
 40
0.0
 40
0.0
 40
0.0
 40
0.0
 40
0.5124999649
 40
0.7579587909
 40
1.0
 40
1.0
 40
1.0
 40
1.0
 10
37.8842691581
 20
37.6581837422
 30
0.0
 10
37.8505049591
 20
37.5961869902
 30
0.0
 10
37.7893469294
 20
37.5096105935
 30
0.0
 10
37.6876367848
 20
37.4161956371
 30
0.0
 10
37.6318723458
 20
37.3782494183
 30
0.0
 10
37.6029996783
 20
37.3615779971
 30
0.0
  0
SPLINE
  5
25B
100
AcDbEntity
  8
0
100
AcDbSpline
 62
7
  6
BYLAYER
 70
0
 71
3
 72
10
 73
6
 74
0
 42
0.0000001
 43
0.0000001
 44
0.0000000001
 40
0.0
 40
0.0
 40
0.0
 40
0.0
 40
0.2323623116
 40
0.4778432159
 40
1.0
 40
1.0
 40
1.0
 40
1.0
 10
36.7244577591
 20
40.7122516038
 30
0.0
 10
36.7818211932
 20
40.6791277257
 30
0.0
 10
36.8959925139
 20
40.6042599584
 30
0.0
 10
37.1181337896
 20
40.4251281707
 30
0.0
 10
37.2694149778
 20
40.2651424811
 30
0.0
 10
37.3634022292
 20
40.1497150487
 30
0.0
  0
SPLINE
  5
25C
100
AcDbEntity
  8
0
100
AcDbSpline
 62
7
  6
BYLAYER
 70
0
 71
3
 72
9
 73
5
 74
0
 42
0.0000001
 43
0.0000001
 44
0.0000000001
 40
0.0
 40
0.0
 40
0.0
 40
0.0
 40
0.2605825961
 40
1.0
 40
1.0
 40
1.0
 40
1.0
 10
10.2037473646
 20
19.8063311217
 30
0.0
 10
10.2474324895
 20
19.7968875786
 30
0.0
 10
10.4160613933
 20
19.7655943436
 30
0.0
 10
10.5888905654
 20
19.7550233525
 30
0.0
 10
10.715531803
 20
19.7617961833
 30
0.0
  0
SPLINE
  5
25D
100
AcDbEntity
  8
0
100
AcDbSpline
 62
7
  6
BYLAYER
 70
0
 71
3
 72
12
 73
8
 74
0
 42
0.0000001
 43
0.0000001
 44
0.0000000001
 40
0.0
 40
0.0
 40
0.0
 40
0.0
 40
0.1163688828
 40
0.2336676409
 40
0.4742298285
 40
0.7281800033
 40
1.0
 40
1.0
 40
1.0
 40
1.0
 10
7.3595150539
 20
26.8749800312
 30
0.0
 10
7.3172699958
 20
26.8505896513
 30
0.0
 10
7.2350606112
 20
26.7968956211
 30
0.0
 10
7.0812133707
 20
26.670498536
 30
0.0
 10
6.9104867926
 20
26.4764205005
 30
0.0
 10
6.7486252904
 20
26.1969801704
 30
0.0
 10
6.6719883007
 20
25.9891590136
 30
0.0
 10
6.6403223749
 20
25.8797037484
 30
0.0
  0
SPLINE
  5
25E
100
AcDbEntity
  8
0
100
AcDbSpline
 62
7
  6
BYLAYER
 70
0
 71
3
 72
14
 73
10
 74
0
 42
0.0000001
 43
0.0000001
 44
0.0000000001
 40
0.0
 40
0.0
 40
0.0
 40
0.0
 40
0.2892745166
 40
0.4225444267
 40
0.5485033353
 40
0.6679036392
 40
0.7818800113
 40
0.8919641975
 40
1.0
 40
1.0
 40
1.0
 40
1.0
 10
14.6627999756
 20
23.2067970072
 30
0.0
 10
14.6627956033
 20
23.0040489244
 30
0.0
 10
14.6391199703
 20
22.7064415375
 30
0.0
 10
14.5476555591
 20
22.3323651252
 30
0.0
 10
14.454549625
 20
22.0831059079
 30
0.0
 10
14.3359360524
 20
21.8600288885
 30
0.0
 10
14.1926037473
 20
21.6654460729
 30
0.0
 10
14.0260296496
 20
21.5014554597
 30
0.0
 10
13.8999358702
 20
21.4134825424
 30
0.0
 10
13.8343603795
 20
21.3756213421
 30
0.0
  0
SPLINE
  5
25F
100
AcDbEntity
  8
0
100
AcDbSpline
 62
7
  6
BYLAYER
 70
0
 71
3
 72
24
 73
20
 74
0
 42
0.0000001
 43
0.0000001
 44
0.0000000001
 40
0.0
 40
0.0
 40
0.0
 40
0.0
 40
0.0496728571
 40
0.1035828469
 40
0.1321799162
 40
0.161829462
 40
0.2240644254
 40
0.2897805171
 40
0.3582628793
 40
0.4286570497
 40
0.5000272816
 40
0.5713974196
 40
0.641789391
 40
0.7102692374
 40
0.7759859825
 40
0.8382182983
 40
0.8964341883
 40
0.9503486768
 40
1.0
 40
1.0
 40
1.0
 40
1.0
 10
19.2917566728
 20
31.9624037202
 30
0.0
 10
19.3798627525
 20
31.9504045163
 30
0.0
 10
19.561375528
 20
31.9074993725
 30
0.0
 10
19.7809841217
 20
31.8172807901
 30
0.0
 10
19.9583843422
 20
31.7230345377
 30
0.0
 10
20.1422777484
 20
31.6101062694
 30
0.0
 10
20.3691918077
 20
31.4414201521
 30
0.0
 10
20.6288301835
 20
31.2034910562
 30
0.0
 10
20.8749426446
 20
30.9315932495
 30
0.0
 10
21.1025363252
 20
30.6312751175
 30
0.0
 10
21.3070088524
 20
30.3086426076
 30
0.0
 10
21.4841740183
 20
29.970249065
 30
0.0
 10
21.6304303751
 20
29.6229823529
 30
0.0
 10
21.7428289451
 20
29.2739051244
 30
0.0
 10
21.8190650868
 20
28.9300685832
 30
0.0
 10
21.8575659304
 20
28.5983936316
 30
0.0
 10
21.8574951995
 20
28.2854460842
 30
0.0
 10
21.8187400903
 20
27.9975115409
 30
0.0
 10
21.7651394941
 20
27.8188869432
 30
0.0
 10
21.7315064733
 20
27.7366152697
 30
0.0
  0
SPLINE
  5
260
100
AcDbEntity
  8
0
100
AcDbSpline
 62
7
  6
BYLAYER
 70
0
 71
3
 72
11
 73
7
 74
0
 42
0.0000001
 43
0.0000001
 44
0.0000000001
 40
0.0
 40
0.0
 40
0.0
 40
0.0
 40
0.2662301905
 40
0.5190272593
 40
0.7620897686
 40
1.0
 40
1.0
 40
1.0
 40
1.0
 10
21.4057798391
 20
26.9399779905
 30
0.0
 10
21.3778663575
 20
26.8717159161
 30
0.0
 10
21.3145384468
 20
26.7419883109
 30
0.0
 10
21.1935109811
 20
26.5679303367
 30
0.0
 10
21.0505350922
 20
26.4220651975
 30
0.0
 10
20.941026059
 20
26.3446579607
 30
0.0
 10
20.8839525296
 20
26.3117046652
 30
0.0
  0
SPLINE
  5
261
100
AcDbEntity
  8
0
100
AcDbSpline
 62
7
  6
BYLAYER
 70
0
 71
3
 72
11
 73
7
 74
0
 42
0.0000001
 43
0.0000001
 44
0.0000000001
 40
0.0
 40
0.0
 40
0.0
 40
0.0
 40
0.2178008394
 40
0.4509125583
 40
0.7103007215
 40
1.0
 40
1.0
 40
1.0
 40
1.0
 10
8.1952971657
 20
20.7324926047
 30
0.0
 10
8.2117945584
 20
20.7420112182
 30
0.0
 10
8.2426535539
 20
20.7679571086
 30
0.0
 10
8.275496745
 20
20.8216770813
 30
0.0
 10
8.2950151057
 20
20.8878707455
 30
0.0
 10
8.2988531478
 20
20.9360516585
 30
0.0
 10
8.2988531478
 20
20.9613855749
 30
0.0
  0
SPLINE
  5
262
100
AcDbEntity
  8
0
100
AcDbSpline
 62
7
  6
BYLAYER
 70
0
 71
3
 72
11
 73
7
 74
0
 42
0.0000001
 43
0.0000001
 44
0.0000000001
 40
0.0
 40
0.0
 40
0.0
 40
0.0
 40
0.259169355
 40
0.5178085634
 40
0.7673278386
 40
1.0
 40
1.0
 40
1.0
 40
1.0
 10
37.3618434394
 20
40.08063223
 30
0.0
 10
37.4545029303
 20
39.9584860584
 30
0.0
 10
37.6233418972
 20
39.7016614852
 30
0.0
 10
37.8222722675
 20
39.2922535764
 30
0.0
 10
37.9599774516
 20
38.8748153588
 30
0.0
 10
38.0085085557
 20
38.5921853661
 30
0.0
 10
38.0191728053
 20
38.4549589366
 30
0.0
  0
SPLINE
  5
263
100
AcDbEntity
  8
0
100
AcDbSpline
 62
7
  6
BYLAYER
 70
0
 71
3
 72
23
 73
19
 74
0
 42
0.0000001
 43
0.0000001
 44
0.0000000001
 40
0.0
 40
0.0
 40
0.0
 40
0.0
 40
0.0450552347
 40
0.0934582921
 40
0.1456260905
 40
0.2017190545
 40
0.2616008418
 40
0.32492551
 40
0.3911875449
 40
0.4597535973
 40
0.5299029805
 40
0.6008588004
 40
0.6718138826
 40
0.7419646507
 40
0.810531003
 40
0.8767865455
 40
0.9401314091
 40
1.0
 40
1.0
 40
1.0
 40
1.0
 10
8.4049243169
 20
19.6252164421
 30
0.0
 10
8.3250665784
 20
19.6180826346
 30
0.0
 10
8.1575998348
 20
19.6204604124
 30
0.0
 10
7.9020576627
 20
19.6694435208
 30
0.0
 10
7.6383493479
 20
19.7626829001
 30
0.0
 10
7.3708388957
 20
19.8982994316
 30
0.0
 10
7.1037595103
 20
20.0739394128
 30
0.0
 10
6.8415007701
 20
20.2866237459
 30
0.0
 10
6.5884198563
 20
20.5327853098
 30
0.0
 10
6.3487527288
 20
20.8082788171
 30
0.0
 10
6.126521718
 20
21.1084468508
 30
0.0
 10
5.9254941838
 20
21.4282282239
 30
0.0
 10
5.7490703417
 20
21.762216596
 30
0.0
 10
5.6002239986
 20
22.1047573982
 30
0.0
 10
5.4814776773
 20
22.4500511332
 30
0.0
 10
5.3948179154
 20
22.7923389241
 30
0.0
 10
5.3417819132
 20
23.1257711524
 30
0.0
 10
5.3289970126
 20
23.3451519535
 30
0.0
 10
5.3289970126
 20
23.4516880471
 30
0.0
  0
SPLINE
  5
264
100
AcDbEntity
  8
0
100
AcDbSpline
 62
7
  6
BYLAYER
 70
0
 71
3
 72
9
 73
5
 74
0
 42
0.0000001
 43
0.0000001
 44
0.0000000001
 40
0.0
 40
0.0
 40
0.0
 40
0.0
 40
0.2378915085
 40
1.0
 40
1.0
 40
1.0
 40
1.0
 10
36.304045743
 20
40.9255942507
 30
0.0
 10
36.3269383938
 20
40.9254647849
 30
0.0
 10
36.423139533
 20
40.9207322196
 30
0.0
 10
36.5182267094
 20
40.9000408891
 30
0.0
 10
36.5881243679
 20
40.8778356529
 30
0.0
  0
SPLINE
  5
265
100
AcDbEntity
  8
0
100
AcDbSpline
 62
7
  6
BYLAYER
 70
0
 71
3
 72
9
 73
5
 74
0
 42
0.0000001
 43
0.0000001
 44
0.0000000001
 40
0.0
 40
0.0
 40
0.0
 40
0.0
 40
0.2434555533
 40
1.0
 40
1.0
 40
1.0
 40
1.0
 10
36.5881243679
 20
40.8778356529
 30
0.0
 10
36.6012447594
 20
40.8736675391
 30
0.0
 10
36.6548341712
 20
40.8556002038
 30
0.0
 10
36.707173678
 20
40.8338843905
 30
0.0
 10
36.7459288567
 20
40.8157693031
 30
0.0
  0
SPLINE
  5
266
100
AcDbEntity
  8
0
100
AcDbSpline
 62
7
  6
BYLAYER
 70
0
 71
3
 72
11
 73
7
 74
0
 42
0.0000001
 43
0.0000001
 44
0.0000000001
 40
0.0
 40
0.0
 40
0.0
 40
0.0
 40
0.2293155654
 40
0.4740540641
 40
0.7319353855
 40
1.0
 40
1.0
 40
1.0
 40
1.0
 10
36.8010670187
 20
40.7885939434
 30
0.0
 10
36.8644085524
 20
40.7557679184
 30
0.0
 10
36.9908107973
 20
40.6789245863
 30
0.0
 10
37.1710070396
 20
40.5390476286
 30
0.0
 10
37.3448379298
 20
40.3733745493
 30
0.0
 10
37.4524906528
 20
40.2498106213
 30
0.0
 10
37.5045335086
 20
40.1846442985
 30
0.0
  0
SPLINE
  5
267
100
AcDbEntity
  8
0
100
AcDbSpline
 62
7
  6
BYLAYER
 70
0
 71
3
 72
15
 73
11
 74
0
 42
0.0000001
 43
0.0000001
 44
0.0000000001
 40
0.0
 40
0.0
 40
0.0
 40
0.0
 40
0.1346418962
 40
0.2706888628
 40
0.4058838463
 40
0.5380137026
 40
0.6650290922
 40
0.7851587838
 40
0.8970612761
 40
1.0
 40
1.0
 40
1.0
 40
1.0
 10
37.5045335086
 20
40.1846442985
 30
0.0
 10
37.5627031192
 20
40.1118062583
 30
0.0
 10
37.6726783641
 20
39.959668711
 30
0.0
 10
37.8160678457
 20
39.7175817005
 30
0.0
 10
37.9361625281
 20
39.465020121
 30
0.0
 10
38.0300214337
 20
39.2082052862
 30
0.0
 10
38.0953615339
 20
38.9534033789
 30
0.0
 10
38.1305461852
 20
38.706750198
 30
0.0
 10
38.1346807053
 20
38.4742566909
 30
0.0
 10
38.1157553793
 20
38.32596209
 30
0.0
 10
38.100378543
 20
38.2563742337
 30
0.0
  0
SPLINE
  5
268
100
AcDbEntity
  8
0
100
AcDbSpline
 62
7
  6
BYLAYER
 70
0
 71
3
 72
9
 73
5
 74
0
 42
0.0000001
 43
0.0000001
 44
0.0000000001
 40
0.0
 40
0.0
 40
0.0
 40
0.0
 40
0.259815871
 40
1.0
 40
1.0
 40
1.0
 40
1.0
 10
38.100378543
 20
38.2563742337
 30
0.0
 10
38.0962940289
 20
38.2378897693
 30
0.0
 10
38.0788598914
 20
38.1671479294
 30
0.0
 10
38.0542895085
 20
38.0980631306
 30
0.0
 10
38.0315635531
 20
38.0491549396
 30
0.0
  0
SPLINE
  5
269
100
AcDbEntity
  8
0
100
AcDbSpline
 62
7
  6
BYLAYER
 70
0
 71
3
 72
18
 73
14
 74
0
 42
0.0000001
 43
0.0000001
 44
0.0000000001
 40
0.0
 40
0.0
 40
0.0
 40
0.0
 40
0.0623710931
 40
0.128856441
 40
0.2704466157
 40
0.4175574884
 40
0.5618675243
 40
0.6955087454
 40
0.8127497792
 40
0.8647061868
 40
0.9125264144
 40
0.9571478736
 40
1.0
 40
1.0
 40
1.0
 40
1.0
 10
26.0825237801
 20
31.8003048753
 30
0.0
 10
26.0645818843
 20
31.7899461788
 30
0.0
 10
26.0289095592
 20
31.7660724791
 30
0.0
 10
25.9600482875
 20
31.7081753246
 30
0.0
 10
25.8816751445
 20
31.6189870309
 30
0.0
 10
25.8060318523
 20
31.4959258977
 30
0.0
 10
25.75285427
 20
31.3643319643
 30
0.0
 10
25.7264657204
 20
31.2349575268
 30
0.0
 10
25.7288499708
 20
31.1330192159
 30
0.0
 10
25.7476935663
 20
31.0630895635
 30
0.0
 10
25.7687303943
 20
31.0196152906
 30
0.0
 10
25.7968266284
 20
30.9840383479
 30
0.0
 10
25.8202122016
 20
30.9661747591
 30
0.0
 10
25.8325389762
 20
30.9590574176
 30
0.0
  0
SPLINE
  5
26A
100
AcDbEntity
  8
0
100
AcDbSpline
 62
7
  6
BYLAYER
 70
0
 71
3
 72
15
 73
11
 74
0
 42
0.0000001
 43
0.0000001
 44
0.0000000001
 40
0.0
 40
0.0
 40
0.0
 40
0.0
 40
0.1485252085
 40
0.2894991395
 40
0.422739189
 40
0.5486427654
 40
0.667993806
 40
0.7819382499
 40
0.8919874144
 40
1.0
 40
1.0
 40
1.0
 40
1.0
 10
5.3289970126
 20
23.4516880471
 30
0.0
 10
5.3289970126
 20
23.5271829456
 30
0.0
 10
5.3351117417
 20
23.6744338411
 30
0.0
 10
5.3640585454
 20
23.8876934956
 30
0.0
 10
5.4125004826
 20
24.0856505268
 30
0.0
 10
5.4799650029
 20
24.2663505621
 30
0.0
 10
5.5660058634
 20
24.4280432096
 30
0.0
 10
5.6698577351
 20
24.5691556628
 30
0.0
 10
5.7906709829
 20
24.6880119475
 30
0.0
 10
5.8820744337
 20
24.7518166528
 30
0.0
 10
5.929621707
 20
24.7792672777
 30
0.0
  0
SPLINE
  5
26B
100
AcDbEntity
  8
0
100
AcDbSpline
 62
7
  6
BYLAYER
 70
0
 71
3
 72
11
 73
7
 74
0
 42
0.0000001
 43
0.0000001
 44
0.0000000001
 40
0.0
 40
0.0
 40
0.0
 40
0.0
 40
0.2581336444
 40
0.5077760523
 40
0.7533362234
 40
1.0
 40
1.0
 40
1.0
 40
1.0
 10
6.1293806165
 20
25.1699686667
 30
0.0
 10
6.0615608746
 20
25.1663416362
 30
0.0
 10
5.9284029869
 20
25.1491081882
 30
0.0
 10
5.7378903977
 20
25.0910211963
 30
0.0
 10
5.5632382473
 20
25.0016284215
 30
0.0
 10
5.4596870763
 20
24.9225429371
 30
0.0
 10
5.4116732342
 20
24.8788790695
 30
0.0
  0
SPLINE
  5
26C
100
AcDbEntity
  8
0
100
AcDbSpline
 62
7
  6
BYLAYER
 70
0
 71
3
 72
23
 73
19
 74
0
 42
0.0000001
 43
0.0000001
 44
0.0000000001
 40
0.0
 40
0.0
 40
0.0
 40
0.0
 40
0.0742625541
 40
0.1447495356
 40
0.2113697066
 40
0.2743216888
 40
0.3339973451
 40
0.3909693276
 40
0.4459928658
 40
0.4999981311
 40
0.554004688
 40
0.6090292741
 40
0.6659998987
 40
0.7256784501
 40
0.7886403878
 40
0.855250602
 40
0.9256992193
 40
1.0
 40
1.0
 40
1.0
 40
1.0
 10
5.0461543001
 20
23.4516873673
 30
0.0
 10
5.0461543001
 20
23.532389194
 30
0.0
 10
5.0526908781
 20
23.6897961515
 30
0.0
 10
5.0836344848
 20
23.917764649
 30
0.0
 10
5.1354184917
 20
24.1293753993
 30
0.0
 10
5.207536331
 20
24.3225383024
 30
0.0
 10
5.2995165275
 20
24.4953837651
 30
0.0
 10
5.4105216941
 20
24.6462212061
 30
0.0
 10
5.5397011593
 20
24.7732937392
 30
0.0
 10
5.6856782314
 20
24.8752057014
 30
0.0
 10
5.8469297494
 20
24.9506615156
 30
0.0
 10
6.0215678875
 20
24.9989987533
 30
0.0
 10
6.2077021454
 20
25.0197176994
 30
0.0
 10
6.4033938899
 20
25.0129410819
 30
0.0
 10
6.6067356226
 20
24.9787919179
 30
0.0
 10
6.8158491525
 20
24.917854089
 30
0.0
 10
7.0287467453
 20
24.8306928584
 30
0.0
 10
7.1683253179
 20
24.7576338718
 30
0.0
 10
7.2382505808
 20
24.7172612439
 30
0.0
  0
SPLINE
  5
26D
100
AcDbEntity
  8
0
100
AcDbSpline
 62
7
  6
BYLAYER
 70
0
 71
3
 72
23
 73
19
 74
0
 42
0.0000001
 43
0.0000001
 44
0.0000000001
 40
0.0
 40
0.0
 40
0.0
 40
0.0
 40
0.0450554429
 40
0.0934588983
 40
0.1456268715
 40
0.2017198999
 40
0.2616016437
 40
0.324926163
 40
0.391187955
 40
0.4597536967
 40
0.5299027521
 40
0.6008582633
 40
0.6718131096
 40
0.7419637552
 40
0.8105300881
 40
0.876785783
 40
0.9401311396
 40
1.0
 40
1.0
 40
1.0
 40
1.0
 10
8.334214522
 20
19.3613211687
 30
0.0
 10
8.2488489963
 20
19.3536953427
 30
0.0
 10
8.0698317319
 20
19.3562379056
 30
0.0
 10
7.796664697
 20
19.4085997297
 30
0.0
 10
7.5147689703
 20
19.5082710273
 30
0.0
 10
7.2288099974
 20
19.6532418011
 30
0.0
 10
6.9433120271
 20
19.840995179
 30
0.0
 10
6.6629677318
 20
20.0683473826
 30
0.0
 10
6.3924344048
 20
20.3314849085
 30
0.0
 10
6.136239741
 20
20.6259765794
 30
0.0
 10
5.8986836185
 20
20.9468442507
 30
0.0
 10
5.6837926964
 20
21.2886776898
 30
0.0
 10
5.4952017648
 20
21.6456981478
 30
0.0
 10
5.3360900215
 20
22.011861411
 30
0.0
 10
5.209153237
 20
22.3809679662
 30
0.0
 10
5.1165157141
 20
22.7468625859
 30
0.0
 10
5.0598215772
 20
23.1032916607
 30
0.0
 10
5.0461543001
 20
23.3378034943
 30
0.0
 10
5.0461543001
 20
23.4516873673
 30
0.0
  0
SPLINE
  5
26E
100
AcDbEntity
  8
0
100
AcDbSpline
 62
7
  6
BYLAYER
 70
0
 71
3
 72
15
 73
11
 74
0
 42
0.0000001
 43
0.0000001
 44
0.0000000001
 40
0.0
 40
0.0
 40
0.0
 40
0.0
 40
0.1518931192
 40
0.2932252857
 40
0.4242649003
 40
0.5463180742
 40
0.6615793855
 40
0.7731521454
 40
0.8847582015
 40
1.0
 40
1.0
 40
1.0
 40
1.0
 10
9.430234596
 20
20.9205946892
 30
0.0
 10
9.430234596
 20
20.8139093624
 30
0.0
 10
9.4189916226
 20
20.6076828836
 30
0.0
 10
9.3643934624
 20
20.3137898806
 30
0.0
 10
9.2731212427
 20
20.0509331012
 30
0.0
 10
9.1462399435
 20
19.8237131592
 30
0.0
 10
8.9852389155
 20
19.6365451667
 30
0.0
 10
8.7927190553
 20
19.4935962735
 30
0.0
 10
8.572761372
 20
19.3983785977
 30
0.0
 10
8.4148359782
 20
19.3685232002
 30
0.0
 10
8.334214522
 20
19.3613211687
 30
0.0
  0
SPLINE
  5
26F
100
AcDbEntity
  8
0
100
AcDbSpline
 62
7
  6
BYLAYER
 70
0
 71
3
 72
9
 73
5
 74
0
 42
0.0000001
 43
0.0000001
 44
0.0000000001
 40
0.0
 40
0.0
 40
0.0
 40
0.0
 40
0.5083696429
 40
1.0
 40
1.0
 40
1.0
 40
1.0
 10
6.9709068235
 20
25.9098010715
 30
0.0
 10
6.8971772395
 20
25.9058579799
 30
0.0
 10
6.7524573821
 20
25.8869443042
 30
0.0
 10
6.6128955134
 20
25.8437600105
 30
0.0
 10
6.5468809074
 20
25.8165466291
 30
0.0
  0
SPLINE
  5
270
100
AcDbEntity
  8
0
100
AcDbSpline
 62
7
  6
BYLAYER
 70
0
 71
3
 72
18
 73
14
 74
0
 42
0.0000001
 43
0.0000001
 44
0.0000000001
 40
0.0
 40
0.0
 40
0.0
 40
0.0
 40
0.0623672292
 40
0.1288448426
 40
0.2704251769
 40
0.417544871
 40
0.5618638565
 40
0.6955052187
 40
0.8127446053
 40
0.8647020907
 40
0.9125235782
 40
0.9571471547
 40
1.0
 40
1.0
 40
1.0
 40
1.0
 10
8.2988531478
 20
20.9613855749
 30
0.0
 10
8.2988531478
 20
20.982101773
 30
0.0
 10
8.2960156524
 20
21.0249279548
 30
0.0
 10
8.2803082069
 20
21.1135053261
 30
0.0
 10
8.2422599872
 20
21.2259708471
 30
0.0
 10
8.1735093714
 20
21.3530146062
 30
0.0
 10
8.0861324689
 20
21.4648706243
 30
0.0
 10
7.9872846406
 20
21.5524144774
 30
0.0
 10
7.8978118043
 20
21.6013184329
 30
0.0
 10
7.8278294661
 20
21.6199671403
 30
0.0
 10
7.7796596969
 20
21.6234839239
 30
0.0
 10
7.7347994085
 20
21.6169430159
 30
0.0
 10
7.7076353247
 20
21.6056212735
 30
0.0
 10
7.6953084615
 20
21.5985036134
 30
0.0
  0
SPLINE
  5
271
100
AcDbEntity
  8
0
100
AcDbSpline
 62
7
  6
BYLAYER
 70
0
 71
3
 72
12
 73
8
 74
0
 42
0.0000001
 43
0.0000001
 44
0.0000000001
 40
0.0
 40
0.0
 40
0.0
 40
0.0
 40
0.1081522653
 40
0.2183171748
 40
0.4512898046
 40
0.7106881987
 40
1.0
 40
1.0
 40
1.0
 40
1.0
 10
26.3325085839
 20
31.8250499159
 30
0.0
 10
26.324312318
 20
31.8297823479
 30
0.0
 10
26.3069155846
 20
31.8379409548
 30
0.0
 10
26.2687054561
 20
31.8485298329
 30
0.0
 10
26.2151453073
 20
31.8499657084
 30
0.0
 10
26.1481165697
 20
31.8336953856
 30
0.0
 10
26.1044495302
 20
31.8129636375
 30
0.0
 10
26.0825237801
 20
31.8003048753
 30
0.0
  0
SPLINE
  5
272
100
AcDbEntity
  8
0
100
AcDbSpline
 62
7
  6
BYLAYER
 70
0
 71
3
 72
19
 73
15
 74
0
 42
0.0000001
 43
0.0000001
 44
0.0000000001
 40
0.0
 40
0.0
 40
0.0
 40
0.0
 40
0.0361111761
 40
0.07521881
 40
0.1194176839
 40
0.169818151
 40
0.2265676918
 40
0.2892257288
 40
0.4282860071
 40
0.5023887119
 40
0.5778075363
 40
0.7276162318
 40
0.8699751205
 40
1.0
 40
1.0
 40
1.0
 40
1.0
 10
25.8034837177
 20
30.9755304233
 30
0.0
 10
25.7932877552
 20
30.9813914545
 30
0.0
 10
25.7739095339
 20
30.9971079497
 30
0.0
 10
25.7518043895
 20
31.0296036289
 30
0.0
 10
25.7357860565
 20
31.0703852812
 30
0.0
 10
25.7256447442
 20
31.1187934709
 30
0.0
 10
25.7211905369
 20
31.1740320878
 30
0.0
 10
25.7228839943
 20
31.2582931583
 30
0.0
 10
25.7363447939
 20
31.3475560799
 30
0.0
 10
25.7601655634
 20
31.438527815
 30
0.0
 10
25.7916813193
 20
31.5308423714
 30
0.0
 10
25.8432728528
 20
31.6396052335
 30
0.0
 10
25.9255464398
 20
31.7508842342
 30
0.0
 10
25.9947812484
 20
31.8086166227
 30
0.0
 10
26.0314538616
 20
31.8297894394
 30
0.0
  0
SPLINE
  5
273
100
AcDbEntity
  8
0
100
AcDbSpline
 62
7
  6
BYLAYER
 70
0
 71
3
 72
18
 73
14
 74
0
 42
0.0000001
 43
0.0000001
 44
0.0000000001
 40
0.0
 40
0.0
 40
0.0
 40
0.0
 40
0.0623672292
 40
0.1288448426
 40
0.2704251769
 40
0.417544871
 40
0.5618638565
 40
0.6955052187
 40
0.8127446053
 40
0.8647020907
 40
0.9125235782
 40
0.9571471547
 40
1.0
 40
1.0
 40
1.0
 40
1.0
 10
7.0614111288
 20
23.1046861253
 30
0.0
 10
7.0614111288
 20
23.1254023234
 30
0.0
 10
7.0585736334
 20
23.1682285052
 30
0.0
 10
7.0428661879
 20
23.2568058765
 30
0.0
 10
7.0048179682
 20
23.3692713975
 30
0.0
 10
6.9360673524
 20
23.4963151566
 30
0.0
 10
6.8486904499
 20
23.6081711747
 30
0.0
 10
6.7498426215
 20
23.6957150278
 30
0.0
 10
6.6603697853
 20
23.7446189832
 30
0.0
 10
6.5903874471
 20
23.7632676906
 30
0.0
 10
6.5422176779
 20
23.7667844743
 30
0.0
 10
6.4973573895
 20
23.7602435662
 30
0.0
 10
6.4701933057
 20
23.7489218239
 30
0.0
 10
6.4578664425
 20
23.7418041638
 30
0.0
  0
SPLINE
  5
274
100
AcDbEntity
  8
0
100
AcDbSpline
 62
7
  6
BYLAYER
 70
0
 71
3
 72
15
 73
11
 74
0
 42
0.0000001
 43
0.0000001
 44
0.0000000001
 40
0.0
 40
0.0
 40
0.0
 40
0.0
 40
0.1079192721
 40
0.2157685663
 40
0.3267993538
 40
0.4437552258
 40
0.5686705997
 40
0.7027943072
 40
0.8466137506
 40
1.0
 40
1.0
 40
1.0
 40
1.0
 10
8.6568970861
 20
19.2579532938
 30
0.0
 10
8.7314395191
 20
19.2817539772
 30
0.0
 10
8.8760337284
 20
19.3451008285
 30
0.0
 10
9.0688626541
 20
19.4858184159
 30
0.0
 10
9.2323570674
 20
19.6685459954
 30
0.0
 10
9.3640166052
 20
19.8895843764
 30
0.0
 10
9.4623162227
 20
20.1450913292
 30
0.0
 10
9.5261923019
 20
20.4310647036
 30
0.0
 10
9.5550873649
 20
20.7431881854
 30
0.0
 10
9.5509390773
 20
20.9591058736
 30
0.0
 10
9.5434877725
 20
21.0700729912
 30
0.0
  0
SPLINE
  5
275
100
AcDbEntity
  8
0
100
AcDbSpline
 62
7
  6
BYLAYER
 70
0
 71
3
 72
15
 73
11
 74
0
 42
0.0000001
 43
0.0000001
 44
0.0000000001
 40
0.0
 40
0.0
 40
0.0
 40
0.0
 40
0.1148913505
 40
0.2365822574
 40
0.3633579601
 40
0.4932131463
 40
0.623977458
 40
0.7534324129
 40
0.8794283102
 40
1.0
 40
1.0
 40
1.0
 40
1.0
 10
9.5434877725
 20
21.0700729912
 30
0.0
 10
9.5332400794
 20
21.222684781
 30
0.0
 10
9.4913908845
 20
21.5357627021
 30
0.0
 10
9.3742117545
 20
22.0059507811
 30
0.0
 10
9.20348424
 20
22.4806622334
 30
0.0
 10
8.9834957989
 20
22.9479494295
 30
0.0
 10
8.7197503055
 20
23.3961389272
 30
0.0
 10
8.418839497
 20
23.8140050383
 30
0.0
 10
8.0883632376
 20
24.1910235071
 30
0.0
 10
7.8472882738
 20
24.414946327
 30
0.0
 10
7.7234758289
 20
24.5171051233
 30
0.0
  0
SPLINE
  5
276
100
AcDbEntity
  8
0
100
AcDbSpline
 62
7
  6
BYLAYER
 70
0
 71
3
 72
9
 73
5
 74
0
 42
0.0000001
 43
0.0000001
 44
0.0000000001
 40
0.0
 40
0.0
 40
0.0
 40
0.0
 40
0.2551435313
 40
1.0
 40
1.0
 40
1.0
 40
1.0
 10
7.7234758289
 20
24.5171051233
 30
0.0
 10
7.6988198684
 20
24.5374489849
 30
0.0
 10
7.6012533049
 20
24.6160448025
 30
0.0
 10
7.4999206525
 20
24.6899983486
 30
0.0
 10
7.4223772369
 20
24.7419155692
 30
0.0
  0
SPLINE
  5
277
100
AcDbEntity
  8
0
100
AcDbSpline
 62
7
  6
BYLAYER
 70
0
 71
3
 72
13
 73
9
 74
0
 42
0.0000001
 43
0.0000001
 44
0.0000000001
 40
0.0
 40
0.0
 40
0.0
 40
0.0
 40
0.142763677
 40
0.280489884
 40
0.4772562792
 40
0.6623172351
 40
0.8362318309
 40
1.0
 40
1.0
 40
1.0
 40
1.0
 10
7.4223772369
 20
24.7419155692
 30
0.0
 10
7.367635198
 20
24.7785667083
 30
0.0
 10
7.2579878548
 20
24.8475228053
 30
0.0
 10
7.0645415597
 20
24.953047542
 30
0.0
 10
6.8448663012
 20
25.0502416998
 30
0.0
 10
6.5995501527
 20
25.1271078781
 30
0.0
 10
6.3613339835
 20
25.1692661478
 30
0.0
 10
6.204844002
 20
25.1740044828
 30
0.0
 10
6.1293806165
 20
25.1699686667
 30
0.0
  0
SPLINE
  5
278
100
AcDbEntity
  8
0
100
AcDbSpline
 62
7
  6
BYLAYER
 70
0
 71
3
 72
21
 73
17
 74
0
 42
0.0000001
 43
0.0000001
 44
0.0000000001
 40
0.0
 40
0.0
 40
0.0
 40
0.0
 40
0.0742878554
 40
0.1493369041
 40
0.2989232456
 40
0.4439875627
 40
0.5134579093
 40
0.5802152454
 40
0.6438771348
 40
0.7041672167
 40
0.7609398472
 40
0.8142170653
 40
0.8642087671
 40
0.9113546628
 40
0.9563247319
 40
1.0
 40
1.0
 40
1.0
 40
1.0
 10
10.0248738102
 20
24.6805359867
 30
0.0
 10
10.0982403397
 20
24.5865646536
 30
0.0
 10
10.2394110388
 20
24.3926315853
 30
0.0
 10
10.4962457855
 20
23.9871477025
 30
0.0
 10
10.7651559286
 20
23.4563602114
 30
0.0
 10
10.9599437468
 20
22.9033209771
 30
0.0
 10
11.062582562
 20
22.4633295406
 30
0.0
 10
11.110979051
 20
22.1458484085
 30
0.0
 10
11.1313357698
 20
21.84006761
 30
0.0
 10
11.1233574018
 20
21.5496669865
 30
0.0
 10
11.0870376614
 20
21.2781491576
 30
0.0
 10
11.02275221
 20
21.0287671801
 30
0.0
 10
10.9310000276
 20
20.8045860922
 30
0.0
 10
10.8126640086
 20
20.6084235638
 30
0.0
 10
10.6689819955
 20
20.4430859746
 30
0.0
 10
10.5564904533
 20
20.3543331948
 30
0.0
 10
10.4974946862
 20
20.3164874465
 30
0.0
  0
SPLINE
  5
279
100
AcDbEntity
  8
0
100
AcDbSpline
 62
7
  6
BYLAYER
 70
0
 71
3
 72
15
 73
11
 74
0
 42
0.0000001
 43
0.0000001
 44
0.0000000001
 40
0.0
 40
0.0
 40
0.0
 40
0.0
 40
0.0982103722
 40
0.2038462371
 40
0.3177013229
 40
0.4399956056
 40
0.5703469529
 40
0.707924594
 40
0.8516416847
 40
1.0
 40
1.0
 40
1.0
 40
1.0
 10
7.7274070841
 20
26.069565686
 30
0.0
 10
7.8182325222
 20
26.0744230717
 30
0.0
 10
8.0080750858
 20
26.0653687288
 30
0.0
 10
8.2964264208
 20
26.0013997896
 30
0.0
 10
8.5930816195
 20
25.888174909
 30
0.0
 10
8.8931601527
 20
25.7279038706
 30
0.0
 10
9.1918462694
 20
25.5233078017
 30
0.0
 10
9.4842854515
 20
25.2778666538
 30
0.0
 10
9.7655191938
 20
24.99571384
 30
0.0
 10
9.9403199644
 20
24.7888365655
 30
0.0
 10
10.0248738102
 20
24.6805359867
 30
0.0
  0
SPLINE
  5
27A
100
AcDbEntity
  8
0
100
AcDbSpline
 62
7
  6
BYLAYER
 70
0
 71
3
 72
26
 73
22
 74
0
 42
0.0000001
 43
0.0000001
 44
0.0000000001
 40
0.0
 40
0.0
 40
0.0
 40
0.0
 40
0.0221364601
 40
0.0449484619
 40
0.0686766649
 40
0.0935095931
 40
0.1469152168
 40
0.205727071
 40
0.2697503584
 40
0.3382907645
 40
0.4102994517
 40
0.4844908771
 40
0.5594428177
 40
0.6336873961
 40
0.7057994402
 40
0.7744864932
 40
0.8386904881
 40
0.8976974735
 40
0.9251904351
 40
0.9513651384
 40
1.0
 40
1.0
 40
1.0
 40
1.0
 10
10.0847893088
 20
19.8114146672
 30
0.0
 10
10.1296998137
 20
19.8498707224
 30
0.0
 10
10.2152245631
 20
19.9348128837
 30
0.0
 10
10.3265557224
 20
20.0812492402
 30
0.0
 10
10.4215950825
 20
20.2470863678
 30
0.0
 10
10.5283313829
 20
20.4982317745
 30
0.0
 10
10.614894221
 20
20.8566135155
 30
0.0
 10
10.6440321182
 20
21.3282941064
 30
0.0
 10
10.6011182446
 20
21.839217883
 30
0.0
 10
10.4875964636
 20
22.3749688466
 30
0.0
 10
10.3068189519
 20
22.9204420974
 30
0.0
 10
10.0639872396
 20
23.4599962349
 30
0.0
 10
9.7661039561
 20
23.9780884618
 30
0.0
 10
9.4217678537
 20
24.4597665712
 30
0.0
 10
9.0409064098
 20
24.8911375665
 30
0.0
 10
8.6343882044
 20
25.2598512863
 30
0.0
 10
8.2137787883
 20
25.5552672101
 30
0.0
 10
7.8527880025
 20
25.7375860786
 30
0.0
 10
7.5679957265
 20
25.8363010937
 30
0.0
 10
7.3021868257
 20
25.9005026006
 30
0.0
 10
7.1006229449
 20
25.9167383485
 30
0.0
 10
6.9709068235
 20
25.9098010715
 30
0.0
  0
SPLINE
  5
27B
100
AcDbEntity
  8
0
100
AcDbSpline
 62
7
  6
BYLAYER
 70
0
 71
3
 72
15
 73
11
 74
0
 42
0.0000001
 43
0.0000001
 44
0.0000000001
 40
0.0
 40
0.0
 40
0.0
 40
0.0
 40
0.1483583153
 40
0.292075406
 40
0.4296530471
 40
0.5600043944
 40
0.6822986771
 40
0.7961537629
 40
0.9017896278
 40
1.0
 40
1.0
 40
1.0
 40
1.0
 10
10.8311314716
 20
25.3503757819
 30
0.0
 10
10.7270651998
 20
25.4836688019
 30
0.0
 10
10.5119257898
 20
25.7382869859
 30
0.0
 10
10.1657919532
 20
26.0855519875
 30
0.0
 10
9.8058668059
 20
26.3876334003
 30
0.0
 10
9.4382531239
 20
26.6394439466
 30
0.0
 10
9.0689256984
 20
26.8367006093
 30
0.0
 10
8.7038116077
 20
26.9760543085
 30
0.0
 10
8.348917657
 20
27.0547853106
 30
0.0
 10
8.1152652709
 20
27.0659291172
 30
0.0
 10
8.0034801164
 20
27.0599507964
 30
0.0
  0
SPLINE
  5
27C
100
AcDbEntity
  8
0
100
AcDbSpline
 62
7
  6
BYLAYER
 70
0
 71
3
 72
9
 73
5
 74
0
 42
0.0000001
 43
0.0000001
 44
0.0000000001
 40
0.0
 40
0.0
 40
0.0
 40
0.0
 40
0.4844533406
 40
1.0
 40
1.0
 40
1.0
 40
1.0
 10
36.7675961186
 20
40.6736719509
 30
0.0
 10
36.8715308634
 20
40.59819043
 30
0.0
 10
37.0733109884
 20
40.4244500703
 30
0.0
 10
37.2494110692
 20
40.2251665646
 30
0.0
 10
37.3335327035
 20
40.1174195828
 30
0.0
  0
SPLINE
  5
27D
100
AcDbEntity
  8
0
100
AcDbSpline
 62
7
  6
BYLAYER
 70
0
 71
3
 72
9
 73
5
 74
0
 42
0.0000001
 43
0.0000001
 44
0.0000000001
 40
0.0
 40
0.0
 40
0.0
 40
0.0
 40
0.4912220702
 40
1.0
 40
1.0
 40
1.0
 40
1.0
 10
7.2984022211
 20
25.9677060561
 30
0.0
 10
7.3644334175
 20
25.9976771554
 30
0.0
 10
7.5053019911
 20
26.045242918
 30
0.0
 10
7.6524079201
 20
26.0655546967
 30
0.0
 10
7.7274070841
 20
26.069565686
 30
0.0
  0
SPLINE
  5
27E
100
AcDbEntity
  8
0
100
AcDbSpline
 62
7
  6
BYLAYER
 70
0
 71
3
 72
11
 73
7
 74
0
 42
0.0000001
 43
0.0000001
 44
0.0000000001
 40
0.0
 40
0.0
 40
0.0
 40
0.0
 40
0.2272881189
 40
0.4646858236
 40
0.7205106584
 40
1.0
 40
1.0
 40
1.0
 40
1.0
 10
8.1952971657
 20
23.5902510646
 30
0.0
 10
8.2082143146
 20
23.5977039603
 30
0.0
 10
8.232638433
 20
23.6166584457
 30
0.0
 10
8.2615918282
 20
23.6545916013
 30
0.0
 10
8.2826877597
 20
23.7010905109
 30
0.0
 10
8.2909200293
 20
23.7354454167
 30
0.0
 10
8.2938334345
 20
23.7535506088
 30
0.0
  0
SPLINE
  5
27F
100
AcDbEntity
  8
0
100
AcDbSpline
 62
7
  6
BYLAYER
 70
0
 71
3
 72
15
 73
11
 74
0
 42
0.0000001
 43
0.0000001
 44
0.0000000001
 40
0.0
 40
0.0
 40
0.0
 40
0.0
 40
0.1302664339
 40
0.2618405249
 40
0.3931588305
 40
0.5228667686
 40
0.6495889539
 40
0.7720535415
 40
0.8891540151
 40
1.0
 40
1.0
 40
1.0
 40
1.0
 10
13.3059949018
 20
26.7792303204
 30
0.0
 10
13.4098262753
 20
26.6462381693
 30
0.0
 10
13.6082717387
 20
26.3707485961
 30
0.0
 10
13.8747809227
 20
25.9363171203
 30
0.0
 10
14.1082865862
 20
25.4840655457
 30
0.0
 10
14.3049899266
 20
25.0214476736
 30
0.0
 10
14.4617649244
 20
24.5558704363
 30
0.0
 10
14.5760650137
 20
24.0948202325
 30
0.0
 10
14.6460019655
 20
23.6457708868
 30
0.0
 10
14.6628030717
 20
23.3503674043
 30
0.0
 10
14.6627999756
 20
23.2067970072
 30
0.0
  0
SPLINE
  5
280
100
AcDbEntity
  8
0
100
AcDbSpline
 62
7
  6
BYLAYER
 70
0
 71
3
 72
11
 73
7
 74
0
 42
0.0000001
 43
0.0000001
 44
0.0000000001
 40
0.0
 40
0.0
 40
0.0
 40
0.0
 40
0.2659339102
 40
0.5230229522
 40
0.7684060183
 40
1.0
 40
1.0
 40
1.0
 40
1.0
 10
13.5603929962
 20
26.7217567561
 30
0.0
 10
13.4720889018
 20
26.8348608313
 30
0.0
 10
13.2893345778
 20
27.050411704
 30
0.0
 10
12.9946016003
 20
27.3428003877
 30
0.0
 10
12.6881529855
 20
27.5946799378
 30
0.0
 10
12.4729793715
 20
27.7370295027
 30
0.0
 10
12.3647561164
 20
27.7995083675
 30
0.0
  0
SPLINE
  5
281
100
AcDbEntity
  8
0
100
AcDbSpline
 62
7
  6
BYLAYER
 70
0
 71
3
 72
21
 73
17
 74
0
 42
0.0000001
 43
0.0000001
 44
0.0000000001
 40
0.0
 40
0.0
 40
0.0
 40
0.0
 40
0.043965186
 40
0.0889646682
 40
0.1359085184
 40
0.1855173616
 40
0.2382874571
 40
0.2944921562
 40
0.3542112089
 40
0.4173511043
 40
0.4836874085
 40
0.5528771822
 40
0.6244945522
 40
0.6980437706
 40
0.8486089618
 40
1.0
 40
1.0
 40
1.0
 40
1.0
 10
11.3594969492
 20
19.9467668035
 30
0.0
 10
11.4327987668
 20
19.989088939
 30
0.0
 10
11.5732444496
 20
20.0892344216
 30
0.0
 10
11.7551871011
 20
20.2791710011
 30
0.0
 10
11.9074512377
 20
20.5067141692
 30
0.0
 10
12.0283107729
 20
20.7687075261
 30
0.0
 10
12.116694979
 20
21.0618472039
 30
0.0
 10
12.1718731979
 20
21.3826222398
 30
0.0
 10
12.1932825444
 20
21.727288813
 30
0.0
 10
12.1808705836
 20
22.0918209065
 30
0.0
 10
12.1347514998
 20
22.4719432133
 30
0.0
 10
12.0555584509
 20
22.8631833568
 30
0.0
 10
11.9442199465
 20
23.2609320631
 30
0.0
 10
11.7531702625
 20
23.7976690753
 30
0.0
 10
11.443791835
 20
24.4533368076
 30
0.0
 10
11.1310227928
 20
24.9454692018
 30
0.0
 10
10.9591351838
 20
25.1808486632
 30
0.0
  0
SPLINE
  5
282
100
AcDbEntity
  8
0
100
AcDbSpline
 62
7
  6
BYLAYER
 70
0
 71
3
 72
15
 73
11
 74
0
 42
0.0000001
 43
0.0000001
 44
0.0000000001
 40
0.0
 40
0.0
 40
0.0
 40
0.0
 40
0.1108459849
 40
0.2279464585
 40
0.3504110461
 40
0.4771332314
 40
0.6068411695
 40
0.7381594751
 40
0.8697335661
 40
1.0
 40
1.0
 40
1.0
 40
1.0
 10
14.6627971187
 20
23.8191546891
 30
0.0
 10
14.6627996343
 20
23.9358056367
 30
0.0
 10
14.6491487355
 20
24.1758209663
 30
0.0
 10
14.5923249622
 20
24.5406735596
 30
0.0
 10
14.4994561396
 20
24.9152768502
 30
0.0
 10
14.3720764538
 20
25.2935583555
 30
0.0
 10
14.2122549898
 20
25.6694353766
 30
0.0
 10
14.0225316382
 20
26.036889781
 30
0.0
 10
13.8059929262
 20
26.389865355
 30
0.0
 10
13.6447559872
 20
26.6137006333
 30
0.0
 10
13.5603929962
 20
26.7217567561
 30
0.0
  0
SPLINE
  5
283
100
AcDbEntity
  8
0
100
AcDbSpline
 62
7
  6
BYLAYER
 70
0
 71
3
 72
11
 73
7
 74
0
 42
0.0000001
 43
0.0000001
 44
0.0000000001
 40
0.0
 40
0.0
 40
0.0
 40
0.0
 40
0.2315939817
 40
0.4769770478
 40
0.7340660898
 40
1.0
 40
1.0
 40
1.0
 40
1.0
 10
11.8344418189
 20
28.1056938422
 30
0.0
 10
11.9676396713
 20
28.0287967777
 30
0.0
 10
12.2324687348
 20
27.8535973133
 30
0.0
 10
12.6096362606
 20
27.5435917131
 30
0.0
 10
12.9723845406
 20
27.1837287179
 30
0.0
 10
13.1973129394
 20
26.9184353361
 30
0.0
 10
13.3059949018
 20
26.7792303204
 30
0.0
  0
SPLINE
  5
284
100
AcDbEntity
  8
0
100
AcDbSpline
 62
7
  6
BYLAYER
 70
0
 71
3
 72
11
 73
7
 74
0
 42
0.0000001
 43
0.0000001
 44
0.0000000001
 40
0.0
 40
0.0
 40
0.0
 40
0.0
 40
0.2178008394
 40
0.4509125583
 40
0.7103007215
 40
1.0
 40
1.0
 40
1.0
 40
1.0
 10
6.9578551467
 20
22.8757931551
 30
0.0
 10
6.9743525394
 20
22.8853117686
 30
0.0
 10
7.0052115349
 20
22.911257659
 30
0.0
 10
7.038054726
 20
22.9649776317
 30
0.0
 10
7.0575730866
 20
23.0311712959
 30
0.0
 10
7.0614111288
 20
23.0793522089
 30
0.0
 10
7.0614111288
 20
23.1046861253
 30
0.0
  0
SPLINE
  5
285
100
AcDbEntity
  8
0
100
AcDbSpline
 62
7
  6
BYLAYER
 70
0
 71
3
 72
24
 73
20
 74
0
 42
0.0000001
 43
0.0000001
 44
0.0000000001
 40
0.0
 40
0.0
 40
0.0
 40
0.0
 40
0.0496680141
 40
0.1035775479
 40
0.1321749061
 40
0.1618237378
 40
0.224059371
 40
0.2897768395
 40
0.3582580314
 40
0.4286519828
 40
0.5000222018
 40
0.5713921809
 40
0.6417858018
 40
0.7102665919
 40
0.7759833931
 40
0.8382175185
 40
0.8964341732
 40
0.9503474896
 40
1.0
 40
1.0
 40
1.0
 40
1.0
 10
18.4389853631
 20
32.0786408863
 30
0.0
 10
18.5461142105
 20
32.0640522243
 30
0.0
 10
18.7668247649
 20
32.0118703755
 30
0.0
 10
19.0338631609
 20
31.9021680701
 30
0.0
 10
19.2495911081
 20
31.7875759613
 30
0.0
 10
19.4732183706
 20
31.650264734
 30
0.0
 10
19.7491480176
 20
31.4451274769
 30
0.0
 10
20.0648711374
 20
31.1557948549
 30
0.0
 10
20.3641649108
 20
30.8251745766
 30
0.0
 10
20.6409279529
 20
30.4599859502
 30
0.0
 10
20.8895573088
 20
30.0676490448
 30
0.0
 10
21.105002577
 20
29.656156011
 30
0.0
 10
21.2828766793
 20
29.2338745492
 30
0.0
 10
21.4195441821
 20
28.8093774856
 30
0.0
 10
21.5122410333
 20
28.3912567203
 30
0.0
 10
21.559080771
 20
27.9879297407
 30
0.0
 10
21.5590022288
 20
27.6073718242
 30
0.0
 10
21.5118378078
 20
27.2572428357
 30
0.0
 10
21.4466889855
 20
27.0400208025
 30
0.0
 10
21.4057798391
 20
26.9399779905
 30
0.0
  0
SPLINE
  5
286
100
AcDbEntity
  8
0
100
AcDbSpline
 62
7
  6
BYLAYER
 70
0
 71
3
 72
11
 73
7
 74
0
 42
0.0000001
 43
0.0000001
 44
0.0000000001
 40
0.0
 40
0.0
 40
0.0
 40
0.0
 40
0.2689308252
 40
0.5237772364
 40
0.766239184
 40
1.0
 40
1.0
 40
1.0
 40
1.0
 10
26.0314538616
 20
31.8297894394
 30
0.0
 10
26.0495178578
 20
31.8402186303
 30
0.0
 10
26.086531865
 20
31.8575749238
 30
0.0
 10
26.1444820629
 20
31.87239295
 30
0.0
 10
26.2015569829
 20
31.8747535004
 30
0.0
 10
26.2382638373
 20
31.868095337
 30
0.0
 10
26.2556072677
 20
31.8628107974
 30
0.0
  0
ENDSEC
  0
SECTION
  2
OBJECTS
  0
DICTIONARY
  5
C
100
AcDbDictionary
280
0
281
1
  3
ACAD_GROUP
350
D
  3
ACAD_MLINESTYLE
350
17
  3
ACAD_LAYOUT
350
1A
  3
ACAD_PLOTSETTINGS
350
19
  3
ACAD_PLOTSTYLENAME
350
E
  0
DICTIONARY
  5
D
102
{ACAD_REACTORS
330
C
102
}
100
AcDbDictionary
280
0
281
1
  0
ACDBDICTIONARYWDFLT
  5
E
102
{ACAD_REACTORS
330
C
102
}
100
AcDbDictionary
281
1
  3
Normal
350
F
100
AcDbDictionaryWithDefault
340
F
  0
DICTIONARY
  5
17
102
{ACAD_REACTORS
330
C
102
}
100
AcDbDictionary
280
0
281
1
  3
Standard
350
18
  0
DICTIONARY
  5
19
102
{ACAD_REACTORS
330
C
102
}
100
AcDbDictionary
281
1
  0
DICTIONARY
  5
1A
102
{ACAD_REACTORS
330
C
102
}
100
AcDbDictionary
281
1
  3
Model
350
287
  3
Layout1
350
288
  0
ACDBPLACEHOLDER
  5
F
102
{ACAD_REACTORS
330
E
102
}
  0
MLINESTYLE
  5
18
102
{ACAD_REACTORS
330
17
102
}
100
AcDbMlineStyle
  2
STANDARD
 70
0
  3

 62
256
 51
90.0
 52
90.0
 71
2
 49
0.5
 62
256
  6
BYLAYER
 49
-0.5
 62
256
  6
BYLAYER
  0
LAYOUT
  5
287
102
{ACAD_REACTORS
330
1A
102
}
100
AcDbPlotSettings
  1

  2
none_device
  4

  6

 40
0.0
 41
0.0
 42
0.0
 43
0.0
 44
210.0
 45
297.0
 46
0.0
 47
0.0
 48
0.0
 49
0.0
140
0.0
141
0.0
142
1.0
143
1.0
 70
1024
 72
1
 73
0
 74
0
  7

 75
0
147
1.0
148
0.0
149
0.0
100
AcDbLayout
  1
Model
 70
0
 71
0
 10
0.0
 20
0.0
 11
210.0
 21
297.0
 12
0.0
 22
0.0
 32
0.0
 14
0.0
 24
0.0
 34
0.0
 15
0.0
 25
0.0
 35
0.0
146
0.0
 13
0.0
 23
0.0
 33
0.0
 16
1.0
 26
0.0
 36
0.0
 17
0.0
 27
1.0
 37
0.0
 76
0
330
210
345
0
346
0
  0
LAYOUT
  5
288
102
{ACAD_REACTORS
330
1A
102
}
100
AcDbPlotSettings
  1

  2
none_device
  4

  6

 40
0.0
 41
0.0
 42
0.0
 43
0.0
 44
210.0
 45
297.0
 46
0.0
 47
0.0
 48
0.0
 49
0.0
140
0.0
141
0.0
142
1.0
143
1.0
 70
0
 72
1
 73
0
 74
0
  7

 75
0
147
1.0
148
0.0
149
0.0
100
AcDbLayout
  1
Layout1
 70
0
 71
1
 10
0.0
 20
0.0
 11
210.0
 21
297.0
 12
0.0
 22
0.0
 32
0.0
 14
0.0
 24
0.0
 34
0.0
 15
0.0
 25
0.0
 35
0.0
146
0.0
 13
0.0
 23
0.0
 33
0.0
 16
1.0
 26
0.0
 36
0.0
 17
0.0
 27
1.0
 37
0.0
 76
0
330
211
345
0
346
0
  0
ENDSEC
  0
EOF
