  0
SECTION
  2
HEADER
  9
$ACADVER
  1
AC1014
  9
$ACADMAINTVER
 70
     0
  9
$DWGCODEPAGE
  3
ANSI_1252
  9
$INSBASE
 10
0.0
 20
0.0
 30
0.0
  9
$EXTMIN
 10
53.717483
 20
-41.187569
 30
0.0
  9
$EXTMAX
 10
316.117499
 20
125.202863
 30
0.0
  9
$LIMMIN
 10
0.0
 20
0.0
  9
$LIMMAX
 10
17.0
 20
11.0
  9
$ORTHOMODE
 70
     0
  9
$REGENMODE
 70
     1
  9
$FILLMODE
 70
     1
  9
$QTEXTMODE
 70
     0
  9
$MIRRTEXT
 70
     1
  9
$DRAGMODE
 70
     2
  9
$LTSCALE
 40
1.0
  9
$OSMODE
 70
    37
  9
$ATTMODE
 70
     1
  9
$TEXTSIZE
 40
0.2
  9
$TRACEWID
 40
0.05
  9
$TEXTSTYLE
  7
STANDARD
  9
$CLAYER
  8
0
  9
$CELTYPE
  6
BYLAYER
  9
$CECOLOR
 62
     0
  9
$CELTSCALE
 40
1.0
  9
$DELOBJ
 70
     1
  9
$DISPSILH
 70
     0
  9
$DIMSCALE
 40
1.0
  9
$DIMASZ
 40
0.18
  9
$DIMEXO
 40
0.0625
  9
$DIMDLI
 40
0.38
  9
$DIMRND
 40
0.0
  9
$DIMDLE
 40
0.0
  9
$DIMEXE
 40
0.18
  9
$DIMTP
 40
0.0
  9
$DIMTM
 40
0.0
  9
$DIMTXT
 40
0.18
  9
$DIMCEN
 40
0.09
  9
$DIMTSZ
 40
0.0
  9
$DIMTOL
 70
     0
  9
$DIMLIM
 70
     0
  9
$DIMTIH
 70
     1
  9
$DIMTOH
 70
     1
  9
$DIMSE1
 70
     0
  9
$DIMSE2
 70
     0
  9
$DIMTAD
 70
     0
  9
$DIMZIN
 70
     0
  9
$DIMBLK
  1

  9
$DIMASO
 70
     1
  9
$DIMSHO
 70
     1
  9
$DIMPOST
  1

  9
$DIMAPOST
  1

  9
$DIMALT
 70
     0
  9
$DIMALTD
 70
     2
  9
$DIMALTF
 40
25.4
  9
$DIMLFAC
 40
1.0
  9
$DIMTOFL
 70
     0
  9
$DIMTVP
 40
0.0
  9
$DIMTIX
 70
     0
  9
$DIMSOXD
 70
     0
  9
$DIMSAH
 70
     0
  9
$DIMBLK1
  1

  9
$DIMBLK2
  1

  9
$DIMSTYLE
  2
STANDARD
  9
$DIMCLRD
 70
     0
  9
$DIMCLRE
 70
     0
  9
$DIMCLRT
 70
     0
  9
$DIMTFAC
 40
1.0
  9
$DIMGAP
 40
0.09
  9
$DIMJUST
 70
     0
  9
$DIMSD1
 70
     0
  9
$DIMSD2
 70
     0
  9
$DIMTOLJ
 70
     1
  9
$DIMTZIN
 70
     0
  9
$DIMALTZ
 70
     0
  9
$DIMALTTZ
 70
     0
  9
$DIMFIT
 70
     3
  9
$DIMUPT
 70
     0
  9
$DIMUNIT
 70
     2
  9
$DIMDEC
 70
     4
  9
$DIMTDEC
 70
     4
  9
$DIMALTU
 70
     2
  9
$DIMALTTD
 70
     2
  9
$DIMTXSTY
  7
STANDARD
  9
$DIMAUNIT
 70
     0
  9
$LUNITS
 70
     2
  9
$LUPREC
 70
     4
  9
$SKETCHINC
 40
0.1
  9
$FILLETRAD
 40
0.5
  9
$AUNITS
 70
     0
  9
$AUPREC
 70
     0
  9
$MENU
  1
acad
  9
$ELEVATION
 40
0.0
  9
$PELEVATION
 40
0.0
  9
$THICKNESS
 40
0.0
  9
$LIMCHECK
 70
     0
  9
$BLIPMODE
 70
     0
  9
$CHAMFERA
 40
0.5
  9
$CHAMFERB
 40
0.5
  9
$CHAMFERC
 40
1.0
  9
$CHAMFERD
 40
0.0
  9
$SKPOLY
 70
     1
  9
$TDCREATE
 40
2444971.791666666
  9
$TDUPDATE
 40
2451744.329505081
  9
$TDINDWG
 40
0.0277746528
  9
$TDUSRTIMER
 40
0.0277746528
  9
$USRTIMER
 70
     1
  9
$ANGBASE
 50
0.0
  9
$ANGDIR
 70
     0
  9
$PDMODE
 70
     0
  9
$PDSIZE
 40
0.0
  9
$PLINEWID
 40
0.0
  9
$COORDS
 70
     1
  9
$SPLFRAME
 70
     0
  9
$SPLINETYPE
 70
     6
  9
$SPLINESEGS
 70
     8
  9
$ATTDIA
 70
     0
  9
$ATTREQ
 70
     1
  9
$HANDLING
 70
     1
  9
$HANDSEED
  5
A20
  9
$SURFTAB1
 70
     6
  9
$SURFTAB2
 70
     6
  9
$SURFTYPE
 70
     6
  9
$SURFU
 70
     6
  9
$SURFV
 70
     6
  9
$UCSNAME
  2

  9
$UCSORG
 10
0.0
 20
0.0
 30
0.0
  9
$UCSXDIR
 10
1.0
 20
0.0
 30
0.0
  9
$UCSYDIR
 10
0.0
 20
1.0
 30
0.0
  9
$PUCSNAME
  2

  9
$PUCSORG
 10
0.0
 20
0.0
 30
0.0
  9
$PUCSXDIR
 10
1.0
 20
0.0
 30
0.0
  9
$PUCSYDIR
 10
0.0
 20
1.0
 30
0.0
  9
$USERI1
 70
     0
  9
$USERI2
 70
     0
  9
$USERI3
 70
     0
  9
$USERI4
 70
     0
  9
$USERI5
 70
     0
  9
$USERR1
 40
0.0
  9
$USERR2
 40
0.0
  9
$USERR3
 40
0.0
  9
$USERR4
 40
0.0
  9
$USERR5
 40
0.0
  9
$WORLDVIEW
 70
     1
  9
$SHADEDGE
 70
     3
  9
$SHADEDIF
 70
    70
  9
$TILEMODE
 70
     0
  9
$MAXACTVP
 70
    48
  9
$PINSBASE
 10
0.0
 20
0.0
 30
0.0
  9
$PLIMCHECK
 70
     0
  9
$PEXTMIN
 10
0.0
 20
0.0
 30
0.0
  9
$PEXTMAX
 10
16.419119
 20
10.584167
 30
0.0
  9
$PLIMMIN
 10
-0.28125
 20
-0.28125
  9
$PLIMMAX
 10
16.71875
 20
10.71875
  9
$UNITMODE
 70
     0
  9
$VISRETAIN
 70
     1
  9
$PLINEGEN
 70
     0
  9
$PSLTSCALE
 70
     1
  9
$TREEDEPTH
 70
  3020
  9
$PICKSTYLE
 70
     1
  9
$CMLSTYLE
  2
STANDARD
  9
$CMLJUST
 70
     0
  9
$CMLSCALE
 40
1.0
  9
$PROXYGRAPHICS
 70
     1
  9
$MEASUREMENT
 70
     0
  0
ENDSEC
  0
SECTION
  2
CLASSES
  0
CLASS
  1
LWPOLYLINE
  2
AcDbPolyline
  3
"AutoCAD"
 90
        0
280
     0
281
     1
  0
CLASS
  1
IMAGE
  2
AcDbRasterImage
  3
ISM
 90
      127
280
     0
281
     1
  0
CLASS
  1
OLE2FRAME
  2
AcDbOle2Frame
  3
""
 90
        0
280
     0
281
     1
  0
CLASS
  1
HATCH
  2
AcDbHatch
  3
"ACAD_SEDONA"
 90
        0
280
     0
281
     1
  0
CLASS
  1
DICTIONARYVAR
  2
AcDbDictionaryVar
  3
"AutoCAD"
 90
        0
280
     0
281
     0
  0
CLASS
  1
RASTERVARIABLES
  2
AcDbRasterVariables
  3
ISM
 90
        0
280
     0
281
     0
  0
CLASS
  1
IMAGEDEF
  2
AcDbRasterImageDef
  3
ISM
 90
        0
280
     0
281
     0
  0
CLASS
  1
IMAGEDEF_REACTOR
  2
AcDbRasterImageDefReactor
  3
ISM
 90
        1
280
     0
281
     0
  0
CLASS
  1
IDBUFFER
  2
AcDbIdBuffer
  3
"Acad"
 90
        0
280
     0
281
     0
  0
CLASS
  1
SPATIAL_FILTER
  2
AcDbSpatialFilter
  3
"Acad"
 90
        0
280
     0
281
     0
  0
CLASS
  1
XRECORD
  2
AcDbXrecord
  3
"<Built In>"
 90
        0
280
     0
281
     0
  0
CLASS
  1
SORTENTSTABLE
  2
AcDbSortentsTable
  3
"AutoCAD"
 90
        0
280
     0
281
     0
  0
CLASS
  1
LAYER_INDEX
  2
AcDbLayerIndex
  3
"Acad"
 90
        0
280
     0
281
     0
  0
CLASS
  1
SPATIAL_INDEX
  2
AcDbSpatialIndex
  3
"Acad"
 90
        0
280
     0
281
     0
  0
CLASS
  1
OBJECT_PTR
  2
CAseDLPNTableRecord
  3
ASE-LPNTableRecord
 90
        1
280
     0
281
     0
  0
CLASS
  1
ACDBDICTIONARYWDFLT
  2
AcDbDictionaryWithDefault
  3
AutoCAD 2000
 90
        0
280
     0
281
     0
  0
CLASS
  1
ACDBPLACEHOLDER
  2
AcDbPlaceHolder
  3
AutoCAD 2000
 90
        0
280
     0
281
     0
  0
CLASS
  1
LAYOUT
  2
AcDbLayout
  3
AutoCAD 2000
 90
        0
280
     0
281
     0
  0
CLASS
  1
LONG_TRANSACTION
  2
AcDbLongTransaction
  3
AutoCAD 2000
 90
        0
280
     0
281
     0
  0
CLASS
  1
LWPOLYLINE
  2
AcDbPolyline
  3
"AutoCAD"
 90
        0
280
     0
281
     1
  0
CLASS
  1
HATCH
  2
AcDbHatch
  3
"ACAD_SEDONA"
 90
        0
280
     0
281
     1
  0
CLASS
  1
XRECORD
  2
AcDbXrecord
  3
"<Built In>"
 90
        0
280
     0
281
     0
  0
CLASS
  1
LONG_TRANSACTION
  2
AcDbLongTransaction
  3
AutoCAD 2000
 90
        0
280
     0
281
     0
  0
CLASS
  1
LWPOLYLINE
  2
AcDbPolyline
  3
"AutoCAD"
 90
        0
280
     0
281
     1
  0
CLASS
  1
HATCH
  2
AcDbHatch
  3
"ACAD_SEDONA"
 90
        0
280
     0
281
     1
  0
CLASS
  1
XRECORD
  2
AcDbXrecord
  3
"<Built In>"
 90
        0
280
     0
281
     0
  0
ENDSEC
  0
SECTION
  2
TABLES
  0
TABLE
  2
VPORT
  5
7
100
AcDbSymbolTable
 70
     2
  0
VPORT
  5
1E
102
{ACAD_XDICTIONARY
360
A13
102
}
100
AcDbSymbolTableRecord
100
AcDbViewportTableRecord
  2
M_SHEET
 70
     0
 10
0.0
 20
0.0
 11
1.0
 21
1.0
 12
8.5
 22
5.5
 13
0.0
 23
0.0
 14
0.19685
 24
0.19685
 15
0.19685
 25
0.19685
 16
0.0
 26
0.0
 36
1.0
 17
0.0
 27
0.0
 37
0.0
 40
11.0
 41
1.545455
 42
50.0
 43
0.0
 44
0.0
 50
0.0
 51
0.0
 71
     0
 72
   100
 73
     1
 74
     1
 75
     0
 76
     0
 77
     0
 78
     0
  0
VPORT
  5
9B5
102
{ACAD_XDICTIONARY
360
9ED
102
}
100
AcDbSymbolTableRecord
100
AcDbViewportTableRecord
  2
*ACTIVE
 70
     0
 10
0.0
 20
0.0
 11
1.0
 21
1.0
 12
184.908836
 22
42.006877
 13
0.0
 23
0.0
 14
0.19685
 24
0.19685
 15
0.19685
 25
0.19685
 16
0.0
 26
0.0
 36
1.0
 17
0.0
 27
0.0
 37
0.0
 40
169.802226
 41
1.553459
 42
50.0
 43
0.0
 44
0.0
 50
0.0
 51
0.0
 71
     0
 72
   100
 73
     1
 74
     0
 75
     0
 76
     0
 77
     0
 78
     0
  0
ENDTAB
  0
TABLE
  2
LTYPE
  5
4
100
AcDbSymbolTable
 70
     3
  0
LTYPE
  5
11
100
AcDbSymbolTableRecord
100
AcDbLinetypeTableRecord
  2
BYBLOCK
 70
     0
  3

 72
    65
 73
     0
 40
0.0
  0
LTYPE
  5
12
100
AcDbSymbolTableRecord
100
AcDbLinetypeTableRecord
  2
BYLAYER
 70
     0
  3

 72
    65
 73
     0
 40
0.0
  0
LTYPE
  5
13
100
AcDbSymbolTableRecord
100
AcDbLinetypeTableRecord
  2
CONTINUOUS
 70
     0
  3
Solid line
 72
    65
 73
     0
 40
0.0
  0
LTYPE
  5
824
100
AcDbSymbolTableRecord
100
AcDbLinetypeTableRecord
  2
CENTER
 70
     0
  3
Center ____ _ ____ _ ____ _ ____ _ ____ _ ____
 72
    65
 73
     4
 40
2.0
 49
1.25
 74
     0
 49
-0.25
 74
     0
 49
0.25
 74
     0
 49
-0.25
 74
     0
  0
LTYPE
  5
825
100
AcDbSymbolTableRecord
100
AcDbLinetypeTableRecord
  2
HIDDEN
 70
     0
  3
Hidden __ __ __ __ __ __ __ __ __ __ __ __ __ _
 72
    65
 73
     2
 40
0.375
 49
0.25
 74
     0
 49
-0.125
 74
     0
  0
ENDTAB
  0
TABLE
  2
LAYER
  5
2
100
AcDbSymbolTable
 70
     7
  0
LAYER
  5
14
100
AcDbSymbolTableRecord
100
AcDbLayerTableRecord
  2
0
 70
     0
 62
     7
  6
CONTINUOUS
  0
LAYER
  5
826
100
AcDbSymbolTableRecord
100
AcDbLayerTableRecord
  2
BORDER
 70
     0
 62
     7
  6
CONTINUOUS
  0
LAYER
  5
827
100
AcDbSymbolTableRecord
100
AcDbLayerTableRecord
  2
CENTER1
 70
     0
 62
     5
  6
CENTER
  0
LAYER
  5
828
100
AcDbSymbolTableRecord
100
AcDbLayerTableRecord
  2
DIM
 70
     0
 62
     2
  6
CONTINUOUS
  0
LAYER
  5
82A
100
AcDbSymbolTableRecord
100
AcDbLayerTableRecord
  2
HIDDEN1
 70
     0
 62
     4
  6
HIDDEN
  0
LAYER
  5
82B
100
AcDbSymbolTableRecord
100
AcDbLayerTableRecord
  2
OBJECT1
 70
     0
 62
     1
  6
CONTINUOUS
  0
LAYER
  5
82C
100
AcDbSymbolTableRecord
100
AcDbLayerTableRecord
  2
TEXT1
 70
     0
 62
     3
  6
CONTINUOUS
  0
ENDTAB
  0
TABLE
  2
STYLE
  5
3
100
AcDbSymbolTable
 70
     2
  0
STYLE
  5
17
100
AcDbSymbolTableRecord
100
AcDbTextStyleTableRecord
  2
STANDARD
 70
     0
 40
0.0
 41
1.0
 50
0.0
 71
     0
 42
0.0
  3
TXT.SHX
  4

  0
STYLE
  5
1D
100
AcDbSymbolTableRecord
100
AcDbTextStyleTableRecord
  2
M_STANDARD
 70
     0
 40
0.0
 41
0.8
 50
0.0
 71
     0
 42
0.0
  3
MEDUSA.SHX
  4

  0
ENDTAB
  0
TABLE
  2
VIEW
  5
5
100
AcDbSymbolTable
 70
     0
  0
ENDTAB
  0
TABLE
  2
UCS
  5
6
100
AcDbSymbolTable
 70
     0
  0
ENDTAB
  0
TABLE
  2
APPID
  5
8
100
AcDbSymbolTable
 70
     2
  0
APPID
  5
16
100
AcDbSymbolTableRecord
100
AcDbRegAppTableRecord
  2
ACAD
 70
     0
  0
APPID
  5
2B0
100
AcDbSymbolTableRecord
100
AcDbRegAppTableRecord
  2
MED_PRIMTYPE
 70
     0
  0
ENDTAB
  0
TABLE
  2
DIMSTYLE
  5
9
100
AcDbSymbolTable
 70
     1
  0
DIMSTYLE
105
18
102
{ACAD_XDICTIONARY
360
A11
102
}
100
AcDbSymbolTableRecord
100
AcDbDimStyleTableRecord
  2
STANDARD
 70
     0
  3

  4

  5

  6

  7

 40
1.0
 41
0.18
 42
0.0625
 43
0.38
 44
0.18
 45
0.0
 46
0.0
 47
0.0
 48
0.0
140
0.18
141
0.09
142
0.0
143
25.4
144
1.0
145
0.0
146
1.0
147
0.09
 71
     0
 72
     0
 73
     1
 74
     1
 75
     0
 76
     0
 77
     0
 78
     0
170
     0
171
     2
172
     0
173
     0
174
     0
175
     0
176
     0
177
     0
178
     0
270
     2
271
     4
272
     4
273
     2
274
     2
340
17
275
     0
280
     0
281
     0
282
     0
283
     1
284
     0
285
     0
286
     0
287
     0
288
     0
  0
ENDTAB
  0
TABLE
  2
BLOCK_RECORD
  5
1
100
AcDbSymbolTable
 70
     4
  0
BLOCK_RECORD
  5
A
102
{ACAD_XDICTIONARY
360
9D8
102
}
100
AcDbSymbolTableRecord
100
AcDbBlockTableRecord
  2
*MODEL_SPACE
  0
BLOCK_RECORD
  5
B
102
{ACAD_XDICTIONARY
360
9DA
102
}
100
AcDbSymbolTableRecord
100
AcDbBlockTableRecord
  2
*PAPER_SPACE
  0
BLOCK_RECORD
  5
20
100
AcDbSymbolTableRecord
100
AcDbBlockTableRecord
  2
M_PIC_H94
  0
BLOCK_RECORD
  5
304
100
AcDbSymbolTableRecord
100
AcDbBlockTableRecord
  2
M_PFN_100
  0
BLOCK_RECORD
  5
4DD
100
AcDbSymbolTableRecord
100
AcDbBlockTableRecord
  2
M_PFN_2
  0
BLOCK_RECORD
  5
4EA
100
AcDbSymbolTableRecord
100
AcDbBlockTableRecord
  2
M_PFN_101
  0
ENDTAB
  0
ENDSEC
  0
SECTION
  2
BLOCKS
  0
BLOCK
  5
D
100
AcDbEntity
  8
0
100
AcDbBlockBegin
  2
*MODEL_SPACE
 70
     0
 10
0.0
 20
0.0
 30
0.0
  3
*MODEL_SPACE
  1

  0
ENDBLK
  5
E
100
AcDbEntity
  8
0
100
AcDbBlockEnd
  0
BLOCK
  5
F
100
AcDbEntity
 67
     1
  8
0
100
AcDbBlockBegin
  2
*PAPER_SPACE
 70
     0
 10
0.0
 20
0.0
 30
0.0
  3
*PAPER_SPACE
  1

  0
ENDBLK
  5
10
100
AcDbEntity
 67
     1
  8
0
100
AcDbBlockEnd
  0
BLOCK
  5
21
100
AcDbEntity
  8
0
100
AcDbBlockBegin
  2
M_PIC_H94
 70
     0
 10
0.0
 20
0.0
 30
0.0
  3
M_PIC_H94
  1

  0
LWPOLYLINE
  5
22
100
AcDbEntity
  8
0
  6
CONTINUOUS
 62
     7
100
AcDbPolyline
 90
       22
 70
   128
 43
0.0
 10
-5.11339
 20
-0.301445
 10
-4.810833
 20
-0.301445
 42
-0.199003
 10
-4.783699
 20
-0.312714
 42
-0.198673
 10
-4.772459
 20
-0.33989
 10
-4.772459
 20
-0.605909
 10
-4.929823
 20
-0.492928
 42
0.231527
 10
-4.94663
 20
-0.490172
 42
0.114949
 10
-4.954186
 20
-0.494512
 42
0.115493
 10
-4.959024
 20
-0.501734
 10
-4.986414
 20
-0.57379
 42
0.166181
 10
-4.986897
 20
-0.586213
 42
0.167547
 10
-4.979664
 20
-0.59626
 10
-4.801939
 20
-0.72377
 42
-0.032184
 10
-4.806118
 20
-0.724464
 42
-0.025916
 10
-4.810833
 20
-0.724695
 10
-5.368751
 20
-0.724695
 42
-0.198815
 10
-5.396047
 20
-0.713426
 42
-0.199202
 10
-5.407353
 20
-0.68618
 10
-5.407353
 20
-0.33989
 42
-0.199515
 10
-5.396047
 20
-0.312721
 42
-0.19831
 10
-5.368751
 20
-0.301467
 10
-5.11339
 20
-0.301467
  0
LWPOLYLINE
  5
23
100
AcDbEntity
  8
0
  6
CONTINUOUS
 62
     7
100
AcDbPolyline
 90
       19
 70
   128
 43
0.0
 10
-5.11339
 20
-0.186008
 10
-5.368751
 20
-0.186008
 42
0.198729
 10
-5.477663
 20
-0.231094
 42
0.199033
 10
-5.522776
 20
-0.33989
 10
-5.522776
 20
-0.68618
 42
0.414214
 10
-5.368751
 20
-0.840156
 10
-4.810833
 20
-0.840156
 42
0.198222
 10
-4.702351
 20
-0.79524
 10
-4.660149
 20
-0.825516
 42
0.233776
 10
-4.643412
 20
-0.828333
 42
0.232317
 10
-4.630945
 20
-0.816729
 10
-4.603556
 20
-0.744642
 42
0.164432
 10
-4.603153
 20
-0.732287
 42
0.163812
 10
-4.610317
 20
-0.722183
 10
-4.656948
 20
-0.688578
 10
-4.656948
 20
-0.68618
 10
-4.656948
 20
-0.33989
 42
0.414384
 10
-4.810833
 20
-0.186059
 10
-5.11339
 20
-0.186059
  0
LINE
  5
24
100
AcDbEntity
  8
0
  6
CONTINUOUS
 62
     7
100
AcDbLine
 10
-4.630794
 20
-0.707455
 30
0.0
 11
-4.630794
 21
-0.816225
 31
0.0
  0
LINE
  5
25
100
AcDbEntity
  8
0
  6
CONTINUOUS
 62
     7
100
AcDbLine
 10
-4.672884
 20
-0.816414
 30
0.0
 11
-4.672884
 21
-0.27178
 31
0.0
  0
LINE
  5
26
100
AcDbEntity
  8
0
  6
CONTINUOUS
 62
     7
100
AcDbLine
 10
-4.714954
 20
-0.219568
 30
0.0
 11
-4.714954
 21
-0.806457
 31
0.0
  0
LINE
  5
27
100
AcDbEntity
  8
0
  6
CONTINUOUS
 62
     7
100
AcDbLine
 10
-4.757036
 20
-0.830362
 30
0.0
 11
-4.757036
 21
-0.195751
 31
0.0
  0
LINE
  5
28
100
AcDbEntity
  8
0
  6
CONTINUOUS
 62
     7
100
AcDbLine
 10
-4.799107
 20
-0.18648
 30
0.0
 11
-4.799107
 21
-0.303289
 31
0.0
  0
LINE
  5
29
100
AcDbEntity
  8
0
  6
CONTINUOUS
 62
     7
100
AcDbLine
 10
-4.799107
 20
-0.586763
 30
0.0
 11
-4.799107
 21
-0.839691
 31
0.0
  0
LINE
  5
2A
100
AcDbEntity
  8
0
  6
CONTINUOUS
 62
     7
100
AcDbLine
 10
-4.841187
 20
-0.840132
 30
0.0
 11
-4.841187
 21
-0.724695
 31
0.0
  0
LINE
  5
2B
100
AcDbEntity
  8
0
  6
CONTINUOUS
 62
     7
100
AcDbLine
 10
-4.841187
 20
-0.695654
 30
0.0
 11
-4.841187
 21
-0.55657
 31
0.0
  0
LINE
  5
2C
100
AcDbEntity
  8
0
  6
CONTINUOUS
 62
     7
100
AcDbLine
 10
-4.841187
 20
-0.301445
 30
0.0
 11
-4.841187
 21
-0.186028
 31
0.0
  0
LINE
  5
2D
100
AcDbEntity
  8
0
  6
CONTINUOUS
 62
     7
100
AcDbLine
 10
-4.883257
 20
-0.186028
 30
0.0
 11
-4.883257
 21
-0.301445
 31
0.0
  0
LINE
  5
2E
100
AcDbEntity
  8
0
  6
CONTINUOUS
 62
     7
100
AcDbLine
 10
-4.883257
 20
-0.526375
 30
0.0
 11
-4.883257
 21
-0.665461
 31
0.0
  0
LINE
  5
2F
100
AcDbEntity
  8
0
  6
CONTINUOUS
 62
     7
100
AcDbLine
 10
-4.883257
 20
-0.724695
 30
0.0
 11
-4.883257
 21
-0.840132
 31
0.0
  0
LINE
  5
30
100
AcDbEntity
  8
0
  6
CONTINUOUS
 62
     7
100
AcDbLine
 10
-4.925337
 20
-0.840132
 30
0.0
 11
-4.925337
 21
-0.724695
 31
0.0
  0
LINE
  5
31
100
AcDbEntity
  8
0
  6
CONTINUOUS
 62
     7
100
AcDbLine
 10
-4.925337
 20
-0.635273
 30
0.0
 11
-4.925337
 21
-0.496182
 31
0.0
  0
LINE
  5
32
100
AcDbEntity
  8
0
  6
CONTINUOUS
 62
     7
100
AcDbLine
 10
-4.925337
 20
-0.301445
 30
0.0
 11
-4.925337
 21
-0.186028
 31
0.0
  0
LINE
  5
33
100
AcDbEntity
  8
0
  6
CONTINUOUS
 62
     7
100
AcDbLine
 10
-4.967409
 20
-0.186028
 30
0.0
 11
-4.967409
 21
-0.301445
 31
0.0
  0
LINE
  5
34
100
AcDbEntity
  8
0
  6
CONTINUOUS
 62
     7
100
AcDbLine
 10
-4.967409
 20
-0.523687
 30
0.0
 11
-4.967409
 21
-0.60508
 31
0.0
  0
LINE
  5
35
100
AcDbEntity
  8
0
  6
CONTINUOUS
 62
     7
100
AcDbLine
 10
-4.967409
 20
-0.724695
 30
0.0
 11
-4.967409
 21
-0.840132
 31
0.0
  0
LINE
  5
36
100
AcDbEntity
  8
0
  6
CONTINUOUS
 62
     7
100
AcDbLine
 10
-5.009499
 20
-0.840132
 30
0.0
 11
-5.009499
 21
-0.724695
 31
0.0
  0
LINE
  5
37
100
AcDbEntity
  8
0
  6
CONTINUOUS
 62
     7
100
AcDbLine
 10
-5.009499
 20
-0.301445
 30
0.0
 11
-5.009499
 21
-0.186028
 31
0.0
  0
LINE
  5
38
100
AcDbEntity
  8
0
  6
CONTINUOUS
 62
     7
100
AcDbLine
 10
-5.051578
 20
-0.186028
 30
0.0
 11
-5.051578
 21
-0.301445
 31
0.0
  0
LINE
  5
39
100
AcDbEntity
  8
0
  6
CONTINUOUS
 62
     7
100
AcDbLine
 10
-5.051578
 20
-0.724695
 30
0.0
 11
-5.051578
 21
-0.840132
 31
0.0
  0
LINE
  5
3A
100
AcDbEntity
  8
0
  6
CONTINUOUS
 62
     7
100
AcDbLine
 10
-5.093668
 20
-0.840132
 30
0.0
 11
-5.093668
 21
-0.724695
 31
0.0
  0
LINE
  5
3B
100
AcDbEntity
  8
0
  6
CONTINUOUS
 62
     7
100
AcDbLine
 10
-5.093668
 20
-0.301445
 30
0.0
 11
-5.093668
 21
-0.186028
 31
0.0
  0
LINE
  5
3C
100
AcDbEntity
  8
0
  6
CONTINUOUS
 62
     7
100
AcDbLine
 10
-5.135738
 20
-0.186014
 30
0.0
 11
-5.135738
 21
-0.301456
 31
0.0
  0
LINE
  5
3D
100
AcDbEntity
  8
0
  6
CONTINUOUS
 62
     7
100
AcDbLine
 10
-5.135738
 20
-0.724695
 30
0.0
 11
-5.135738
 21
-0.840132
 31
0.0
  0
LINE
  5
3E
100
AcDbEntity
  8
0
  6
CONTINUOUS
 62
     7
100
AcDbLine
 10
-5.177818
 20
-0.840132
 30
0.0
 11
-5.177818
 21
-0.724695
 31
0.0
  0
LINE
  5
3F
100
AcDbEntity
  8
0
  6
CONTINUOUS
 62
     7
100
AcDbLine
 10
-5.177818
 20
-0.301456
 30
0.0
 11
-5.177818
 21
-0.186014
 31
0.0
  0
LINE
  5
40
100
AcDbEntity
  8
0
  6
CONTINUOUS
 62
     7
100
AcDbLine
 10
-5.219889
 20
-0.186014
 30
0.0
 11
-5.219889
 21
-0.301456
 31
0.0
  0
LINE
  5
41
100
AcDbEntity
  8
0
  6
CONTINUOUS
 62
     7
100
AcDbLine
 10
-5.219889
 20
-0.724695
 30
0.0
 11
-5.219889
 21
-0.840132
 31
0.0
  0
LINE
  5
42
100
AcDbEntity
  8
0
  6
CONTINUOUS
 62
     7
100
AcDbLine
 10
-5.261971
 20
-0.840132
 30
0.0
 11
-5.261971
 21
-0.724695
 31
0.0
  0
LINE
  5
43
100
AcDbEntity
  8
0
  6
CONTINUOUS
 62
     7
100
AcDbLine
 10
-5.261971
 20
-0.301456
 30
0.0
 11
-5.261971
 21
-0.186014
 31
0.0
  0
LINE
  5
44
100
AcDbEntity
  8
0
  6
CONTINUOUS
 62
     7
100
AcDbLine
 10
-5.304041
 20
-0.186014
 30
0.0
 11
-5.304041
 21
-0.301456
 31
0.0
  0
LINE
  5
45
100
AcDbEntity
  8
0
  6
CONTINUOUS
 62
     7
100
AcDbLine
 10
-5.304041
 20
-0.724695
 30
0.0
 11
-5.304041
 21
-0.840132
 31
0.0
  0
LINE
  5
46
100
AcDbEntity
  8
0
  6
CONTINUOUS
 62
     7
100
AcDbLine
 10
-5.346121
 20
-0.840132
 30
0.0
 11
-5.346121
 21
-0.724695
 31
0.0
  0
LINE
  5
47
100
AcDbEntity
  8
0
  6
CONTINUOUS
 62
     7
100
AcDbLine
 10
-5.346121
 20
-0.301456
 30
0.0
 11
-5.346121
 21
-0.186014
 31
0.0
  0
LINE
  5
48
100
AcDbEntity
  8
0
  6
CONTINUOUS
 62
     7
100
AcDbLine
 10
-5.388191
 20
-0.187241
 30
0.0
 11
-5.388191
 21
-0.306694
 31
0.0
  0
LINE
  5
49
100
AcDbEntity
  8
0
  6
CONTINUOUS
 62
     7
100
AcDbLine
 10
-5.388191
 20
-0.719446
 30
0.0
 11
-5.388191
 21
-0.838903
 31
0.0
  0
LINE
  5
4A
100
AcDbEntity
  8
0
  6
CONTINUOUS
 62
     7
100
AcDbLine
 10
-5.43028
 20
-0.827322
 30
0.0
 11
-5.43028
 21
-0.19883
 31
0.0
  0
LINE
  5
4B
100
AcDbEntity
  8
0
  6
CONTINUOUS
 62
     7
100
AcDbLine
 10
-5.47237
 20
-0.226059
 30
0.0
 11
-5.47237
 21
-0.800076
 31
0.0
  0
LINE
  5
4C
100
AcDbEntity
  8
0
  6
CONTINUOUS
 62
     7
100
AcDbLine
 10
-5.51445
 20
-0.736031
 30
0.0
 11
-5.51445
 21
-0.290071
 31
0.0
  0
LWPOLYLINE
  5
4D
100
AcDbEntity
  8
0
  6
CONTINUOUS
 62
     7
100
AcDbPolyline
 90
       14
 70
   129
 43
0.0
 10
-6.444588
 20
-1.051706
 42
-0.200808
 10
-6.439001
 20
-1.038146
 42
-0.098683
 10
-6.432749
 20
-1.033989
 42
-0.097926
 10
-6.425354
 20
-1.032529
 10
8.225342
 20
-1.032529
 42
-0.199134
 10
8.238079
 20
-1.037814
 42
-0.198689
 10
8.243355
 20
-1.050573
 10
8.243355
 20
-1.091461
 42
-0.196933
 10
8.238036
 20
-1.104249
 42
-0.098339
 10
8.232204
 20
-1.108169
 42
-0.099142
 10
8.225342
 20
-1.109545
 10
-6.425354
 20
-1.109545
 42
-0.199686
 10
-6.438954
 20
-1.103878
 42
-0.198135
 10
-6.444588
 20
-1.090197
  0
LINE
  5
4E
100
AcDbEntity
  8
0
  6
CONTINUOUS
 62
     7
100
AcDbLine
 10
-6.44453
 20
-1.091763
 30
0.0
 11
8.243355
 21
-1.091763
 31
0.0
  0
LINE
  5
4F
100
AcDbEntity
  8
0
  6
CONTINUOUS
 62
     7
100
AcDbLine
 10
8.243355
 20
-1.055735
 30
0.0
 11
-6.444588
 21
-1.055735
 31
0.0
  0
LWPOLYLINE
  5
50
100
AcDbEntity
  8
0
  6
CONTINUOUS
 62
     7
100
AcDbPolyline
 90
       32
 70
   129
 43
0.0
 10
7.756069
 20
-0.565123
 42
-0.196195
 10
7.761685
 20
-0.578901
 10
7.761685
 20
-0.82089
 42
0.199759
 10
7.767373
 20
-0.834533
 42
0.198058
 10
7.781105
 20
-0.840183
 10
7.858063
 20
-0.840183
 42
0.099524
 10
7.865361
 20
-0.838715
 42
0.098914
 10
7.871548
 20
-0.834533
 42
0.197419
 10
7.877134
 20
-0.82089
 10
7.877134
 20
-0.578901
 42
-0.000302
 10
7.877125
 20
-0.565123
 10
8.237858
 20
-0.219021
 42
0.304686
 10
8.242201
 20
-0.198034
 42
0.304943
 10
8.224434
 20
-0.186069
 10
8.114228
 20
-0.186069
 42
0.026102
 10
8.112439
 20
-0.186162
 42
0.032383
 10
8.110854
 20
-0.18643
 42
0.040523
 10
8.109487
 20
-0.186873
 10
8.10889
 20
-0.187157
 10
8.108351
 20
-0.187484
 42
0.059464
 10
8.107456
 20
-0.188259
 42
0.064817
 10
8.106811
 20
-0.18919
 42
0.063275
 10
8.106421
 20
-0.190268
 10
8.106324
 20
-0.19086
 10
8.106291
 20
-0.191484
 10
7.832466
 20
-0.453274
 42
-0.42128
 10
7.806637
 20
-0.453274
 10
7.538379
 20
-0.191484
 10
7.534152
 20
-0.187456
 10
7.53267
 20
-0.186033
 10
7.414742
 20
-0.186033
 42
0.672929
 10
7.401314
 20
-0.219034
  0
LINE
  5
51
100
AcDbEntity
  8
0
  6
CONTINUOUS
 62
     7
100
AcDbLine
 10
8.202805
 20
-0.253193
 30
0.0
 11
8.202805
 21
-0.186052
 31
0.0
  0
LINE
  5
52
100
AcDbEntity
  8
0
  6
CONTINUOUS
 62
     7
100
AcDbLine
 10
8.160732
 20
-0.186052
 30
0.0
 11
8.160732
 21
-0.294243
 31
0.0
  0
LINE
  5
53
100
AcDbEntity
  8
0
  6
CONTINUOUS
 62
     7
100
AcDbLine
 10
8.118645
 20
-0.335295
 30
0.0
 11
8.118645
 21
-0.186052
 31
0.0
  0
LINE
  5
54
100
AcDbEntity
  8
0
  6
CONTINUOUS
 62
     7
100
AcDbLine
 10
8.076561
 20
-0.215075
 30
0.0
 11
8.076561
 21
-0.376347
 31
0.0
  0
LINE
  5
55
100
AcDbEntity
  8
0
  6
CONTINUOUS
 62
     7
100
AcDbLine
 10
8.034493
 20
-0.417385
 30
0.0
 11
8.034493
 21
-0.256126
 31
0.0
  0
LINE
  5
56
100
AcDbEntity
  8
0
  6
CONTINUOUS
 62
     7
100
AcDbLine
 10
7.992382
 20
-0.297176
 30
0.0
 11
7.992382
 21
-0.458448
 31
0.0
  0
LINE
  5
57
100
AcDbEntity
  8
0
  6
CONTINUOUS
 62
     7
100
AcDbLine
 10
7.950313
 20
-0.499498
 30
0.0
 11
7.950313
 21
-0.338228
 31
0.0
  0
LINE
  5
58
100
AcDbEntity
  8
0
  6
CONTINUOUS
 62
     7
100
AcDbLine
 10
7.908234
 20
-0.379278
 30
0.0
 11
7.908234
 21
-0.540556
 31
0.0
  0
LINE
  5
59
100
AcDbEntity
  8
0
  6
CONTINUOUS
 62
     7
100
AcDbLine
 10
7.866146
 20
-0.83835
 30
0.0
 11
7.866146
 21
-0.42033
 31
0.0
  0
LINE
  5
5A
100
AcDbEntity
  8
0
  6
CONTINUOUS
 62
     7
100
AcDbLine
 10
7.824074
 20
-0.458128
 30
0.0
 11
7.824074
 21
-0.84017
 31
0.0
  0
LINE
  5
5B
100
AcDbEntity
  8
0
  6
CONTINUOUS
 62
     7
100
AcDbLine
 10
7.78199
 20
-0.84017
 30
0.0
 11
7.78199
 21
-0.429312
 31
0.0
  0
LINE
  5
5C
100
AcDbEntity
  8
0
  6
CONTINUOUS
 62
     7
100
AcDbLine
 10
7.739922
 20
-0.388243
 30
0.0
 11
7.739922
 21
-0.549463
 31
0.0
  0
LINE
  5
5D
100
AcDbEntity
  8
0
  6
CONTINUOUS
 62
     7
100
AcDbLine
 10
7.697811
 20
-0.508411
 30
0.0
 11
7.697811
 21
-0.347178
 31
0.0
  0
LINE
  5
5E
100
AcDbEntity
  8
0
  6
CONTINUOUS
 62
     7
100
AcDbLine
 10
7.655742
 20
-0.306128
 30
0.0
 11
7.655742
 21
-0.467361
 31
0.0
  0
LINE
  5
5F
100
AcDbEntity
  8
0
  6
CONTINUOUS
 62
     7
100
AcDbLine
 10
7.613663
 20
-0.42631
 30
0.0
 11
7.613663
 21
-0.265057
 31
0.0
  0
LINE
  5
60
100
AcDbEntity
  8
0
  6
CONTINUOUS
 62
     7
100
AcDbLine
 10
7.571575
 20
-0.223988
 30
0.0
 11
7.571575
 21
-0.385258
 31
0.0
  0
LINE
  5
61
100
AcDbEntity
  8
0
  6
CONTINUOUS
 62
     7
100
AcDbLine
 10
7.529503
 20
-0.344194
 30
0.0
 11
7.529503
 21
-0.186619
 31
0.0
  0
LINE
  5
62
100
AcDbEntity
  8
0
  6
CONTINUOUS
 62
     7
100
AcDbLine
 10
7.487419
 20
-0.186033
 30
0.0
 11
7.487419
 21
-0.303156
 31
0.0
  0
LINE
  5
63
100
AcDbEntity
  8
0
  6
CONTINUOUS
 62
     7
100
AcDbLine
 10
7.445351
 20
-0.262106
 30
0.0
 11
7.445351
 21
-0.186033
 31
0.0
  0
LINE
  5
64
100
AcDbEntity
  8
0
  6
CONTINUOUS
 62
     7
100
AcDbLine
 10
7.403271
 20
-0.189772
 30
0.0
 11
7.403271
 21
-0.221041
 31
0.0
  0
LWPOLYLINE
  5
65
100
AcDbEntity
  8
0
  6
CONTINUOUS
 62
     7
100
AcDbPolyline
 90
       50
 70
   129
 43
0.0
 10
7.099693
 20
-0.20525
 42
-0.201328
 10
7.105263
 20
-0.191683
 42
-0.098817
 10
7.111519
 20
-0.187525
 42
-0.097853
 10
7.118927
 20
-0.186064
 10
7.19587
 20
-0.186064
 42
-0.199225
 10
7.209384
 20
-0.191689
 42
-0.198418
 10
7.214982
 20
-0.20525
 10
7.214982
 20
-0.82089
 42
-0.197477
 10
7.209377
 20
-0.834533
 42
-0.200133
 10
7.19587
 20
-0.840183
 10
7.068707
 20
-0.840183
 42
-0.025621
 10
7.066981
 20
-0.840098
 42
-0.031939
 10
7.065454
 20
-0.839846
 42
-0.040183
 10
7.06414
 20
-0.83943
 10
7.063565
 20
-0.839161
 10
7.063048
 20
-0.838852
 10
7.062589
 20
-0.838505
 10
7.062189
 20
-0.838119
 42
-0.06536
 10
7.06157
 20
-0.837236
 42
-0.063885
 10
7.061197
 20
-0.836211
 10
7.061103
 20
-0.835648
 10
7.061072
 20
-0.835052
 10
6.516304
 20
-0.339676
 42
0.145077
 10
6.506378
 20
-0.33488
 42
0.144593
 10
6.495421
 20
-0.336253
 42
0.145334
 10
6.486997
 20
-0.343348
 42
0.146426
 10
6.483848
 20
-0.353857
 10
6.483848
 20
-0.82089
 42
-0.097783
 10
6.482418
 20
-0.828273
 42
-0.09845
 10
6.478297
 20
-0.834533
 42
-0.200587
 10
6.464802
 20
-0.840183
 10
6.387871
 20
-0.840183
 42
-0.198356
 10
6.37417
 20
-0.834533
 42
-0.199465
 10
6.368495
 20
-0.82089
 10
6.368495
 20
-0.20525
 42
-0.200189
 10
6.37417
 20
-0.191683
 42
-0.197632
 10
6.387871
 20
-0.186064
 10
6.515049
 20
-0.186064
 42
-0.026006
 10
6.516715
 20
-0.186146
 42
-0.032398
 10
6.518189
 20
-0.186392
 42
-0.040686
 10
6.519459
 20
-0.1868
 10
6.520014
 20
-0.187063
 10
6.520513
 20
-0.187365
 42
-0.059852
 10
6.521343
 20
-0.188083
 42
-0.065063
 10
6.52194
 20
-0.188948
 42
-0.063191
 10
6.522301
 20
-0.189953
 10
6.522391
 20
-0.190504
 10
6.522422
 20
-0.191088
 10
7.067433
 20
-0.686476
 42
0.653089
 10
7.099693
 20
-0.672314
  0
LINE
  5
66
100
AcDbEntity
  8
0
  6
CONTINUOUS
 62
     7
100
AcDbLine
 10
7.192963
 20
-0.186045
 30
0.0
 11
7.192963
 21
-0.84017
 31
0.0
  0
LINE
  5
67
100
AcDbEntity
  8
0
  6
CONTINUOUS
 62
     7
100
AcDbLine
 10
7.150894
 20
-0.84017
 30
0.0
 11
7.150894
 21
-0.186045
 31
0.0
  0
LINE
  5
68
100
AcDbEntity
  8
0
  6
CONTINUOUS
 62
     7
100
AcDbLine
 10
7.108807
 20
-0.188896
 30
0.0
 11
7.108807
 21
-0.84017
 31
0.0
  0
LINE
  5
69
100
AcDbEntity
  8
0
  6
CONTINUOUS
 62
     7
100
AcDbLine
 10
7.066712
 20
-0.840069
 30
0.0
 11
7.066712
 21
-0.685871
 31
0.0
  0
LINE
  5
6A
100
AcDbEntity
  8
0
  6
CONTINUOUS
 62
     7
100
AcDbLine
 10
7.024635
 20
-0.647224
 30
0.0
 11
7.024635
 21
-0.806589
 31
0.0
  0
LINE
  5
6B
100
AcDbEntity
  8
0
  6
CONTINUOUS
 62
     7
100
AcDbLine
 10
6.982563
 20
-0.767942
 30
0.0
 11
6.982563
 21
-0.608572
 31
0.0
  0
LINE
  5
6C
100
AcDbEntity
  8
0
  6
CONTINUOUS
 62
     7
100
AcDbLine
 10
6.940483
 20
-0.569939
 30
0.0
 11
6.940483
 21
-0.729301
 31
0.0
  0
LINE
  5
6D
100
AcDbEntity
  8
0
  6
CONTINUOUS
 62
     7
100
AcDbLine
 10
6.898414
 20
-0.690655
 30
0.0
 11
6.898414
 21
-0.531284
 31
0.0
  0
LINE
  5
6E
100
AcDbEntity
  8
0
  6
CONTINUOUS
 62
     7
100
AcDbLine
 10
6.856334
 20
-0.492645
 30
0.0
 11
6.856334
 21
-0.652021
 31
0.0
  0
LINE
  5
6F
100
AcDbEntity
  8
0
  6
CONTINUOUS
 62
     7
100
AcDbLine
 10
6.814244
 20
-0.613361
 30
0.0
 11
6.814244
 21
-0.453999
 31
0.0
  0
LINE
  5
70
100
AcDbEntity
  8
0
  6
CONTINUOUS
 62
     7
100
AcDbLine
 10
6.772156
 20
-0.415344
 30
0.0
 11
6.772156
 21
-0.574728
 31
0.0
  0
LINE
  5
71
100
AcDbEntity
  8
0
  6
CONTINUOUS
 62
     7
100
AcDbLine
 10
6.730084
 20
-0.536076
 30
0.0
 11
6.730084
 21
-0.376705
 31
0.0
  0
LINE
  5
72
100
AcDbEntity
  8
0
  6
CONTINUOUS
 62
     7
100
AcDbLine
 10
6.688004
 20
-0.338058
 30
0.0
 11
6.688004
 21
-0.497429
 31
0.0
  0
LINE
  5
73
100
AcDbEntity
  8
0
  6
CONTINUOUS
 62
     7
100
AcDbLine
 10
6.645931
 20
-0.458788
 30
0.0
 11
6.645931
 21
-0.299418
 31
0.0
  0
LINE
  5
74
100
AcDbEntity
  8
0
  6
CONTINUOUS
 62
     7
100
AcDbLine
 10
6.603844
 20
-0.260771
 30
0.0
 11
6.603844
 21
-0.420141
 31
0.0
  0
LINE
  5
75
100
AcDbEntity
  8
0
  6
CONTINUOUS
 62
     7
100
AcDbLine
 10
6.561763
 20
-0.3815
 30
0.0
 11
6.561763
 21
-0.222118
 31
0.0
  0
LINE
  5
76
100
AcDbEntity
  8
0
  6
CONTINUOUS
 62
     7
100
AcDbLine
 10
6.519691
 20
-0.18663
 30
0.0
 11
6.519691
 21
-0.342848
 31
0.0
  0
LINE
  5
77
100
AcDbEntity
  8
0
  6
CONTINUOUS
 62
     7
100
AcDbLine
 10
6.477611
 20
-0.835222
 30
0.0
 11
6.477611
 21
-0.186045
 31
0.0
  0
LINE
  5
78
100
AcDbEntity
  8
0
  6
CONTINUOUS
 62
     7
100
AcDbLine
 10
6.435539
 20
-0.186045
 30
0.0
 11
6.435539
 21
-0.84017
 31
0.0
  0
LINE
  5
79
100
AcDbEntity
  8
0
  6
CONTINUOUS
 62
     7
100
AcDbLine
 10
6.393452
 20
-0.84017
 30
0.0
 11
6.393452
 21
-0.186045
 31
0.0
  0
LWPOLYLINE
  5
7A
100
AcDbEntity
  8
0
  6
CONTINUOUS
 62
     7
100
AcDbPolyline
 90
       53
 70
   129
 43
0.0
 10
4.272854
 20
-0.820871
 42
0.200163
 10
4.278433
 20
-0.834527
 42
0.199439
 10
4.292088
 20
-0.840183
 10
4.369053
 20
-0.840183
 42
0.200133
 10
4.382568
 20
-0.834533
 42
0.197691
 10
4.388166
 20
-0.82089
 10
4.388166
 20
-0.205236
 42
0.198558
 10
4.382565
 20
-0.19168
 42
0.199265
 10
4.369045
 20
-0.186064
 10
4.244163
 20
-0.186064
 42
0.031263
 10
4.241967
 20
-0.186201
 42
0.03752
 10
4.239999
 20
-0.186597
 42
0.044963
 10
4.238285
 20
-0.187249
 42
0.052655
 10
4.236849
 20
-0.188147
 42
0.058565
 10
4.235711
 20
-0.189278
 42
0.060292
 10
4.234887
 20
-0.190627
 42
0.056989
 10
4.234388
 20
-0.192175
 42
0.050217
 10
4.234221
 20
-0.193901
 10
3.884388
 20
-0.664957
 42
-0.11737
 10
3.877529
 20
-0.670776
 42
-0.117966
 10
3.868805
 20
-0.672867
 42
-0.240739
 10
3.853317
 20
-0.664957
 10
3.509075
 20
-0.193888
 42
0.115246
 10
3.502195
 20
-0.188131
 42
0.117226
 10
3.493545
 20
-0.186062
 10
3.368664
 20
-0.186062
 42
0.197338
 10
3.354962
 20
-0.191685
 42
0.098834
 10
3.350761
 20
-0.197903
 42
0.099476
 10
3.349286
 20
-0.205236
 10
3.349286
 20
-0.820866
 42
0.19933
 10
3.354962
 20
-0.834523
 42
0.198495
 10
3.368664
 20
-0.840181
 10
3.445602
 20
-0.840181
 42
0.20007
 10
3.459122
 20
-0.834531
 42
0.197756
 10
3.464722
 20
-0.82089
 10
3.464722
 20
-0.387928
 42
-0.158655
 10
3.468402
 20
-0.37664
 42
-0.157919
 10
3.478036
 20
-0.369651
 42
-0.157583
 10
3.489952
 20
-0.369625
 42
-0.158107
 10
3.499607
 20
-0.376572
 10
3.832584
 20
-0.832232
 42
0.121214
 10
3.839334
 20
-0.838078
 42
0.118857
 10
3.848107
 20
-0.840179
 10
3.88958
 20
-0.840179
 42
0.032804
 10
3.891709
 20
-0.840046
 42
0.039254
 10
3.893618
 20
-0.839648
 42
0.04666
 10
3.895279
 20
-0.838989
 42
0.053842
 10
3.896672
 20
-0.83808
 42
0.118153
 10
3.898574
 20
-0.835562
 42
0.054885
 10
3.899058
 20
-0.833988
 42
0.047931
 10
3.89922
 20
-0.832232
 10
4.238083
 20
-0.376572
 42
-0.725453
 10
4.272854
 20
-0.387928
  0
LINE
  5
7B
100
AcDbEntity
  8
0
  6
CONTINUOUS
 62
     7
100
AcDbLine
 10
4.373783
 20
-0.186638
 30
0.0
 11
4.373783
 21
-0.83956
 31
0.0
  0
LINE
  5
7C
100
AcDbEntity
  8
0
  6
CONTINUOUS
 62
     7
100
AcDbLine
 10
4.331696
 20
-0.840162
 30
0.0
 11
4.331696
 21
-0.186033
 31
0.0
  0
LINE
  5
7D
100
AcDbEntity
  8
0
  6
CONTINUOUS
 62
     7
100
AcDbLine
 10
4.289604
 20
-0.186033
 30
0.0
 11
4.289604
 21
-0.840012
 31
0.0
  0
LINE
  5
7E
100
AcDbEntity
  8
0
  6
CONTINUOUS
 62
     7
100
AcDbLine
 10
4.247532
 20
-0.369667
 30
0.0
 11
4.247532
 21
-0.186033
 31
0.0
  0
LINE
  5
7F
100
AcDbEntity
  8
0
  6
CONTINUOUS
 62
     7
100
AcDbLine
 10
4.205452
 20
-0.225536
 30
0.0
 11
4.205452
 21
-0.421173
 31
0.0
  0
LINE
  5
80
100
AcDbEntity
  8
0
  6
CONTINUOUS
 62
     7
100
AcDbLine
 10
4.16338
 20
-0.478754
 30
0.0
 11
4.16338
 21
-0.28311
 31
0.0
  0
LINE
  5
81
100
AcDbEntity
  8
0
  6
CONTINUOUS
 62
     7
100
AcDbLine
 10
4.121292
 20
-0.340702
 30
0.0
 11
4.121292
 21
-0.536327
 31
0.0
  0
LINE
  5
82
100
AcDbEntity
  8
0
  6
CONTINUOUS
 62
     7
100
AcDbLine
 10
4.079212
 20
-0.593912
 30
0.0
 11
4.079212
 21
-0.398275
 31
0.0
  0
LINE
  5
83
100
AcDbEntity
  8
0
  6
CONTINUOUS
 62
     7
100
AcDbLine
 10
4.03714
 20
-0.455862
 30
0.0
 11
4.03714
 21
-0.651487
 31
0.0
  0
LINE
  5
84
100
AcDbEntity
  8
0
  6
CONTINUOUS
 62
     7
100
AcDbLine
 10
3.99506
 20
-0.709066
 30
0.0
 11
3.99506
 21
-0.513435
 31
0.0
  0
LINE
  5
85
100
AcDbEntity
  8
0
  6
CONTINUOUS
 62
     7
100
AcDbLine
 10
3.952991
 20
-0.571014
 30
0.0
 11
3.952991
 21
-0.766653
 31
0.0
  0
LINE
  5
86
100
AcDbEntity
  8
0
  6
CONTINUOUS
 62
     7
100
AcDbLine
 10
3.9109
 20
-0.824226
 30
0.0
 11
3.9109
 21
-0.628601
 31
0.0
  0
LINE
  5
87
100
AcDbEntity
  8
0
  6
CONTINUOUS
 62
     7
100
AcDbLine
 10
3.868809
 20
-0.672869
 30
0.0
 11
3.868809
 21
-0.840151
 31
0.0
  0
LINE
  5
88
100
AcDbEntity
  8
0
  6
CONTINUOUS
 62
     7
100
AcDbLine
 10
3.826732
 20
-0.824339
 30
0.0
 11
3.826732
 21
-0.628683
 31
0.0
  0
LINE
  5
89
100
AcDbEntity
  8
0
  6
CONTINUOUS
 62
     7
100
AcDbLine
 10
3.78466
 20
-0.571102
 30
0.0
 11
3.78466
 21
-0.766752
 31
0.0
  0
LINE
  5
8A
100
AcDbEntity
  8
0
  6
CONTINUOUS
 62
     7
100
AcDbLine
 10
3.74258
 20
-0.709173
 30
0.0
 11
3.74258
 21
-0.513517
 31
0.0
  0
LINE
  5
8B
100
AcDbEntity
  8
0
  6
CONTINUOUS
 62
     7
100
AcDbLine
 10
3.700508
 20
-0.455936
 30
0.0
 11
3.700508
 21
-0.651587
 31
0.0
  0
LINE
  5
8C
100
AcDbEntity
  8
0
  6
CONTINUOUS
 62
     7
100
AcDbLine
 10
3.658428
 20
-0.594013
 30
0.0
 11
3.658428
 21
-0.398363
 31
0.0
  0
LINE
  5
8D
100
AcDbEntity
  8
0
  6
CONTINUOUS
 62
     7
100
AcDbLine
 10
3.616341
 20
-0.340776
 30
0.0
 11
3.616341
 21
-0.536434
 31
0.0
  0
LINE
  5
8E
100
AcDbEntity
  8
0
  6
CONTINUOUS
 62
     7
100
AcDbLine
 10
3.574249
 20
-0.478842
 30
0.0
 11
3.574249
 21
-0.283203
 31
0.0
  0
LINE
  5
8F
100
AcDbEntity
  8
0
  6
CONTINUOUS
 62
     7
100
AcDbLine
 10
3.532181
 20
-0.225611
 30
0.0
 11
3.532181
 21
-0.421268
 31
0.0
  0
LINE
  5
90
100
AcDbEntity
  8
0
  6
CONTINUOUS
 62
     7
100
AcDbLine
 10
3.490097
 20
-0.369699
 30
0.0
 11
3.490097
 21
-0.186033
 31
0.0
  0
LINE
  5
91
100
AcDbEntity
  8
0
  6
CONTINUOUS
 62
     7
100
AcDbLine
 10
3.448029
 20
-0.186033
 30
0.0
 11
3.448029
 21
-0.84
 31
0.0
  0
LINE
  5
92
100
AcDbEntity
  8
0
  6
CONTINUOUS
 62
     7
100
AcDbLine
 10
3.405949
 20
-0.840151
 30
0.0
 11
3.405949
 21
-0.186033
 31
0.0
  0
LINE
  5
93
100
AcDbEntity
  8
0
  6
CONTINUOUS
 62
     7
100
AcDbLine
 10
3.363876
 20
-0.18663
 30
0.0
 11
3.363876
 21
-0.839584
 31
0.0
  0
LWPOLYLINE
  5
94
100
AcDbEntity
  8
0
  6
CONTINUOUS
 62
     7
100
AcDbPolyline
 90
       31
 70
   129
 43
0.0
 10
1.524818
 20
-0.518616
 10
1.524818
 20
-0.339909
 42
-0.19989
 10
1.536039
 20
-0.312741
 42
-0.198727
 10
1.563293
 20
-0.301488
 10
2.025024
 20
-0.301488
 42
-0.199067
 10
2.05214
 20
-0.312747
 42
-0.198667
 10
2.063372
 20
-0.339909
 42
0.199288
 10
2.069042
 20
-0.353557
 42
0.198536
 10
2.082729
 20
-0.35921
 10
2.159687
 20
-0.35921
 42
0.199959
 10
2.173216
 20
-0.353561
 42
0.197866
 10
2.178821
 20
-0.339922
 42
0.414265
 10
2.025024
 20
-0.186064
 10
1.563293
 20
-0.186064
 42
0.198781
 10
1.454389
 20
-0.231128
 42
0.199044
 10
1.40928
 20
-0.339922
 10
1.40928
 20
-0.686193
 42
0.414214
 10
1.563293
 20
-0.840181
 10
2.025024
 20
-0.840181
 42
0.199069
 10
2.133775
 20
-0.79508
 42
0.198756
 10
2.178821
 20
-0.686199
 42
0.198335
 10
2.173205
 20
-0.672648
 42
0.199124
 10
2.159687
 20
-0.667035
 10
2.082729
 20
-0.667035
 42
0.197611
 10
2.069042
 20
-0.672648
 42
0.200214
 10
2.063372
 20
-0.686199
 42
-0.198268
 10
2.05214
 20
-0.71345
 42
-0.199557
 10
2.025024
 20
-0.724737
 10
1.563293
 20
-0.724737
 42
-0.198731
 10
1.536005
 20
-0.71345
 42
-0.199094
 10
1.524701
 20
-0.686199
  0
LINE
  5
95
100
AcDbEntity
  8
0
  6
CONTINUOUS
 62
     7
100
AcDbLine
 10
2.143673
 20
-0.241957
 30
0.0
 11
2.143673
 21
-0.359188
 31
0.0
  0
LINE
  5
96
100
AcDbEntity
  8
0
  6
CONTINUOUS
 62
     7
100
AcDbLine
 10
2.143673
 20
-0.667007
 30
0.0
 11
2.143673
 21
-0.78422
 31
0.0
  0
LINE
  5
97
100
AcDbEntity
  8
0
  6
CONTINUOUS
 62
     7
100
AcDbLine
 10
2.101593
 20
-0.819733
 30
0.0
 11
2.101593
 21
-0.667007
 31
0.0
  0
LINE
  5
98
100
AcDbEntity
  8
0
  6
CONTINUOUS
 62
     7
100
AcDbLine
 10
2.101593
 20
-0.359188
 30
0.0
 11
2.101593
 21
-0.206457
 31
0.0
  0
LINE
  5
99
100
AcDbEntity
  8
0
  6
CONTINUOUS
 62
     7
100
AcDbLine
 10
2.059521
 20
-0.189974
 30
0.0
 11
2.059521
 21
-0.322971
 31
0.0
  0
LINE
  5
9A
100
AcDbEntity
  8
0
  6
CONTINUOUS
 62
     7
100
AcDbLine
 10
2.059521
 20
-0.703175
 30
0.0
 11
2.059521
 21
-0.836235
 31
0.0
  0
LINE
  5
9B
100
AcDbEntity
  8
0
  6
CONTINUOUS
 62
     7
100
AcDbLine
 10
2.017433
 20
-0.840151
 30
0.0
 11
2.017433
 21
-0.72472
 31
0.0
  0
LINE
  5
9C
100
AcDbEntity
  8
0
  6
CONTINUOUS
 62
     7
100
AcDbLine
 10
2.017433
 20
-0.301476
 30
0.0
 11
2.017433
 21
-0.186045
 31
0.0
  0
LINE
  5
9D
100
AcDbEntity
  8
0
  6
CONTINUOUS
 62
     7
100
AcDbLine
 10
1.975353
 20
-0.186045
 30
0.0
 11
1.975353
 21
-0.301476
 31
0.0
  0
LINE
  5
9E
100
AcDbEntity
  8
0
  6
CONTINUOUS
 62
     7
100
AcDbLine
 10
1.975353
 20
-0.72472
 30
0.0
 11
1.975353
 21
-0.840151
 31
0.0
  0
LINE
  5
9F
100
AcDbEntity
  8
0
  6
CONTINUOUS
 62
     7
100
AcDbLine
 10
1.933281
 20
-0.840151
 30
0.0
 11
1.933281
 21
-0.72472
 31
0.0
  0
LINE
  5
A0
100
AcDbEntity
  8
0
  6
CONTINUOUS
 62
     7
100
AcDbLine
 10
1.933281
 20
-0.301476
 30
0.0
 11
1.933281
 21
-0.186045
 31
0.0
  0
LINE
  5
A1
100
AcDbEntity
  8
0
  6
CONTINUOUS
 62
     7
100
AcDbLine
 10
1.891201
 20
-0.186045
 30
0.0
 11
1.891201
 21
-0.301476
 31
0.0
  0
LINE
  5
A2
100
AcDbEntity
  8
0
  6
CONTINUOUS
 62
     7
100
AcDbLine
 10
1.891201
 20
-0.72472
 30
0.0
 11
1.891201
 21
-0.840151
 31
0.0
  0
LINE
  5
A3
100
AcDbEntity
  8
0
  6
CONTINUOUS
 62
     7
100
AcDbLine
 10
1.84911
 20
-0.840151
 30
0.0
 11
1.84911
 21
-0.72472
 31
0.0
  0
LINE
  5
A4
100
AcDbEntity
  8
0
  6
CONTINUOUS
 62
     7
100
AcDbLine
 10
1.84911
 20
-0.301476
 30
0.0
 11
1.84911
 21
-0.186045
 31
0.0
  0
LINE
  5
A5
100
AcDbEntity
  8
0
  6
CONTINUOUS
 62
     7
100
AcDbLine
 10
1.807022
 20
-0.186045
 30
0.0
 11
1.807022
 21
-0.301464
 31
0.0
  0
LINE
  5
A6
100
AcDbEntity
  8
0
  6
CONTINUOUS
 62
     7
100
AcDbLine
 10
1.807022
 20
-0.72472
 30
0.0
 11
1.807022
 21
-0.840151
 31
0.0
  0
LINE
  5
A7
100
AcDbEntity
  8
0
  6
CONTINUOUS
 62
     7
100
AcDbLine
 10
1.76495
 20
-0.840151
 30
0.0
 11
1.76495
 21
-0.72472
 31
0.0
  0
LINE
  5
A8
100
AcDbEntity
  8
0
  6
CONTINUOUS
 62
     7
100
AcDbLine
 10
1.76495
 20
-0.301464
 30
0.0
 11
1.76495
 21
-0.186045
 31
0.0
  0
LINE
  5
A9
100
AcDbEntity
  8
0
  6
CONTINUOUS
 62
     7
100
AcDbLine
 10
1.722874
 20
-0.186045
 30
0.0
 11
1.722874
 21
-0.301464
 31
0.0
  0
LINE
  5
AA
100
AcDbEntity
  8
0
  6
CONTINUOUS
 62
     7
100
AcDbLine
 10
1.722874
 20
-0.72472
 30
0.0
 11
1.722874
 21
-0.840151
 31
0.0
  0
LINE
  5
AB
100
AcDbEntity
  8
0
  6
CONTINUOUS
 62
     7
100
AcDbLine
 10
1.680801
 20
-0.840151
 30
0.0
 11
1.680801
 21
-0.72472
 31
0.0
  0
LINE
  5
AC
100
AcDbEntity
  8
0
  6
CONTINUOUS
 62
     7
100
AcDbLine
 10
1.680801
 20
-0.301464
 30
0.0
 11
1.680801
 21
-0.186045
 31
0.0
  0
LINE
  5
AD
100
AcDbEntity
  8
0
  6
CONTINUOUS
 62
     7
100
AcDbLine
 10
1.638721
 20
-0.186045
 30
0.0
 11
1.638721
 21
-0.301464
 31
0.0
  0
LINE
  5
AE
100
AcDbEntity
  8
0
  6
CONTINUOUS
 62
     7
100
AcDbLine
 10
1.638721
 20
-0.72472
 30
0.0
 11
1.638721
 21
-0.840151
 31
0.0
  0
LINE
  5
AF
100
AcDbEntity
  8
0
  6
CONTINUOUS
 62
     7
100
AcDbLine
 10
1.59663
 20
-0.840151
 30
0.0
 11
1.59663
 21
-0.72472
 31
0.0
  0
LINE
  5
B0
100
AcDbEntity
  8
0
  6
CONTINUOUS
 62
     7
100
AcDbLine
 10
1.59663
 20
-0.301464
 30
0.0
 11
1.59663
 21
-0.186045
 31
0.0
  0
LINE
  5
B1
100
AcDbEntity
  8
0
  6
CONTINUOUS
 62
     7
100
AcDbLine
 10
1.554558
 20
-0.186291
 30
0.0
 11
1.554558
 21
-0.302464
 31
0.0
  0
LINE
  5
B2
100
AcDbEntity
  8
0
  6
CONTINUOUS
 62
     7
100
AcDbLine
 10
1.554558
 20
-0.723732
 30
0.0
 11
1.554558
 21
-0.839918
 31
0.0
  0
LINE
  5
B3
100
AcDbEntity
  8
0
  6
CONTINUOUS
 62
     7
100
AcDbLine
 10
1.51247
 20
-0.831539
 30
0.0
 11
1.51247
 21
-0.194656
 31
0.0
  0
LINE
  5
B4
100
AcDbEntity
  8
0
  6
CONTINUOUS
 62
     7
100
AcDbLine
 10
1.47039
 20
-0.21719
 30
0.0
 11
1.47039
 21
-0.808994
 31
0.0
  0
LINE
  5
B5
100
AcDbEntity
  8
0
  6
CONTINUOUS
 62
     7
100
AcDbLine
 10
1.428318
 20
-0.760326
 30
0.0
 11
1.428318
 21
-0.26585
 31
0.0
  0
LWPOLYLINE
  5
B6
100
AcDbEntity
  8
0
  6
CONTINUOUS
 62
     7
100
AcDbPolyline
 90
       25
 70
   128
 43
0.0
 10
-0.108934
 20
-0.5158
 10
-0.108934
 20
-0.320662
 42
0.197803
 10
-0.114613
 20
-0.307104
 42
0.198515
 10
-0.128166
 20
-0.301488
 10
-0.205124
 20
-0.301488
 42
-0.198608
 10
-0.218811
 20
-0.295832
 42
-0.199217
 10
-0.224481
 20
-0.282177
 10
-0.224481
 20
-0.205217
 42
-0.200159
 10
-0.218811
 20
-0.191661
 42
-0.197667
 10
-0.205124
 20
-0.186045
 10
0.545181
 20
-0.186045
 42
-0.414242
 10
0.737452
 20
-0.378386
 10
0.737452
 20
-0.647717
 42
-0.198762
 10
0.681127
 20
-0.783809
 42
-0.199038
 10
0.545174
 20
-0.840181
 10
-0.205124
 20
-0.840181
 42
-0.198631
 10
-0.218811
 20
-0.834523
 42
-0.199194
 10
-0.224481
 20
-0.820866
 10
-0.224481
 20
-0.743917
 42
-0.200104
 10
-0.218811
 20
-0.730355
 42
-0.197721
 10
-0.205124
 20
-0.724737
 10
-0.128166
 20
-0.724737
 42
0.200196
 10
-0.114655
 20
-0.719085
 42
0.19763
 10
-0.109059
 20
-0.705441
 10
-0.109059
 20
-0.5158
  0
LWPOLYLINE
  5
B7
100
AcDbEntity
  8
0
  6
CONTINUOUS
 62
     7
100
AcDbPolyline
 90
       14
 70
   128
 43
0.0
 10
0.006504
 20
-0.5158
 10
0.006504
 20
-0.320662
 42
-0.201
 10
0.01209
 20
-0.307104
 42
-0.098683
 10
0.018345
 20
-0.302948
 42
-0.097851
 10
0.025745
 20
-0.301488
 10
0.545181
 20
-0.301488
 42
-0.414214
 10
0.622012
 20
-0.378386
 10
0.622012
 20
-0.647717
 42
-0.198603
 10
0.599506
 20
-0.702178
 42
-0.199221
 10
0.545174
 20
-0.724737
 10
0.025745
 20
-0.724737
 42
-0.198477
 10
0.012055
 20
-0.719085
 42
-0.199344
 10
0.006384
 20
-0.705441
 10
0.006384
 20
-0.5158
  0
LINE
  5
B8
100
AcDbEntity
  8
0
  6
CONTINUOUS
 62
     7
100
AcDbLine
 10
0.713051
 20
-0.28447
 30
0.0
 11
0.713051
 21
-0.741676
 31
0.0
  0
LINE
  5
B9
100
AcDbEntity
  8
0
  6
CONTINUOUS
 62
     7
100
AcDbLine
 10
0.670959
 20
-0.793303
 30
0.0
 11
0.670959
 21
-0.232862
 31
0.0
  0
LINE
  5
BA
100
AcDbEntity
  8
0
  6
CONTINUOUS
 62
     7
100
AcDbLine
 10
0.628872
 20
-0.205212
 30
0.0
 11
0.628872
 21
-0.820978
 31
0.0
  0
LINE
  5
BB
100
AcDbEntity
  8
0
  6
CONTINUOUS
 62
     7
100
AcDbLine
 10
0.586792
 20
-0.835581
 30
0.0
 11
0.586792
 21
-0.712465
 31
0.0
  0
LINE
  5
BC
100
AcDbEntity
  8
0
  6
CONTINUOUS
 62
     7
100
AcDbLine
 10
0.586792
 20
-0.313711
 30
0.0
 11
0.586792
 21
-0.190596
 31
0.0
  0
LINE
  5
BD
100
AcDbEntity
  8
0
  6
CONTINUOUS
 62
     7
100
AcDbLine
 10
0.54472
 20
-0.186028
 30
0.0
 11
0.54472
 21
-0.301464
 31
0.0
  0
LINE
  5
BE
100
AcDbEntity
  8
0
  6
CONTINUOUS
 62
     7
100
AcDbLine
 10
0.54472
 20
-0.724714
 30
0.0
 11
0.54472
 21
-0.840151
 31
0.0
  0
LINE
  5
BF
100
AcDbEntity
  8
0
  6
CONTINUOUS
 62
     7
100
AcDbLine
 10
0.50264
 20
-0.840151
 30
0.0
 11
0.50264
 21
-0.724714
 31
0.0
  0
LINE
  5
C0
100
AcDbEntity
  8
0
  6
CONTINUOUS
 62
     7
100
AcDbLine
 10
0.50264
 20
-0.301464
 30
0.0
 11
0.50264
 21
-0.186028
 31
0.0
  0
LINE
  5
C1
100
AcDbEntity
  8
0
  6
CONTINUOUS
 62
     7
100
AcDbLine
 10
0.460567
 20
-0.186028
 30
0.0
 11
0.460567
 21
-0.301464
 31
0.0
  0
LINE
  5
C2
100
AcDbEntity
  8
0
  6
CONTINUOUS
 62
     7
100
AcDbLine
 10
0.460567
 20
-0.724714
 30
0.0
 11
0.460567
 21
-0.840151
 31
0.0
  0
LINE
  5
C3
100
AcDbEntity
  8
0
  6
CONTINUOUS
 62
     7
100
AcDbLine
 10
0.41848
 20
-0.840151
 30
0.0
 11
0.41848
 21
-0.724714
 31
0.0
  0
LINE
  5
C4
100
AcDbEntity
  8
0
  6
CONTINUOUS
 62
     7
100
AcDbLine
 10
0.41848
 20
-0.301464
 30
0.0
 11
0.41848
 21
-0.186028
 31
0.0
  0
LINE
  5
C5
100
AcDbEntity
  8
0
  6
CONTINUOUS
 62
     7
100
AcDbLine
 10
0.3764
 20
-0.186028
 30
0.0
 11
0.3764
 21
-0.301464
 31
0.0
  0
LINE
  5
C6
100
AcDbEntity
  8
0
  6
CONTINUOUS
 62
     7
100
AcDbLine
 10
0.3764
 20
-0.724714
 30
0.0
 11
0.3764
 21
-0.840151
 31
0.0
  0
LINE
  5
C7
100
AcDbEntity
  8
0
  6
CONTINUOUS
 62
     7
100
AcDbLine
 10
0.334328
 20
-0.840151
 30
0.0
 11
0.334328
 21
-0.724714
 31
0.0
  0
LINE
  5
C8
100
AcDbEntity
  8
0
  6
CONTINUOUS
 62
     7
100
AcDbLine
 10
0.334328
 20
-0.301464
 30
0.0
 11
0.334328
 21
-0.186028
 31
0.0
  0
LINE
  5
C9
100
AcDbEntity
  8
0
  6
CONTINUOUS
 62
     7
100
AcDbLine
 10
0.292248
 20
-0.186028
 30
0.0
 11
0.292248
 21
-0.301464
 31
0.0
  0
LINE
  5
CA
100
AcDbEntity
  8
0
  6
CONTINUOUS
 62
     7
100
AcDbLine
 10
0.292248
 20
-0.724714
 30
0.0
 11
0.292248
 21
-0.840151
 31
0.0
  0
LINE
  5
CB
100
AcDbEntity
  8
0
  6
CONTINUOUS
 62
     7
100
AcDbLine
 10
0.250156
 20
-0.840151
 30
0.0
 11
0.250156
 21
-0.724714
 31
0.0
  0
LINE
  5
CC
100
AcDbEntity
  8
0
  6
CONTINUOUS
 62
     7
100
AcDbLine
 10
0.250156
 20
-0.301464
 30
0.0
 11
0.250156
 21
-0.186028
 31
0.0
  0
LINE
  5
CD
100
AcDbEntity
  8
0
  6
CONTINUOUS
 62
     7
100
AcDbLine
 10
0.208088
 20
-0.186028
 30
0.0
 11
0.208088
 21
-0.301464
 31
0.0
  0
LINE
  5
CE
100
AcDbEntity
  8
0
  6
CONTINUOUS
 62
     7
100
AcDbLine
 10
0.208088
 20
-0.724714
 30
0.0
 11
0.208088
 21
-0.840151
 31
0.0
  0
LINE
  5
CF
100
AcDbEntity
  8
0
  6
CONTINUOUS
 62
     7
100
AcDbLine
 10
0.165997
 20
-0.840151
 30
0.0
 11
0.165997
 21
-0.724714
 31
0.0
  0
LINE
  5
D0
100
AcDbEntity
  8
0
  6
CONTINUOUS
 62
     7
100
AcDbLine
 10
0.165997
 20
-0.301464
 30
0.0
 11
0.165997
 21
-0.186028
 31
0.0
  0
LINE
  5
D1
100
AcDbEntity
  8
0
  6
CONTINUOUS
 62
     7
100
AcDbLine
 10
0.123917
 20
-0.186028
 30
0.0
 11
0.123917
 21
-0.301464
 31
0.0
  0
LINE
  5
D2
100
AcDbEntity
  8
0
  6
CONTINUOUS
 62
     7
100
AcDbLine
 10
0.123917
 20
-0.724714
 30
0.0
 11
0.123917
 21
-0.840151
 31
0.0
  0
LINE
  5
D3
100
AcDbEntity
  8
0
  6
CONTINUOUS
 62
     7
100
AcDbLine
 10
0.081848
 20
-0.840151
 30
0.0
 11
0.081848
 21
-0.724714
 31
0.0
  0
LINE
  5
D4
100
AcDbEntity
  8
0
  6
CONTINUOUS
 62
     7
100
AcDbLine
 10
0.081848
 20
-0.301464
 30
0.0
 11
0.081848
 21
-0.186028
 31
0.0
  0
LINE
  5
D5
100
AcDbEntity
  8
0
  6
CONTINUOUS
 62
     7
100
AcDbLine
 10
0.039768
 20
-0.186028
 30
0.0
 11
0.039768
 21
-0.301464
 31
0.0
  0
LINE
  5
D6
100
AcDbEntity
  8
0
  6
CONTINUOUS
 62
     7
100
AcDbLine
 10
0.039768
 20
-0.724714
 30
0.0
 11
0.039768
 21
-0.840151
 31
0.0
  0
LINE
  5
D7
100
AcDbEntity
  8
0
  6
CONTINUOUS
 62
     7
100
AcDbLine
 10
-0.002304
 20
-0.840151
 30
0.0
 11
-0.002304
 21
-0.186028
 31
0.0
  0
LINE
  5
D8
100
AcDbEntity
  8
0
  6
CONTINUOUS
 62
     7
100
AcDbLine
 10
-0.044382
 20
-0.186028
 30
0.0
 11
-0.044382
 21
-0.840151
 31
0.0
  0
LINE
  5
D9
100
AcDbEntity
  8
0
  6
CONTINUOUS
 62
     7
100
AcDbLine
 10
-0.086483
 20
-0.840151
 30
0.0
 11
-0.086483
 21
-0.186028
 31
0.0
  0
LINE
  5
DA
100
AcDbEntity
  8
0
  6
CONTINUOUS
 62
     7
100
AcDbLine
 10
-0.128561
 20
-0.186028
 30
0.0
 11
-0.128561
 21
-0.301456
 31
0.0
  0
LINE
  5
DB
100
AcDbEntity
  8
0
  6
CONTINUOUS
 62
     7
100
AcDbLine
 10
-0.128561
 20
-0.724714
 30
0.0
 11
-0.128561
 21
-0.840151
 31
0.0
  0
LINE
  5
DC
100
AcDbEntity
  8
0
  6
CONTINUOUS
 62
     7
100
AcDbLine
 10
-0.170633
 20
-0.840151
 30
0.0
 11
-0.170633
 21
-0.724714
 31
0.0
  0
LINE
  5
DD
100
AcDbEntity
  8
0
  6
CONTINUOUS
 62
     7
100
AcDbLine
 10
-0.170633
 20
-0.301456
 30
0.0
 11
-0.170633
 21
-0.186028
 31
0.0
  0
LINE
  5
DE
100
AcDbEntity
  8
0
  6
CONTINUOUS
 62
     7
100
AcDbLine
 10
-0.212713
 20
-0.187555
 30
0.0
 11
-0.212713
 21
-0.299927
 31
0.0
  0
LINE
  5
DF
100
AcDbEntity
  8
0
  6
CONTINUOUS
 62
     7
100
AcDbLine
 10
-0.212713
 20
-0.726231
 30
0.0
 11
-0.212713
 21
-0.838621
 31
0.0
  0
LWPOLYLINE
  5
E0
100
AcDbEntity
  8
0
  6
CONTINUOUS
 62
     7
100
AcDbPolyline
 90
       38
 70
   129
 43
0.0
 10
-1.550293
 20
-0.570749
 10
-1.550293
 20
-0.205217
 42
-0.200604
 10
-1.544698
 20
-0.191661
 42
-0.098627
 10
-1.538448
 20
-0.187505
 42
-0.097951
 10
-1.531059
 20
-0.186045
 10
-0.915417
 20
-0.186045
 42
-0.199198
 10
-0.90189
 20
-0.191661
 42
-0.198626
 10
-0.896287
 20
-0.205217
 10
-0.896287
 20
-0.282177
 42
-0.19774
 10
-0.90189
 20
-0.295827
 42
-0.200085
 10
-0.915417
 20
-0.30148
 10
-1.415621
 20
-0.30148
 42
0.197774
 10
-1.429303
 20
-0.307098
 42
0.200051
 10
-1.434971
 20
-0.320662
 10
-1.434971
 20
-0.436079
 42
0.199202
 10
-1.429303
 20
-0.449731
 42
0.198622
 10
-1.415621
 20
-0.455386
 10
-0.915417
 20
-0.455386
 42
-0.19904
 10
-0.90189
 20
-0.461008
 42
-0.198601
 10
-0.896287
 20
-0.474562
 10
-0.896287
 20
-0.551527
 42
-0.197767
 10
-0.90189
 20
-0.565174
 42
-0.200058
 10
-0.915417
 20
-0.570826
 10
-1.415621
 20
-0.570826
 42
0.197749
 10
-1.429303
 20
-0.576443
 42
0.200075
 10
-1.434971
 20
-0.590004
 10
-1.434971
 20
-0.705435
 42
0.199231
 10
-1.429303
 20
-0.719084
 42
0.198594
 10
-1.415621
 20
-0.724737
 10
-0.915417
 20
-0.724737
 42
-0.199252
 10
-0.90189
 20
-0.730355
 42
-0.198572
 10
-0.896287
 20
-0.743917
 10
-0.896287
 20
-0.820866
 42
-0.197663
 10
-0.90189
 20
-0.834523
 42
-0.200163
 10
-0.915417
 20
-0.840181
 10
-1.531059
 20
-0.840181
 42
-0.198568
 10
-1.544737
 20
-0.834519
 42
-0.199101
 10
-1.550402
 20
-0.820866
  0
LINE
  5
E1
100
AcDbEntity
  8
0
  6
CONTINUOUS
 62
     7
100
AcDbLine
 10
-0.927982
 20
-0.186028
 30
0.0
 11
-0.927982
 21
-0.301456
 31
0.0
  0
LINE
  5
E2
100
AcDbEntity
  8
0
  6
CONTINUOUS
 62
     7
100
AcDbLine
 10
-0.927982
 20
-0.45537
 30
0.0
 11
-0.927982
 21
-0.570807
 31
0.0
  0
LINE
  5
E3
100
AcDbEntity
  8
0
  6
CONTINUOUS
 62
     7
100
AcDbLine
 10
-0.927982
 20
-0.724701
 30
0.0
 11
-0.927982
 21
-0.840151
 31
0.0
  0
LINE
  5
E4
100
AcDbEntity
  8
0
  6
CONTINUOUS
 62
     7
100
AcDbLine
 10
-0.970053
 20
-0.840151
 30
0.0
 11
-0.970053
 21
-0.724701
 31
0.0
  0
LINE
  5
E5
100
AcDbEntity
  8
0
  6
CONTINUOUS
 62
     7
100
AcDbLine
 10
-0.970053
 20
-0.570807
 30
0.0
 11
-0.970053
 21
-0.45537
 31
0.0
  0
LINE
  5
E6
100
AcDbEntity
  8
0
  6
CONTINUOUS
 62
     7
100
AcDbLine
 10
-0.970053
 20
-0.301456
 30
0.0
 11
-0.970053
 21
-0.186028
 31
0.0
  0
LINE
  5
E7
100
AcDbEntity
  8
0
  6
CONTINUOUS
 62
     7
100
AcDbLine
 10
-1.012142
 20
-0.186028
 30
0.0
 11
-1.012142
 21
-0.301456
 31
0.0
  0
LINE
  5
E8
100
AcDbEntity
  8
0
  6
CONTINUOUS
 62
     7
100
AcDbLine
 10
-1.012142
 20
-0.45537
 30
0.0
 11
-1.012142
 21
-0.570807
 31
0.0
  0
LINE
  5
E9
100
AcDbEntity
  8
0
  6
CONTINUOUS
 62
     7
100
AcDbLine
 10
-1.012142
 20
-0.724701
 30
0.0
 11
-1.012142
 21
-0.840151
 31
0.0
  0
LINE
  5
EA
100
AcDbEntity
  8
0
  6
CONTINUOUS
 62
     7
100
AcDbLine
 10
-1.054224
 20
-0.840151
 30
0.0
 11
-1.054224
 21
-0.724701
 31
0.0
  0
LINE
  5
EB
100
AcDbEntity
  8
0
  6
CONTINUOUS
 62
     7
100
AcDbLine
 10
-1.054224
 20
-0.570807
 30
0.0
 11
-1.054224
 21
-0.45537
 31
0.0
  0
LINE
  5
EC
100
AcDbEntity
  8
0
  6
CONTINUOUS
 62
     7
100
AcDbLine
 10
-1.054224
 20
-0.301456
 30
0.0
 11
-1.054224
 21
-0.186028
 31
0.0
  0
LINE
  5
ED
100
AcDbEntity
  8
0
  6
CONTINUOUS
 62
     7
100
AcDbLine
 10
-1.096294
 20
-0.186028
 30
0.0
 11
-1.096294
 21
-0.301456
 31
0.0
  0
LINE
  5
EE
100
AcDbEntity
  8
0
  6
CONTINUOUS
 62
     7
100
AcDbLine
 10
-1.096294
 20
-0.45537
 30
0.0
 11
-1.096294
 21
-0.570807
 31
0.0
  0
LINE
  5
EF
100
AcDbEntity
  8
0
  6
CONTINUOUS
 62
     7
100
AcDbLine
 10
-1.096294
 20
-0.724701
 30
0.0
 11
-1.096294
 21
-0.840151
 31
0.0
  0
LINE
  5
F0
100
AcDbEntity
  8
0
  6
CONTINUOUS
 62
     7
100
AcDbLine
 10
-1.138384
 20
-0.840151
 30
0.0
 11
-1.138384
 21
-0.724701
 31
0.0
  0
LINE
  5
F1
100
AcDbEntity
  8
0
  6
CONTINUOUS
 62
     7
100
AcDbLine
 10
-1.138384
 20
-0.570807
 30
0.0
 11
-1.138384
 21
-0.45537
 31
0.0
  0
LINE
  5
F2
100
AcDbEntity
  8
0
  6
CONTINUOUS
 62
     7
100
AcDbLine
 10
-1.138384
 20
-0.301456
 30
0.0
 11
-1.138384
 21
-0.186028
 31
0.0
  0
LINE
  5
F3
100
AcDbEntity
  8
0
  6
CONTINUOUS
 62
     7
100
AcDbLine
 10
-1.180464
 20
-0.186028
 30
0.0
 11
-1.180464
 21
-0.301456
 31
0.0
  0
LINE
  5
F4
100
AcDbEntity
  8
0
  6
CONTINUOUS
 62
     7
100
AcDbLine
 10
-1.180464
 20
-0.45537
 30
0.0
 11
-1.180464
 21
-0.570807
 31
0.0
  0
LINE
  5
F5
100
AcDbEntity
  8
0
  6
CONTINUOUS
 62
     7
100
AcDbLine
 10
-1.180464
 20
-0.724701
 30
0.0
 11
-1.180464
 21
-0.840151
 31
0.0
  0
LINE
  5
F6
100
AcDbEntity
  8
0
  6
CONTINUOUS
 62
     7
100
AcDbLine
 10
-1.222534
 20
-0.840151
 30
0.0
 11
-1.222534
 21
-0.724701
 31
0.0
  0
LINE
  5
F7
100
AcDbEntity
  8
0
  6
CONTINUOUS
 62
     7
100
AcDbLine
 10
-1.222534
 20
-0.570807
 30
0.0
 11
-1.222534
 21
-0.45537
 31
0.0
  0
LINE
  5
F8
100
AcDbEntity
  8
0
  6
CONTINUOUS
 62
     7
100
AcDbLine
 10
-1.222534
 20
-0.301456
 30
0.0
 11
-1.222534
 21
-0.186028
 31
0.0
  0
LINE
  5
F9
100
AcDbEntity
  8
0
  6
CONTINUOUS
 62
     7
100
AcDbLine
 10
-1.264616
 20
-0.186028
 30
0.0
 11
-1.264616
 21
-0.301456
 31
0.0
  0
LINE
  5
FA
100
AcDbEntity
  8
0
  6
CONTINUOUS
 62
     7
100
AcDbLine
 10
-1.264616
 20
-0.45537
 30
0.0
 11
-1.264616
 21
-0.570807
 31
0.0
  0
LINE
  5
FB
100
AcDbEntity
  8
0
  6
CONTINUOUS
 62
     7
100
AcDbLine
 10
-1.264616
 20
-0.724701
 30
0.0
 11
-1.264616
 21
-0.840151
 31
0.0
  0
LINE
  5
FC
100
AcDbEntity
  8
0
  6
CONTINUOUS
 62
     7
100
AcDbLine
 10
-1.306686
 20
-0.840151
 30
0.0
 11
-1.306686
 21
-0.724701
 31
0.0
  0
LINE
  5
FD
100
AcDbEntity
  8
0
  6
CONTINUOUS
 62
     7
100
AcDbLine
 10
-1.306686
 20
-0.570807
 30
0.0
 11
-1.306686
 21
-0.45537
 31
0.0
  0
LINE
  5
FE
100
AcDbEntity
  8
0
  6
CONTINUOUS
 62
     7
100
AcDbLine
 10
-1.306686
 20
-0.301456
 30
0.0
 11
-1.306686
 21
-0.186028
 31
0.0
  0
LINE
  5
FF
100
AcDbEntity
  8
0
  6
CONTINUOUS
 62
     7
100
AcDbLine
 10
-1.348764
 20
-0.186028
 30
0.0
 11
-1.348764
 21
-0.301456
 31
0.0
  0
LINE
  5
100
100
AcDbEntity
  8
0
  6
CONTINUOUS
 62
     7
100
AcDbLine
 10
-1.348764
 20
-0.45537
 30
0.0
 11
-1.348764
 21
-0.570807
 31
0.0
  0
LINE
  5
101
100
AcDbEntity
  8
0
  6
CONTINUOUS
 62
     7
100
AcDbLine
 10
-1.348764
 20
-0.724701
 30
0.0
 11
-1.348764
 21
-0.840151
 31
0.0
  0
LINE
  5
102
100
AcDbEntity
  8
0
  6
CONTINUOUS
 62
     7
100
AcDbLine
 10
-1.390865
 20
-0.840151
 30
0.0
 11
-1.390865
 21
-0.724701
 31
0.0
  0
LINE
  5
103
100
AcDbEntity
  8
0
  6
CONTINUOUS
 62
     7
100
AcDbLine
 10
-1.390865
 20
-0.570807
 30
0.0
 11
-1.390865
 21
-0.45537
 31
0.0
  0
LINE
  5
104
100
AcDbEntity
  8
0
  6
CONTINUOUS
 62
     7
100
AcDbLine
 10
-1.390865
 20
-0.301456
 30
0.0
 11
-1.390865
 21
-0.186028
 31
0.0
  0
LINE
  5
105
100
AcDbEntity
  8
0
  6
CONTINUOUS
 62
     7
100
AcDbLine
 10
-1.432945
 20
-0.186028
 30
0.0
 11
-1.432945
 21
-0.312164
 31
0.0
  0
LINE
  5
106
100
AcDbEntity
  8
0
  6
CONTINUOUS
 62
     7
100
AcDbLine
 10
-1.432945
 20
-0.444626
 30
0.0
 11
-1.432945
 21
-0.581512
 31
0.0
  0
LINE
  5
107
100
AcDbEntity
  8
0
  6
CONTINUOUS
 62
     7
100
AcDbLine
 10
-1.432945
 20
-0.71397
 30
0.0
 11
-1.432945
 21
-0.840151
 31
0.0
  0
LINE
  5
108
100
AcDbEntity
  8
0
  6
CONTINUOUS
 62
     7
100
AcDbLine
 10
-1.475016
 20
-0.840151
 30
0.0
 11
-1.475016
 21
-0.186028
 31
0.0
  0
LINE
  5
109
100
AcDbEntity
  8
0
  6
CONTINUOUS
 62
     7
100
AcDbLine
 10
-1.517097
 20
-0.186028
 30
0.0
 11
-1.517097
 21
-0.840151
 31
0.0
  0
LWPOLYLINE
  5
10A
100
AcDbEntity
  8
0
  6
CONTINUOUS
 62
     7
100
AcDbPolyline
 90
       31
 70
   128
 43
0.0
 10
-2.491427
 20
-0.394573
 10
-2.491427
 20
-0.205217
 42
-0.201099
 10
-2.485848
 20
-0.191661
 42
-0.098731
 10
-2.479595
 20
-0.187505
 42
-0.097859
 10
-2.472195
 20
-0.186045
 10
-1.87582
 20
-0.186045
 42
-0.41425
 10
-1.722009
 20
-0.33989
 10
-1.722009
 20
-0.472668
 42
-0.198627
 10
-1.744519
 20
-0.527132
 42
-0.199198
 10
-1.798864
 20
-0.549692
 10
-1.798864
 20
-0.54962
 42
-0.413937
 10
-1.722009
 20
-0.626579
 10
-1.722009
 20
-0.820866
 42
-0.197672
 10
-1.727612
 20
-0.834523
 42
-0.200154
 10
-1.74114
 20
-0.840181
 10
-1.818096
 20
-0.840181
 42
-0.198472
 10
-1.831781
 20
-0.834518
 42
-0.199171
 10
-1.83745
 20
-0.820866
 10
-1.83745
 20
-0.647717
 42
0.198737
 10
-1.848688
 20
-0.620548
 42
0.199088
 10
-1.87582
 20
-0.609294
 10
-2.356773
 20
-0.609294
 42
0.197615
 10
-2.370465
 20
-0.614914
 42
0.200138
 10
-2.376136
 20
-0.628475
 10
-2.376136
 20
-0.820866
 42
-0.197684
 10
-2.381736
 20
-0.834514
 42
-0.200142
 10
-2.395256
 20
-0.840167
 10
-2.472195
 20
-0.840167
 42
-0.198496
 10
-2.485887
 20
-0.834514
 42
-0.199329
 10
-2.491558
 20
-0.820866
 10
-2.491558
 20
-0.394573
  0
LWPOLYLINE
  5
10B
100
AcDbEntity
  8
0
  6
CONTINUOUS
 62
     7
100
AcDbPolyline
 90
       13
 70
   128
 43
0.0
 10
-2.376024
 20
-0.394573
 10
-2.376024
 20
-0.45532
 42
0.415065
 10
-2.337542
 20
-0.49388
 10
-1.87582
 20
-0.49388
 42
0.199489
 10
-1.848688
 20
-0.482592
 42
0.198337
 10
-1.83745
 20
-0.455339
 10
-1.83745
 20
-0.33989
 42
0.198782
 10
-1.848688
 20
-0.31273
 42
0.199043
 10
-1.87582
 20
-0.30148
 10
-2.337542
 20
-0.30148
 42
0.198286
 10
-2.364832
 20
-0.31273
 42
0.199538
 10
-2.376136
 20
-0.33989
 10
-2.376136
 20
-0.394573
  0
LINE
  5
10C
100
AcDbEntity
  8
0
  6
CONTINUOUS
 62
     7
100
AcDbLine
 10
-1.72744
 20
-0.299116
 30
0.0
 11
-1.72744
 21
-0.50128
 31
0.0
  0
LINE
  5
10D
100
AcDbEntity
  8
0
  6
CONTINUOUS
 62
     7
100
AcDbLine
 10
-1.72744
 20
-0.597998
 30
0.0
 11
-1.72744
 21
-0.834372
 31
0.0
  0
LINE
  5
10E
100
AcDbEntity
  8
0
  6
CONTINUOUS
 62
     7
100
AcDbLine
 10
-1.769529
 20
-0.840143
 30
0.0
 11
-1.769529
 21
-0.555454
 31
0.0
  0
LINE
  5
10F
100
AcDbEntity
  8
0
  6
CONTINUOUS
 62
     7
100
AcDbLine
 10
-1.769529
 20
-0.543842
 30
0.0
 11
-1.769529
 21
-0.228632
 31
0.0
  0
LINE
  5
110
100
AcDbEntity
  8
0
  6
CONTINUOUS
 62
     7
100
AcDbLine
 10
-1.811619
 20
-0.200064
 30
0.0
 11
-1.811619
 21
-0.840143
 31
0.0
  0
LINE
  5
111
100
AcDbEntity
  8
0
  6
CONTINUOUS
 62
     7
100
AcDbLine
 10
-1.853701
 20
-0.616276
 30
0.0
 11
-1.853701
 21
-0.486835
 31
0.0
  0
LINE
  5
112
100
AcDbEntity
  8
0
  6
CONTINUOUS
 62
     7
100
AcDbLine
 10
-1.853701
 20
-0.308481
 30
0.0
 11
-1.853701
 21
-0.187632
 31
0.0
  0
LINE
  5
113
100
AcDbEntity
  8
0
  6
CONTINUOUS
 62
     7
100
AcDbLine
 10
-1.895771
 20
-0.186028
 30
0.0
 11
-1.895771
 21
-0.301456
 31
0.0
  0
LINE
  5
114
100
AcDbEntity
  8
0
  6
CONTINUOUS
 62
     7
100
AcDbLine
 10
-1.895771
 20
-0.493853
 30
0.0
 11
-1.895771
 21
-0.60927
 31
0.0
  0
LINE
  5
115
100
AcDbEntity
  8
0
  6
CONTINUOUS
 62
     7
100
AcDbLine
 10
-1.937851
 20
-0.60927
 30
0.0
 11
-1.937851
 21
-0.493853
 31
0.0
  0
LINE
  5
116
100
AcDbEntity
  8
0
  6
CONTINUOUS
 62
     7
100
AcDbLine
 10
-1.937851
 20
-0.301456
 30
0.0
 11
-1.937851
 21
-0.186028
 31
0.0
  0
LINE
  5
117
100
AcDbEntity
  8
0
  6
CONTINUOUS
 62
     7
100
AcDbLine
 10
-1.979921
 20
-0.186028
 30
0.0
 11
-1.979921
 21
-0.301456
 31
0.0
  0
LINE
  5
118
100
AcDbEntity
  8
0
  6
CONTINUOUS
 62
     7
100
AcDbLine
 10
-1.979921
 20
-0.493853
 30
0.0
 11
-1.979921
 21
-0.60927
 31
0.0
  0
LINE
  5
119
100
AcDbEntity
  8
0
  6
CONTINUOUS
 62
     7
100
AcDbLine
 10
-2.022011
 20
-0.60927
 30
0.0
 11
-2.022011
 21
-0.493853
 31
0.0
  0
LINE
  5
11A
100
AcDbEntity
  8
0
  6
CONTINUOUS
 62
     7
100
AcDbLine
 10
-2.022011
 20
-0.301456
 30
0.0
 11
-2.022011
 21
-0.186028
 31
0.0
  0
LINE
  5
11B
100
AcDbEntity
  8
0
  6
CONTINUOUS
 62
     7
100
AcDbLine
 10
-2.064091
 20
-0.186028
 30
0.0
 11
-2.064091
 21
-0.301456
 31
0.0
  0
LINE
  5
11C
100
AcDbEntity
  8
0
  6
CONTINUOUS
 62
     7
100
AcDbLine
 10
-2.064091
 20
-0.493853
 30
0.0
 11
-2.064091
 21
-0.60927
 31
0.0
  0
LINE
  5
11D
100
AcDbEntity
  8
0
  6
CONTINUOUS
 62
     7
100
AcDbLine
 10
-2.106161
 20
-0.60927
 30
0.0
 11
-2.106161
 21
-0.493853
 31
0.0
  0
LINE
  5
11E
100
AcDbEntity
  8
0
  6
CONTINUOUS
 62
     7
100
AcDbLine
 10
-2.106161
 20
-0.301456
 30
0.0
 11
-2.106161
 21
-0.186014
 31
0.0
  0
LINE
  5
11F
100
AcDbEntity
  8
0
  6
CONTINUOUS
 62
     7
100
AcDbLine
 10
-2.148241
 20
-0.186014
 30
0.0
 11
-2.148241
 21
-0.301456
 31
0.0
  0
LINE
  5
120
100
AcDbEntity
  8
0
  6
CONTINUOUS
 62
     7
100
AcDbLine
 10
-2.148241
 20
-0.493853
 30
0.0
 11
-2.148241
 21
-0.60927
 31
0.0
  0
LINE
  5
121
100
AcDbEntity
  8
0
  6
CONTINUOUS
 62
     7
100
AcDbLine
 10
-2.190332
 20
-0.60927
 30
0.0
 11
-2.190332
 21
-0.493853
 31
0.0
  0
LINE
  5
122
100
AcDbEntity
  8
0
  6
CONTINUOUS
 62
     7
100
AcDbLine
 10
-2.190332
 20
-0.301456
 30
0.0
 11
-2.190332
 21
-0.186014
 31
0.0
  0
LINE
  5
123
100
AcDbEntity
  8
0
  6
CONTINUOUS
 62
     7
100
AcDbLine
 10
-2.232403
 20
-0.186014
 30
0.0
 11
-2.232403
 21
-0.301456
 31
0.0
  0
LINE
  5
124
100
AcDbEntity
  8
0
  6
CONTINUOUS
 62
     7
100
AcDbLine
 10
-2.232403
 20
-0.493853
 30
0.0
 11
-2.232403
 21
-0.60927
 31
0.0
  0
LINE
  5
125
100
AcDbEntity
  8
0
  6
CONTINUOUS
 62
     7
100
AcDbLine
 10
-2.274483
 20
-0.60927
 30
0.0
 11
-2.274483
 21
-0.493853
 31
0.0
  0
LINE
  5
126
100
AcDbEntity
  8
0
  6
CONTINUOUS
 62
     7
100
AcDbLine
 10
-2.274483
 20
-0.301456
 30
0.0
 11
-2.274483
 21
-0.186014
 31
0.0
  0
LINE
  5
127
100
AcDbEntity
  8
0
  6
CONTINUOUS
 62
     7
100
AcDbLine
 10
-2.316553
 20
-0.186014
 30
0.0
 11
-2.316553
 21
-0.301456
 31
0.0
  0
LINE
  5
128
100
AcDbEntity
  8
0
  6
CONTINUOUS
 62
     7
100
AcDbLine
 10
-2.316553
 20
-0.493853
 30
0.0
 11
-2.316553
 21
-0.60927
 31
0.0
  0
LINE
  5
129
100
AcDbEntity
  8
0
  6
CONTINUOUS
 62
     7
100
AcDbLine
 10
-2.358643
 20
-0.60936
 30
0.0
 11
-2.358643
 21
-0.487572
 31
0.0
  0
LINE
  5
12A
100
AcDbEntity
  8
0
  6
CONTINUOUS
 62
     7
100
AcDbLine
 10
-2.358643
 20
-0.307713
 30
0.0
 11
-2.358643
 21
-0.186014
 31
0.0
  0
LINE
  5
12B
100
AcDbEntity
  8
0
  6
CONTINUOUS
 62
     7
100
AcDbLine
 10
-2.400703
 20
-0.186014
 30
0.0
 11
-2.400703
 21
-0.840143
 31
0.0
  0
LINE
  5
12C
100
AcDbEntity
  8
0
  6
CONTINUOUS
 62
     7
100
AcDbLine
 10
-2.442795
 20
-0.840143
 30
0.0
 11
-2.442795
 21
-0.186014
 31
0.0
  0
LINE
  5
12D
100
AcDbEntity
  8
0
  6
CONTINUOUS
 62
     7
100
AcDbLine
 10
-2.484875
 20
-0.190729
 30
0.0
 11
-2.484875
 21
-0.835423
 31
0.0
  0
LWPOLYLINE
  5
12E
100
AcDbEntity
  8
0
  6
CONTINUOUS
 62
     7
100
AcDbPolyline
 90
       20
 70
   128
 43
0.0
 10
4.559917
 20
-0.394592
 10
4.559917
 20
-0.205236
 42
-0.201384
 10
4.565488
 20
-0.19168
 42
-0.098782
 10
4.571744
 20
-0.187524
 42
-0.097796
 10
4.579151
 20
-0.186064
 10
5.175545
 20
-0.186064
 42
-0.414213
 10
5.329312
 20
-0.339922
 10
5.329312
 20
-0.455351
 42
-0.198757
 10
5.284269
 20
-0.564224
 42
-0.199068
 10
5.175526
 20
-0.609321
 10
4.694584
 20
-0.609321
 42
0.197919
 10
4.680884
 20
-0.614931
 42
0.200195
 10
4.675209
 20
-0.628506
 10
4.675209
 20
-0.820871
 42
-0.197629
 10
4.669609
 20
-0.834525
 42
-0.200198
 10
4.65609
 20
-0.840181
 10
4.579151
 20
-0.840181
 42
-0.198402
 10
4.565444
 20
-0.834525
 42
-0.199425
 10
4.559766
 20
-0.820871
 10
4.559766
 20
-0.394592
  0
LWPOLYLINE
  5
12F
100
AcDbEntity
  8
0
  6
CONTINUOUS
 62
     7
100
AcDbPolyline
 90
       14
 70
   128
 43
0.0
 10
4.67535
 20
-0.394592
 10
4.67535
 20
-0.455339
 42
0.199631
 10
4.686563
 20
-0.4826
 42
0.199145
 10
4.713833
 20
-0.493891
 10
5.175526
 20
-0.493891
 42
0.199517
 10
5.202652
 20
-0.482603
 42
0.198309
 10
5.213887
 20
-0.455351
 10
5.213887
 20
-0.339922
 42
0.198715
 10
5.202652
 20
-0.312755
 42
0.199111
 10
5.175526
 20
-0.301502
 10
4.713833
 20
-0.301502
 42
0.198179
 10
4.686522
 20
-0.312751
 42
0.199645
 10
4.675209
 20
-0.339909
 10
4.675209
 20
-0.394592
  0
LINE
  5
130
100
AcDbEntity
  8
0
  6
CONTINUOUS
 62
     7
100
AcDbLine
 10
5.299492
 20
-0.248743
 30
0.0
 11
5.299492
 21
-0.546574
 31
0.0
  0
LINE
  5
131
100
AcDbEntity
  8
0
  6
CONTINUOUS
 62
     7
100
AcDbLine
 10
5.257401
 20
-0.585686
 30
0.0
 11
5.257401
 21
-0.209637
 31
0.0
  0
LINE
  5
132
100
AcDbEntity
  8
0
  6
CONTINUOUS
 62
     7
100
AcDbLine
 10
5.215321
 20
-0.191277
 30
0.0
 11
5.215321
 21
-0.604053
 31
0.0
  0
LINE
  5
133
100
AcDbEntity
  8
0
  6
CONTINUOUS
 62
     7
100
AcDbLine
 10
5.173249
 20
-0.609289
 30
0.0
 11
5.173249
 21
-0.49386
 31
0.0
  0
LINE
  5
134
100
AcDbEntity
  8
0
  6
CONTINUOUS
 62
     7
100
AcDbLine
 10
5.173249
 20
-0.301476
 30
0.0
 11
5.173249
 21
-0.186033
 31
0.0
  0
LINE
  5
135
100
AcDbEntity
  8
0
  6
CONTINUOUS
 62
     7
100
AcDbLine
 10
5.131172
 20
-0.186033
 30
0.0
 11
5.131172
 21
-0.301476
 31
0.0
  0
LINE
  5
136
100
AcDbEntity
  8
0
  6
CONTINUOUS
 62
     7
100
AcDbLine
 10
5.131172
 20
-0.49386
 30
0.0
 11
5.131172
 21
-0.609289
 31
0.0
  0
LINE
  5
137
100
AcDbEntity
  8
0
  6
CONTINUOUS
 62
     7
100
AcDbLine
 10
5.089069
 20
-0.609289
 30
0.0
 11
5.089069
 21
-0.49386
 31
0.0
  0
LINE
  5
138
100
AcDbEntity
  8
0
  6
CONTINUOUS
 62
     7
100
AcDbLine
 10
5.089069
 20
-0.301476
 30
0.0
 11
5.089069
 21
-0.186033
 31
0.0
  0
LINE
  5
139
100
AcDbEntity
  8
0
  6
CONTINUOUS
 62
     7
100
AcDbLine
 10
5.046989
 20
-0.186033
 30
0.0
 11
5.046989
 21
-0.301476
 31
0.0
  0
LINE
  5
13A
100
AcDbEntity
  8
0
  6
CONTINUOUS
 62
     7
100
AcDbLine
 10
5.046989
 20
-0.49386
 30
0.0
 11
5.046989
 21
-0.609289
 31
0.0
  0
LINE
  5
13B
100
AcDbEntity
  8
0
  6
CONTINUOUS
 62
     7
100
AcDbLine
 10
5.004921
 20
-0.609289
 30
0.0
 11
5.004921
 21
-0.49386
 31
0.0
  0
LINE
  5
13C
100
AcDbEntity
  8
0
  6
CONTINUOUS
 62
     7
100
AcDbLine
 10
5.004921
 20
-0.301476
 30
0.0
 11
5.004921
 21
-0.186033
 31
0.0
  0
LINE
  5
13D
100
AcDbEntity
  8
0
  6
CONTINUOUS
 62
     7
100
AcDbLine
 10
4.962837
 20
-0.186033
 30
0.0
 11
4.962837
 21
-0.301476
 31
0.0
  0
LINE
  5
13E
100
AcDbEntity
  8
0
  6
CONTINUOUS
 62
     7
100
AcDbLine
 10
4.962837
 20
-0.49386
 30
0.0
 11
4.962837
 21
-0.609289
 31
0.0
  0
LINE
  5
13F
100
AcDbEntity
  8
0
  6
CONTINUOUS
 62
     7
100
AcDbLine
 10
4.920769
 20
-0.609289
 30
0.0
 11
4.920769
 21
-0.49386
 31
0.0
  0
LINE
  5
140
100
AcDbEntity
  8
0
  6
CONTINUOUS
 62
     7
100
AcDbLine
 10
4.920769
 20
-0.301476
 30
0.0
 11
4.920769
 21
-0.186033
 31
0.0
  0
LINE
  5
141
100
AcDbEntity
  8
0
  6
CONTINUOUS
 62
     7
100
AcDbLine
 10
4.878689
 20
-0.186033
 30
0.0
 11
4.878689
 21
-0.301476
 31
0.0
  0
LINE
  5
142
100
AcDbEntity
  8
0
  6
CONTINUOUS
 62
     7
100
AcDbLine
 10
4.878689
 20
-0.49386
 30
0.0
 11
4.878689
 21
-0.609289
 31
0.0
  0
LINE
  5
143
100
AcDbEntity
  8
0
  6
CONTINUOUS
 62
     7
100
AcDbLine
 10
4.836601
 20
-0.609289
 30
0.0
 11
4.836601
 21
-0.49386
 31
0.0
  0
LINE
  5
144
100
AcDbEntity
  8
0
  6
CONTINUOUS
 62
     7
100
AcDbLine
 10
4.836601
 20
-0.301476
 30
0.0
 11
4.836601
 21
-0.186033
 31
0.0
  0
LINE
  5
145
100
AcDbEntity
  8
0
  6
CONTINUOUS
 62
     7
100
AcDbLine
 10
4.794529
 20
-0.186033
 30
0.0
 11
4.794529
 21
-0.301476
 31
0.0
  0
LINE
  5
146
100
AcDbEntity
  8
0
  6
CONTINUOUS
 62
     7
100
AcDbLine
 10
4.794529
 20
-0.49386
 30
0.0
 11
4.794529
 21
-0.609289
 31
0.0
  0
LINE
  5
147
100
AcDbEntity
  8
0
  6
CONTINUOUS
 62
     7
100
AcDbLine
 10
4.752438
 20
-0.609283
 30
0.0
 11
4.752438
 21
-0.49386
 31
0.0
  0
LINE
  5
148
100
AcDbEntity
  8
0
  6
CONTINUOUS
 62
     7
100
AcDbLine
 10
4.752438
 20
-0.301476
 30
0.0
 11
4.752438
 21
-0.186033
 31
0.0
  0
LINE
  5
149
100
AcDbEntity
  8
0
  6
CONTINUOUS
 62
     7
100
AcDbLine
 10
4.710358
 20
-0.186033
 30
0.0
 11
4.710358
 21
-0.301626
 31
0.0
  0
LINE
  5
14A
100
AcDbEntity
  8
0
  6
CONTINUOUS
 62
     7
100
AcDbLine
 10
4.710358
 20
-0.493721
 30
0.0
 11
4.710358
 21
-0.609283
 31
0.0
  0
LINE
  5
14B
100
AcDbEntity
  8
0
  6
CONTINUOUS
 62
     7
100
AcDbLine
 10
4.668285
 20
-0.835732
 30
0.0
 11
4.668285
 21
-0.186033
 31
0.0
  0
LINE
  5
14C
100
AcDbEntity
  8
0
  6
CONTINUOUS
 62
     7
100
AcDbLine
 10
4.626209
 20
-0.186033
 30
0.0
 11
4.626209
 21
-0.840151
 31
0.0
  0
LINE
  5
14D
100
AcDbEntity
  8
0
  6
CONTINUOUS
 62
     7
100
AcDbLine
 10
4.584118
 20
-0.840151
 30
0.0
 11
4.584118
 21
-0.186033
 31
0.0
  0
LWPOLYLINE
  5
14E
100
AcDbEntity
  8
0
  6
CONTINUOUS
 62
     7
100
AcDbPolyline
 90
       15
 70
   128
 43
0.0
 10
-3.133875
 20
-0.570763
 10
-3.240534
 20
-0.570763
 42
-0.132207
 10
-3.250214
 20
-0.568179
 42
-0.132697
 10
-3.257267
 20
-0.561091
 42
-0.132654
 10
-3.259791
 20
-0.551414
 42
-0.132122
 10
-3.257103
 20
-0.541759
 10
-3.12212
 20
-0.312296
 42
-0.130955
 10
-3.115107
 20
-0.305368
 42
-0.130505
 10
-3.105562
 20
-0.302835
 42
-0.264937
 10
-3.088953
 20
-0.312296
 10
-2.953987
 20
-0.541765
 42
-0.267773
 10
-2.953899
 20
-0.561113
 42
-0.131974
 10
-2.960933
 20
-0.568218
 42
-0.132677
 10
-2.970558
 20
-0.570821
 10
-3.133875
 20
-0.570821
  0
LWPOLYLINE
  5
14F
100
AcDbEntity
  8
0
  6
CONTINUOUS
 62
     7
100
AcDbPolyline
 90
       42
 70
   128
 43
0.0
 10
-3.50713
 20
-0.840094
 10
-3.443617
 20
-0.840094
 42
0.035763
 10
-3.441243
 20
-0.839945
 42
0.041906
 10
-3.439098
 20
-0.839471
 42
0.048563
 10
-3.437218
 20
-0.83868
 42
0.054455
 10
-3.435635
 20
-0.837586
 42
0.115166
 10
-3.433459
 20
-0.834564
 42
0.052712
 10
-3.432903
 20
-0.832687
 42
0.046379
 10
-3.432717
 20
-0.830608
 10
-3.347656
 20
-0.695679
 42
-0.131877
 10
-3.340652
 20
-0.688768
 42
-0.130008
 10
-3.331066
 20
-0.686243
 10
-2.880033
 20
-0.686243
 42
-0.035205
 10
-2.877654
 20
-0.686404
 42
-0.041234
 10
-2.875504
 20
-0.686885
 42
-0.047851
 10
-2.87362
 20
-0.687677
 42
-0.053864
 10
-2.872033
 20
-0.688767
 42
-0.115046
 10
-2.869852
 20
-0.691763
 42
-0.053199
 10
-2.869295
 20
-0.693619
 42
-0.047017
 10
-2.869109
 20
-0.695673
 10
-2.784071
 20
-0.830608
 42
0.132869
 10
-2.777086
 20
-0.837603
 42
0.131292
 10
-2.767473
 20
-0.84016
 10
-2.67746
 20
-0.84016
 42
0.132614
 10
-2.667834
 20
-0.837555
 42
0.131904
 10
-2.660799
 20
-0.830451
 42
0.267833
 10
-2.660881
 20
-0.81111
 10
-3.023014
 20
-0.195475
 42
0.128713
 10
-3.030084
 20
-0.188572
 42
0.130034
 10
-3.039583
 20
-0.186049
 10
-3.171507
 20
-0.186049
 42
0.034665
 10
-3.173921
 20
-0.186211
 42
0.040652
 10
-3.176103
 20
-0.186692
 42
0.04732
 10
-3.178015
 20
-0.187484
 42
0.053542
 10
-3.179625
 20
-0.188574
 42
0.115524
 10
-3.181838
 20
-0.191568
 42
0.053873
 10
-3.182403
 20
-0.193423
 42
0.047734
 10
-3.182593
 20
-0.195475
 10
-3.550211
 20
-0.811102
 42
0.268888
 10
-3.550358
 20
-0.830455
 42
0.269412
 10
-3.533642
 20
-0.840166
 10
-3.50713
 20
-0.840166
  0
LINE
  5
150
100
AcDbEntity
  8
0
  6
CONTINUOUS
 62
     7
100
AcDbLine
 10
-2.695238
 20
-0.840132
 30
0.0
 11
-2.695238
 21
-0.752773
 31
0.0
  0
LINE
  5
151
100
AcDbEntity
  8
0
  6
CONTINUOUS
 62
     7
100
AcDbLine
 10
-2.737308
 20
-0.681232
 30
0.0
 11
-2.737308
 21
-0.840132
 31
0.0
  0
LINE
  5
152
100
AcDbEntity
  8
0
  6
CONTINUOUS
 62
     7
100
AcDbLine
 10
-2.779388
 20
-0.836016
 30
0.0
 11
-2.779388
 21
-0.609705
 31
0.0
  0
LINE
  5
153
100
AcDbEntity
  8
0
  6
CONTINUOUS
 62
     7
100
AcDbLine
 10
-2.821459
 20
-0.538177
 30
0.0
 11
-2.821459
 21
-0.767105
 31
0.0
  0
LINE
  5
154
100
AcDbEntity
  8
0
  6
CONTINUOUS
 62
     7
100
AcDbLine
 10
-2.863548
 20
-0.695583
 30
0.0
 11
-2.863548
 21
-0.466642
 31
0.0
  0
LINE
  5
155
100
AcDbEntity
  8
0
  6
CONTINUOUS
 62
     7
100
AcDbLine
 10
-2.905628
 20
-0.395115
 30
0.0
 11
-2.905628
 21
-0.686218
 31
0.0
  0
LINE
  5
156
100
AcDbEntity
  8
0
  6
CONTINUOUS
 62
     7
100
AcDbLine
 10
-2.9477
 20
-0.686218
 30
0.0
 11
-2.9477
 21
-0.323587
 31
0.0
  0
LINE
  5
157
100
AcDbEntity
  8
0
  6
CONTINUOUS
 62
     7
100
AcDbLine
 10
-2.98978
 20
-0.25206
 30
0.0
 11
-2.98978
 21
-0.480982
 31
0.0
  0
LINE
  5
158
100
AcDbEntity
  8
0
  6
CONTINUOUS
 62
     7
100
AcDbLine
 10
-2.98978
 20
-0.570787
 30
0.0
 11
-2.98978
 21
-0.686218
 31
0.0
  0
LINE
  5
159
100
AcDbEntity
  8
0
  6
CONTINUOUS
 62
     7
100
AcDbLine
 10
-3.03187
 20
-0.686218
 30
0.0
 11
-3.03187
 21
-0.570787
 31
0.0
  0
LINE
  5
15A
100
AcDbEntity
  8
0
  6
CONTINUOUS
 62
     7
100
AcDbLine
 10
-3.03187
 20
-0.409454
 30
0.0
 11
-3.03187
 21
-0.18767
 31
0.0
  0
LINE
  5
15B
100
AcDbEntity
  8
0
  6
CONTINUOUS
 62
     7
100
AcDbLine
 10
-3.07394
 20
-0.186033
 30
0.0
 11
-3.07394
 21
-0.337919
 31
0.0
  0
LINE
  5
15C
100
AcDbEntity
  8
0
  6
CONTINUOUS
 62
     7
100
AcDbLine
 10
-3.07394
 20
-0.570787
 30
0.0
 11
-3.07394
 21
-0.686218
 31
0.0
  0
LINE
  5
15D
100
AcDbEntity
  8
0
  6
CONTINUOUS
 62
     7
100
AcDbLine
 10
-3.11602
 20
-0.686218
 30
0.0
 11
-3.11602
 21
-0.570801
 31
0.0
  0
LINE
  5
15E
100
AcDbEntity
  8
0
  6
CONTINUOUS
 62
     7
100
AcDbLine
 10
-3.11602
 20
-0.305901
 30
0.0
 11
-3.11602
 21
-0.186033
 31
0.0
  0
LINE
  5
15F
100
AcDbEntity
  8
0
  6
CONTINUOUS
 62
     7
100
AcDbLine
 10
-3.158091
 20
-0.186033
 30
0.0
 11
-3.158091
 21
-0.373369
 31
0.0
  0
LINE
  5
160
100
AcDbEntity
  8
0
  6
CONTINUOUS
 62
     7
100
AcDbLine
 10
-3.158091
 20
-0.570763
 30
0.0
 11
-3.158091
 21
-0.686218
 31
0.0
  0
LINE
  5
161
100
AcDbEntity
  8
0
  6
CONTINUOUS
 62
     7
100
AcDbLine
 10
-3.200172
 20
-0.686218
 30
0.0
 11
-3.200172
 21
-0.570763
 31
0.0
  0
LINE
  5
162
100
AcDbEntity
  8
0
  6
CONTINUOUS
 62
     7
100
AcDbLine
 10
-3.200172
 20
-0.444891
 30
0.0
 11
-3.200172
 21
-0.215956
 31
0.0
  0
LINE
  5
163
100
AcDbEntity
  8
0
  6
CONTINUOUS
 62
     7
100
AcDbLine
 10
-3.242243
 20
-0.287491
 30
0.0
 11
-3.242243
 21
-0.516424
 31
0.0
  0
LINE
  5
164
100
AcDbEntity
  8
0
  6
CONTINUOUS
 62
     7
100
AcDbLine
 10
-3.242243
 20
-0.570686
 30
0.0
 11
-3.242243
 21
-0.686218
 31
0.0
  0
LINE
  5
165
100
AcDbEntity
  8
0
  6
CONTINUOUS
 62
     7
100
AcDbLine
 10
-3.284323
 20
-0.686218
 30
0.0
 11
-3.284323
 21
-0.359018
 31
0.0
  0
LINE
  5
166
100
AcDbEntity
  8
0
  6
CONTINUOUS
 62
     7
100
AcDbLine
 10
-3.326412
 20
-0.430546
 30
0.0
 11
-3.326412
 21
-0.686218
 31
0.0
  0
LINE
  5
167
100
AcDbEntity
  8
0
  6
CONTINUOUS
 62
     7
100
AcDbLine
 10
-3.368483
 20
-0.731028
 30
0.0
 11
-3.368483
 21
-0.502087
 31
0.0
  0
LINE
  5
168
100
AcDbEntity
  8
0
  6
CONTINUOUS
 62
     7
100
AcDbLine
 10
-3.410572
 20
-0.573614
 30
0.0
 11
-3.410572
 21
-0.802549
 31
0.0
  0
LINE
  5
169
100
AcDbEntity
  8
0
  6
CONTINUOUS
 62
     7
100
AcDbLine
 10
-3.452652
 20
-0.840094
 30
0.0
 11
-3.452652
 21
-0.645142
 31
0.0
  0
LINE
  5
16A
100
AcDbEntity
  8
0
  6
CONTINUOUS
 62
     7
100
AcDbLine
 10
-3.494724
 20
-0.716677
 30
0.0
 11
-3.494724
 21
-0.840094
 31
0.0
  0
LINE
  5
16B
100
AcDbEntity
  8
0
  6
CONTINUOUS
 62
     7
100
AcDbLine
 10
-3.536804
 20
-0.839867
 30
0.0
 11
-3.536804
 21
-0.788204
 31
0.0
  0
LWPOLYLINE
  5
16C
100
AcDbEntity
  8
0
  6
CONTINUOUS
 62
     7
100
AcDbPolyline
 90
       15
 70
   128
 43
0.0
 10
5.745434
 20
-0.570787
 10
5.638783
 20
-0.570787
 42
-0.132112
 10
5.629092
 20
-0.568204
 42
-0.132801
 10
5.622035
 20
-0.561116
 42
-0.132853
 10
5.619516
 20
-0.551439
 42
-0.132214
 10
5.622215
 20
-0.541784
 10
5.757187
 20
-0.312315
 42
-0.130948
 10
5.764199
 20
-0.30539
 42
-0.13047
 10
5.773743
 20
-0.302859
 42
-0.264914
 10
5.790348
 20
-0.312315
 10
5.925319
 20
-0.541784
 42
-0.267468
 10
5.925396
 20
-0.561136
 42
-0.131892
 10
5.918365
 20
-0.568243
 42
-0.132783
 10
5.908749
 20
-0.570846
 10
5.745434
 20
-0.570846
  0
LWPOLYLINE
  5
16D
100
AcDbEntity
  8
0
  6
CONTINUOUS
 62
     7
100
AcDbPolyline
 90
       42
 70
   128
 43
0.0
 10
5.372181
 20
-0.840126
 10
5.4357
 20
-0.840126
 42
0.036007
 10
5.438061
 20
-0.839978
 42
0.042172
 10
5.440194
 20
-0.839505
 42
0.048807
 10
5.442063
 20
-0.838714
 42
0.054605
 10
5.443638
 20
-0.837618
 42
0.11497
 10
5.445802
 20
-0.834593
 42
0.052426
 10
5.446354
 20
-0.832715
 42
0.046074
 10
5.446539
 20
-0.830633
 10
5.531662
 20
-0.695698
 42
-0.133461
 10
5.538633
 20
-0.68879
 42
-0.065168
 10
5.543264
 20
-0.686907
 42
-0.064214
 10
5.54826
 20
-0.686265
 10
5.999294
 20
-0.686265
 42
-0.035376
 10
6.001663
 20
-0.686426
 42
-0.041416
 10
6.003803
 20
-0.686907
 42
-0.048013
 10
6.005679
 20
-0.687699
 42
-0.053956
 10
6.007258
 20
-0.68879
 42
-0.114876
 10
6.009429
 20
-0.691787
 42
-0.052983
 10
6.009983
 20
-0.693643
 42
-0.046791
 10
6.010169
 20
-0.695698
 10
6.095234
 20
-0.830633
 42
0.133463
 10
6.102207
 20
-0.837624
 42
0.131209
 10
6.111835
 20
-0.840179
 10
6.201866
 20
-0.840179
 42
0.132769
 10
6.211479
 20
-0.837574
 42
0.131827
 10
6.218509
 20
-0.830468
 42
0.267429
 10
6.218437
 20
-0.811121
 10
5.856293
 20
-0.195494
 42
0.128152
 10
5.849211
 20
-0.188593
 42
0.130013
 10
5.839725
 20
-0.186071
 10
5.70781
 20
-0.186071
 42
0.034479
 10
5.705384
 20
-0.186236
 42
0.040436
 10
5.703193
 20
-0.18672
 42
0.047101
 10
5.701272
 20
-0.187514
 42
0.053371
 10
5.699654
 20
-0.188605
 42
0.115548
 10
5.697432
 20
-0.191601
 42
0.054064
 10
5.696864
 20
-0.193454
 42
0.047967
 10
5.696674
 20
-0.195505
 10
5.329098
 20
-0.811127
 42
0.580734
 10
5.345688
 20
-0.840191
 10
5.372181
 20
-0.840191
  0
LINE
  5
16E
100
AcDbEntity
  8
0
  6
CONTINUOUS
 62
     7
100
AcDbLine
 10
6.183098
 20
-0.840151
 30
0.0
 11
6.183098
 21
-0.751118
 31
0.0
  0
LINE
  5
16F
100
AcDbEntity
  8
0
  6
CONTINUOUS
 62
     7
100
AcDbLine
 10
6.141026
 20
-0.67959
 30
0.0
 11
6.141026
 21
-0.840151
 31
0.0
  0
LINE
  5
170
100
AcDbEntity
  8
0
  6
CONTINUOUS
 62
     7
100
AcDbLine
 10
6.098938
 20
-0.835222
 30
0.0
 11
6.098938
 21
-0.608057
 31
0.0
  0
LINE
  5
171
100
AcDbEntity
  8
0
  6
CONTINUOUS
 62
     7
100
AcDbLine
 10
6.056858
 20
-0.536516
 30
0.0
 11
6.056858
 21
-0.765469
 31
0.0
  0
LINE
  5
172
100
AcDbEntity
  8
0
  6
CONTINUOUS
 62
     7
100
AcDbLine
 10
6.014786
 20
-0.69413
 30
0.0
 11
6.014786
 21
-0.464989
 31
0.0
  0
LINE
  5
173
100
AcDbEntity
  8
0
  6
CONTINUOUS
 62
     7
100
AcDbLine
 10
5.972706
 20
-0.393459
 30
0.0
 11
5.972706
 21
-0.686249
 31
0.0
  0
LINE
  5
174
100
AcDbEntity
  8
0
  6
CONTINUOUS
 62
     7
100
AcDbLine
 10
5.930614
 20
-0.686249
 30
0.0
 11
5.930614
 21
-0.321932
 31
0.0
  0
LINE
  5
175
100
AcDbEntity
  8
0
  6
CONTINUOUS
 62
     7
100
AcDbLine
 10
5.888527
 20
-0.250399
 30
0.0
 11
5.888527
 21
-0.479351
 31
0.0
  0
LINE
  5
176
100
AcDbEntity
  8
0
  6
CONTINUOUS
 62
     7
100
AcDbLine
 10
5.888527
 20
-0.57082
 30
0.0
 11
5.888527
 21
-0.686249
 31
0.0
  0
LINE
  5
177
100
AcDbEntity
  8
0
  6
CONTINUOUS
 62
     7
100
AcDbLine
 10
5.846455
 20
-0.686249
 30
0.0
 11
5.846455
 21
-0.57082
 31
0.0
  0
LINE
  5
178
100
AcDbEntity
  8
0
  6
CONTINUOUS
 62
     7
100
AcDbLine
 10
5.846455
 20
-0.40781
 30
0.0
 11
5.846455
 21
-0.187298
 31
0.0
  0
LINE
  5
179
100
AcDbEntity
  8
0
  6
CONTINUOUS
 62
     7
100
AcDbLine
 10
5.804375
 20
-0.186052
 30
0.0
 11
5.804375
 21
-0.336283
 31
0.0
  0
LINE
  5
17A
100
AcDbEntity
  8
0
  6
CONTINUOUS
 62
     7
100
AcDbLine
 10
5.804375
 20
-0.57082
 30
0.0
 11
5.804375
 21
-0.686249
 31
0.0
  0
LINE
  5
17B
100
AcDbEntity
  8
0
  6
CONTINUOUS
 62
     7
100
AcDbLine
 10
5.762306
 20
-0.686237
 30
0.0
 11
5.762306
 21
-0.57082
 31
0.0
  0
LINE
  5
17C
100
AcDbEntity
  8
0
  6
CONTINUOUS
 62
     7
100
AcDbLine
 10
5.762306
 20
-0.306599
 30
0.0
 11
5.762306
 21
-0.186052
 31
0.0
  0
LINE
  5
17D
100
AcDbEntity
  8
0
  6
CONTINUOUS
 62
     7
100
AcDbLine
 10
5.720223
 20
-0.186052
 30
0.0
 11
5.720223
 21
-0.375061
 31
0.0
  0
LINE
  5
17E
100
AcDbEntity
  8
0
  6
CONTINUOUS
 62
     7
100
AcDbLine
 10
5.720223
 20
-0.570787
 30
0.0
 11
5.720223
 21
-0.686237
 31
0.0
  0
LINE
  5
17F
100
AcDbEntity
  8
0
  6
CONTINUOUS
 62
     7
100
AcDbLine
 10
5.678154
 20
-0.686237
 30
0.0
 11
5.678154
 21
-0.570787
 31
0.0
  0
LINE
  5
180
100
AcDbEntity
  8
0
  6
CONTINUOUS
 62
     7
100
AcDbLine
 10
5.678154
 20
-0.44659
 30
0.0
 11
5.678154
 21
-0.217642
 31
0.0
  0
LINE
  5
181
100
AcDbEntity
  8
0
  6
CONTINUOUS
 62
     7
100
AcDbLine
 10
5.636074
 20
-0.289183
 30
0.0
 11
5.636074
 21
-0.518105
 31
0.0
  0
LINE
  5
182
100
AcDbEntity
  8
0
  6
CONTINUOUS
 62
     7
100
AcDbLine
 10
5.636074
 20
-0.570612
 30
0.0
 11
5.636074
 21
-0.686237
 31
0.0
  0
LINE
  5
183
100
AcDbEntity
  8
0
  6
CONTINUOUS
 62
     7
100
AcDbLine
 10
5.593975
 20
-0.686237
 30
0.0
 11
5.593975
 21
-0.36071
 31
0.0
  0
LINE
  5
184
100
AcDbEntity
  8
0
  6
CONTINUOUS
 62
     7
100
AcDbLine
 10
5.551895
 20
-0.432245
 30
0.0
 11
5.551895
 21
-0.686237
 31
0.0
  0
LINE
  5
185
100
AcDbEntity
  8
0
  6
CONTINUOUS
 62
     7
100
AcDbLine
 10
5.509823
 20
-0.732719
 30
0.0
 11
5.509823
 21
-0.503773
 31
0.0
  0
LINE
  5
186
100
AcDbEntity
  8
0
  6
CONTINUOUS
 62
     7
100
AcDbLine
 10
5.467743
 20
-0.575314
 30
0.0
 11
5.467743
 21
-0.804249
 31
0.0
  0
LINE
  5
187
100
AcDbEntity
  8
0
  6
CONTINUOUS
 62
     7
100
AcDbLine
 10
5.425675
 20
-0.840132
 30
0.0
 11
5.425675
 21
-0.646841
 31
0.0
  0
LINE
  5
188
100
AcDbEntity
  8
0
  6
CONTINUOUS
 62
     7
100
AcDbLine
 10
5.383595
 20
-0.718369
 30
0.0
 11
5.383595
 21
-0.840132
 31
0.0
  0
LINE
  5
189
100
AcDbEntity
  8
0
  6
CONTINUOUS
 62
     7
100
AcDbLine
 10
5.341526
 20
-0.839716
 30
0.0
 11
5.341526
 21
-0.789904
 31
0.0
  0
LWPOLYLINE
  5
18A
100
AcDbEntity
  8
0
  6
CONTINUOUS
 62
     7
100
AcDbPolyline
 90
       24
 70
   129
 43
0.0
 10
-4.090408
 20
-0.724663
 10
-4.312178
 20
-0.724663
 42
-0.414779
 10
-4.350767
 20
-0.68618
 10
-4.350767
 20
-0.205212
 42
0.198822
 10
-4.356366
 20
-0.191653
 42
0.199182
 10
-4.369902
 20
-0.186037
 10
-4.446857
 20
-0.186037
 42
0.197565
 10
-4.460527
 20
-0.191662
 42
0.199969
 10
-4.466189
 20
-0.205212
 10
-4.466189
 20
-0.68618
 42
0.414214
 10
-4.312178
 20
-0.840156
 10
-3.831215
 20
-0.840156
 42
0.199084
 10
-3.722466
 20
-0.795062
 42
0.198758
 10
-3.677421
 20
-0.68618
 10
-3.677421
 20
-0.205212
 42
0.198491
 10
-3.683019
 20
-0.191653
 42
0.199333
 10
-3.696533
 20
-0.186037
 10
-3.773489
 20
-0.186037
 42
0.197416
 10
-3.787174
 20
-0.191662
 42
0.098772
 10
-3.791369
 20
-0.19788
 42
0.099382
 10
-3.792842
 20
-0.205212
 10
-3.792842
 20
-0.68618
 42
-0.198289
 10
-3.804081
 20
-0.713444
 42
-0.199536
 10
-3.831215
 20
-0.724737
  0
LINE
  5
18B
100
AcDbEntity
  8
0
  6
CONTINUOUS
 62
     7
100
AcDbLine
 10
-3.705088
 20
-0.186014
 30
0.0
 11
-3.705088
 21
-0.774376
 31
0.0
  0
LINE
  5
18C
100
AcDbEntity
  8
0
  6
CONTINUOUS
 62
     7
100
AcDbLine
 10
-3.747168
 20
-0.815144
 30
0.0
 11
-3.747168
 21
-0.186014
 31
0.0
  0
LINE
  5
18D
100
AcDbEntity
  8
0
  6
CONTINUOUS
 62
     7
100
AcDbLine
 10
-3.789238
 20
-0.194153
 30
0.0
 11
-3.789238
 21
-0.834297
 31
0.0
  0
LINE
  5
18E
100
AcDbEntity
  8
0
  6
CONTINUOUS
 62
     7
100
AcDbLine
 10
-3.831318
 20
-0.840143
 30
0.0
 11
-3.831318
 21
-0.724701
 31
0.0
  0
LINE
  5
18F
100
AcDbEntity
  8
0
  6
CONTINUOUS
 62
     7
100
AcDbLine
 10
-3.873407
 20
-0.724701
 30
0.0
 11
-3.873407
 21
-0.840143
 31
0.0
  0
LINE
  5
190
100
AcDbEntity
  8
0
  6
CONTINUOUS
 62
     7
100
AcDbLine
 10
-3.915478
 20
-0.840143
 30
0.0
 11
-3.915478
 21
-0.724701
 31
0.0
  0
LINE
  5
191
100
AcDbEntity
  8
0
  6
CONTINUOUS
 62
     7
100
AcDbLine
 10
-3.957569
 20
-0.724695
 30
0.0
 11
-3.957569
 21
-0.840143
 31
0.0
  0
LINE
  5
192
100
AcDbEntity
  8
0
  6
CONTINUOUS
 62
     7
100
AcDbLine
 10
-3.999649
 20
-0.840143
 30
0.0
 11
-3.999649
 21
-0.724676
 31
0.0
  0
LINE
  5
193
100
AcDbEntity
  8
0
  6
CONTINUOUS
 62
     7
100
AcDbLine
 10
-4.04172
 20
-0.724676
 30
0.0
 11
-4.04172
 21
-0.840143
 31
0.0
  0
LINE
  5
194
100
AcDbEntity
  8
0
  6
CONTINUOUS
 62
     7
100
AcDbLine
 10
-4.083799
 20
-0.840143
 30
0.0
 11
-4.083799
 21
-0.724676
 31
0.0
  0
LINE
  5
195
100
AcDbEntity
  8
0
  6
CONTINUOUS
 62
     7
100
AcDbLine
 10
-4.12587
 20
-0.724663
 30
0.0
 11
-4.12587
 21
-0.840143
 31
0.0
  0
LINE
  5
196
100
AcDbEntity
  8
0
  6
CONTINUOUS
 62
     7
100
AcDbLine
 10
-4.16795
 20
-0.840143
 30
0.0
 11
-4.16795
 21
-0.724663
 31
0.0
  0
LINE
  5
197
100
AcDbEntity
  8
0
  6
CONTINUOUS
 62
     7
100
AcDbLine
 10
-4.210022
 20
-0.724663
 30
0.0
 11
-4.210022
 21
-0.840143
 31
0.0
  0
LINE
  5
198
100
AcDbEntity
  8
0
  6
CONTINUOUS
 62
     7
100
AcDbLine
 10
-4.252111
 20
-0.840143
 30
0.0
 11
-4.252111
 21
-0.724663
 31
0.0
  0
LINE
  5
199
100
AcDbEntity
  8
0
  6
CONTINUOUS
 62
     7
100
AcDbLine
 10
-4.294191
 20
-0.724663
 30
0.0
 11
-4.294191
 21
-0.840143
 31
0.0
  0
LINE
  5
19A
100
AcDbEntity
  8
0
  6
CONTINUOUS
 62
     7
100
AcDbLine
 10
-4.336262
 20
-0.838243
 30
0.0
 11
-4.336262
 21
-0.716236
 31
0.0
  0
LINE
  5
19B
100
AcDbEntity
  8
0
  6
CONTINUOUS
 62
     7
100
AcDbLine
 10
-4.378342
 20
-0.186014
 30
0.0
 11
-4.378342
 21
-0.825209
 31
0.0
  0
LINE
  5
19C
100
AcDbEntity
  8
0
  6
CONTINUOUS
 62
     7
100
AcDbLine
 10
-4.420431
 20
-0.795675
 30
0.0
 11
-4.420431
 21
-0.186014
 31
0.0
  0
LINE
  5
19D
100
AcDbEntity
  8
0
  6
CONTINUOUS
 62
     7
100
AcDbLine
 10
-4.462502
 20
-0.193995
 30
0.0
 11
-4.462502
 21
-0.719501
 31
0.0
  0
LWPOLYLINE
  5
19E
100
AcDbEntity
  8
0
  6
CONTINUOUS
 62
     7
100
AcDbPolyline
 90
       14
 70
   128
 43
0.0
 10
2.740578
 20
-0.301426
 10
2.485214
 20
-0.301426
 42
0.197962
 10
2.457905
 20
-0.312718
 42
0.199441
 10
2.446594
 20
-0.33989
 10
2.446594
 20
-0.686193
 42
0.19917
 10
2.457905
 20
-0.713448
 42
0.198654
 10
2.485214
 20
-0.724737
 10
3.043137
 20
-0.724737
 42
0.199579
 10
3.070252
 20
-0.713448
 42
0.198246
 10
3.081483
 20
-0.686193
 10
3.081483
 20
-0.339909
 42
0.198664
 10
3.070252
 20
-0.312741
 42
0.199161
 10
3.043137
 20
-0.301488
 10
2.740578
 20
-0.301488
  0
LWPOLYLINE
  5
19F
100
AcDbEntity
  8
0
  6
CONTINUOUS
 62
     7
100
AcDbPolyline
 90
       12
 70
   128
 43
0.0
 10
2.740578
 20
-0.185995
 10
3.043137
 20
-0.185995
 42
-0.414345
 10
3.196913
 20
-0.339909
 10
3.196913
 20
-0.686193
 42
-0.198734
 10
3.151873
 20
-0.795079
 42
-0.19909
 10
3.043137
 20
-0.840181
 10
2.485214
 20
-0.840181
 42
-0.414214
 10
2.331172
 20
-0.686193
 10
2.331172
 20
-0.33989
 42
-0.199091
 10
2.37629
 20
-0.231115
 42
-0.198734
 10
2.485214
 20
-0.186059
 10
2.740578
 20
-0.186059
  0
LINE
  5
1A0
100
AcDbEntity
  8
0
  6
CONTINUOUS
 62
     7
100
AcDbLine
 10
3.195614
 20
-0.319395
 30
0.0
 11
3.195614
 21
-0.706738
 31
0.0
  0
LINE
  5
1A1
100
AcDbEntity
  8
0
  6
CONTINUOUS
 62
     7
100
AcDbLine
 10
3.153523
 20
-0.793428
 30
0.0
 11
3.153523
 21
-0.232731
 31
0.0
  0
LINE
  5
1A2
100
AcDbEntity
  8
0
  6
CONTINUOUS
 62
     7
100
AcDbLine
 10
3.111454
 20
-0.202021
 30
0.0
 11
3.111454
 21
-0.824139
 31
0.0
  0
LINE
  5
1A3
100
AcDbEntity
  8
0
  6
CONTINUOUS
 62
     7
100
AcDbLine
 10
3.069362
 20
-0.837885
 30
0.0
 11
3.069362
 21
-0.714335
 31
0.0
  0
LINE
  5
1A4
100
AcDbEntity
  8
0
  6
CONTINUOUS
 62
     7
100
AcDbLine
 10
3.069362
 20
-0.311823
 30
0.0
 11
3.069362
 21
-0.188274
 31
0.0
  0
LINE
  5
1A5
100
AcDbEntity
  8
0
  6
CONTINUOUS
 62
     7
100
AcDbLine
 10
3.027283
 20
-0.186008
 30
0.0
 11
3.027283
 21
-0.301464
 31
0.0
  0
LINE
  5
1A6
100
AcDbEntity
  8
0
  6
CONTINUOUS
 62
     7
100
AcDbLine
 10
3.027283
 20
-0.72472
 30
0.0
 11
3.027283
 21
-0.840151
 31
0.0
  0
LINE
  5
1A7
100
AcDbEntity
  8
0
  6
CONTINUOUS
 62
     7
100
AcDbLine
 10
2.98521
 20
-0.840151
 30
0.0
 11
2.98521
 21
-0.72472
 31
0.0
  0
LINE
  5
1A8
100
AcDbEntity
  8
0
  6
CONTINUOUS
 62
     7
100
AcDbLine
 10
2.98521
 20
-0.301464
 30
0.0
 11
2.98521
 21
-0.186008
 31
0.0
  0
LINE
  5
1A9
100
AcDbEntity
  8
0
  6
CONTINUOUS
 62
     7
100
AcDbLine
 10
2.943131
 20
-0.186008
 30
0.0
 11
2.943131
 21
-0.301464
 31
0.0
  0
LINE
  5
1AA
100
AcDbEntity
  8
0
  6
CONTINUOUS
 62
     7
100
AcDbLine
 10
2.943131
 20
-0.72472
 30
0.0
 11
2.943131
 21
-0.840151
 31
0.0
  0
LINE
  5
1AB
100
AcDbEntity
  8
0
  6
CONTINUOUS
 62
     7
100
AcDbLine
 10
2.901043
 20
-0.840151
 30
0.0
 11
2.901043
 21
-0.72472
 31
0.0
  0
LINE
  5
1AC
100
AcDbEntity
  8
0
  6
CONTINUOUS
 62
     7
100
AcDbLine
 10
2.901043
 20
-0.301464
 30
0.0
 11
2.901043
 21
-0.186008
 31
0.0
  0
LINE
  5
1AD
100
AcDbEntity
  8
0
  6
CONTINUOUS
 62
     7
100
AcDbLine
 10
2.858971
 20
-0.186008
 30
0.0
 11
2.858971
 21
-0.301464
 31
0.0
  0
LINE
  5
1AE
100
AcDbEntity
  8
0
  6
CONTINUOUS
 62
     7
100
AcDbLine
 10
2.858971
 20
-0.72472
 30
0.0
 11
2.858971
 21
-0.840151
 31
0.0
  0
LINE
  5
1AF
100
AcDbEntity
  8
0
  6
CONTINUOUS
 62
     7
100
AcDbLine
 10
2.816891
 20
-0.840151
 30
0.0
 11
2.816891
 21
-0.72472
 31
0.0
  0
LINE
  5
1B0
100
AcDbEntity
  8
0
  6
CONTINUOUS
 62
     7
100
AcDbLine
 10
2.816891
 20
-0.301464
 30
0.0
 11
2.816891
 21
-0.186008
 31
0.0
  0
LINE
  5
1B1
100
AcDbEntity
  8
0
  6
CONTINUOUS
 62
     7
100
AcDbLine
 10
2.774818
 20
-0.186008
 30
0.0
 11
2.774818
 21
-0.301464
 31
0.0
  0
LINE
  5
1B2
100
AcDbEntity
  8
0
  6
CONTINUOUS
 62
     7
100
AcDbLine
 10
2.774818
 20
-0.72472
 30
0.0
 11
2.774818
 21
-0.840151
 31
0.0
  0
LINE
  5
1B3
100
AcDbEntity
  8
0
  6
CONTINUOUS
 62
     7
100
AcDbLine
 10
2.732739
 20
-0.840151
 30
0.0
 11
2.732739
 21
-0.72472
 31
0.0
  0
LINE
  5
1B4
100
AcDbEntity
  8
0
  6
CONTINUOUS
 62
     7
100
AcDbLine
 10
2.732739
 20
-0.301426
 30
0.0
 11
2.732739
 21
-0.186033
 31
0.0
  0
LINE
  5
1B5
100
AcDbEntity
  8
0
  6
CONTINUOUS
 62
     7
100
AcDbLine
 10
2.690651
 20
-0.186033
 30
0.0
 11
2.690651
 21
-0.301426
 31
0.0
  0
LINE
  5
1B6
100
AcDbEntity
  8
0
  6
CONTINUOUS
 62
     7
100
AcDbLine
 10
2.690651
 20
-0.72472
 30
0.0
 11
2.690651
 21
-0.840151
 31
0.0
  0
LINE
  5
1B7
100
AcDbEntity
  8
0
  6
CONTINUOUS
 62
     7
100
AcDbLine
 10
2.64856
 20
-0.840151
 30
0.0
 11
2.64856
 21
-0.72472
 31
0.0
  0
LINE
  5
1B8
100
AcDbEntity
  8
0
  6
CONTINUOUS
 62
     7
100
AcDbLine
 10
2.64856
 20
-0.301426
 30
0.0
 11
2.64856
 21
-0.186033
 31
0.0
  0
LINE
  5
1B9
100
AcDbEntity
  8
0
  6
CONTINUOUS
 62
     7
100
AcDbLine
 10
2.606491
 20
-0.186033
 30
0.0
 11
2.606491
 21
-0.301426
 31
0.0
  0
LINE
  5
1BA
100
AcDbEntity
  8
0
  6
CONTINUOUS
 62
     7
100
AcDbLine
 10
2.606491
 20
-0.72472
 30
0.0
 11
2.606491
 21
-0.840151
 31
0.0
  0
LINE
  5
1BB
100
AcDbEntity
  8
0
  6
CONTINUOUS
 62
     7
100
AcDbLine
 10
2.564407
 20
-0.840151
 30
0.0
 11
2.564407
 21
-0.72472
 31
0.0
  0
LINE
  5
1BC
100
AcDbEntity
  8
0
  6
CONTINUOUS
 62
     7
100
AcDbLine
 10
2.564407
 20
-0.301426
 30
0.0
 11
2.564407
 21
-0.186033
 31
0.0
  0
LINE
  5
1BD
100
AcDbEntity
  8
0
  6
CONTINUOUS
 62
     7
100
AcDbLine
 10
2.522339
 20
-0.186033
 30
0.0
 11
2.522339
 21
-0.301426
 31
0.0
  0
LINE
  5
1BE
100
AcDbEntity
  8
0
  6
CONTINUOUS
 62
     7
100
AcDbLine
 10
2.522339
 20
-0.72472
 30
0.0
 11
2.522339
 21
-0.840151
 31
0.0
  0
LINE
  5
1BF
100
AcDbEntity
  8
0
  6
CONTINUOUS
 62
     7
100
AcDbLine
 10
2.480259
 20
-0.840075
 30
0.0
 11
2.480259
 21
-0.724411
 31
0.0
  0
LINE
  5
1C0
100
AcDbEntity
  8
0
  6
CONTINUOUS
 62
     7
100
AcDbLine
 10
2.480259
 20
-0.301746
 30
0.0
 11
2.480259
 21
-0.186121
 31
0.0
  0
LINE
  5
1C1
100
AcDbEntity
  8
0
  6
CONTINUOUS
 62
     7
100
AcDbLine
 10
2.438187
 20
-0.193373
 30
0.0
 11
2.438187
 21
-0.832817
 31
0.0
  0
LINE
  5
1C2
100
AcDbEntity
  8
0
  6
CONTINUOUS
 62
     7
100
AcDbLine
 10
2.396099
 20
-0.811769
 30
0.0
 11
2.396099
 21
-0.214396
 31
0.0
  0
LINE
  5
1C3
100
AcDbEntity
  8
0
  6
CONTINUOUS
 62
     7
100
AcDbLine
 10
2.354008
 20
-0.259329
 30
0.0
 11
2.354008
 21
-0.766829
 31
0.0
  0
LWPOLYLINE
  5
1C4
100
AcDbEntity
  8
0
  6
CONTINUOUS
 62
     7
100
AcDbPolyline
 90
       40
 70
   129
 43
0.0
 10
-5.694281
 20
-0.359125
 42
0.200538
 10
-5.680746
 20
-0.353521
 42
0.098505
 10
-5.676597
 20
-0.347273
 42
0.097857
 10
-5.67514
 20
-0.33989
 42
0.414269
 10
-5.828963
 20
-0.186045
 10
-6.290674
 20
-0.186045
 42
0.198759
 10
-6.399587
 20
-0.231105
 42
0.199065
 10
-6.4447
 20
-0.33989
 10
-6.4447
 20
-0.416838
 42
0.414214
 10
-6.290674
 20
-0.570818
 10
-5.828963
 20
-0.570818
 42
-0.414214
 10
-5.790592
 20
-0.609226
 10
-5.790592
 20
-0.68618
 42
-0.198326
 10
-5.801831
 20
-0.713435
 42
-0.199498
 10
-5.828963
 20
-0.724724
 10
-6.290674
 20
-0.724724
 42
-0.198717
 10
-6.31797
 20
-0.713435
 42
-0.199109
 10
-6.329276
 20
-0.68618
 42
0.198531
 10
-6.334877
 20
-0.672619
 42
0.199291
 10
-6.348398
 20
-0.667002
 10
-6.425354
 20
-0.667002
 42
0.197781
 10
-6.439033
 20
-0.672619
 42
0.20004
 10
-6.4447
 20
-0.68618
 42
0.414214
 10
-6.290674
 20
-0.840156
 10
-5.828963
 20
-0.840156
 42
0.199067
 10
-5.720214
 20
-0.795058
 42
0.198758
 10
-5.67517
 20
-0.68618
 10
-5.67517
 20
-0.609226
 42
0.414213
 10
-5.828963
 20
-0.455386
 10
-6.290674
 20
-0.455386
 42
-0.198693
 10
-6.31797
 20
-0.444099
 42
-0.199133
 10
-6.329276
 20
-0.416849
 10
-6.329276
 20
-0.33989
 42
-0.199519
 10
-6.31797
 20
-0.312721
 42
-0.198308
 10
-6.290674
 20
-0.301467
 10
-5.828963
 20
-0.301467
 42
-0.199089
 10
-5.801831
 20
-0.312721
 42
-0.198735
 10
-5.790592
 20
-0.33989
 42
0.199223
 10
-5.784924
 20
-0.353542
 42
0.198604
 10
-5.771238
 20
-0.359198
  0
LINE
  5
1C5
100
AcDbEntity
  8
0
  6
CONTINUOUS
 62
     7
100
AcDbLine
 10
-5.682724
 20
-0.292015
 30
0.0
 11
-5.682724
 21
-0.355272
 31
0.0
  0
LINE
  5
1C6
100
AcDbEntity
  8
0
  6
CONTINUOUS
 62
     7
100
AcDbLine
 10
-5.682724
 20
-0.561359
 30
0.0
 11
-5.682724
 21
-0.734085
 31
0.0
  0
LINE
  5
1C7
100
AcDbEntity
  8
0
  6
CONTINUOUS
 62
     7
100
AcDbLine
 10
-5.724814
 20
-0.799509
 30
0.0
 11
-5.724814
 21
-0.495968
 31
0.0
  0
LINE
  5
1C8
100
AcDbEntity
  8
0
  6
CONTINUOUS
 62
     7
100
AcDbLine
 10
-5.724814
 20
-0.35915
 30
0.0
 11
-5.724814
 21
-0.226631
 31
0.0
  0
LWPOLYLINE
  5
1C9
100
AcDbEntity
  8
0
  6
CONTINUOUS
 62
     7
100
AcDbPolyline
 90
        5
 70
   128
 43
0.0
 10
-8.667431
 20
0.272949
 10
-8.667431
 20
-1.568451
 10
-6.826027
 20
-1.568451
 10
-6.826027
 20
0.272957
 10
-8.667431
 20
0.272957
  0
LWPOLYLINE
  5
1CA
100
AcDbEntity
  8
0
  6
CONTINUOUS
 62
     7
100
AcDbPolyline
 90
        5
 70
   128
 43
0.0
 10
-8.510916
 20
0.116438
 10
-8.510916
 20
-1.411921
 10
-6.982548
 20
-1.411921
 10
-6.982548
 20
0.116438
 10
-8.509499
 20
0.116438
  0
LWPOLYLINE
  5
1CB
100
AcDbEntity
  8
0
  6
CONTINUOUS
 62
     7
100
AcDbPolyline
 90
       11
 70
   128
 43
0.0
 10
-8.354397
 20
-0.040089
 10
-7.286381
 20
-0.040089
 10
-7.139067
 20
-0.251839
 10
-7.139067
 20
-1.04365
 10
-7.286381
 20
-1.255402
 10
-8.354397
 20
-1.255402
 10
-8.354397
 20
-1.04365
 10
-8.188673
 20
-1.04365
 10
-8.188673
 20
-0.251839
 10
-8.354397
 20
-0.251839
 10
-8.354397
 20
-0.040089
  0
LWPOLYLINE
  5
1CC
100
AcDbEntity
  8
0
  6
CONTINUOUS
 62
     7
100
AcDbPolyline
 90
        5
 70
   128
 43
0.0
 10
-7.976904
 20
-0.251839
 10
-7.976904
 20
-1.04365
 10
-7.366112
 20
-1.04365
 10
-7.366112
 20
-0.251839
 10
-7.976904
 20
-0.251839
  0
LINE
  5
1CD
100
AcDbEntity
  8
0
  6
CONTINUOUS
 62
     7
100
AcDbLine
 10
-7.288504
 20
0.272949
 30
0.0
 11
-7.288504
 21
0.116438
 31
0.0
  0
LINE
  5
1CE
100
AcDbEntity
  8
0
  6
CONTINUOUS
 62
     7
100
AcDbLine
 10
-7.288504
 20
-0.040089
 30
0.0
 11
-7.288504
 21
-1.255402
 31
0.0
  0
LINE
  5
1CF
100
AcDbEntity
  8
0
  6
CONTINUOUS
 62
     7
100
AcDbLine
 10
-7.288504
 20
-1.411913
 30
0.0
 11
-7.288504
 21
-1.568451
 31
0.0
  0
LINE
  5
1D0
100
AcDbEntity
  8
0
  6
CONTINUOUS
 62
     7
100
AcDbLine
 10
-7.258518
 20
0.272949
 30
0.0
 11
-7.258518
 21
0.116438
 31
0.0
  0
LINE
  5
1D1
100
AcDbEntity
  8
0
  6
CONTINUOUS
 62
     7
100
AcDbLine
 10
-7.258518
 20
-0.080139
 30
0.0
 11
-7.258518
 21
-1.215351
 31
0.0
  0
LINE
  5
1D2
100
AcDbEntity
  8
0
  6
CONTINUOUS
 62
     7
100
AcDbLine
 10
-7.258518
 20
-1.411921
 30
0.0
 11
-7.258518
 21
-1.56844
 31
0.0
  0
LINE
  5
1D3
100
AcDbEntity
  8
0
  6
CONTINUOUS
 62
     7
100
AcDbLine
 10
-7.228571
 20
0.272949
 30
0.0
 11
-7.228571
 21
0.116438
 31
0.0
  0
LINE
  5
1D4
100
AcDbEntity
  8
0
  6
CONTINUOUS
 62
     7
100
AcDbLine
 10
-7.228571
 20
-0.123222
 30
0.0
 11
-7.228571
 21
-1.172272
 31
0.0
  0
LINE
  5
1D5
100
AcDbEntity
  8
0
  6
CONTINUOUS
 62
     7
100
AcDbLine
 10
-7.228571
 20
-1.411913
 30
0.0
 11
-7.228571
 21
-1.568451
 31
0.0
  0
LINE
  5
1D6
100
AcDbEntity
  8
0
  6
CONTINUOUS
 62
     7
100
AcDbLine
 10
-7.198584
 20
0.272949
 30
0.0
 11
-7.198584
 21
0.116438
 31
0.0
  0
LINE
  5
1D7
100
AcDbEntity
  8
0
  6
CONTINUOUS
 62
     7
100
AcDbLine
 10
-7.198584
 20
-0.166319
 30
0.0
 11
-7.198584
 21
-1.129169
 31
0.0
  0
LINE
  5
1D8
100
AcDbEntity
  8
0
  6
CONTINUOUS
 62
     7
100
AcDbLine
 10
-7.198584
 20
-1.411921
 30
0.0
 11
-7.198584
 21
-1.568451
 31
0.0
  0
LINE
  5
1D9
100
AcDbEntity
  8
0
  6
CONTINUOUS
 62
     7
100
AcDbLine
 10
-7.168589
 20
0.272949
 30
0.0
 11
-7.168589
 21
0.116438
 31
0.0
  0
LINE
  5
1DA
100
AcDbEntity
  8
0
  6
CONTINUOUS
 62
     7
100
AcDbLine
 10
-7.168589
 20
-0.209404
 30
0.0
 11
-7.168589
 21
-1.086092
 31
0.0
  0
LINE
  5
1DB
100
AcDbEntity
  8
0
  6
CONTINUOUS
 62
     7
100
AcDbLine
 10
-7.168589
 20
-1.411913
 30
0.0
 11
-7.168589
 21
-1.568451
 31
0.0
  0
LINE
  5
1DC
100
AcDbEntity
  8
0
  6
CONTINUOUS
 62
     7
100
AcDbLine
 10
-7.138622
 20
0.272949
 30
0.0
 11
-7.138622
 21
0.116438
 31
0.0
  0
LINE
  5
1DD
100
AcDbEntity
  8
0
  6
CONTINUOUS
 62
     7
100
AcDbLine
 10
-7.138622
 20
-1.411921
 30
0.0
 11
-7.138622
 21
-1.568451
 31
0.0
  0
LINE
  5
1DE
100
AcDbEntity
  8
0
  6
CONTINUOUS
 62
     7
100
AcDbLine
 10
-8.187804
 20
0.272949
 30
0.0
 11
-8.187804
 21
0.116438
 31
0.0
  0
LINE
  5
1DF
100
AcDbEntity
  8
0
  6
CONTINUOUS
 62
     7
100
AcDbLine
 10
-8.187804
 20
-0.040089
 30
0.0
 11
-8.187804
 21
-1.255413
 31
0.0
  0
LINE
  5
1E0
100
AcDbEntity
  8
0
  6
CONTINUOUS
 62
     7
100
AcDbLine
 10
-8.187804
 20
-1.411921
 30
0.0
 11
-8.187804
 21
-1.568451
 31
0.0
  0
LINE
  5
1E1
100
AcDbEntity
  8
0
  6
CONTINUOUS
 62
     7
100
AcDbLine
 10
-8.157809
 20
0.272949
 30
0.0
 11
-8.157809
 21
0.116438
 31
0.0
  0
LINE
  5
1E2
100
AcDbEntity
  8
0
  6
CONTINUOUS
 62
     7
100
AcDbLine
 10
-8.157809
 20
-0.040089
 30
0.0
 11
-8.157809
 21
-1.255413
 31
0.0
  0
LINE
  5
1E3
100
AcDbEntity
  8
0
  6
CONTINUOUS
 62
     7
100
AcDbLine
 10
-8.157809
 20
-1.411921
 30
0.0
 11
-8.157809
 21
-1.568451
 31
0.0
  0
LINE
  5
1E4
100
AcDbEntity
  8
0
  6
CONTINUOUS
 62
     7
100
AcDbLine
 10
-7.977951
 20
0.272949
 30
0.0
 11
-7.977951
 21
0.116438
 31
0.0
  0
LINE
  5
1E5
100
AcDbEntity
  8
0
  6
CONTINUOUS
 62
     7
100
AcDbLine
 10
-7.977951
 20
-0.040089
 30
0.0
 11
-7.977951
 21
-1.255402
 31
0.0
  0
LINE
  5
1E6
100
AcDbEntity
  8
0
  6
CONTINUOUS
 62
     7
100
AcDbLine
 10
-7.977951
 20
-1.411913
 30
0.0
 11
-7.977951
 21
-1.56844
 31
0.0
  0
LINE
  5
1E7
100
AcDbEntity
  8
0
  6
CONTINUOUS
 62
     7
100
AcDbLine
 10
-8.007946
 20
0.272949
 30
0.0
 11
-8.007946
 21
0.116438
 31
0.0
  0
LINE
  5
1E8
100
AcDbEntity
  8
0
  6
CONTINUOUS
 62
     7
100
AcDbLine
 10
-8.007946
 20
-0.040089
 30
0.0
 11
-8.007946
 21
-1.255413
 31
0.0
  0
LINE
  5
1E9
100
AcDbEntity
  8
0
  6
CONTINUOUS
 62
     7
100
AcDbLine
 10
-8.007946
 20
-1.411921
 30
0.0
 11
-8.007946
 21
-1.568451
 31
0.0
  0
LINE
  5
1EA
100
AcDbEntity
  8
0
  6
CONTINUOUS
 62
     7
100
AcDbLine
 10
-8.037931
 20
0.272949
 30
0.0
 11
-8.037931
 21
0.116438
 31
0.0
  0
LINE
  5
1EB
100
AcDbEntity
  8
0
  6
CONTINUOUS
 62
     7
100
AcDbLine
 10
-8.037931
 20
-0.040089
 30
0.0
 11
-8.037931
 21
-1.255413
 31
0.0
  0
LINE
  5
1EC
100
AcDbEntity
  8
0
  6
CONTINUOUS
 62
     7
100
AcDbLine
 10
-8.037931
 20
-1.411921
 30
0.0
 11
-8.037931
 21
-1.568451
 31
0.0
  0
LINE
  5
1ED
100
AcDbEntity
  8
0
  6
CONTINUOUS
 62
     7
100
AcDbLine
 10
-8.06788
 20
0.272949
 30
0.0
 11
-8.06788
 21
0.116438
 31
0.0
  0
LINE
  5
1EE
100
AcDbEntity
  8
0
  6
CONTINUOUS
 62
     7
100
AcDbLine
 10
-8.06788
 20
-0.040089
 30
0.0
 11
-8.06788
 21
-1.255413
 31
0.0
  0
LINE
  5
1EF
100
AcDbEntity
  8
0
  6
CONTINUOUS
 62
     7
100
AcDbLine
 10
-8.06788
 20
-1.411921
 30
0.0
 11
-8.06788
 21
-1.568451
 31
0.0
  0
LINE
  5
1F0
100
AcDbEntity
  8
0
  6
CONTINUOUS
 62
     7
100
AcDbLine
 10
-8.097865
 20
0.272949
 30
0.0
 11
-8.097865
 21
0.116438
 31
0.0
  0
LINE
  5
1F1
100
AcDbEntity
  8
0
  6
CONTINUOUS
 62
     7
100
AcDbLine
 10
-8.097865
 20
-0.040089
 30
0.0
 11
-8.097865
 21
-1.255413
 31
0.0
  0
LINE
  5
1F2
100
AcDbEntity
  8
0
  6
CONTINUOUS
 62
     7
100
AcDbLine
 10
-8.097865
 20
-1.411921
 30
0.0
 11
-8.097865
 21
-1.568451
 31
0.0
  0
LINE
  5
1F3
100
AcDbEntity
  8
0
  6
CONTINUOUS
 62
     7
100
AcDbLine
 10
-8.127842
 20
0.272949
 30
0.0
 11
-8.127842
 21
0.116438
 31
0.0
  0
LINE
  5
1F4
100
AcDbEntity
  8
0
  6
CONTINUOUS
 62
     7
100
AcDbLine
 10
-8.127842
 20
-0.040089
 30
0.0
 11
-8.127842
 21
-1.255413
 31
0.0
  0
LINE
  5
1F5
100
AcDbEntity
  8
0
  6
CONTINUOUS
 62
     7
100
AcDbLine
 10
-8.127842
 20
-1.411921
 30
0.0
 11
-8.127842
 21
-1.568451
 31
0.0
  0
LINE
  5
1F6
100
AcDbEntity
  8
0
  6
CONTINUOUS
 62
     7
100
AcDbLine
 10
-8.337685
 20
0.272949
 30
0.0
 11
-8.337685
 21
0.116438
 31
0.0
  0
LINE
  5
1F7
100
AcDbEntity
  8
0
  6
CONTINUOUS
 62
     7
100
AcDbLine
 10
-8.337685
 20
-0.040089
 30
0.0
 11
-8.337685
 21
-0.251839
 31
0.0
  0
LINE
  5
1F8
100
AcDbEntity
  8
0
  6
CONTINUOUS
 62
     7
100
AcDbLine
 10
-8.337685
 20
-1.04365
 30
0.0
 11
-8.337685
 21
-1.255413
 31
0.0
  0
LINE
  5
1F9
100
AcDbEntity
  8
0
  6
CONTINUOUS
 62
     7
100
AcDbLine
 10
-8.337685
 20
-1.411921
 30
0.0
 11
-8.337685
 21
-1.568451
 31
0.0
  0
LINE
  5
1FA
100
AcDbEntity
  8
0
  6
CONTINUOUS
 62
     7
100
AcDbLine
 10
-7.378433
 20
0.272949
 30
0.0
 11
-7.378433
 21
0.116438
 31
0.0
  0
LINE
  5
1FB
100
AcDbEntity
  8
0
  6
CONTINUOUS
 62
     7
100
AcDbLine
 10
-7.378433
 20
-0.040089
 30
0.0
 11
-7.378433
 21
-0.251839
 31
0.0
  0
LINE
  5
1FC
100
AcDbEntity
  8
0
  6
CONTINUOUS
 62
     7
100
AcDbLine
 10
-7.378433
 20
-1.04365
 30
0.0
 11
-7.378433
 21
-1.255402
 31
0.0
  0
LINE
  5
1FD
100
AcDbEntity
  8
0
  6
CONTINUOUS
 62
     7
100
AcDbLine
 10
-7.378433
 20
-1.411913
 30
0.0
 11
-7.378433
 21
-1.56844
 31
0.0
  0
LINE
  5
1FE
100
AcDbEntity
  8
0
  6
CONTINUOUS
 62
     7
100
AcDbLine
 10
-7.408409
 20
0.272949
 30
0.0
 11
-7.408409
 21
0.116438
 31
0.0
  0
LINE
  5
1FF
100
AcDbEntity
  8
0
  6
CONTINUOUS
 62
     7
100
AcDbLine
 10
-7.408409
 20
-0.040089
 30
0.0
 11
-7.408409
 21
-0.251839
 31
0.0
  0
LINE
  5
200
100
AcDbEntity
  8
0
  6
CONTINUOUS
 62
     7
100
AcDbLine
 10
-7.408409
 20
-1.04365
 30
0.0
 11
-7.408409
 21
-1.255402
 31
0.0
  0
LINE
  5
201
100
AcDbEntity
  8
0
  6
CONTINUOUS
 62
     7
100
AcDbLine
 10
-7.408409
 20
-1.411913
 30
0.0
 11
-7.408409
 21
-1.56844
 31
0.0
  0
LINE
  5
202
100
AcDbEntity
  8
0
  6
CONTINUOUS
 62
     7
100
AcDbLine
 10
-7.438377
 20
0.272949
 30
0.0
 11
-7.438377
 21
0.116438
 31
0.0
  0
LINE
  5
203
100
AcDbEntity
  8
0
  6
CONTINUOUS
 62
     7
100
AcDbLine
 10
-7.438377
 20
-0.040089
 30
0.0
 11
-7.438377
 21
-0.251839
 31
0.0
  0
LINE
  5
204
100
AcDbEntity
  8
0
  6
CONTINUOUS
 62
     7
100
AcDbLine
 10
-7.438377
 20
-1.04365
 30
0.0
 11
-7.438377
 21
-1.255402
 31
0.0
  0
LINE
  5
205
100
AcDbEntity
  8
0
  6
CONTINUOUS
 62
     7
100
AcDbLine
 10
-7.438377
 20
-1.411913
 30
0.0
 11
-7.438377
 21
-1.56844
 31
0.0
  0
LINE
  5
206
100
AcDbEntity
  8
0
  6
CONTINUOUS
 62
     7
100
AcDbLine
 10
-7.468363
 20
0.272949
 30
0.0
 11
-7.468363
 21
0.116438
 31
0.0
  0
LINE
  5
207
100
AcDbEntity
  8
0
  6
CONTINUOUS
 62
     7
100
AcDbLine
 10
-7.468363
 20
-0.040089
 30
0.0
 11
-7.468363
 21
-0.251833
 31
0.0
  0
LINE
  5
208
100
AcDbEntity
  8
0
  6
CONTINUOUS
 62
     7
100
AcDbLine
 10
-7.468363
 20
-1.04365
 30
0.0
 11
-7.468363
 21
-1.255402
 31
0.0
  0
LINE
  5
209
100
AcDbEntity
  8
0
  6
CONTINUOUS
 62
     7
100
AcDbLine
 10
-7.468363
 20
-1.411913
 30
0.0
 11
-7.468363
 21
-1.56844
 31
0.0
  0
LINE
  5
20A
100
AcDbEntity
  8
0
  6
CONTINUOUS
 62
     7
100
AcDbLine
 10
-7.498339
 20
0.272949
 30
0.0
 11
-7.498339
 21
0.116438
 31
0.0
  0
LINE
  5
20B
100
AcDbEntity
  8
0
  6
CONTINUOUS
 62
     7
100
AcDbLine
 10
-7.498339
 20
-0.040089
 30
0.0
 11
-7.498339
 21
-0.251839
 31
0.0
  0
LINE
  5
20C
100
AcDbEntity
  8
0
  6
CONTINUOUS
 62
     7
100
AcDbLine
 10
-7.498339
 20
-1.04365
 30
0.0
 11
-7.498339
 21
-1.255402
 31
0.0
  0
LINE
  5
20D
100
AcDbEntity
  8
0
  6
CONTINUOUS
 62
     7
100
AcDbLine
 10
-7.498339
 20
-1.411913
 30
0.0
 11
-7.498339
 21
-1.56844
 31
0.0
  0
LINE
  5
20E
100
AcDbEntity
  8
0
  6
CONTINUOUS
 62
     7
100
AcDbLine
 10
-7.528305
 20
0.272949
 30
0.0
 11
-7.528305
 21
0.116438
 31
0.0
  0
LINE
  5
20F
100
AcDbEntity
  8
0
  6
CONTINUOUS
 62
     7
100
AcDbLine
 10
-7.528305
 20
-0.040089
 30
0.0
 11
-7.528305
 21
-0.251839
 31
0.0
  0
LINE
  5
210
100
AcDbEntity
  8
0
  6
CONTINUOUS
 62
     7
100
AcDbLine
 10
-7.528305
 20
-1.04365
 30
0.0
 11
-7.528305
 21
-1.255402
 31
0.0
  0
LINE
  5
211
100
AcDbEntity
  8
0
  6
CONTINUOUS
 62
     7
100
AcDbLine
 10
-7.528305
 20
-1.411913
 30
0.0
 11
-7.528305
 21
-1.56844
 31
0.0
  0
LINE
  5
212
100
AcDbEntity
  8
0
  6
CONTINUOUS
 62
     7
100
AcDbLine
 10
-7.5583
 20
0.272949
 30
0.0
 11
-7.5583
 21
0.116438
 31
0.0
  0
LINE
  5
213
100
AcDbEntity
  8
0
  6
CONTINUOUS
 62
     7
100
AcDbLine
 10
-7.5583
 20
-0.040089
 30
0.0
 11
-7.5583
 21
-0.251839
 31
0.0
  0
LINE
  5
214
100
AcDbEntity
  8
0
  6
CONTINUOUS
 62
     7
100
AcDbLine
 10
-7.5583
 20
-1.04365
 30
0.0
 11
-7.5583
 21
-1.255402
 31
0.0
  0
LINE
  5
215
100
AcDbEntity
  8
0
  6
CONTINUOUS
 62
     7
100
AcDbLine
 10
-7.5583
 20
-1.411913
 30
0.0
 11
-7.5583
 21
-1.56844
 31
0.0
  0
LINE
  5
216
100
AcDbEntity
  8
0
  6
CONTINUOUS
 62
     7
100
AcDbLine
 10
-7.588268
 20
0.272949
 30
0.0
 11
-7.588268
 21
0.116438
 31
0.0
  0
LINE
  5
217
100
AcDbEntity
  8
0
  6
CONTINUOUS
 62
     7
100
AcDbLine
 10
-7.588268
 20
-0.040089
 30
0.0
 11
-7.588268
 21
-0.251839
 31
0.0
  0
LINE
  5
218
100
AcDbEntity
  8
0
  6
CONTINUOUS
 62
     7
100
AcDbLine
 10
-7.588268
 20
-1.04365
 30
0.0
 11
-7.588268
 21
-1.255402
 31
0.0
  0
LINE
  5
219
100
AcDbEntity
  8
0
  6
CONTINUOUS
 62
     7
100
AcDbLine
 10
-7.588268
 20
-1.411913
 30
0.0
 11
-7.588268
 21
-1.56844
 31
0.0
  0
LINE
  5
21A
100
AcDbEntity
  8
0
  6
CONTINUOUS
 62
     7
100
AcDbLine
 10
-7.618235
 20
0.272949
 30
0.0
 11
-7.618235
 21
0.116438
 31
0.0
  0
LINE
  5
21B
100
AcDbEntity
  8
0
  6
CONTINUOUS
 62
     7
100
AcDbLine
 10
-7.618235
 20
-0.040089
 30
0.0
 11
-7.618235
 21
-0.251839
 31
0.0
  0
LINE
  5
21C
100
AcDbEntity
  8
0
  6
CONTINUOUS
 62
     7
100
AcDbLine
 10
-7.618235
 20
-1.04365
 30
0.0
 11
-7.618235
 21
-1.255402
 31
0.0
  0
LINE
  5
21D
100
AcDbEntity
  8
0
  6
CONTINUOUS
 62
     7
100
AcDbLine
 10
-7.618235
 20
-1.411913
 30
0.0
 11
-7.618235
 21
-1.56844
 31
0.0
  0
LINE
  5
21E
100
AcDbEntity
  8
0
  6
CONTINUOUS
 62
     7
100
AcDbLine
 10
-7.64822
 20
0.272949
 30
0.0
 11
-7.64822
 21
0.116438
 31
0.0
  0
LINE
  5
21F
100
AcDbEntity
  8
0
  6
CONTINUOUS
 62
     7
100
AcDbLine
 10
-7.64822
 20
-0.040089
 30
0.0
 11
-7.64822
 21
-0.251839
 31
0.0
  0
LINE
  5
220
100
AcDbEntity
  8
0
  6
CONTINUOUS
 62
     7
100
AcDbLine
 10
-7.64822
 20
-1.04365
 30
0.0
 11
-7.64822
 21
-1.255402
 31
0.0
  0
LINE
  5
221
100
AcDbEntity
  8
0
  6
CONTINUOUS
 62
     7
100
AcDbLine
 10
-7.64822
 20
-1.411913
 30
0.0
 11
-7.64822
 21
-1.56844
 31
0.0
  0
LINE
  5
222
100
AcDbEntity
  8
0
  6
CONTINUOUS
 62
     7
100
AcDbLine
 10
-7.678196
 20
0.272949
 30
0.0
 11
-7.678196
 21
0.116438
 31
0.0
  0
LINE
  5
223
100
AcDbEntity
  8
0
  6
CONTINUOUS
 62
     7
100
AcDbLine
 10
-7.678196
 20
-0.040089
 30
0.0
 11
-7.678196
 21
-0.251839
 31
0.0
  0
LINE
  5
224
100
AcDbEntity
  8
0
  6
CONTINUOUS
 62
     7
100
AcDbLine
 10
-7.678196
 20
-1.04365
 30
0.0
 11
-7.678196
 21
-1.255402
 31
0.0
  0
LINE
  5
225
100
AcDbEntity
  8
0
  6
CONTINUOUS
 62
     7
100
AcDbLine
 10
-7.678196
 20
-1.411913
 30
0.0
 11
-7.678196
 21
-1.56844
 31
0.0
  0
LINE
  5
226
100
AcDbEntity
  8
0
  6
CONTINUOUS
 62
     7
100
AcDbLine
 10
-7.708183
 20
0.272949
 30
0.0
 11
-7.708183
 21
0.116438
 31
0.0
  0
LINE
  5
227
100
AcDbEntity
  8
0
  6
CONTINUOUS
 62
     7
100
AcDbLine
 10
-7.708183
 20
-0.040089
 30
0.0
 11
-7.708183
 21
-0.251833
 31
0.0
  0
LINE
  5
228
100
AcDbEntity
  8
0
  6
CONTINUOUS
 62
     7
100
AcDbLine
 10
-7.708183
 20
-1.04365
 30
0.0
 11
-7.708183
 21
-1.255402
 31
0.0
  0
LINE
  5
229
100
AcDbEntity
  8
0
  6
CONTINUOUS
 62
     7
100
AcDbLine
 10
-7.708183
 20
-1.411913
 30
0.0
 11
-7.708183
 21
-1.56844
 31
0.0
  0
LINE
  5
22A
100
AcDbEntity
  8
0
  6
CONTINUOUS
 62
     7
100
AcDbLine
 10
-7.738149
 20
0.272949
 30
0.0
 11
-7.738149
 21
0.116438
 31
0.0
  0
LINE
  5
22B
100
AcDbEntity
  8
0
  6
CONTINUOUS
 62
     7
100
AcDbLine
 10
-7.738149
 20
-0.040089
 30
0.0
 11
-7.738149
 21
-0.251833
 31
0.0
  0
LINE
  5
22C
100
AcDbEntity
  8
0
  6
CONTINUOUS
 62
     7
100
AcDbLine
 10
-7.738149
 20
-1.04365
 30
0.0
 11
-7.738149
 21
-1.255402
 31
0.0
  0
LINE
  5
22D
100
AcDbEntity
  8
0
  6
CONTINUOUS
 62
     7
100
AcDbLine
 10
-7.738149
 20
-1.411913
 30
0.0
 11
-7.738149
 21
-1.56844
 31
0.0
  0
LINE
  5
22E
100
AcDbEntity
  8
0
  6
CONTINUOUS
 62
     7
100
AcDbLine
 10
-7.768126
 20
0.272949
 30
0.0
 11
-7.768126
 21
0.116438
 31
0.0
  0
LINE
  5
22F
100
AcDbEntity
  8
0
  6
CONTINUOUS
 62
     7
100
AcDbLine
 10
-7.768126
 20
-0.040089
 30
0.0
 11
-7.768126
 21
-0.251833
 31
0.0
  0
LINE
  5
230
100
AcDbEntity
  8
0
  6
CONTINUOUS
 62
     7
100
AcDbLine
 10
-7.768126
 20
-1.04365
 30
0.0
 11
-7.768126
 21
-1.255402
 31
0.0
  0
LINE
  5
231
100
AcDbEntity
  8
0
  6
CONTINUOUS
 62
     7
100
AcDbLine
 10
-7.768126
 20
-1.411913
 30
0.0
 11
-7.768126
 21
-1.56844
 31
0.0
  0
LINE
  5
232
100
AcDbEntity
  8
0
  6
CONTINUOUS
 62
     7
100
AcDbLine
 10
-7.798094
 20
0.272949
 30
0.0
 11
-7.798094
 21
0.116438
 31
0.0
  0
LINE
  5
233
100
AcDbEntity
  8
0
  6
CONTINUOUS
 62
     7
100
AcDbLine
 10
-7.798094
 20
-0.040089
 30
0.0
 11
-7.798094
 21
-0.251833
 31
0.0
  0
LINE
  5
234
100
AcDbEntity
  8
0
  6
CONTINUOUS
 62
     7
100
AcDbLine
 10
-7.798094
 20
-1.04365
 30
0.0
 11
-7.798094
 21
-1.255402
 31
0.0
  0
LINE
  5
235
100
AcDbEntity
  8
0
  6
CONTINUOUS
 62
     7
100
AcDbLine
 10
-7.798094
 20
-1.411913
 30
0.0
 11
-7.798094
 21
-1.56844
 31
0.0
  0
LINE
  5
236
100
AcDbEntity
  8
0
  6
CONTINUOUS
 62
     7
100
AcDbLine
 10
-7.828079
 20
0.272949
 30
0.0
 11
-7.828079
 21
0.116438
 31
0.0
  0
LINE
  5
237
100
AcDbEntity
  8
0
  6
CONTINUOUS
 62
     7
100
AcDbLine
 10
-7.828079
 20
-0.040089
 30
0.0
 11
-7.828079
 21
-0.251833
 31
0.0
  0
LINE
  5
238
100
AcDbEntity
  8
0
  6
CONTINUOUS
 62
     7
100
AcDbLine
 10
-7.828079
 20
-1.04365
 30
0.0
 11
-7.828079
 21
-1.255402
 31
0.0
  0
LINE
  5
239
100
AcDbEntity
  8
0
  6
CONTINUOUS
 62
     7
100
AcDbLine
 10
-7.828079
 20
-1.411913
 30
0.0
 11
-7.828079
 21
-1.56844
 31
0.0
  0
LINE
  5
23A
100
AcDbEntity
  8
0
  6
CONTINUOUS
 62
     7
100
AcDbLine
 10
-7.858074
 20
0.272949
 30
0.0
 11
-7.858074
 21
0.116438
 31
0.0
  0
LINE
  5
23B
100
AcDbEntity
  8
0
  6
CONTINUOUS
 62
     7
100
AcDbLine
 10
-7.858074
 20
-0.040089
 30
0.0
 11
-7.858074
 21
-0.251833
 31
0.0
  0
LINE
  5
23C
100
AcDbEntity
  8
0
  6
CONTINUOUS
 62
     7
100
AcDbLine
 10
-7.858074
 20
-1.04365
 30
0.0
 11
-7.858074
 21
-1.255402
 31
0.0
  0
LINE
  5
23D
100
AcDbEntity
  8
0
  6
CONTINUOUS
 62
     7
100
AcDbLine
 10
-7.858074
 20
-1.411913
 30
0.0
 11
-7.858074
 21
-1.56844
 31
0.0
  0
LINE
  5
23E
100
AcDbEntity
  8
0
  6
CONTINUOUS
 62
     7
100
AcDbLine
 10
-7.888041
 20
0.272949
 30
0.0
 11
-7.888041
 21
0.116438
 31
0.0
  0
LINE
  5
23F
100
AcDbEntity
  8
0
  6
CONTINUOUS
 62
     7
100
AcDbLine
 10
-7.888041
 20
-0.040089
 30
0.0
 11
-7.888041
 21
-0.251833
 31
0.0
  0
LINE
  5
240
100
AcDbEntity
  8
0
  6
CONTINUOUS
 62
     7
100
AcDbLine
 10
-7.888041
 20
-1.04365
 30
0.0
 11
-7.888041
 21
-1.255402
 31
0.0
  0
LINE
  5
241
100
AcDbEntity
  8
0
  6
CONTINUOUS
 62
     7
100
AcDbLine
 10
-7.888041
 20
-1.411913
 30
0.0
 11
-7.888041
 21
-1.56844
 31
0.0
  0
LINE
  5
242
100
AcDbEntity
  8
0
  6
CONTINUOUS
 62
     7
100
AcDbLine
 10
-7.918007
 20
0.272949
 30
0.0
 11
-7.918007
 21
0.116438
 31
0.0
  0
LINE
  5
243
100
AcDbEntity
  8
0
  6
CONTINUOUS
 62
     7
100
AcDbLine
 10
-7.918007
 20
-0.040089
 30
0.0
 11
-7.918007
 21
-0.251839
 31
0.0
  0
LINE
  5
244
100
AcDbEntity
  8
0
  6
CONTINUOUS
 62
     7
100
AcDbLine
 10
-7.918007
 20
-1.04365
 30
0.0
 11
-7.918007
 21
-1.255402
 31
0.0
  0
LINE
  5
245
100
AcDbEntity
  8
0
  6
CONTINUOUS
 62
     7
100
AcDbLine
 10
-7.918007
 20
-1.411913
 30
0.0
 11
-7.918007
 21
-1.56844
 31
0.0
  0
LINE
  5
246
100
AcDbEntity
  8
0
  6
CONTINUOUS
 62
     7
100
AcDbLine
 10
-7.947985
 20
0.272949
 30
0.0
 11
-7.947985
 21
0.116438
 31
0.0
  0
LINE
  5
247
100
AcDbEntity
  8
0
  6
CONTINUOUS
 62
     7
100
AcDbLine
 10
-7.947985
 20
-0.040089
 30
0.0
 11
-7.947985
 21
-0.251833
 31
0.0
  0
LINE
  5
248
100
AcDbEntity
  8
0
  6
CONTINUOUS
 62
     7
100
AcDbLine
 10
-7.947985
 20
-1.04365
 30
0.0
 11
-7.947985
 21
-1.255402
 31
0.0
  0
LINE
  5
249
100
AcDbEntity
  8
0
  6
CONTINUOUS
 62
     7
100
AcDbLine
 10
-7.947985
 20
-1.411913
 30
0.0
 11
-7.947985
 21
-1.56844
 31
0.0
  0
LINE
  5
24A
100
AcDbEntity
  8
0
  6
CONTINUOUS
 62
     7
100
AcDbLine
 10
-8.21779
 20
0.272949
 30
0.0
 11
-8.21779
 21
0.116438
 31
0.0
  0
LINE
  5
24B
100
AcDbEntity
  8
0
  6
CONTINUOUS
 62
     7
100
AcDbLine
 10
-8.21779
 20
-0.040089
 30
0.0
 11
-8.21779
 21
-0.251839
 31
0.0
  0
LINE
  5
24C
100
AcDbEntity
  8
0
  6
CONTINUOUS
 62
     7
100
AcDbLine
 10
-8.21779
 20
-1.04365
 30
0.0
 11
-8.21779
 21
-1.255402
 31
0.0
  0
LINE
  5
24D
100
AcDbEntity
  8
0
  6
CONTINUOUS
 62
     7
100
AcDbLine
 10
-8.21779
 20
-1.411913
 30
0.0
 11
-8.21779
 21
-1.56844
 31
0.0
  0
LINE
  5
24E
100
AcDbEntity
  8
0
  6
CONTINUOUS
 62
     7
100
AcDbLine
 10
-8.247738
 20
0.272949
 30
0.0
 11
-8.247738
 21
0.116438
 31
0.0
  0
LINE
  5
24F
100
AcDbEntity
  8
0
  6
CONTINUOUS
 62
     7
100
AcDbLine
 10
-8.247738
 20
-0.040089
 30
0.0
 11
-8.247738
 21
-0.251839
 31
0.0
  0
LINE
  5
250
100
AcDbEntity
  8
0
  6
CONTINUOUS
 62
     7
100
AcDbLine
 10
-8.247738
 20
-1.04365
 30
0.0
 11
-8.247738
 21
-1.255413
 31
0.0
  0
LINE
  5
251
100
AcDbEntity
  8
0
  6
CONTINUOUS
 62
     7
100
AcDbLine
 10
-8.247738
 20
-1.411921
 30
0.0
 11
-8.247738
 21
-1.568451
 31
0.0
  0
LINE
  5
252
100
AcDbEntity
  8
0
  6
CONTINUOUS
 62
     7
100
AcDbLine
 10
-8.277723
 20
0.272949
 30
0.0
 11
-8.277723
 21
0.116438
 31
0.0
  0
LINE
  5
253
100
AcDbEntity
  8
0
  6
CONTINUOUS
 62
     7
100
AcDbLine
 10
-8.277723
 20
-0.040089
 30
0.0
 11
-8.277723
 21
-0.251839
 31
0.0
  0
LINE
  5
254
100
AcDbEntity
  8
0
  6
CONTINUOUS
 62
     7
100
AcDbLine
 10
-8.277723
 20
-1.04365
 30
0.0
 11
-8.277723
 21
-1.255413
 31
0.0
  0
LINE
  5
255
100
AcDbEntity
  8
0
  6
CONTINUOUS
 62
     7
100
AcDbLine
 10
-8.277723
 20
-1.411921
 30
0.0
 11
-8.277723
 21
-1.568451
 31
0.0
  0
LINE
  5
256
100
AcDbEntity
  8
0
  6
CONTINUOUS
 62
     7
100
AcDbLine
 10
-8.3077
 20
0.272949
 30
0.0
 11
-8.3077
 21
0.116438
 31
0.0
  0
LINE
  5
257
100
AcDbEntity
  8
0
  6
CONTINUOUS
 62
     7
100
AcDbLine
 10
-8.3077
 20
-0.040089
 30
0.0
 11
-8.3077
 21
-0.251839
 31
0.0
  0
LINE
  5
258
100
AcDbEntity
  8
0
  6
CONTINUOUS
 62
     7
100
AcDbLine
 10
-8.3077
 20
-1.04365
 30
0.0
 11
-8.3077
 21
-1.255402
 31
0.0
  0
LINE
  5
259
100
AcDbEntity
  8
0
  6
CONTINUOUS
 62
     7
100
AcDbLine
 10
-8.3077
 20
-1.411913
 30
0.0
 11
-8.3077
 21
-1.56844
 31
0.0
  0
LINE
  5
25A
100
AcDbEntity
  8
0
  6
CONTINUOUS
 62
     7
100
AcDbLine
 10
-5.766886
 20
-0.199101
 30
0.0
 11
-5.766886
 21
-0.359169
 31
0.0
  0
LINE
  5
25B
100
AcDbEntity
  8
0
  6
CONTINUOUS
 62
     7
100
AcDbLine
 10
-5.766886
 20
-0.468437
 30
0.0
 11
-5.766886
 21
-0.827045
 31
0.0
  0
LINE
  5
25C
100
AcDbEntity
  8
0
  6
CONTINUOUS
 62
     7
100
AcDbLine
 10
-5.808966
 20
-0.838821
 30
0.0
 11
-5.808966
 21
-0.719069
 31
0.0
  0
LINE
  5
25D
100
AcDbEntity
  8
0
  6
CONTINUOUS
 62
     7
100
AcDbLine
 10
-5.808966
 20
-0.576408
 30
0.0
 11
-5.808966
 21
-0.456673
 31
0.0
  0
LINE
  5
25E
100
AcDbEntity
  8
0
  6
CONTINUOUS
 62
     7
100
AcDbLine
 10
-5.808966
 20
-0.307066
 30
0.0
 11
-5.808966
 21
-0.187336
 31
0.0
  0
LINE
  5
25F
100
AcDbEntity
  8
0
  6
CONTINUOUS
 62
     7
100
AcDbLine
 10
-5.851036
 20
-0.186028
 30
0.0
 11
-5.851036
 21
-0.301445
 31
0.0
  0
LINE
  5
260
100
AcDbEntity
  8
0
  6
CONTINUOUS
 62
     7
100
AcDbLine
 10
-5.851036
 20
-0.455358
 30
0.0
 11
-5.851036
 21
-0.570787
 31
0.0
  0
LINE
  5
261
100
AcDbEntity
  8
0
  6
CONTINUOUS
 62
     7
100
AcDbLine
 10
-5.851036
 20
-0.724701
 30
0.0
 11
-5.851036
 21
-0.840132
 31
0.0
  0
LINE
  5
262
100
AcDbEntity
  8
0
  6
CONTINUOUS
 62
     7
100
AcDbLine
 10
-5.893116
 20
-0.840132
 30
0.0
 11
-5.893116
 21
-0.724701
 31
0.0
  0
LINE
  5
263
100
AcDbEntity
  8
0
  6
CONTINUOUS
 62
     7
100
AcDbLine
 10
-5.893116
 20
-0.570787
 30
0.0
 11
-5.893116
 21
-0.455358
 31
0.0
  0
LINE
  5
264
100
AcDbEntity
  8
0
  6
CONTINUOUS
 62
     7
100
AcDbLine
 10
-5.893116
 20
-0.301445
 30
0.0
 11
-5.893116
 21
-0.186028
 31
0.0
  0
LINE
  5
265
100
AcDbEntity
  8
0
  6
CONTINUOUS
 62
     7
100
AcDbLine
 10
-5.935205
 20
-0.186028
 30
0.0
 11
-5.935205
 21
-0.301445
 31
0.0
  0
LINE
  5
266
100
AcDbEntity
  8
0
  6
CONTINUOUS
 62
     7
100
AcDbLine
 10
-5.935205
 20
-0.455358
 30
0.0
 11
-5.935205
 21
-0.570787
 31
0.0
  0
LINE
  5
267
100
AcDbEntity
  8
0
  6
CONTINUOUS
 62
     7
100
AcDbLine
 10
-5.935205
 20
-0.724701
 30
0.0
 11
-5.935205
 21
-0.840132
 31
0.0
  0
LINE
  5
268
100
AcDbEntity
  8
0
  6
CONTINUOUS
 62
     7
100
AcDbLine
 10
-5.977276
 20
-0.840132
 30
0.0
 11
-5.977276
 21
-0.724701
 31
0.0
  0
LINE
  5
269
100
AcDbEntity
  8
0
  6
CONTINUOUS
 62
     7
100
AcDbLine
 10
-5.977276
 20
-0.570787
 30
0.0
 11
-5.977276
 21
-0.455358
 31
0.0
  0
LINE
  5
26A
100
AcDbEntity
  8
0
  6
CONTINUOUS
 62
     7
100
AcDbLine
 10
-5.977276
 20
-0.301445
 30
0.0
 11
-5.977276
 21
-0.186028
 31
0.0
  0
LINE
  5
26B
100
AcDbEntity
  8
0
  6
CONTINUOUS
 62
     7
100
AcDbLine
 10
-6.019357
 20
-0.186014
 30
0.0
 11
-6.019357
 21
-0.301445
 31
0.0
  0
LINE
  5
26C
100
AcDbEntity
  8
0
  6
CONTINUOUS
 62
     7
100
AcDbLine
 10
-6.019357
 20
-0.455358
 30
0.0
 11
-6.019357
 21
-0.570787
 31
0.0
  0
LINE
  5
26D
100
AcDbEntity
  8
0
  6
CONTINUOUS
 62
     7
100
AcDbLine
 10
-6.019357
 20
-0.724701
 30
0.0
 11
-6.019357
 21
-0.840132
 31
0.0
  0
LINE
  5
26E
100
AcDbEntity
  8
0
  6
CONTINUOUS
 62
     7
100
AcDbLine
 10
-8.637449
 20
0.272949
 30
0.0
 11
-8.637449
 21
-1.56844
 31
0.0
  0
LINE
  5
26F
100
AcDbEntity
  8
0
  6
CONTINUOUS
 62
     7
100
AcDbLine
 10
-8.607454
 20
0.272949
 30
0.0
 11
-8.607454
 21
-1.568451
 31
0.0
  0
LINE
  5
270
100
AcDbEntity
  8
0
  6
CONTINUOUS
 62
     7
100
AcDbLine
 10
-8.577487
 20
0.272949
 30
0.0
 11
-8.577487
 21
-1.568451
 31
0.0
  0
LINE
  5
271
100
AcDbEntity
  8
0
  6
CONTINUOUS
 62
     7
100
AcDbLine
 10
-6.838859
 20
0.272957
 30
0.0
 11
-6.838859
 21
-1.56844
 31
0.0
  0
LINE
  5
272
100
AcDbEntity
  8
0
  6
CONTINUOUS
 62
     7
100
AcDbLine
 10
-6.868854
 20
0.272949
 30
0.0
 11
-6.868854
 21
-1.56844
 31
0.0
  0
LINE
  5
273
100
AcDbEntity
  8
0
  6
CONTINUOUS
 62
     7
100
AcDbLine
 10
-6.898821
 20
0.272949
 30
0.0
 11
-6.898821
 21
-1.56844
 31
0.0
  0
LINE
  5
274
100
AcDbEntity
  8
0
  6
CONTINUOUS
 62
     7
100
AcDbLine
 10
-6.928787
 20
0.272949
 30
0.0
 11
-6.928787
 21
-1.568451
 31
0.0
  0
LINE
  5
275
100
AcDbEntity
  8
0
  6
CONTINUOUS
 62
     7
100
AcDbLine
 10
-6.958765
 20
0.272949
 30
0.0
 11
-6.958765
 21
-1.568451
 31
0.0
  0
LINE
  5
276
100
AcDbEntity
  8
0
  6
CONTINUOUS
 62
     7
100
AcDbLine
 10
-7.348448
 20
0.272949
 30
0.0
 11
-7.348448
 21
0.116438
 31
0.0
  0
LINE
  5
277
100
AcDbEntity
  8
0
  6
CONTINUOUS
 62
     7
100
AcDbLine
 10
-7.348448
 20
-0.040089
 30
0.0
 11
-7.348448
 21
-1.255402
 31
0.0
  0
LINE
  5
278
100
AcDbEntity
  8
0
  6
CONTINUOUS
 62
     7
100
AcDbLine
 10
-7.348448
 20
-1.411913
 30
0.0
 11
-7.348448
 21
-1.568451
 31
0.0
  0
LINE
  5
279
100
AcDbEntity
  8
0
  6
CONTINUOUS
 62
     7
100
AcDbLine
 10
-7.318482
 20
0.272949
 30
0.0
 11
-7.318482
 21
0.116438
 31
0.0
  0
LINE
  5
27A
100
AcDbEntity
  8
0
  6
CONTINUOUS
 62
     7
100
AcDbLine
 10
-7.318482
 20
-0.040089
 30
0.0
 11
-7.318482
 21
-1.255402
 31
0.0
  0
LINE
  5
27B
100
AcDbEntity
  8
0
  6
CONTINUOUS
 62
     7
100
AcDbLine
 10
-7.318482
 20
-1.411921
 30
0.0
 11
-7.318482
 21
-1.568451
 31
0.0
  0
LINE
  5
27C
100
AcDbEntity
  8
0
  6
CONTINUOUS
 62
     7
100
AcDbLine
 10
-8.547521
 20
0.272949
 30
0.0
 11
-8.547521
 21
-1.568451
 31
0.0
  0
LINE
  5
27D
100
AcDbEntity
  8
0
  6
CONTINUOUS
 62
     7
100
AcDbLine
 10
-8.517544
 20
0.272949
 30
0.0
 11
-8.517544
 21
-1.568451
 31
0.0
  0
LINE
  5
27E
100
AcDbEntity
  8
0
  6
CONTINUOUS
 62
     7
100
AcDbLine
 10
-8.487578
 20
0.272949
 30
0.0
 11
-8.487578
 21
0.116438
 31
0.0
  0
LINE
  5
27F
100
AcDbEntity
  8
0
  6
CONTINUOUS
 62
     7
100
AcDbLine
 10
-8.487578
 20
-1.411921
 30
0.0
 11
-8.487578
 21
-1.568451
 31
0.0
  0
LINE
  5
280
100
AcDbEntity
  8
0
  6
CONTINUOUS
 62
     7
100
AcDbLine
 10
-6.988731
 20
0.272949
 30
0.0
 11
-6.988731
 21
0.116438
 31
0.0
  0
LINE
  5
281
100
AcDbEntity
  8
0
  6
CONTINUOUS
 62
     7
100
AcDbLine
 10
-6.988731
 20
-1.411921
 30
0.0
 11
-6.988731
 21
-1.568451
 31
0.0
  0
LINE
  5
282
100
AcDbEntity
  8
0
  6
CONTINUOUS
 62
     7
100
AcDbLine
 10
-7.018717
 20
0.272949
 30
0.0
 11
-7.018717
 21
0.116438
 31
0.0
  0
LINE
  5
283
100
AcDbEntity
  8
0
  6
CONTINUOUS
 62
     7
100
AcDbLine
 10
-7.018717
 20
-1.411913
 30
0.0
 11
-7.018717
 21
-1.56844
 31
0.0
  0
LINE
  5
284
100
AcDbEntity
  8
0
  6
CONTINUOUS
 62
     7
100
AcDbLine
 10
-7.048712
 20
0.272949
 30
0.0
 11
-7.048712
 21
0.116438
 31
0.0
  0
LINE
  5
285
100
AcDbEntity
  8
0
  6
CONTINUOUS
 62
     7
100
AcDbLine
 10
-7.048712
 20
-1.411913
 30
0.0
 11
-7.048712
 21
-1.56844
 31
0.0
  0
LINE
  5
286
100
AcDbEntity
  8
0
  6
CONTINUOUS
 62
     7
100
AcDbLine
 10
-7.078661
 20
0.272949
 30
0.0
 11
-7.078661
 21
0.116438
 31
0.0
  0
LINE
  5
287
100
AcDbEntity
  8
0
  6
CONTINUOUS
 62
     7
100
AcDbLine
 10
-7.078661
 20
-1.411913
 30
0.0
 11
-7.078661
 21
-1.56844
 31
0.0
  0
LINE
  5
288
100
AcDbEntity
  8
0
  6
CONTINUOUS
 62
     7
100
AcDbLine
 10
-7.108646
 20
0.272949
 30
0.0
 11
-7.108646
 21
0.116438
 31
0.0
  0
LINE
  5
289
100
AcDbEntity
  8
0
  6
CONTINUOUS
 62
     7
100
AcDbLine
 10
-7.108646
 20
-1.411921
 30
0.0
 11
-7.108646
 21
-1.568451
 31
0.0
  0
LINE
  5
28A
100
AcDbEntity
  8
0
  6
CONTINUOUS
 62
     7
100
AcDbLine
 10
-8.367662
 20
0.272949
 30
0.0
 11
-8.367662
 21
0.116438
 31
0.0
  0
LINE
  5
28B
100
AcDbEntity
  8
0
  6
CONTINUOUS
 62
     7
100
AcDbLine
 10
-8.367662
 20
-1.411921
 30
0.0
 11
-8.367662
 21
-1.568451
 31
0.0
  0
LINE
  5
28C
100
AcDbEntity
  8
0
  6
CONTINUOUS
 62
     7
100
AcDbLine
 10
-8.397629
 20
0.272949
 30
0.0
 11
-8.397629
 21
0.116438
 31
0.0
  0
LINE
  5
28D
100
AcDbEntity
  8
0
  6
CONTINUOUS
 62
     7
100
AcDbLine
 10
-8.397629
 20
-1.411921
 30
0.0
 11
-8.397629
 21
-1.568451
 31
0.0
  0
LINE
  5
28E
100
AcDbEntity
  8
0
  6
CONTINUOUS
 62
     7
100
AcDbLine
 10
-8.427596
 20
0.272949
 30
0.0
 11
-8.427596
 21
0.116438
 31
0.0
  0
LINE
  5
28F
100
AcDbEntity
  8
0
  6
CONTINUOUS
 62
     7
100
AcDbLine
 10
-8.427596
 20
-1.411921
 30
0.0
 11
-8.427596
 21
-1.568451
 31
0.0
  0
LINE
  5
290
100
AcDbEntity
  8
0
  6
CONTINUOUS
 62
     7
100
AcDbLine
 10
-8.457582
 20
0.272949
 30
0.0
 11
-8.457582
 21
0.116438
 31
0.0
  0
LINE
  5
291
100
AcDbEntity
  8
0
  6
CONTINUOUS
 62
     7
100
AcDbLine
 10
-8.457582
 20
-1.411921
 30
0.0
 11
-8.457582
 21
-1.568451
 31
0.0
  0
LINE
  5
292
100
AcDbEntity
  8
0
  6
CONTINUOUS
 62
     7
100
AcDbLine
 10
-6.061428
 20
-0.840132
 30
0.0
 11
-6.061428
 21
-0.724701
 31
0.0
  0
LINE
  5
293
100
AcDbEntity
  8
0
  6
CONTINUOUS
 62
     7
100
AcDbLine
 10
-6.061428
 20
-0.570787
 30
0.0
 11
-6.061428
 21
-0.455358
 31
0.0
  0
LINE
  5
294
100
AcDbEntity
  8
0
  6
CONTINUOUS
 62
     7
100
AcDbLine
 10
-6.061428
 20
-0.301445
 30
0.0
 11
-6.061428
 21
-0.186014
 31
0.0
  0
LINE
  5
295
100
AcDbEntity
  8
0
  6
CONTINUOUS
 62
     7
100
AcDbLine
 10
-6.103508
 20
-0.186014
 30
0.0
 11
-6.103508
 21
-0.301445
 31
0.0
  0
LINE
  5
296
100
AcDbEntity
  8
0
  6
CONTINUOUS
 62
     7
100
AcDbLine
 10
-6.103508
 20
-0.455358
 30
0.0
 11
-6.103508
 21
-0.570787
 31
0.0
  0
LINE
  5
297
100
AcDbEntity
  8
0
  6
CONTINUOUS
 62
     7
100
AcDbLine
 10
-6.103508
 20
-0.724701
 30
0.0
 11
-6.103508
 21
-0.840132
 31
0.0
  0
LINE
  5
298
100
AcDbEntity
  8
0
  6
CONTINUOUS
 62
     7
100
AcDbLine
 10
-6.145597
 20
-0.840132
 30
0.0
 11
-6.145597
 21
-0.724701
 31
0.0
  0
LINE
  5
299
100
AcDbEntity
  8
0
  6
CONTINUOUS
 62
     7
100
AcDbLine
 10
-6.145597
 20
-0.570787
 30
0.0
 11
-6.145597
 21
-0.455358
 31
0.0
  0
LINE
  5
29A
100
AcDbEntity
  8
0
  6
CONTINUOUS
 62
     7
100
AcDbLine
 10
-6.145597
 20
-0.301445
 30
0.0
 11
-6.145597
 21
-0.186014
 31
0.0
  0
LINE
  5
29B
100
AcDbEntity
  8
0
  6
CONTINUOUS
 62
     7
100
AcDbLine
 10
-6.187668
 20
-0.186014
 30
0.0
 11
-6.187668
 21
-0.301445
 31
0.0
  0
LINE
  5
29C
100
AcDbEntity
  8
0
  6
CONTINUOUS
 62
     7
100
AcDbLine
 10
-6.187668
 20
-0.455358
 30
0.0
 11
-6.187668
 21
-0.570787
 31
0.0
  0
LINE
  5
29D
100
AcDbEntity
  8
0
  6
CONTINUOUS
 62
     7
100
AcDbLine
 10
-6.187668
 20
-0.724701
 30
0.0
 11
-6.187668
 21
-0.840132
 31
0.0
  0
LINE
  5
29E
100
AcDbEntity
  8
0
  6
CONTINUOUS
 62
     7
100
AcDbLine
 10
-6.229748
 20
-0.840132
 30
0.0
 11
-6.229748
 21
-0.724701
 31
0.0
  0
LINE
  5
29F
100
AcDbEntity
  8
0
  6
CONTINUOUS
 62
     7
100
AcDbLine
 10
-6.229748
 20
-0.570787
 30
0.0
 11
-6.229748
 21
-0.455358
 31
0.0
  0
LINE
  5
2A0
100
AcDbEntity
  8
0
  6
CONTINUOUS
 62
     7
100
AcDbLine
 10
-6.229748
 20
-0.301445
 30
0.0
 11
-6.229748
 21
-0.186014
 31
0.0
  0
LINE
  5
2A1
100
AcDbEntity
  8
0
  6
CONTINUOUS
 62
     7
100
AcDbLine
 10
-6.27182
 20
-0.186014
 30
0.0
 11
-6.27182
 21
-0.301445
 31
0.0
  0
LINE
  5
2A2
100
AcDbEntity
  8
0
  6
CONTINUOUS
 62
     7
100
AcDbLine
 10
-6.27182
 20
-0.455358
 30
0.0
 11
-6.27182
 21
-0.570787
 31
0.0
  0
LINE
  5
2A3
100
AcDbEntity
  8
0
  6
CONTINUOUS
 62
     7
100
AcDbLine
 10
-6.27182
 20
-0.724701
 30
0.0
 11
-6.27182
 21
-0.840132
 31
0.0
  0
LINE
  5
2A4
100
AcDbEntity
  8
0
  6
CONTINUOUS
 62
     7
100
AcDbLine
 10
-6.31391
 20
-0.838369
 30
0.0
 11
-6.31391
 21
-0.716921
 31
0.0
  0
LINE
  5
2A5
100
AcDbEntity
  8
0
  6
CONTINUOUS
 62
     7
100
AcDbLine
 10
-6.31391
 20
-0.569033
 30
0.0
 11
-6.31391
 21
-0.44759
 31
0.0
  0
LINE
  5
2A6
100
AcDbEntity
  8
0
  6
CONTINUOUS
 62
     7
100
AcDbLine
 10
-6.31391
 20
-0.309206
 30
0.0
 11
-6.31391
 21
-0.187771
 31
0.0
  0
LINE
  5
2A7
100
AcDbEntity
  8
0
  6
CONTINUOUS
 62
     7
100
AcDbLine
 10
-6.35599
 20
-0.200535
 30
0.0
 11
-6.35599
 21
-0.556261
 31
0.0
  0
LINE
  5
2A8
100
AcDbEntity
  8
0
  6
CONTINUOUS
 62
     7
100
AcDbLine
 10
-6.35599
 20
-0.666977
 30
0.0
 11
-6.35599
 21
-0.825604
 31
0.0
  0
LINE
  5
2A9
100
AcDbEntity
  8
0
  6
CONTINUOUS
 62
     7
100
AcDbLine
 10
-6.39806
 20
-0.796513
 30
0.0
 11
-6.39806
 21
-0.666977
 31
0.0
  0
LINE
  5
2AA
100
AcDbEntity
  8
0
  6
CONTINUOUS
 62
     7
100
AcDbLine
 10
-6.39806
 20
-0.527168
 30
0.0
 11
-6.39806
 21
-0.229628
 31
0.0
  0
LINE
  5
2AB
100
AcDbEntity
  8
0
  6
CONTINUOUS
 62
     7
100
AcDbLine
 10
-6.44014
 20
-0.302929
 30
0.0
 11
-6.44014
 21
-0.453829
 31
0.0
  0
LINE
  5
2AC
100
AcDbEntity
  8
0
  6
CONTINUOUS
 62
     7
100
AcDbLine
 10
-6.44014
 20
-0.673849
 30
0.0
 11
-6.44014
 21
-0.723171
 31
0.0
  0
ENDBLK
  5
2AE
100
AcDbEntity
  8
0
100
AcDbBlockEnd
  0
BLOCK
  5
305
100
AcDbEntity
  8
0
100
AcDbBlockBegin
  2
M_PFN_100
 70
     0
 10
0.0
 20
0.0
 30
0.0
  3
M_PFN_100
  1

  0
SOLID
  5
306
100
AcDbEntity
  8
0
  6
BYBLOCK
 62
     0
100
AcDbTrace
 10
-0.068898
 20
0.016265
 30
0.0
 11
-0.068898
 21
-0.016265
 31
0.0
 12
0.0
 22
0.0
 32
0.0
 13
0.0
 23
0.0
 33
0.0
  0
ENDBLK
  5
7CD
100
AcDbEntity
  8
0
100
AcDbBlockEnd
  0
BLOCK
  5
4DE
100
AcDbEntity
  8
0
100
AcDbBlockBegin
  2
M_PFN_2
 70
     0
 10
0.0
 20
0.0
 30
0.0
  3
M_PFN_2
  1

  0
POINT
  5
4DF
100
AcDbEntity
  8
0
  6
BYBLOCK
 62
     0
100
AcDbPoint
 10
0.0
 20
0.0
 30
0.0
  0
ENDBLK
  5
7C7
100
AcDbEntity
  8
0
100
AcDbBlockEnd
  0
BLOCK
  5
4EB
100
AcDbEntity
  8
0
100
AcDbBlockBegin
  2
M_PFN_101
 70
     0
 10
0.0
 20
0.0
 30
0.0
  3
M_PFN_101
  1

  0
SOLID
  5
4EC
100
AcDbEntity
  8
0
  6
BYBLOCK
 62
     0
100
AcDbTrace
 10
0.068898
 20
0.016265
 30
0.0
 11
0.068898
 21
-0.016265
 31
0.0
 12
0.0
 22
0.0
 32
0.0
 13
0.0
 23
0.0
 33
0.0
  0
ENDBLK
  5
7CF
100
AcDbEntity
  8
0
100
AcDbBlockEnd
  0
ENDSEC
  0
SECTION
  2
ENTITIES
  0
TEXT
  5
2B7
100
AcDbEntity
  8
TEXT1
100
AcDbText
 10
61.717499
 20
-13.827564
 30
0.0
 40
1.28
  1
NOTES:
 41
1.017741
  7
M_STANDARD
 11
61.717499
 21
-13.187564
 31
0.0
100
AcDbText
 73
     2
  0
TEXT
  5
2B8
100
AcDbEntity
  8
TEXT1
100
AcDbText
 10
61.711852
 20
-23.427564
 30
0.0
 40
1.28
  1
SURFACE MOUNT, CONVERTIBLE TO SEMI-FLUSH WITH FIELD INSTALLED KIT.
 41
0.909219
  7
M_STANDARD
 11
61.711852
 21
-22.787564
 31
0.0
100
AcDbText
 73
     2
  0
TEXT
  5
2B9
100
AcDbEntity
  8
TEXT1
100
AcDbText
 10
61.711852
 20
-21.027564
 30
0.0
 40
1.28
  1
RING-TYPE DEVICE SUPPLIED WITH 4-JAW METER SOCKET, 5TH JAW KIT AVAILABLE.
 41
0.908324
  7
M_STANDARD
 11
61.711852
 21
-20.387564
 31
0.0
100
AcDbText
 73
     2
  0
TEXT
  5
2BA
100
AcDbEntity
  8
TEXT1
100
AcDbText
 10
61.711852
 20
-18.627564
 30
0.0
 40
1.28
  1
UL LISTED - FILE E-6294. SUITABLE ONLY FOR USE AS SERVICE EQUIPMENT.  SUITABLE FOR OH,UG SERVICE.
 41
0.906245
  7
M_STANDARD
 11
61.711852
 21
-17.987564
 31
0.0
100
AcDbText
 73
     2
  0
TEXT
  5
2BB
100
AcDbEntity
  8
TEXT1
100
AcDbText
 10
61.711852
 20
-28.227564
 30
0.0
 40
1.28
  1
LOAD PHASE LUGS ARE SUPPLIED AS A PART OF THE CIRCUIT BREAKER (TENANT SERVICE DISCONNECT).
 41
0.906735
  7
M_STANDARD
 11
61.711852
 21
-27.587564
 31
0.0
100
AcDbText
 73
     2
  0
TEXT
  5
2BC
100
AcDbEntity
  8
TEXT1
100
AcDbText
 10
61.711852
 20
-25.827564
 30
0.0
 40
1.28
  1
MECHANICAL LUGS FACTORY INSTALLED, LUG LANDING PADS AVAILABLE.
 41
0.909823
  7
M_STANDARD
 11
61.711852
 21
-25.187564
 31
0.0
100
AcDbText
 73
     2
  0
TEXT
  5
2BD
100
AcDbEntity
  8
TEXT1
100
AcDbText
 10
61.711852
 20
-16.227564
 30
0.0
 40
1.28
  1
FINISH - UL COMPONENT RECOGNIZED GRAY BAKED POWDER COAT PAINT OVER CLEANED PHOSPHATIZED STEEL.
 41
0.906446
  7
M_STANDARD
 11
61.711852
 21
-15.587564
 31
0.0
100
AcDbText
 73
     2
  0
TEXT
  5
2BE
100
AcDbEntity
  8
TEXT1
100
AcDbText
 10
61.734776
 20
-37.827564
 30
0.0
 40
1.28
  1
WIRE BENDING SPACE PER NEC TABLE 373-6
 41
0.899965
  7
M_STANDARD
 11
61.734776
 21
-37.187564
 31
0.0
100
AcDbText
 73
     2
  0
TEXT
  5
2C8
100
AcDbEntity
  8
TEXT1
100
AcDbText
 10
273.11815
 20
-2.892108
 30
0.0
 40
1.32
  1
LOAD LUG WIRE SIZES (AWG-KCMIL)
 41
0.909835
  7
M_STANDARD
 72
     1
 11
289.760335
 21
-2.232108
 31
0.0
100
AcDbText
 73
     2
  0
LWPOLYLINE
  5
2C9
100
AcDbEntity
  8
0
100
AcDbPolyline
 90
        4
 70
   129
 43
0.0
 10
312.117035
 20
-7.292106
 10
267.403636
 20
-7.292106
 10
267.403636
 20
2.827891
 10
312.117035
 20
2.827891
  0
TEXT
  5
2CA
100
AcDbEntity
  8
TEXT1
100
AcDbText
 10
218.634501
 20
-10.042106
 30
0.0
 40
1.32
  1
RATING
 41
0.898447
  7
M_STANDARD
 72
     1
 11
221.627613
 21
-9.382106
 31
0.0
100
AcDbText
 73
     2
  0
TEXT
  5
2CB
100
AcDbEntity
  8
TEXT1
100
AcDbText
 10
208.008436
 20
-7.512107
 30
0.0
 40
1.32
  1
BYPASS
 41
0.898447
  7
M_STANDARD
 72
     1
 11
211.340391
 21
-6.852107
 31
0.0
100
AcDbText
 73
     2
  0
TEXT
  5
2CC
100
AcDbEntity
  8
TEXT1
100
AcDbText
 10
200.311935
 20
-7.512107
 30
0.0
 40
1.32
  1
JAWS
 41
0.896304
  7
M_STANDARD
 72
     1
 11
202.452821
 21
-6.852107
 31
0.0
100
AcDbText
 73
     2
  0
TEXT
  5
2CD
100
AcDbEntity
  8
TEXT1
100
AcDbText
 10
189.688184
 20
-7.512107
 30
0.0
 40
1.32
  1
SOCKETS
 41
0.898877
  7
M_STANDARD
 72
     1
 11
193.501991
 21
-6.852107
 31
0.0
100
AcDbText
 73
     2
  0
TEXT
  5
2CE
100
AcDbEntity
  8
TEXT1
100
AcDbText
 10
178.687604
 20
-7.512107
 30
0.0
 40
1.32
  1
COVER
 41
0.897713
  7
M_STANDARD
 72
     1
 11
181.396132
 21
-6.852107
 31
0.0
100
AcDbText
 73
     2
  0
TEXT
  5
2CF
100
AcDbEntity
  8
TEXT1
100
AcDbText
 10
219.712083
 20
-5.862106
 30
0.0
 40
1.32
  1
MAIN
 41
0.896304
  7
M_STANDARD
 72
     1
 11
221.627613
 21
-5.202106
 31
0.0
100
AcDbText
 73
     2
  0
TEXT
  5
2D0
100
AcDbEntity
  8
TEXT1
100
AcDbText
 10
207.441832
 20
-3.332107
 30
0.0
 40
1.32
  1
FACTORY
 41
0.898877
  7
M_STANDARD
 72
     1
 11
211.340391
 21
-2.672107
 31
0.0
100
AcDbText
 73
     2
  0
TEXT
  5
2D1
100
AcDbEntity
  8
TEXT1
100
AcDbText
 10
200.793424
 20
-3.312107
 30
0.0
 40
1.28
  1
NO.
 41
1.183673
  7
M_STANDARD
 72
     1
 11
202.452821
 21
-2.672107
 31
0.0
100
AcDbText
 73
     2
  0
TEXT
  5
2D2
100
AcDbEntity
  8
TEXT1
100
AcDbText
 10
190.544817
 20
-3.312107
 30
0.0
 40
1.28
  1
NO. OF
 41
0.898447
  7
M_STANDARD
 72
     1
 11
193.501991
 21
-2.672107
 31
0.0
100
AcDbText
 73
     2
  0
TEXT
  5
2D3
100
AcDbEntity
  8
TEXT1
100
AcDbText
 10
178.744032
 20
-3.332107
 30
0.0
 40
1.32
  1
METER
 41
0.897713
  7
M_STANDARD
 72
     1
 11
181.396132
 21
-2.672107
 31
0.0
100
AcDbText
 73
     2
  0
TEXT
  5
2D4
100
AcDbEntity
  8
TEXT1
100
AcDbText
 10
229.622041
 20
-6.907106
 30
0.0
 40
1.32
  1
CATALOG
 41
0.898877
  7
M_STANDARD
 72
     1
 11
233.492349
 21
-6.247106
 31
0.0
100
AcDbText
 73
     2
  0
TEXT
  5
2D5
100
AcDbEntity
  8
TEXT1
100
AcDbText
 10
249.030898
 20
-9.438859
 30
0.0
 40
1.32
  1
PHASE AND
 41
0.899335
  7
M_STANDARD
 72
     1
 11
254.14683
 21
-8.778859
 31
0.0
100
AcDbText
 73
     2
  0
TEXT
  5
2D6
100
AcDbEntity
  8
TEXT1
100
AcDbText
 10
229.554785
 20
0.681138
 30
0.0
 40
1.32
  1
120/240VAC, 1  3 WIRE OR
 41
0.899911
  7
M_STANDARD
 72
     1
 11
242.282094
 21
1.341138
 31
0.0
100
AcDbText
 73
     2
  0
TEXT
  5
2D7
100
AcDbEntity
  8
TEXT1
100
AcDbText
 10
244.644345
 20
-4.378861
 30
0.0
 40
1.32
  1
LINE LUG WIRE SIZES
 41
0.899857
  7
M_STANDARD
 72
     1
 11
254.14683
 21
-3.718861
 31
0.0
100
AcDbText
 73
     2
  0
TEXT
  5
2D8
100
AcDbEntity
  8
TEXT1
100
AcDbText
 10
272.498523
 20
-10.483859
 30
0.0
 40
1.32
  1
PHASE
 41
0.897713
  7
M_STANDARD
 72
     1
 11
275.263479
 21
-9.823859
 31
0.0
100
AcDbText
 73
     2
  0
TEXT
  5
2D9
100
AcDbEntity
  8
TEXT1
100
AcDbText
 10
285.741584
 20
-9.438859
 30
0.0
 40
1.32
  1
NEUTRAL,SERVICE GROUND
 41
0.899894
  7
M_STANDARD
 72
     1
 11
297.620179
 21
-8.778859
 31
0.0
100
AcDbText
 73
     2
  0
TEXT
  5
2DA
100
AcDbEntity
  8
TEXT1
100
AcDbText
 10
220.027777
 20
-7.952106
 30
0.0
 40
1.32
  1
BUS
 41
0.89305
  7
M_STANDARD
 72
     1
 11
221.627613
 21
-7.292106
 31
0.0
100
AcDbText
 73
     2
  0
TEXT
  5
2DB
100
AcDbEntity
  8
TEXT1
100
AcDbText
 10
206.815936
 20
-5.422107
 30
0.0
 40
1.32
  1
INSTALLED
 41
0.916942
  7
M_STANDARD
 72
     1
 11
211.340391
 21
-4.762107
 31
0.0
100
AcDbText
 73
     2
  0
TEXT
  5
2DC
100
AcDbEntity
  8
TEXT1
100
AcDbText
 10
201.482046
 20
-5.422107
 30
0.0
 40
1.32
  1
OF
 41
0.882523
  7
M_STANDARD
 72
     1
 11
202.452821
 21
-4.762107
 31
0.0
100
AcDbText
 73
     2
  0
TEXT
  5
2DD
100
AcDbEntity
  8
TEXT1
100
AcDbText
 10
190.849891
 20
-5.422107
 30
0.0
 40
1.32
  1
METER
 41
0.897713
  7
M_STANDARD
 72
     1
 11
193.501991
 21
-4.762107
 31
0.0
100
AcDbText
 73
     2
  0
TEXT
  5
2DE
100
AcDbEntity
  8
TEXT1
100
AcDbText
 10
178.092414
 20
-5.422107
 30
0.0
 40
1.32
  1
SOCKET
 41
0.898447
  7
M_STANDARD
 72
     1
 11
181.396132
 21
-4.762107
 31
0.0
100
AcDbText
 73
     2
  0
TEXT
  5
2DF
100
AcDbEntity
  8
TEXT1
100
AcDbText
 10
230.047447
 20
-8.997106
 30
0.0
 40
1.32
  1
NUMBER
 41
0.898447
  7
M_STANDARD
 72
     1
 11
233.492349
 21
-8.337106
 31
0.0
100
AcDbText
 73
     2
  0
TEXT
  5
2E0
100
AcDbEntity
  8
TEXT1
100
AcDbText
 10
250.304773
 20
-11.528859
 30
0.0
 40
1.32
  1
NEUTRAL
 41
0.898877
  7
M_STANDARD
 72
     1
 11
254.14683
 21
-10.868859
 31
0.0
100
AcDbText
 73
     2
  0
TEXT
  5
2E1
100
AcDbEntity
  8
TEXT1
100
AcDbText
 10
220.265806
 20
-1.408862
 30
0.0
 40
1.32
  1
208Y/240VAC, 1  3 WIRE (5TH JAW REQUIRED)
 41
0.907407
  7
M_STANDARD
 72
     1
 11
242.282094
 21
-0.748862
 31
0.0
100
AcDbText
 73
     2
  0
TEXT
  5
2E2
100
AcDbEntity
  8
TEXT1
100
AcDbText
 10
248.281052
 20
-6.468861
 30
0.0
 40
1.32
  1
(AWG/KCMIL)
 41
0.928549
  7
M_STANDARD
 72
     1
 11
254.14683
 21
-5.808861
 31
0.0
100
AcDbText
 73
     2
  0
TEXT
  5
2E3
100
AcDbEntity
  8
TEXT1
100
AcDbText
 10
285.939697
 20
-11.528859
 30
0.0
 40
1.32
  1
& EQUIPMENT GROUNDING
 41
0.899883
  7
M_STANDARD
 72
     1
 11
297.620179
 21
-10.868859
 31
0.0
100
AcDbText
 73
     2
  0
TEXT
  5
2E4
100
AcDbEntity
  8
TEXT1
100
AcDbText
 10
220.085474
 20
-14.719348
 30
0.0
 40
1.32
  1
600
 41
0.951579
  7
M_STANDARD
 72
     1
 11
221.700439
 21
-14.059348
 31
0.0
100
AcDbText
 73
     2
  0
TEXT
  5
2E5
100
AcDbEntity
  8
TEXT1
100
AcDbText
 10
220.085474
 20
-21.548322
 30
0.0
 40
1.32
  1
600
 41
0.951579
  7
M_STANDARD
 72
     1
 11
221.700439
 21
-20.888322
 31
0.0
100
AcDbText
 73
     2
  0
TEXT
  5
2E6
100
AcDbEntity
  8
TEXT1
100
AcDbText
 10
220.085474
 20
-18.133835
 30
0.0
 40
1.32
  1
600
 41
0.951579
  7
M_STANDARD
 72
     1
 11
221.700439
 21
-17.473835
 31
0.0
100
AcDbText
 73
     2
  0
TEXT
  5
2E7
100
AcDbEntity
  8
TEXT1
100
AcDbText
 10
209.187822
 20
-14.719348
 30
0.0
 40
1.32
  1
NONE
 41
0.896304
  7
M_STANDARD
 72
     1
 11
211.413217
 21
-14.059348
 31
0.0
100
AcDbText
 73
     2
  0
TEXT
  5
2E8
100
AcDbEntity
  8
TEXT1
100
AcDbText
 10
209.187822
 20
-21.548322
 30
0.0
 40
1.32
  1
HORN
 41
0.896304
  7
M_STANDARD
 72
     1
 11
211.413217
 21
-20.888322
 31
0.0
100
AcDbText
 73
     2
  0
TEXT
  5
2E9
100
AcDbEntity
  8
TEXT1
100
AcDbText
 10
209.187822
 20
-18.133835
 30
0.0
 40
1.32
  1
NONE
 41
0.896304
  7
M_STANDARD
 72
     1
 11
211.413217
 21
-17.473835
 31
0.0
100
AcDbText
 73
     2
  0
TEXT
  5
2EA
100
AcDbEntity
  8
TEXT1
100
AcDbText
 10
202.148504
 20
-14.719348
 30
0.0
 40
1.32
  1
4
 41
0.8
  7
M_STANDARD
 72
     1
 11
202.525647
 21
-14.059348
 31
0.0
100
AcDbText
 73
     2
  0
TEXT
  5
2EB
100
AcDbEntity
  8
TEXT1
100
AcDbText
 10
202.173647
 20
-21.548322
 30
0.0
 40
1.32
  1
5
 41
0.8
  7
M_STANDARD
 72
     1
 11
202.525647
 21
-20.888322
 31
0.0
100
AcDbText
 73
     2
  0
TEXT
  5
2EC
100
AcDbEntity
  8
TEXT1
100
AcDbText
 10
202.173647
 20
-18.133835
 30
0.0
 40
1.32
  1
5
 41
0.8
  7
M_STANDARD
 72
     1
 11
202.525647
 21
-17.473835
 31
0.0
100
AcDbText
 73
     2
  0
TEXT
  5
2ED
100
AcDbEntity
  8
TEXT1
100
AcDbText
 10
193.124848
 20
-14.719348
 30
0.0
 40
1.32
  1
4
 41
0.8
  7
M_STANDARD
 72
     1
 11
193.501991
 21
-14.059348
 31
0.0
100
AcDbText
 73
     2
  0
TEXT
  5
2EE
100
AcDbEntity
  8
TEXT1
100
AcDbText
 10
193.124848
 20
-21.548322
 30
0.0
 40
1.32
  1
4
 41
0.8
  7
M_STANDARD
 72
     1
 11
193.501991
 21
-20.888322
 31
0.0
100
AcDbText
 73
     2
  0
TEXT
  5
2EF
100
AcDbEntity
  8
TEXT1
100
AcDbText
 10
193.124848
 20
-18.133835
 30
0.0
 40
1.32
  1
4
 41
0.8
  7
M_STANDARD
 72
     1
 11
193.501991
 21
-17.473835
 31
0.0
100
AcDbText
 73
     2
  0
TEXT
  5
2F0
100
AcDbEntity
  8
TEXT1
100
AcDbText
 10
176.591113
 20
-14.719348
 30
0.0
 40
1.32
  1
RING-TYPE
 41
0.899335
  7
M_STANDARD
 72
     1
 11
181.396132
 21
-14.059348
 31
0.0
100
AcDbText
 73
     2
  0
TEXT
  5
2F1
100
AcDbEntity
  8
TEXT1
100
AcDbText
 10
177.383352
 20
-21.548322
 30
0.0
 40
1.32
  1
RINGLESS
 41
0.899151
  7
M_STANDARD
 72
     1
 11
181.396132
 21
-20.888322
 31
0.0
100
AcDbText
 73
     2
  0
TEXT
  5
2F2
100
AcDbEntity
  8
TEXT1
100
AcDbText
 10
177.383352
 20
-18.133835
 30
0.0
 40
1.32
  1
RINGLESS
 41
0.899151
  7
M_STANDARD
 72
     1
 11
181.396132
 21
-17.473835
 31
0.0
100
AcDbText
 73
     2
  0
TEXT
  5
2F3
100
AcDbEntity
  8
TEXT1
100
AcDbText
 10
228.726197
 20
-14.719348
 30
0.0
 40
1.32
  1
MP64-200
 41
0.919093
  7
M_STANDARD
 72
     1
 11
233.492349
 21
-14.059348
 31
0.0
100
AcDbText
 73
     2
  0
TEXT
  5
2F4
100
AcDbEntity
  8
TEXT1
100
AcDbText
 10
228.103348
 20
-21.548322
 30
0.0
 40
1.32
  1
MPH64-200
 41
0.916942
  7
M_STANDARD
 72
     1
 11
233.492349
 21
-20.888322
 31
0.0
100
AcDbText
 73
     2
  0
TEXT
  5
2F5
100
AcDbEntity
  8
TEXT1
100
AcDbText
 10
228.132166
 20
-18.133835
 30
0.0
 40
1.32
  1
MPR64-200
 41
0.916942
  7
M_STANDARD
 72
     1
 11
233.492349
 21
-17.473835
 31
0.0
100
AcDbText
 73
     2
  0
TEXT
  5
2F6
100
AcDbEntity
  8
TEXT1
100
AcDbText
 10
270.967227
 20
-20.345078
 30
0.0
 40
1.32
  1
WIRE SIZE
 41
0.899335
  7
M_STANDARD
 72
     1
 11
275.263479
 21
-19.685078
 31
0.0
100
AcDbText
 73
     2
  0
TEXT
  5
2F7
100
AcDbEntity
  8
TEXT1
100
AcDbText
 10
248.259184
 20
-20.345078
 30
0.0
 40
1.32
  1
(2) 1/0-250
 41
0.913825
  7
M_STANDARD
 72
     1
 11
254.14683
 21
-19.685078
 31
0.0
100
AcDbText
 73
     2
  0
TEXT
  5
2F8
100
AcDbEntity
  8
TEXT1
100
AcDbText
 10
243.523085
 20
0.576338
 30
0.0
 40
1.6
  1
Ø
 41
0.8
  7
M_STANDARD
 72
     1
 11
244.010704
 21
1.376338
 31
0.0
100
AcDbText
 73
     2
  0
TEXT
  5
2F9
100
AcDbEntity
  8
TEXT1
100
AcDbText
 10
234.66602
 20
-1.515531
 30
0.0
 40
1.6
  1
Ø
 41
0.8
  7
M_STANDARD
 72
     1
 11
235.15364
 21
-0.715531
 31
0.0
100
AcDbText
 73
     2
  0
TEXT
  5
2FA
100
AcDbEntity
  8
TEXT1
100
AcDbText
 10
271.393171
 20
-18.133835
 30
0.0
 40
1.32
  1
BREAKER
 41
0.898877
  7
M_STANDARD
 72
     1
 11
275.263479
 21
-17.473835
 31
0.0
100
AcDbText
 73
     2
  0
TEXT
  5
2FB
100
AcDbEntity
  8
TEXT1
100
AcDbText
 10
253.148319
 20
-18.133835
 30
0.0
 40
1.32
  1
OR
 41
0.882523
  7
M_STANDARD
 72
     1
 11
254.14683
 21
-17.473835
 31
0.0
100
AcDbText
 73
     2
  0
TEXT
  5
2FC
100
AcDbEntity
  8
TEXT1
100
AcDbText
 10
269.835271
 20
-15.922592
 30
0.0
 40
1.32
  1
SEE CIRCUIT
 41
0.899561
  7
M_STANDARD
 72
     1
 11
275.263479
 21
-15.262592
 31
0.0
100
AcDbText
 73
     2
  0
TEXT
  5
2FD
100
AcDbEntity
  8
TEXT1
100
AcDbText
 10
248.374065
 20
-15.922592
 30
0.0
 40
1.32
  1
(1) 1/0-600
 41
0.913825
  7
M_STANDARD
 72
     1
 11
254.14683
 21
-15.262592
 31
0.0
100
AcDbText
 73
     2
  0
TEXT
  5
2FE
100
AcDbEntity
  8
TEXT1
100
AcDbText
 10
294.69486
 20
-18.133835
 30
0.0
 40
1.32
  1
6-300
 41
0.930783
  7
M_STANDARD
 72
     1
 11
297.620179
 21
-17.473835
 31
0.0
100
AcDbText
 73
     2
  0
LINE
  5
2FF
100
AcDbEntity
  8
0
100
AcDbLine
 10
175.319271
 20
-12.352177
 30
0.0
 11
312.117511
 21
-12.352177
 31
0.0
  0
TEXT
  5
300
100
AcDbEntity
  8
TEXT1
100
AcDbText
 10
298.769226
 20
5.167862
 30
0.0
 40
1.28
  1
MILLIMETERS
 41
0.899561
  7
M_STANDARD
 11
298.769226
 21
5.807862
 31
0.0
100
AcDbText
 73
     2
  0
TEXT
  5
301
100
AcDbEntity
  8
TEXT1
100
AcDbText
 10
298.875786
 20
7.407862
 30
0.0
 40
1.6
  1
INCHES
 41
0.925574
  7
M_STANDARD
 11
298.875786
 21
8.207862
 31
0.0
100
AcDbText
 73
     2
  0
TEXT
  5
302
100
AcDbEntity
  8
TEXT1
100
AcDbText
 10
280.029949
 20
6.566195
 30
0.0
 40
1.28
  1
DUAL DIMENSIONS:
 41
0.939768
  7
M_STANDARD
 11
280.029949
 21
7.206195
 31
0.0
100
AcDbText
 73
     2
  0
LWPOLYLINE
  5
303
100
AcDbEntity
  8
TEXT1
100
AcDbPolyline
 90
        3
 70
   128
 43
0.0
 10
111.32486
 20
10.393352
 10
112.604855
 20
10.393352
 10
111.849524
 20
6.774473
  0
INSERT
  5
309
100
AcDbEntity
  8
TEXT1
100
AcDbBlockReference
  2
M_PFN_100
 10
111.849524
 20
6.774473
 30
0.0
 41
16.0
 42
16.0
 43
16.0
 50
258.210502
  0
HATCH
  5
30B
100
AcDbEntity
  8
TEXT1
100
AcDbHatch
 10
0.0
 20
0.0
 30
0.0
210
0.0
220
0.0
230
1.0
  2
_U
 70
     0
 71
     0
 91
        1
 92
        0
 93
        4
 72
     1
 10
59.264683
 20
-28.374008
 11
60.544683
 21
-28.374008
 72
     1
 10
60.544683
 20
-28.374008
 11
60.544683
 21
-27.094008
 72
     1
 10
60.544683
 20
-27.094008
 11
59.264683
 21
-27.094008
 72
     1
 10
59.264683
 20
-27.094008
 11
59.264683
 21
-28.374008
 97
        0
 75
     0
 76
     0
 52
45.0
 41
0.00256
 77
     0
 78
     1
 53
45.0
 43
48.917511
 44
-45.987537
 45
-0.0018101933598377
 46
0.0018101933598375
 79
     0
 98
        1
 10
48.917511
 20
-45.987537
  0
HATCH
  5
30C
100
AcDbEntity
  8
TEXT1
100
AcDbHatch
 10
0.0
 20
0.0
 30
0.0
210
0.0
220
0.0
230
1.0
  2
_U
 70
     0
 71
     0
 91
        1
 92
        0
 93
        4
 72
     1
 10
278.97883
 20
-10.598514
 11
280.41883
 21
-10.598514
 72
     1
 10
280.41883
 20
-10.598514
 11
280.41883
 21
-9.158514
 72
     1
 10
280.41883
 20
-9.158514
 11
278.97883
 21
-9.158514
 72
     1
 10
278.97883
 20
-9.158514
 11
278.97883
 21
-10.598514
 97
        0
 75
     0
 76
     0
 52
45.0
 41
0.00288
 77
     0
 78
     1
 53
45.0
 43
48.917511
 44
-45.987537
 45
-0.0020364675298174
 46
0.0020364675298172
 79
     0
 98
        1
 10
48.917511
 20
-45.987537
  0
LWPOLYLINE
  5
30D
100
AcDbEntity
  8
TEXT1
100
AcDbPolyline
 90
        4
 70
   129
 43
0.0
 10
59.264683
 20
-28.374008
 10
60.544683
 20
-28.374008
 10
60.544683
 20
-27.094008
 10
59.264683
 20
-27.094008
  0
LWPOLYLINE
  5
30E
100
AcDbEntity
  8
TEXT1
100
AcDbPolyline
 90
        4
 70
   129
 43
0.0
 10
278.97883
 20
-10.598514
 10
280.41883
 20
-10.598514
 10
280.41883
 20
-9.158514
 10
278.97883
 20
-9.158514
  0
TEXT
  5
30F
100
AcDbEntity
  8
TEXT1
100
AcDbText
 10
293.07591
 20
-18.069682
 30
0.0
 40
1.92
  1
#
 41
0.8
  7
M_STANDARD
 72
     1
 11
293.624481
 21
-17.109682
 31
0.0
100
AcDbText
 73
     2
  0
LINE
  5
310
100
AcDbEntity
  8
0
100
AcDbLine
 10
175.319347
 20
-15.766591
 30
0.0
 11
240.890025
 21
-15.766591
 31
0.0
  0
LINE
  5
311
100
AcDbEntity
  8
0
100
AcDbLine
 10
175.319347
 20
-19.181078
 30
0.0
 11
240.890025
 21
-19.181078
 31
0.0
  0
LWPOLYLINE
  5
312
100
AcDbEntity
  8
0
100
AcDbPolyline
 90
        4
 70
   129
 43
0.0
 10
217.160553
 20
2.827891
 10
267.403636
 20
2.827891
 10
267.403636
 20
-2.232108
 10
217.160553
 20
-2.232108
  0
LWPOLYLINE
  5
313
100
AcDbEntity
  8
0
100
AcDbPolyline
 90
        4
 70
   129
 43
0.0
 10
267.403636
 20
-2.232108
 10
240.890025
 20
-2.232108
 10
240.890025
 20
-7.292106
 10
267.403636
 20
-7.292106
  0
LWPOLYLINE
  5
314
100
AcDbEntity
  8
0
100
AcDbPolyline
 90
        4
 70
   129
 43
0.0
 10
187.472917
 20
-22.595565
 10
199.531065
 20
-22.595565
 10
199.531065
 20
2.827891
 10
187.472917
 20
2.827891
  0
LWPOLYLINE
  5
315
100
AcDbEntity
  8
0
100
AcDbPolyline
 90
        4
 70
   129
 43
0.0
 10
205.520229
 20
2.827891
 10
199.531065
 20
2.827891
 10
199.531065
 20
-22.595565
 10
205.520229
 20
-22.595565
  0
LWPOLYLINE
  5
316
100
AcDbEntity
  8
0
100
AcDbPolyline
 90
        4
 70
   129
 43
0.0
 10
217.160553
 20
2.827891
 10
205.520229
 20
2.827891
 10
205.520229
 20
-22.595565
 10
217.160553
 20
-22.595565
  0
LWPOLYLINE
  5
317
100
AcDbEntity
  8
0
100
AcDbPolyline
 90
        4
 70
   129
 43
0.0
 10
226.094673
 20
-2.232108
 10
217.160553
 20
-2.232108
 10
217.160553
 20
-22.595565
 10
226.094673
 20
-22.595565
  0
LWPOLYLINE
  5
318
100
AcDbEntity
  8
0
100
AcDbPolyline
 90
        4
 70
   129
 43
0.0
 10
240.890025
 20
-2.232108
 10
226.094673
 20
-2.232108
 10
226.094673
 20
-22.595565
 10
240.890025
 20
-22.595565
  0
LWPOLYLINE
  5
319
100
AcDbEntity
  8
0
100
AcDbPolyline
 90
        4
 70
   129
 43
0.0
 10
267.403636
 20
-7.292106
 10
240.890025
 20
-7.292106
 10
240.890025
 20
-22.595565
 10
267.403636
 20
-22.595565
  0
LWPOLYLINE
  5
31A
100
AcDbEntity
  8
0
100
AcDbPolyline
 90
        4
 70
   129
 43
0.0
 10
283.123322
 20
-7.292106
 10
267.403636
 20
-7.292106
 10
267.403636
 20
-22.595565
 10
283.123322
 20
-22.595565
  0
LWPOLYLINE
  5
31B
100
AcDbEntity
  8
0
100
AcDbPolyline
 90
        4
 70
   129
 43
0.0
 10
312.117035
 20
-7.292106
 10
283.123322
 20
-7.292106
 10
283.123322
 20
-22.595565
 10
312.117035
 20
-22.595565
  0
LWPOLYLINE
  5
31C
100
AcDbEntity
  8
0
100
AcDbPolyline
 90
        4
 70
   129
 43
0.0
 10
187.472917
 20
2.827891
 10
175.319347
 20
2.827891
 10
175.319347
 20
-22.595565
 10
187.472917
 20
-22.595565
  0
LWPOLYLINE
  5
31D
100
AcDbEntity
  8
TEXT1
100
AcDbPolyline
 90
        3
 70
   128
 43
0.0
 10
178.765925
 20
28.146162
 10
179.917925
 20
28.146162
 10
193.881223
 20
24.881933
  0
INSERT
  5
31F
100
AcDbEntity
  8
TEXT1
100
AcDbBlockReference
  2
M_PFN_100
 10
193.881223
 20
24.881933
 30
0.0
 41
16.0
 42
16.0
 43
16.0
 50
346.842143
  0
LWPOLYLINE
  5
320
100
AcDbEntity
  8
TEXT1
100
AcDbPolyline
 90
        3
 70
   128
 43
0.0
 10
93.478545
 20
16.105081
 10
94.630545
 20
16.105081
 10
105.422252
 20
7.486565
  0
INSERT
  5
322
100
AcDbEntity
  8
TEXT1
100
AcDbBlockReference
  2
M_PFN_100
 10
105.422252
 20
7.486565
 30
0.0
 41
16.0
 42
16.0
 43
16.0
 50
321.3883
  0
HATCH
  5
323
100
AcDbEntity
  8
OBJECT1
100
AcDbHatch
 10
0.0
 20
0.0
 30
0.0
210
0.0
220
0.0
230
1.0
  2
_U
 70
     0
 71
     0
 91
        1
 92
        0
 93
        1
 72
     2
 10
201.528108
 20
39.071978
 40
0.439836
 50
0.0
 51
359.999994
 73
     1
 97
        0
 75
     0
 76
     0
 52
45.0
 41
0.03
 77
     0
 78
     1
 53
45.0
 43
48.917511
 44
-45.987537
 45
-0.0212132034355975
 46
0.0212132034355953
 79
     0
 98
        1
 10
48.917511
 20
-45.987537
  0
HATCH
  5
324
100
AcDbEntity
  8
OBJECT1
100
AcDbHatch
 10
0.0
 20
0.0
 30
0.0
210
0.0
220
0.0
230
1.0
  2
_U
 70
     0
 71
     0
 91
        1
 92
        0
 93
        1
 72
     2
 10
201.528108
 20
51.566148
 40
0.439836
 50
0.0
 51
359.999994
 73
     1
 97
        0
 75
     0
 76
     0
 52
45.0
 41
0.03
 77
     0
 78
     1
 53
45.0
 43
48.917511
 44
-45.987537
 45
-0.0212132034355975
 46
0.0212132034355953
 79
     0
 98
        1
 10
48.917511
 20
-45.987537
  0
HATCH
  5
325
100
AcDbEntity
  8
OBJECT1
100
AcDbHatch
 10
0.0
 20
0.0
 30
0.0
210
0.0
220
0.0
230
1.0
  2
_U
 70
     0
 71
     0
 91
        1
 92
        0
 93
        1
 72
     2
 10
192.006655
 20
51.566148
 40
0.439836
 50
0.0
 51
359.999994
 73
     1
 97
        0
 75
     0
 76
     0
 52
-45.0
 41
0.03
 77
     0
 78
     1
 53
315.0
 43
48.917511
 44
-45.987537
 45
0.0212132034355975
 46
0.0212132034355953
 79
     0
 98
        1
 10
48.917511
 20
-45.987537
  0
HATCH
  5
326
100
AcDbEntity
  8
OBJECT1
100
AcDbHatch
 10
0.0
 20
0.0
 30
0.0
210
0.0
220
0.0
230
1.0
  2
_U
 70
     0
 71
     0
 91
        1
 92
        0
 93
        1
 72
     2
 10
192.006655
 20
39.071978
 40
0.439836
 50
0.0
 51
359.999994
 73
     1
 97
        0
 75
     0
 76
     0
 52
-45.0
 41
0.03
 77
     0
 78
     1
 53
315.0
 43
48.917511
 44
-45.987537
 45
0.0212132034355975
 46
0.0212132034355953
 79
     0
 98
        1
 10
48.917511
 20
-45.987537
  0
HATCH
  5
327
100
AcDbEntity
  8
OBJECT1
100
AcDbHatch
 10
0.0
 20
0.0
 30
0.0
210
0.0
220
0.0
230
1.0
  2
_U
 70
     0
 71
     0
 91
        1
 92
        0
 93
        1
 72
     2
 10
192.006655
 20
42.775386
 40
0.439836
 50
0.0
 51
359.999994
 73
     1
 97
        0
 75
     0
 76
     0
 52
-45.0
 41
0.03
 77
     0
 78
     1
 53
315.0
 43
48.917511
 44
-45.987537
 45
0.0212132034355975
 46
0.0212132034355953
 79
     0
 98
        1
 10
48.917511
 20
-45.987537
  0
LWPOLYLINE
  5
328
100
AcDbEntity
  8
TEXT1
100
AcDbPolyline
 90
        3
 70
   128
 43
0.0
 10
204.075062
 20
17.476401
 10
202.923062
 20
17.476401
 10
198.164815
 20
16.609989
  0
INSERT
  5
32A
100
AcDbEntity
  8
TEXT1
100
AcDbBlockReference
  2
M_PFN_100
 10
198.164815
 20
16.609989
 30
0.0
 41
16.0
 42
16.0
 43
16.0
 50
190.319722
  0
LWPOLYLINE
  5
32B
100
AcDbEntity
  8
TEXT1
100
AcDbPolyline
 90
        3
 70
   128
 43
0.0
 10
182.53457
 20
12.52158
 10
183.68657
 20
12.52158
 10
189.65004
 20
11.159825
  0
INSERT
  5
32D
100
AcDbEntity
  8
TEXT1
100
AcDbBlockReference
  2
M_PFN_100
 10
189.65004
 20
11.159825
 30
0.0
 41
16.0
 42
16.0
 43
16.0
 50
347.137085
  0
TEXT
  5
32E
100
AcDbEntity
  8
TEXT1
100
AcDbText
 10
183.176389
 20
45.568337
 30
0.0
 40
1.6
  1
Ø
 41
0.8
  7
M_STANDARD
 72
     1
 11
183.664008
 21
46.368337
 31
0.0
100
AcDbText
 73
     2
  0
TEXT
  5
32F
100
AcDbEntity
  8
TEXT1
100
AcDbText
 10
183.176389
 20
58.062508
 30
0.0
 40
1.6
  1
Ø
 41
0.8
  7
M_STANDARD
 72
     1
 11
183.664008
 21
58.862508
 31
0.0
100
AcDbText
 73
     2
  0
TEXT
  5
330
100
AcDbEntity
  8
TEXT1
100
AcDbText
 10
207.64794
 20
38.121097
 30
0.0
 40
1.6
  1
N
 41
0.8
  7
M_STANDARD
 72
     1
 11
208.074607
 21
38.921097
 31
0.0
100
AcDbText
 73
     2
  0
TEXT
  5
331
100
AcDbEntity
  8
TEXT1
100
AcDbText
 10
205.895328
 20
43.985451
 30
0.0
 40
1.6
  1
Ø
 41
0.8
  7
M_STANDARD
 72
     1
 11
206.382947
 21
44.785451
 31
0.0
100
AcDbText
 73
     2
  0
TEXT
  5
332
100
AcDbEntity
  8
TEXT1
100
AcDbText
 10
204.370647
 20
52.776214
 30
0.0
 40
1.6
  1
Ø
 41
0.8
  7
M_STANDARD
 72
     1
 11
204.858266
 21
53.576214
 31
0.0
100
AcDbText
 73
     2
  0
TEXT
  5
333
100
AcDbEntity
  8
TEXT1
100
AcDbText
 10
183.176389
 20
20.579996
 30
0.0
 40
1.6
  1
Ø
 41
0.8
  7
M_STANDARD
 72
     1
 11
183.664008
 21
21.379996
 31
0.0
100
AcDbText
 73
     2
  0
TEXT
  5
334
100
AcDbEntity
  8
TEXT1
100
AcDbText
 10
183.176389
 20
33.074167
 30
0.0
 40
1.6
  1
Ø
 41
0.8
  7
M_STANDARD
 72
     1
 11
183.664008
 21
33.874167
 31
0.0
100
AcDbText
 73
     2
  0
TEXT
  5
335
100
AcDbEntity
  8
TEXT1
100
AcDbText
 10
183.176389
 20
42.651798
 30
0.0
 40
1.6
  1
Ø
 41
0.8
  7
M_STANDARD
 72
     1
 11
183.664008
 21
43.451798
 31
0.0
100
AcDbText
 73
     2
  0
TEXT
  5
336
100
AcDbEntity
  8
TEXT1
100
AcDbText
 10
183.176389
 20
55.145969
 30
0.0
 40
1.6
  1
Ø
 41
0.8
  7
M_STANDARD
 72
     1
 11
183.664008
 21
55.945969
 31
0.0
100
AcDbText
 73
     2
  0
TEXT
  5
337
100
AcDbEntity
  8
TEXT1
100
AcDbText
 10
183.176389
 20
17.663457
 30
0.0
 40
1.6
  1
Ø
 41
0.8
  7
M_STANDARD
 72
     1
 11
183.664008
 21
18.463457
 31
0.0
100
AcDbText
 73
     2
  0
TEXT
  5
338
100
AcDbEntity
  8
TEXT1
100
AcDbText
 10
183.176389
 20
30.157628
 30
0.0
 40
1.6
  1
Ø
 41
0.8
  7
M_STANDARD
 72
     1
 11
183.664008
 21
30.957628
 31
0.0
100
AcDbText
 73
     2
  0
TEXT
  5
339
100
AcDbEntity
  8
TEXT1
100
AcDbText
 10
202.495705
 20
35.949193
 30
0.0
 40
1.6
  1
LINE
 41
0.896304
  7
M_STANDARD
 11
202.495705
 21
36.749193
 31
0.0
100
AcDbText
 73
     2
  0
LWPOLYLINE
  5
33A
100
AcDbEntity
  8
OBJECT1
100
AcDbPolyline
 90
        4
 70
   129
 43
0.0
 10
198.063381
 20
47.742401
 10
198.927381
 20
47.742401
 10
198.927381
 20
48.606401
 10
198.063381
 20
48.606401
  0
LWPOLYLINE
  5
33B
100
AcDbEntity
  8
OBJECT1
100
AcDbPolyline
 90
        4
 70
   129
 43
0.0
 10
198.063381
 20
60.236571
 10
198.927381
 20
60.236571
 10
198.927381
 20
61.100571
 10
198.063381
 20
61.100571
  0
LWPOLYLINE
  5
33C
100
AcDbEntity
  8
OBJECT1
100
AcDbPolyline
 90
        4
 70
   129
 43
0.0
 10
198.063381
 20
35.24823
 10
198.927381
 20
35.24823
 10
198.927381
 20
36.11223
 10
198.063381
 20
36.11223
  0
LWPOLYLINE
  5
33D
100
AcDbEntity
  8
OBJECT1
100
AcDbPolyline
 90
        4
 70
   129
 43
0.0
 10
198.063381
 20
22.75406
 10
198.927381
 20
22.75406
 10
198.927381
 20
23.61806
 10
198.063381
 20
23.61806
  0
LWPOLYLINE
  5
33E
100
AcDbEntity
  8
OBJECT1
100
AcDbPolyline
 90
        4
 70
   129
 43
0.0
 10
198.063381
 20
51.998148
 10
198.927381
 20
51.998148
 10
198.927381
 20
51.134148
 10
198.063381
 20
51.134148
  0
LWPOLYLINE
  5
33F
100
AcDbEntity
  8
OBJECT1
100
AcDbPolyline
 90
        4
 70
   129
 43
0.0
 10
198.063381
 20
64.492319
 10
198.927381
 20
64.492319
 10
198.927381
 20
63.628319
 10
198.063381
 20
63.628319
  0
LWPOLYLINE
  5
340
100
AcDbEntity
  8
OBJECT1
100
AcDbPolyline
 90
        4
 70
   129
 43
0.0
 10
198.063381
 20
39.503978
 10
198.927381
 20
39.503978
 10
198.927381
 20
38.639978
 10
198.063381
 20
38.639978
  0
LWPOLYLINE
  5
341
100
AcDbEntity
  8
OBJECT1
100
AcDbPolyline
 90
        4
 70
   129
 43
0.0
 10
198.063381
 20
27.009807
 10
198.927381
 20
27.009807
 10
198.927381
 20
26.145807
 10
198.063381
 20
26.145807
  0
LWPOLYLINE
  5
342
100
AcDbEntity
  8
OBJECT1
100
AcDbPolyline
 90
        4
 70
   129
 43
0.0
 10
194.607381
 20
47.742401
 10
195.471381
 20
47.742401
 10
195.471381
 20
48.606401
 10
194.607381
 20
48.606401
  0
LWPOLYLINE
  5
343
100
AcDbEntity
  8
OBJECT1
100
AcDbPolyline
 90
        4
 70
   129
 43
0.0
 10
194.607381
 20
60.236571
 10
195.471381
 20
60.236571
 10
195.471381
 20
61.100571
 10
194.607381
 20
61.100571
  0
LWPOLYLINE
  5
344
100
AcDbEntity
  8
OBJECT1
100
AcDbPolyline
 90
        4
 70
   129
 43
0.0
 10
194.607381
 20
35.24823
 10
195.471381
 20
35.24823
 10
195.471381
 20
36.11223
 10
194.607381
 20
36.11223
  0
LWPOLYLINE
  5
345
100
AcDbEntity
  8
OBJECT1
100
AcDbPolyline
 90
        4
 70
   129
 43
0.0
 10
194.607381
 20
22.75406
 10
195.471381
 20
22.75406
 10
195.471381
 20
23.61806
 10
194.607381
 20
23.61806
  0
LWPOLYLINE
  5
346
100
AcDbEntity
  8
OBJECT1
100
AcDbPolyline
 90
        4
 70
   129
 43
0.0
 10
193.881223
 20
49.438274
 10
194.745223
 20
49.438274
 10
194.745223
 20
50.302274
 10
193.881223
 20
50.302274
  0
LWPOLYLINE
  5
347
100
AcDbEntity
  8
OBJECT1
100
AcDbPolyline
 90
        4
 70
   129
 43
0.0
 10
193.881223
 20
61.932445
 10
194.745223
 20
61.932445
 10
194.745223
 20
62.796445
 10
193.881223
 20
62.796445
  0
LWPOLYLINE
  5
348
100
AcDbEntity
  8
OBJECT1
100
AcDbPolyline
 90
        4
 70
   129
 43
0.0
 10
193.881223
 20
36.944104
 10
194.745223
 20
36.944104
 10
194.745223
 20
37.808104
 10
193.881223
 20
37.808104
  0
LWPOLYLINE
  5
349
100
AcDbEntity
  8
OBJECT1
100
AcDbPolyline
 90
        4
 70
   129
 43
0.0
 10
193.881223
 20
24.449933
 10
194.745223
 20
24.449933
 10
194.745223
 20
25.313933
 10
193.881223
 20
25.313933
  0
LWPOLYLINE
  5
34A
100
AcDbEntity
  8
OBJECT1
100
AcDbPolyline
 90
        4
 70
   129
 43
0.0
 10
194.607381
 20
51.998148
 10
195.471381
 20
51.998148
 10
195.471381
 20
51.134148
 10
194.607381
 20
51.134148
  0
LWPOLYLINE
  5
34B
100
AcDbEntity
  8
OBJECT1
100
AcDbPolyline
 90
        4
 70
   129
 43
0.0
 10
194.607381
 20
64.492319
 10
195.471381
 20
64.492319
 10
195.471381
 20
63.628319
 10
194.607381
 20
63.628319
  0
LWPOLYLINE
  5
34C
100
AcDbEntity
  8
OBJECT1
100
AcDbPolyline
 90
        4
 70
   129
 43
0.0
 10
194.607381
 20
39.503978
 10
195.471381
 20
39.503978
 10
195.471381
 20
38.639978
 10
194.607381
 20
38.639978
  0
LWPOLYLINE
  5
34D
100
AcDbEntity
  8
OBJECT1
100
AcDbPolyline
 90
        4
 70
   129
 43
0.0
 10
194.607381
 20
27.009807
 10
195.471381
 20
27.009807
 10
195.471381
 20
26.145807
 10
194.607381
 20
26.145807
  0
CIRCLE
  5
34E
100
AcDbEntity
  8
OBJECT1
100
AcDbCircle
 10
196.767381
 20
49.870274
 30
0.0
 40
3.24
  0
CIRCLE
  5
34F
100
AcDbEntity
  8
OBJECT1
100
AcDbCircle
 10
196.767381
 20
62.364445
 30
0.0
 40
3.24
  0
CIRCLE
  5
350
100
AcDbEntity
  8
OBJECT1
100
AcDbCircle
 10
196.767381
 20
37.376104
 30
0.0
 40
3.24
  0
CIRCLE
  5
351
100
AcDbEntity
  8
OBJECT1
100
AcDbCircle
 10
196.767381
 20
24.881933
 30
0.0
 40
3.24
  0
ARC
  5
352
100
AcDbEntity
  8
OBJECT1
100
AcDbCircle
 10
187.470117
 20
46.304611
 30
0.0
 40
0.879672
100
AcDbArc
 50
90.0
 51
180.0
  0
ARC
  5
353
100
AcDbEntity
  8
OBJECT1
100
AcDbCircle
 10
187.470117
 20
46.304611
 30
0.0
 40
0.879672
100
AcDbArc
 50
0.0
 51
90.0
  0
ARC
  5
354
100
AcDbEntity
  8
OBJECT1
100
AcDbCircle
 10
187.470117
 20
58.798782
 30
0.0
 40
0.879672
100
AcDbArc
 50
90.0
 51
180.0
  0
ARC
  5
355
100
AcDbEntity
  8
OBJECT1
100
AcDbCircle
 10
187.470117
 20
58.798782
 30
0.0
 40
0.879672
100
AcDbArc
 50
0.0
 51
90.0
  0
ARC
  5
356
100
AcDbEntity
  8
OBJECT1
100
AcDbCircle
 10
195.039381
 20
45.764611
 30
0.0
 40
0.879672
100
AcDbArc
 50
90.0
 51
180.0
  0
ARC
  5
357
100
AcDbEntity
  8
OBJECT1
100
AcDbCircle
 10
195.039381
 20
45.764611
 30
0.0
 40
0.879672
100
AcDbArc
 50
0.0
 51
90.0
  0
ARC
  5
358
100
AcDbEntity
  8
OBJECT1
100
AcDbCircle
 10
195.039381
 20
58.258782
 30
0.0
 40
0.879672
100
AcDbArc
 50
90.0
 51
180.0
  0
ARC
  5
359
100
AcDbEntity
  8
OBJECT1
100
AcDbCircle
 10
195.039381
 20
58.258782
 30
0.0
 40
0.879672
100
AcDbArc
 50
0.0
 51
90.0
  0
ARC
  5
35A
100
AcDbEntity
  8
OBJECT1
100
AcDbCircle
 10
195.039381
 20
20.77627
 30
0.0
 40
0.879672
100
AcDbArc
 50
90.0
 51
180.0
  0
ARC
  5
35B
100
AcDbEntity
  8
OBJECT1
100
AcDbCircle
 10
195.039381
 20
20.77627
 30
0.0
 40
0.879672
100
AcDbArc
 50
0.0
 51
90.0
  0
ARC
  5
35C
100
AcDbEntity
  8
OBJECT1
100
AcDbCircle
 10
195.039381
 20
33.270441
 30
0.0
 40
0.879672
100
AcDbArc
 50
90.0
 51
180.0
  0
ARC
  5
35D
100
AcDbEntity
  8
OBJECT1
100
AcDbCircle
 10
195.039381
 20
33.270441
 30
0.0
 40
0.879672
100
AcDbArc
 50
0.0
 51
90.0
  0
ARC
  5
35E
100
AcDbEntity
  8
OBJECT1
100
AcDbCircle
 10
192.006655
 20
45.764611
 30
0.0
 40
0.879672
100
AcDbArc
 50
90.0
 51
180.0
  0
ARC
  5
35F
100
AcDbEntity
  8
OBJECT1
100
AcDbCircle
 10
192.006655
 20
45.764611
 30
0.0
 40
0.879672
100
AcDbArc
 50
0.0
 51
90.0
  0
ARC
  5
360
100
AcDbEntity
  8
OBJECT1
100
AcDbCircle
 10
192.006655
 20
58.258782
 30
0.0
 40
0.879672
100
AcDbArc
 50
90.0
 51
180.0
  0
ARC
  5
361
100
AcDbEntity
  8
OBJECT1
100
AcDbCircle
 10
192.006655
 20
58.258782
 30
0.0
 40
0.879672
100
AcDbArc
 50
0.0
 51
90.0
  0
ARC
  5
362
100
AcDbEntity
  8
OBJECT1
100
AcDbCircle
 10
192.006655
 20
33.270441
 30
0.0
 40
0.879672
100
AcDbArc
 50
90.0
 51
180.0
  0
ARC
  5
363
100
AcDbEntity
  8
OBJECT1
100
AcDbCircle
 10
192.006655
 20
33.270441
 30
0.0
 40
0.879672
100
AcDbArc
 50
0.0
 51
90.0
  0
ARC
  5
364
100
AcDbEntity
  8
OBJECT1
100
AcDbCircle
 10
187.470117
 20
33.810441
 30
0.0
 40
0.879672
100
AcDbArc
 50
90.0
 51
180.0
  0
ARC
  5
365
100
AcDbEntity
  8
OBJECT1
100
AcDbCircle
 10
187.470117
 20
33.810441
 30
0.0
 40
0.879672
100
AcDbArc
 50
0.0
 51
90.0
  0
ARC
  5
366
100
AcDbEntity
  8
OBJECT1
100
AcDbCircle
 10
187.470117
 20
21.31627
 30
0.0
 40
0.879672
100
AcDbArc
 50
90.0
 51
180.0
  0
ARC
  5
367
100
AcDbEntity
  8
OBJECT1
100
AcDbCircle
 10
187.470117
 20
21.31627
 30
0.0
 40
0.879672
100
AcDbArc
 50
0.0
 51
90.0
  0
ARC
  5
368
100
AcDbEntity
  8
OBJECT1
100
AcDbCircle
 10
187.470117
 20
44.344219
 30
0.0
 40
0.879672
100
AcDbArc
 50
90.0
 51
180.0
  0
ARC
  5
369
100
AcDbEntity
  8
OBJECT1
100
AcDbCircle
 10
187.470117
 20
44.344219
 30
0.0
 40
0.879672
100
AcDbArc
 50
0.0
 51
90.0
  0
ARC
  5
36A
100
AcDbEntity
  8
OBJECT1
100
AcDbCircle
 10
187.470117
 20
56.83839
 30
0.0
 40
0.879672
100
AcDbArc
 50
90.0
 51
180.0
  0
ARC
  5
36B
100
AcDbEntity
  8
OBJECT1
100
AcDbCircle
 10
187.470117
 20
56.83839
 30
0.0
 40
0.879672
100
AcDbArc
 50
0.0
 51
90.0
  0
ARC
  5
36C
100
AcDbEntity
  8
OBJECT1
100
AcDbCircle
 10
192.006655
 20
43.804219
 30
0.0
 40
0.879672
100
AcDbArc
 50
90.0
 51
180.0
  0
ARC
  5
36D
100
AcDbEntity
  8
OBJECT1
100
AcDbCircle
 10
192.006655
 20
43.804219
 30
0.0
 40
0.879672
100
AcDbArc
 50
0.0
 51
90.0
  0
ARC
  5
36E
100
AcDbEntity
  8
OBJECT1
100
AcDbCircle
 10
192.006655
 20
56.29839
 30
0.0
 40
0.879672
100
AcDbArc
 50
90.0
 51
180.0
  0
ARC
  5
36F
100
AcDbEntity
  8
OBJECT1
100
AcDbCircle
 10
192.006655
 20
56.29839
 30
0.0
 40
0.879672
100
AcDbArc
 50
0.0
 51
90.0
  0
ARC
  5
370
100
AcDbEntity
  8
OBJECT1
100
AcDbCircle
 10
192.006655
 20
31.310049
 30
0.0
 40
0.879672
100
AcDbArc
 50
90.0
 51
180.0
  0
ARC
  5
371
100
AcDbEntity
  8
OBJECT1
100
AcDbCircle
 10
192.006655
 20
31.310049
 30
0.0
 40
0.879672
100
AcDbArc
 50
0.0
 51
90.0
  0
ARC
  5
372
100
AcDbEntity
  8
OBJECT1
100
AcDbCircle
 10
187.470117
 20
31.850049
 30
0.0
 40
0.879672
100
AcDbArc
 50
90.0
 51
180.0
  0
ARC
  5
373
100
AcDbEntity
  8
OBJECT1
100
AcDbCircle
 10
187.470117
 20
31.850049
 30
0.0
 40
0.879672
100
AcDbArc
 50
0.0
 51
90.0
  0
ARC
  5
374
100
AcDbEntity
  8
OBJECT1
100
AcDbCircle
 10
187.470117
 20
19.355878
 30
0.0
 40
0.879672
100
AcDbArc
 50
90.0
 51
180.0
  0
ARC
  5
375
100
AcDbEntity
  8
OBJECT1
100
AcDbCircle
 10
187.470117
 20
19.355878
 30
0.0
 40
0.879672
100
AcDbArc
 50
0.0
 51
90.0
  0
LWPOLYLINE
  5
376
100
AcDbEntity
  8
OBJECT1
100
AcDbPolyline
 90
        3
 70
   128
 43
0.0
 10
198.495381
 20
47.742401
 10
198.495381
 20
45.764611
 10
195.919054
 20
45.764611
  0
LWPOLYLINE
  5
377
100
AcDbEntity
  8
OBJECT1
100
AcDbPolyline
 90
        3
 70
   128
 43
0.0
 10
198.495381
 20
60.236571
 10
198.495381
 20
58.258782
 10
195.919054
 20
58.258782
  0
LWPOLYLINE
  5
378
100
AcDbEntity
  8
OBJECT1
100
AcDbPolyline
 90
        3
 70
   128
 43
0.0
 10
198.495381
 20
22.75406
 10
198.495381
 20
20.77627
 10
195.919054
 20
20.77627
  0
LWPOLYLINE
  5
379
100
AcDbEntity
  8
OBJECT1
100
AcDbPolyline
 90
        3
 70
   128
 43
0.0
 10
198.495381
 20
35.24823
 10
198.495381
 20
33.270441
 10
195.919054
 20
33.270441
  0
LWPOLYLINE
  5
37A
100
AcDbEntity
  8
OBJECT1
100
AcDbPolyline
 90
        3
 70
   128
 43
0.0
 10
195.039381
 20
47.742401
 10
195.039381
 20
43.804219
 10
192.886327
 20
43.804219
  0
LWPOLYLINE
  5
37B
100
AcDbEntity
  8
OBJECT1
100
AcDbPolyline
 90
        3
 70
   128
 43
0.0
 10
195.039381
 20
60.236571
 10
195.039381
 20
56.29839
 10
192.886327
 20
56.29839
  0
LWPOLYLINE
  5
37C
100
AcDbEntity
  8
OBJECT1
100
AcDbPolyline
 90
        3
 70
   128
 43
0.0
 10
195.039381
 20
22.75406
 10
195.039381
 20
18.815878
 10
188.349789
 20
18.815878
  0
LWPOLYLINE
  5
37D
100
AcDbEntity
  8
OBJECT1
100
AcDbPolyline
 90
        3
 70
   128
 43
0.0
 10
195.039381
 20
35.24823
 10
195.039381
 20
31.310049
 10
192.886327
 20
31.310049
  0
LINE
  5
37E
100
AcDbEntity
  8
OBJECT1
100
AcDbLine
 10
194.159709
 20
45.764611
 30
0.0
 11
192.886327
 21
45.764611
 31
0.0
  0
LINE
  5
37F
100
AcDbEntity
  8
OBJECT1
100
AcDbLine
 10
194.159709
 20
58.258782
 30
0.0
 11
192.886327
 21
58.258782
 31
0.0
  0
LINE
  5
380
100
AcDbEntity
  8
OBJECT1
100
AcDbLine
 10
194.159709
 20
20.77627
 30
0.0
 11
188.349789
 21
20.77627
 31
0.0
  0
LINE
  5
381
100
AcDbEntity
  8
OBJECT1
100
AcDbLine
 10
194.159709
 20
33.270441
 30
0.0
 11
192.886327
 21
33.270441
 31
0.0
  0
LINE
  5
382
100
AcDbEntity
  8
OBJECT1
100
AcDbLine
 10
188.349789
 20
45.764611
 30
0.0
 11
191.126982
 21
45.764611
 31
0.0
  0
LINE
  5
383
100
AcDbEntity
  8
OBJECT1
100
AcDbLine
 10
188.349789
 20
58.258782
 30
0.0
 11
191.126982
 21
58.258782
 31
0.0
  0
LINE
  5
384
100
AcDbEntity
  8
OBJECT1
100
AcDbLine
 10
188.349789
 20
33.270441
 30
0.0
 11
191.126982
 21
33.270441
 31
0.0
  0
LINE
  5
385
100
AcDbEntity
  8
OBJECT1
100
AcDbLine
 10
188.349789
 20
43.804219
 30
0.0
 11
191.126982
 21
43.804219
 31
0.0
  0
LINE
  5
386
100
AcDbEntity
  8
OBJECT1
100
AcDbLine
 10
188.349789
 20
56.29839
 30
0.0
 11
191.126982
 21
56.29839
 31
0.0
  0
LINE
  5
387
100
AcDbEntity
  8
OBJECT1
100
AcDbLine
 10
188.349789
 20
31.310049
 30
0.0
 11
191.126982
 21
31.310049
 31
0.0
  0
LINE
  5
388
100
AcDbEntity
  8
OBJECT1
100
AcDbLine
 10
186.590444
 20
45.764611
 30
0.0
 11
185.548814
 21
45.764611
 31
0.0
  0
LINE
  5
389
100
AcDbEntity
  8
OBJECT1
100
AcDbLine
 10
186.590444
 20
58.258782
 30
0.0
 11
185.548814
 21
58.258782
 31
0.0
  0
LINE
  5
38A
100
AcDbEntity
  8
OBJECT1
100
AcDbLine
 10
186.590444
 20
33.270441
 30
0.0
 11
185.548814
 21
33.270441
 31
0.0
  0
LINE
  5
38B
100
AcDbEntity
  8
OBJECT1
100
AcDbLine
 10
186.590444
 20
20.77627
 30
0.0
 11
185.548814
 21
20.77627
 31
0.0
  0
LINE
  5
38C
100
AcDbEntity
  8
OBJECT1
100
AcDbLine
 10
186.590444
 20
43.804219
 30
0.0
 11
185.548814
 21
43.804219
 31
0.0
  0
LINE
  5
38D
100
AcDbEntity
  8
OBJECT1
100
AcDbLine
 10
186.590444
 20
56.29839
 30
0.0
 11
185.548814
 21
56.29839
 31
0.0
  0
LINE
  5
38E
100
AcDbEntity
  8
OBJECT1
100
AcDbLine
 10
186.590444
 20
31.310049
 30
0.0
 11
185.548814
 21
31.310049
 31
0.0
  0
LINE
  5
38F
100
AcDbEntity
  8
OBJECT1
100
AcDbLine
 10
186.590444
 20
18.815878
 30
0.0
 11
185.548814
 21
18.815878
 31
0.0
  0
CIRCLE
  5
390
100
AcDbEntity
  8
OBJECT1
100
AcDbCircle
 10
201.528108
 20
39.071978
 30
0.0
 40
0.439836
  0
CIRCLE
  5
391
100
AcDbEntity
  8
OBJECT1
100
AcDbCircle
 10
201.528108
 20
51.566148
 30
0.0
 40
0.439836
  0
CIRCLE
  5
392
100
AcDbEntity
  8
OBJECT1
100
AcDbCircle
 10
192.006655
 20
51.566148
 30
0.0
 40
0.439836
  0
CIRCLE
  5
393
100
AcDbEntity
  8
OBJECT1
100
AcDbCircle
 10
192.006655
 20
39.071978
 30
0.0
 40
0.439836
  0
CIRCLE
  5
394
100
AcDbEntity
  8
OBJECT1
100
AcDbCircle
 10
192.006655
 20
42.775386
 30
0.0
 40
0.439836
  0
CIRCLE
  5
395
100
AcDbEntity
  8
OBJECT1
100
AcDbCircle
 10
185.218936
 20
45.764611
 30
0.0
 40
0.329877
  0
CIRCLE
  5
396
100
AcDbEntity
  8
OBJECT1
100
AcDbCircle
 10
185.218936
 20
58.258782
 30
0.0
 40
0.329877
  0
CIRCLE
  5
397
100
AcDbEntity
  8
OBJECT1
100
AcDbCircle
 10
185.218936
 20
33.270441
 30
0.0
 40
0.329877
  0
CIRCLE
  5
398
100
AcDbEntity
  8
OBJECT1
100
AcDbCircle
 10
204.615595
 20
51.566148
 30
0.0
 40
0.329877
  0
CIRCLE
  5
399
100
AcDbEntity
  8
OBJECT1
100
AcDbCircle
 10
207.664959
 20
40.931163
 30
0.0
 40
0.329877
  0
CIRCLE
  5
39A
100
AcDbEntity
  8
OBJECT1
100
AcDbCircle
 10
206.140277
 20
42.775386
 30
0.0
 40
0.329877
  0
CIRCLE
  5
39B
100
AcDbEntity
  8
OBJECT1
100
AcDbCircle
 10
205.27535
 20
51.566148
 30
0.0
 40
0.329877
  0
CIRCLE
  5
39C
100
AcDbEntity
  8
OBJECT1
100
AcDbCircle
 10
208.324713
 20
40.931163
 30
0.0
 40
0.329877
  0
CIRCLE
  5
39D
100
AcDbEntity
  8
OBJECT1
100
AcDbCircle
 10
206.800031
 20
42.775386
 30
0.0
 40
0.329877
  0
CIRCLE
  5
39E
100
AcDbEntity
  8
OBJECT1
100
AcDbCircle
 10
185.218936
 20
20.77627
 30
0.0
 40
0.329877
  0
CIRCLE
  5
39F
100
AcDbEntity
  8
OBJECT1
100
AcDbCircle
 10
185.218936
 20
43.804219
 30
0.0
 40
0.329877
  0
CIRCLE
  5
3A0
100
AcDbEntity
  8
OBJECT1
100
AcDbCircle
 10
185.218936
 20
56.29839
 30
0.0
 40
0.329877
  0
CIRCLE
  5
3A1
100
AcDbEntity
  8
OBJECT1
100
AcDbCircle
 10
185.218936
 20
31.310049
 30
0.0
 40
0.329877
  0
CIRCLE
  5
3A2
100
AcDbEntity
  8
OBJECT1
100
AcDbCircle
 10
185.218936
 20
18.815878
 30
0.0
 40
0.329877
  0
CIRCLE
  5
3A3
100
AcDbEntity
  8
OBJECT1
100
AcDbCircle
 10
197.084815
 20
16.069989
 30
0.0
 40
0.329877
  0
CIRCLE
  5
3A4
100
AcDbEntity
  8
OBJECT1
100
AcDbCircle
 10
190.19004
 20
14.184827
 30
0.0
 40
0.329877
  0
LWPOLYLINE
  5
3A5
100
AcDbEntity
  8
OBJECT1
100
AcDbPolyline
 90
        4
 70
   129
 43
0.0
 10
192.764815
 20
16.609989
 10
198.164815
 20
16.609989
 10
198.164815
 20
15.529989
 10
192.764815
 20
15.529989
  0
CIRCLE
  5
3A6
100
AcDbEntity
  8
OBJECT1
100
AcDbCircle
 10
196.004815
 20
16.069989
 30
0.0
 40
0.329877
  0
CIRCLE
  5
3A7
100
AcDbEntity
  8
OBJECT1
100
AcDbCircle
 10
190.19004
 20
13.104827
 30
0.0
 40
0.329877
  0
CIRCLE
  5
3A8
100
AcDbEntity
  8
OBJECT1
100
AcDbCircle
 10
194.924815
 20
16.069989
 30
0.0
 40
0.329877
  0
CIRCLE
  5
3A9
100
AcDbEntity
  8
OBJECT1
100
AcDbCircle
 10
190.19004
 20
12.024827
 30
0.0
 40
0.329877
  0
CIRCLE
  5
3AA
100
AcDbEntity
  8
OBJECT1
100
AcDbCircle
 10
190.19004
 20
9.864827
 30
0.0
 40
0.329877
  0
CIRCLE
  5
3AB
100
AcDbEntity
  8
OBJECT1
100
AcDbCircle
 10
193.844815
 20
16.069989
 30
0.0
 40
0.329877
  0
CIRCLE
  5
3AC
100
AcDbEntity
  8
OBJECT1
100
AcDbCircle
 10
190.19004
 20
10.944827
 30
0.0
 40
0.329877
  0
CIRCLE
  5
3AD
100
AcDbEntity
  8
OBJECT1
100
AcDbCircle
 10
190.19004
 20
8.784827
 30
0.0
 40
0.329877
  0
LINE
  5
3AE
100
AcDbEntity
  8
OBJECT1
100
AcDbLine
 10
194.607381
 20
51.566148
 30
0.0
 11
192.006655
 21
51.566148
 31
0.0
  0
LINE
  5
3AF
100
AcDbEntity
  8
OBJECT1
100
AcDbLine
 10
198.927381
 20
51.566148
 30
0.0
 11
204.285718
 21
51.566148
 31
0.0
  0
LINE
  5
3B0
100
AcDbEntity
  8
OBJECT1
100
AcDbLine
 10
205.605227
 20
51.566148
 30
0.0
 11
205.98484
 21
51.566148
 31
0.0
  0
LINE
  5
3B1
100
AcDbEntity
  8
OBJECT1
100
AcDbLine
 10
208.65459
 20
40.931163
 30
0.0
 11
209.159899
 21
40.931163
 31
0.0
  0
LWPOLYLINE
  5
3B2
100
AcDbEntity
  8
OBJECT1
100
AcDbPolyline
 90
        3
 70
   128
 43
0.0
 10
190.19004
 20
15.264827
 10
190.19004
 20
40.931163
 10
207.335081
 20
40.931163
  0
LINE
  5
3B3
100
AcDbEntity
  8
OBJECT1
100
AcDbLine
 10
192.006655
 20
42.775386
 30
0.0
 11
205.8104
 21
42.775386
 31
0.0
  0
LINE
  5
3B4
100
AcDbEntity
  8
OBJECT1
100
AcDbLine
 10
207.129908
 20
42.775386
 30
0.0
 11
207.528876
 21
42.775386
 31
0.0
  0
LINE
  5
3B5
100
AcDbEntity
  8
OBJECT1
100
AcDbLine
 10
187.470117
 20
47.184284
 30
0.0
 11
187.470117
 21
45.223891
 31
0.0
  0
LINE
  5
3B6
100
AcDbEntity
  8
OBJECT1
100
AcDbLine
 10
187.470117
 20
59.678454
 30
0.0
 11
187.470117
 21
57.718062
 31
0.0
  0
LINE
  5
3B7
100
AcDbEntity
  8
OBJECT1
100
AcDbLine
 10
187.470117
 20
34.690113
 30
0.0
 11
187.470117
 21
32.729721
 31
0.0
  0
LINE
  5
3B8
100
AcDbEntity
  8
OBJECT1
100
AcDbLine
 10
187.470117
 20
22.195943
 30
0.0
 11
187.470117
 21
20.23555
 31
0.0
  0
LINE
  5
3B9
100
AcDbEntity
  8
OBJECT1
100
AcDbLine
 10
198.927381
 20
39.071978
 30
0.0
 11
201.528108
 21
39.071978
 31
0.0
  0
LINE
  5
3BA
100
AcDbEntity
  8
OBJECT1
100
AcDbLine
 10
194.607381
 20
39.071978
 30
0.0
 11
192.006655
 21
39.071978
 31
0.0
  0
LWPOLYLINE
  5
3BB
100
AcDbEntity
  8
OBJECT1
100
AcDbPolyline
 90
        4
 70
   129
 43
0.0
 10
189.65004
 20
15.264827
 10
190.73004
 20
15.264827
 10
190.73004
 20
7.704827
 10
189.65004
 20
7.704827
  0
LWPOLYLINE
  5
3BC
100
AcDbEntity
  8
OBJECT1
100
AcDbPolyline
 90
        4
 70
   128
 43
0.0
 10
198.927381
 20
64.060319
 10
201.528108
 20
64.060319
 10
201.528108
 20
26.577807
 10
198.927381
 20
26.577807
  0
LWPOLYLINE
  5
3BD
100
AcDbEntity
  8
OBJECT1
100
AcDbPolyline
 90
        4
 70
   128
 43
0.0
 10
194.607381
 20
64.060319
 10
192.006655
 20
64.060319
 10
192.006655
 20
26.577807
 10
194.607381
 20
26.577807
  0
HATCH
  5
3BE
100
AcDbEntity
  8
TEXT1
100
AcDbHatch
 10
0.0
 20
0.0
 30
0.0
210
0.0
220
0.0
230
1.0
  2
_U
 70
     0
 71
     0
 91
        1
 92
        0
 93
        3
 72
     1
 10
59.888327
 20
-29.056041
 11
59.088327
 21
-30.656041
 72
     1
 10
59.088327
 20
-30.656041
 11
60.688327
 21
-30.656041
 72
     1
 10
60.688327
 20
-30.656041
 11
59.888327
 21
-29.056041
 97
        0
 75
     0
 76
     0
 52
45.0
 41
0.0032
 77
     0
 78
     1
 53
45.0
 43
48.917511
 44
-45.987537
 45
-0.0022627416997971
 46
0.0022627416997968
 79
     0
 98
        1
 10
48.917511
 20
-45.987537
  0
TEXT
  5
3BF
100
AcDbEntity
  8
TEXT1
100
AcDbText
 10
62.277426
 20
110.266239
 30
0.0
 40
1.6
  1
CLOSING PLATE (FOR
 41
0.89984
  7
M_STANDARD
 11
62.277426
 21
111.066239
 31
0.0
100
AcDbText
 73
     2
  0
TEXT
  5
3C0
100
AcDbEntity
  8
TEXT1
100
AcDbText
 10
62.277426
 20
107.629314
 30
0.0
 40
1.6
  1
UNDERGROUND SERVICE),
 41
0.922188
  7
M_STANDARD
 11
62.277426
 21
108.429314
 31
0.0
100
AcDbText
 73
     2
  0
TEXT
  5
3C1
100
AcDbEntity
  8
TEXT1
100
AcDbText
 10
62.277426
 20
104.992389
 30
0.0
 40
1.6
  1
ORDER TYPE A-L HUB
 41
0.89984
  7
M_STANDARD
 11
62.277426
 21
105.792389
 31
0.0
100
AcDbText
 73
     2
  0
TEXT
  5
3C2
100
AcDbEntity
  8
TEXT1
100
AcDbText
 10
62.277426
 20
102.355465
 30
0.0
 40
1.6
  1
SEPARATELY (FOR
 41
0.899768
  7
M_STANDARD
 11
62.277426
 21
103.155465
 31
0.0
100
AcDbText
 73
     2
  0
TEXT
  5
3C3
100
AcDbEntity
  8
TEXT1
100
AcDbText
 10
62.277426
 20
99.71854
 30
0.0
 40
1.6
  1
OVERHEAD SERVICE)
 41
0.918176
  7
M_STANDARD
 11
62.277426
 21
100.51854
 31
0.0
100
AcDbText
 73
     2
  0
TEXT
  5
3C4
100
AcDbEntity
  8
TEXT1
100
AcDbText
 10
62.277426
 20
112.903164
 30
0.0
 40
1.6
  1
SUPPLIED WITH ACPL
 41
0.89984
  7
M_STANDARD
 11
62.277426
 21
113.703164
 31
0.0
100
AcDbText
 73
     2
  0
TEXT
  5
3C5
100
AcDbEntity
  8
TEXT1
100
AcDbText
 10
59.188137
 20
69.599904
 30
0.0
 40
1.6
  1
SOCKET COVERS:
 41
0.945843
  7
M_STANDARD
 11
59.188137
 21
70.399904
 31
0.0
100
AcDbText
 73
     2
  0
TEXT
  5
3C6
100
AcDbEntity
  8
TEXT1
100
AcDbText
 10
59.188137
 20
81.328685
 30
0.0
 40
1.6
  1
USE WITH UTILITY
 41
0.899796
  7
M_STANDARD
 11
59.188137
 21
82.128685
 31
0.0
100
AcDbText
 73
     2
  0
TEXT
  5
3C7
100
AcDbEntity
  8
TEXT1
100
AcDbText
 10
59.188137
 20
90.541861
 30
0.0
 40
1.6
  1
BREAKER DOORS
 41
0.899689
  7
M_STANDARD
 11
59.188137
 21
91.341861
 31
0.0
100
AcDbText
 73
     2
  0
TEXT
  5
3C8
100
AcDbEntity
  8
TEXT1
100
AcDbText
 10
59.188137
 20
66.96298
 30
0.0
 40
1.6
  1
RING TYPE (INCLUDES
 41
0.899857
  7
M_STANDARD
 11
59.188137
 21
67.76298
 31
0.0
100
AcDbText
 73
     2
  0
TEXT
  5
3C9
100
AcDbEntity
  8
TEXT1
100
AcDbText
 10
59.188137
 20
78.69176
 30
0.0
 40
1.6
  1
BARREL LOCK (RINGLESS
 41
0.899883
  7
M_STANDARD
 11
59.188137
 21
79.49176
 31
0.0
100
AcDbText
 73
     2
  0
TEXT
  5
3CA
100
AcDbEntity
  8
TEXT1
100
AcDbText
 10
59.188137
 20
87.904936
 30
0.0
 40
1.6
  1
(PADLOCKABLE)
 41
0.923987
  7
M_STANDARD
 11
59.188137
 21
88.704936
 31
0.0
100
AcDbText
 73
     2
  0
TEXT
  5
3CB
100
AcDbEntity
  8
TEXT1
100
AcDbText
 10
59.188137
 20
64.326055
 30
0.0
 40
1.6
  1
SNAP TYPE ALUMINUM
 41
0.89984
  7
M_STANDARD
 11
59.188137
 21
65.126055
 31
0.0
100
AcDbText
 73
     2
  0
TEXT
  5
3CC
100
AcDbEntity
  8
TEXT1
100
AcDbText
 10
59.188137
 20
76.054836
 30
0.0
 40
1.6
  1
DEVICES ONLY)
 41
0.923987
  7
M_STANDARD
 11
59.188137
 21
76.854836
 31
0.0
100
AcDbText
 73
     2
  0
TEXT
  5
3CD
100
AcDbEntity
  8
TEXT1
100
AcDbText
 10
59.188137
 20
56.415281
 30
0.0
 40
1.6
  1
(SUPPLIED WITH
 41
0.899732
  7
M_STANDARD
 11
59.188137
 21
57.215281
 31
0.0
100
AcDbText
 73
     2
  0
TEXT
  5
3CE
100
AcDbEntity
  8
TEXT1
100
AcDbText
 10
59.188137
 20
53.778356
 30
0.0
 40
1.6
  1
COVER SEALING
 41
0.899689
  7
M_STANDARD
 11
59.188137
 21
54.578356
 31
0.0
100
AcDbText
 73
     2
  0
TEXT
  5
3CF
100
AcDbEntity
  8
TEXT1
100
AcDbText
 10
59.188137
 20
51.141431
 30
0.0
 40
1.6
  1
LATCHES)
 41
0.939939
  7
M_STANDARD
 11
59.188137
 21
51.941431
 31
0.0
100
AcDbText
 73
     2
  0
TEXT
  5
3D0
100
AcDbEntity
  8
TEXT1
100
AcDbText
 10
59.188137
 20
59.052206
 30
0.0
 40
1.6
  1
RINGLESS STYLE
 41
0.899732
  7
M_STANDARD
 11
59.188137
 21
59.852206
 31
0.0
100
AcDbText
 73
     2
  0
TEXT
  5
3D1
100
AcDbEntity
  8
TEXT1
100
AcDbText
 10
59.188137
 20
61.68913
 30
0.0
 40
1.6
  1
SEALING RINGS) OR
 41
0.89982
  7
M_STANDARD
 11
59.188137
 21
62.48913
 31
0.0
100
AcDbText
 73
     2
  0
TEXT
  5
3D2
100
AcDbEntity
  8
TEXT1
100
AcDbText
 10
59.188137
 20
72.236829
 30
0.0
 40
1.6
  1
INDIVIDUAL METER
 41
0.909467
  7
M_STANDARD
 11
59.188137
 21
73.036829
 31
0.0
100
AcDbText
 73
     2
  0
TEXT
  5
3D3
100
AcDbEntity
  8
TEXT1
100
AcDbText
 10
59.188137
 20
83.96561
 30
0.0
 40
1.6
  1
COVER KNOCKOUT FOR
 41
0.89984
  7
M_STANDARD
 11
59.188137
 21
84.76561
 31
0.0
100
AcDbText
 73
     2
  0
TEXT
  5
3D4
100
AcDbEntity
  8
TEXT1
100
AcDbText
 10
59.188137
 20
93.178786
 30
0.0
 40
1.6
  1
TENANT CIRCUIT
 41
0.899732
  7
M_STANDARD
 11
59.188137
 21
93.978786
 31
0.0
100
AcDbText
 73
     2
  0
LWPOLYLINE
  5
3D5
100
AcDbEntity
  8
TEXT1
100
AcDbPolyline
 90
        3
 70
   128
 43
0.0
 10
82.530075
 20
73.084046
 10
83.682075
 20
73.084046
 10
107.755598
 20
54.318577
  0
INSERT
  5
3D7
100
AcDbEntity
  8
TEXT1
100
AcDbBlockReference
  2
M_PFN_100
 10
107.755598
 20
54.318577
 30
0.0
 41
16.0
 42
16.0
 43
16.0
 50
322.063351
  0
LWPOLYLINE
  5
3D8
100
AcDbEntity
  8
TEXT1
100
AcDbPolyline
 90
        3
 70
   128
 43
0.0
 10
85.465226
 20
84.76561
 10
86.617226
 20
84.76561
 10
106.68002
 20
75.495729
  0
INSERT
  5
3DA
100
AcDbEntity
  8
TEXT1
100
AcDbBlockReference
  2
M_PFN_100
 10
106.68002
 20
75.495729
 30
0.0
 41
16.0
 42
16.0
 43
16.0
 50
335.201016
  0
LWPOLYLINE
  5
3DB
100
AcDbEntity
  8
TEXT1
100
AcDbPolyline
 90
        3
 70
   128
 43
0.0
 10
79.782956
 20
93.978786
 10
80.934956
 20
93.978786
 10
102.283456
 20
81.243185
  0
INSERT
  5
3DD
100
AcDbEntity
  8
TEXT1
100
AcDbBlockReference
  2
M_PFN_100
 10
102.283456
 20
81.243185
 30
0.0
 41
16.0
 42
16.0
 43
16.0
 50
329.181508
  0
LWPOLYLINE
  5
3DE
100
AcDbEntity
  8
TEXT1
100
AcDbPolyline
 90
        3
 70
   128
 43
0.0
 10
87.899493
 20
113.825902
 10
89.051493
 20
113.825902
 10
113.804461
 20
108.374037
  0
INSERT
  5
3E0
100
AcDbEntity
  8
TEXT1
100
AcDbBlockReference
  2
M_PFN_100
 10
113.804461
 20
108.374037
 30
0.0
 41
16.0
 42
16.0
 43
16.0
 50
347.578867
  0
TEXT
  5
3E1
100
AcDbEntity
  8
TEXT1
100
AcDbText
 10
117.640972
 20
82.279517
 30
0.0
 40
1.6
  1
LINE
 41
0.896304
  7
M_STANDARD
 11
117.640972
 21
83.079517
 31
0.0
100
AcDbText
 73
     2
  0
LWPOLYLINE
  5
3E2
100
AcDbEntity
  8
TEXT1
100
AcDbPolyline
 90
        3
 70
   128
 43
0.0
 10
116.634198
 20
83.267111
 10
115.482198
 20
83.267111
 10
116.575543
 20
73.438111
  0
INSERT
  5
3E4
100
AcDbEntity
  8
TEXT1
100
AcDbBlockReference
  2
M_PFN_100
 10
116.575543
 20
73.438111
 30
0.0
 41
16.0
 42
16.0
 43
16.0
 50
276.347295
  0
TEXT
  5
3E5
100
AcDbEntity
  8
TEXT1
100
AcDbText
 10
117.640972
 20
79.642592
 30
0.0
 40
1.6
  1
PHASE
 41
0.897713
  7
M_STANDARD
 11
117.640972
 21
80.442592
 31
0.0
100
AcDbText
 73
     2
  0
TEXT
  5
3E6
100
AcDbEntity
  8
TEXT1
100
AcDbText
 10
117.640972
 20
77.005667
 30
0.0
 40
1.6
  1
LUGS
 41
0.896304
  7
M_STANDARD
 11
117.640972
 21
77.805667
 31
0.0
100
AcDbText
 73
     2
  0
TEXT
  5
3E7
100
AcDbEntity
  8
TEXT1
100
AcDbText
 10
133.144938
 20
75.685978
 30
0.0
 40
1.6
  1
LUGS
 41
0.896304
  7
M_STANDARD
 11
133.144938
 21
76.485978
 31
0.0
100
AcDbText
 73
     2
  0
TEXT
  5
3E8
100
AcDbEntity
  8
TEXT1
100
AcDbText
 10
133.144938
 20
78.322903
 30
0.0
 40
1.6
  1
NEUTRAL
 41
0.898877
  7
M_STANDARD
 11
133.144938
 21
79.122903
 31
0.0
100
AcDbText
 73
     2
  0
TEXT
  5
3E9
100
AcDbEntity
  8
TEXT1
100
AcDbText
 10
133.144938
 20
80.959828
 30
0.0
 40
1.6
  1
LINE
 41
0.896304
  7
M_STANDARD
 11
133.144938
 21
81.759828
 31
0.0
100
AcDbText
 73
     2
  0
LWPOLYLINE
  5
3EA
100
AcDbEntity
  8
TEXT1
100
AcDbPolyline
 90
        3
 70
   128
 43
0.0
 10
132.138165
 20
81.947422
 10
130.986165
 20
81.947422
 10
122.911287
 20
66.556998
  0
INSERT
  5
3EC
100
AcDbEntity
  8
TEXT1
100
AcDbBlockReference
  2
M_PFN_100
 10
122.911287
 20
66.556998
 30
0.0
 41
16.0
 42
16.0
 43
16.0
 50
242.315397
  0
TEXT
  5
3ED
100
AcDbEntity
  8
TEXT1
100
AcDbText
 10
87.370082
 20
55.629044
 30
0.0
 40
1.6
  1
C,D,F
 41
0.897713
  7
M_STANDARD
 72
     2
 11
92.499869
 21
56.429044
 31
0.0
100
AcDbText
 73
     2
  0
LWPOLYLINE
  5
3EE
100
AcDbEntity
  8
TEXT1
100
AcDbPolyline
 90
        3
 70
   128
 43
0.0
 10
92.939629
 20
56.616638
 10
94.091629
 20
56.616638
 10
98.474765
 20
47.322783
  0
INSERT
  5
3F0
100
AcDbEntity
  8
TEXT1
100
AcDbBlockReference
  2
M_PFN_100
 10
98.474765
 20
47.322783
 30
0.0
 41
16.0
 42
16.0
 43
16.0
 50
295.249343
  0
TEXT
  5
3F1
100
AcDbEntity
  8
TEXT1
100
AcDbText
 10
133.05906
 20
14.988475
 30
0.0
 40
1.6
  1
G,H,I,J
 41
0.898877
  7
M_STANDARD
 11
133.05906
 21
15.788475
 31
0.0
100
AcDbText
 73
     2
  0
TEXT
  5
3F2
100
AcDbEntity
  8
TEXT1
100
AcDbText
 10
133.05906
 20
17.6254
 30
0.0
 40
1.6
  1
A-L HUB PROVISION
 41
0.89982
  7
M_STANDARD
 11
133.05906
 21
18.4254
 31
0.0
100
AcDbText
 73
     2
  0
LWPOLYLINE
  5
3F3
100
AcDbEntity
  8
TEXT1
100
AcDbPolyline
 90
        3
 70
   128
 43
0.0
 10
132.052287
 20
18.612994
 10
130.900287
 20
18.612994
 10
122.96539
 20
9.516657
  0
INSERT
  5
3F5
100
AcDbEntity
  8
TEXT1
100
AcDbBlockReference
  2
M_PFN_100
 10
122.96539
 20
9.516657
 30
0.0
 41
16.0
 42
16.0
 43
16.0
 50
228.901231
  0
TEXT
  5
3F6
100
AcDbEntity
  8
TEXT1
100
AcDbText
 10
85.899268
 20
15.033594
 30
0.0
 40
1.6
  1
C,D,F
 41
0.897713
  7
M_STANDARD
 11
85.899268
 21
15.833594
 31
0.0
100
AcDbText
 73
     2
  0
TEXT
  5
3F7
100
AcDbEntity
  8
TEXT1
100
AcDbText
 10
107.287843
 20
9.524398
 30
0.0
 40
1.6
  1
A,B
 41
0.89305
  7
M_STANDARD
 72
     1
 11
108.852807
 21
10.324398
 31
0.0
100
AcDbText
 73
     2
  0
TEXT
  5
3F8
100
AcDbEntity
  8
TEXT1
100
AcDbText
 10
165.471607
 20
19.308632
 30
0.0
 40
1.6
  1
ON RINGLESS
 41
0.899561
  7
M_STANDARD
 11
165.471607
 21
20.108632
 31
0.0
100
AcDbText
 73
     2
  0
TEXT
  5
3F9
100
AcDbEntity
  8
TEXT1
100
AcDbText
 10
165.471607
 20
16.671708
 30
0.0
 40
1.6
  1
DEVICE
 41
0.898447
  7
M_STANDARD
 11
165.471607
 21
17.471708
 31
0.0
100
AcDbText
 73
     2
  0
TEXT
  5
3FA
100
AcDbEntity
  8
TEXT1
100
AcDbText
 10
165.471607
 20
24.582482
 30
0.0
 40
1.6
  1
FACTORY
 41
0.898877
  7
M_STANDARD
 11
165.471607
 21
25.382482
 31
0.0
100
AcDbText
 73
     2
  0
TEXT
  5
3FB
100
AcDbEntity
  8
TEXT1
100
AcDbText
 10
165.471607
 20
21.945557
 30
0.0
 40
1.6
  1
INSTALLED
 41
0.916942
  7
M_STANDARD
 11
165.471607
 21
22.745557
 31
0.0
100
AcDbText
 73
     2
  0
TEXT
  5
3FC
100
AcDbEntity
  8
TEXT1
100
AcDbText
 10
165.471607
 20
27.219407
 30
0.0
 40
1.6
  1
FIFTH JAW
 41
0.899335
  7
M_STANDARD
 11
165.471607
 21
28.019407
 31
0.0
100
AcDbText
 73
     2
  0
TEXT
  5
3FD
100
AcDbEntity
  8
TEXT1
100
AcDbText
 10
172.656817
 20
11.479117
 30
0.0
 40
1.6
  1
NEUTRAL
 41
0.898877
  7
M_STANDARD
 11
172.656817
 21
12.279117
 31
0.0
100
AcDbText
 73
     2
  0
TEXT
  5
3FE
100
AcDbEntity
  8
TEXT1
100
AcDbText
 10
172.656817
 20
8.842192
 30
0.0
 40
1.6
  1
AND SERVICE
 41
0.899561
  7
M_STANDARD
 11
172.656817
 21
9.642192
 31
0.0
100
AcDbText
 73
     2
  0
TEXT
  5
3FF
100
AcDbEntity
  8
TEXT1
100
AcDbText
 10
172.656817
 20
6.205267
 30
0.0
 40
1.6
  1
GROUND
 41
0.898447
  7
M_STANDARD
 11
172.656817
 21
7.005267
 31
0.0
100
AcDbText
 73
     2
  0
TEXT
  5
400
100
AcDbEntity
  8
TEXT1
100
AcDbText
 10
204.834838
 20
11.402551
 30
0.0
 40
1.6
  1
TERMINALS
 41
0.899335
  7
M_STANDARD
 11
204.834838
 21
12.202551
 31
0.0
100
AcDbText
 73
     2
  0
TEXT
  5
401
100
AcDbEntity
  8
TEXT1
100
AcDbText
 10
204.834838
 20
14.039476
 30
0.0
 40
1.6
  1
GROUNDING
 41
0.899335
  7
M_STANDARD
 11
204.834838
 21
14.839476
 31
0.0
100
AcDbText
 73
     2
  0
TEXT
  5
402
100
AcDbEntity
  8
TEXT1
100
AcDbText
 10
204.834838
 20
16.676401
 30
0.0
 40
1.6
  1
EQUIPMENT
 41
0.899335
  7
M_STANDARD
 11
204.834838
 21
17.476401
 31
0.0
100
AcDbText
 73
     2
  0
TEXT
  5
403
100
AcDbEntity
  8
TEXT1
100
AcDbText
 10
61.717499
 20
-30.647564
 30
0.0
 40
1.32
  1
SHORT CIRCUIT CURRENT RATING OF METER CENTER IS EQUAL TO THE RATING OF THE LOWEST INSTALLED 
 41
0.899994
  7
M_STANDARD
 11
61.717499
 21
-29.987564
 31
0.0
100
AcDbText
 73
     2
  0
TEXT
  5
404
100
AcDbEntity
  8
TEXT1
100
AcDbText
 10
61.717499
 20
-35.447564
 30
0.0
 40
1.32
  1
LUGS LARGER THAN 600 KCMIL REQUIRE USE OF LUG LANDING PADS (ORDER CATALOG NUMBER MMSK2 SEPARATELY).
 41
0.906117
  7
M_STANDARD
 11
61.717499
 21
-34.787564
 31
0.0
100
AcDbText
 73
     2
  0
TEXT
  5
405
100
AcDbEntity
  8
TEXT1
100
AcDbText
 10
61.717499
 20
-33.047564
 30
0.0
 40
1.32
  1
TENANT SERVICE DISCONNECT.
 41
0.923918
  7
M_STANDARD
 11
61.717499
 21
-32.387564
 31
0.0
100
AcDbText
 73
     2
  0
LWPOLYLINE
  5
406
100
AcDbEntity
  8
TEXT1
100
AcDbPolyline
 90
        3
 70
   129
 43
0.0
 10
59.888327
 20
-29.056041
 10
59.088327
 20
-30.656041
 10
60.688327
 20
-30.656041
  0
LINE
  5
407
100
AcDbEntity
  8
TEXT1
100
AcDbLine
 10
59.181467
 20
-34.39921
 30
0.0
 11
60.617469
 21
-34.39921
 31
0.0
  0
LINE
  5
408
100
AcDbEntity
  8
TEXT1
100
AcDbLine
 10
59.181467
 20
-35.175919
 30
0.0
 11
60.617469
 21
-35.175919
 31
0.0
  0
LINE
  5
409
100
AcDbEntity
  8
TEXT1
100
AcDbLine
 10
59.899468
 20
-33.600973
 30
0.0
 11
59.899468
 21
-35.974155
 31
0.0
  0
HATCH
  5
40A
100
AcDbEntity
  8
TEXT1
100
AcDbHatch
 10
0.0
 20
0.0
 30
0.0
210
0.0
220
0.0
230
1.0
  2
_U
 70
     0
 71
     0
 91
        1
 92
        0
 93
        3
 72
     1
 10
295.934078
 20
108.119926
 11
295.214078
 21
106.679926
 72
     1
 10
295.214078
 20
106.679926
 11
296.654078
 21
106.679926
 72
     1
 10
296.654078
 20
106.679926
 11
295.934078
 21
108.119926
 97
        0
 75
     0
 76
     0
 52
45.0
 41
0.00288
 77
     0
 78
     1
 53
45.0
 43
48.917511
 44
-45.987537
 45
-0.0020364675298174
 46
0.0020364675298172
 79
     0
 98
        1
 10
48.917511
 20
-45.987537
  0
TEXT
  5
40B
100
AcDbEntity
  8
TEXT1
100
AcDbText
 10
300.010339
 20
56.871795
 30
0.0
 40
1.32
  1
MMLK600
 41
0.921866
  7
M_STANDARD
 72
     1
 11
304.066547
 21
57.531795
 31
0.0
100
AcDbText
 73
     2
  0
TEXT
  5
40C
100
AcDbEntity
  8
TEXT1
100
AcDbText
 10
300.010339
 20
64.900769
 30
0.0
 40
1.32
  1
MMLK250
 41
0.921866
  7
M_STANDARD
 72
     1
 11
304.066547
 21
65.560769
 31
0.0
100
AcDbText
 73
     2
  0
TEXT
  5
40D
100
AcDbEntity
  8
TEXT1
100
AcDbText
 10
300.010339
 20
60.286282
 30
0.0
 40
1.32
  1
MMLK500
 41
0.921866
  7
M_STANDARD
 72
     1
 11
304.066547
 21
60.946282
 31
0.0
100
AcDbText
 73
     2
  0
TEXT
  5
40E
100
AcDbEntity
  8
TEXT1
100
AcDbText
 10
258.277054
 20
66.100769
 30
0.0
 40
1.32
  1
(1) 1/0-600 AWG/KCMIL OR
 41
0.899911
  7
M_STANDARD
 11
258.277054
 21
66.760769
 31
0.0
100
AcDbText
 73
     2
  0
TEXT
  5
40F
100
AcDbEntity
  8
TEXT1
100
AcDbText
 10
258.277054
 20
63.700769
 30
0.0
 40
1.32
  1
(2) 1/0-250 PER PHASE
 41
0.899883
  7
M_STANDARD
 11
258.277054
 21
64.360769
 31
0.0
100
AcDbText
 73
     2
  0
TEXT
  5
410
100
AcDbEntity
  8
TEXT1
100
AcDbText
 10
258.277054
 20
60.286282
 30
0.0
 40
1.32
  1
(2) 3/0-500 AWG/KCMIL PER PHASE
 41
0.899947
  7
M_STANDARD
 11
258.277054
 21
60.946282
 31
0.0
100
AcDbText
 73
     2
  0
TEXT
  5
411
100
AcDbEntity
  8
TEXT1
100
AcDbText
 10
258.277054
 20
56.871795
 30
0.0
 40
1.32
  1
(2) 2-600 AWG/KCMIL PER PHASE
 41
0.899939
  7
M_STANDARD
 11
258.277054
 21
57.531795
 31
0.0
100
AcDbText
 73
     2
  0
TEXT
  5
412
100
AcDbEntity
  8
TEXT1
100
AcDbText
 10
297.33342
 20
69.707118
 30
0.0
 40
1.32
  1
CATALOG NO.
 41
0.959467
  7
M_STANDARD
 72
     1
 11
303.605594
 21
70.367118
 31
0.0
100
AcDbText
 73
     2
  0
TEXT
  5
413
100
AcDbEntity
  8
TEXT1
100
AcDbText
 10
272.325413
 20
69.707118
 30
0.0
 40
1.32
  1
WIRE SIZE
 41
0.899335
  7
M_STANDARD
 72
     1
 11
276.621665
 21
70.367118
 31
0.0
100
AcDbText
 73
     2
  0
TEXT
  5
414
100
AcDbEntity
  8
TEXT1
100
AcDbText
 10
270.657616
 20
118.255743
 30
0.0
 40
1.32
  1
TENANT SERVICE DISCONNECTS
 41
0.899924
  7
M_STANDARD
 72
     1
 11
284.657865
 21
118.915743
 31
0.0
100
AcDbText
 73
     2
  0
TEXT
  5
415
100
AcDbEntity
  8
TEXT1
100
AcDbText
 10
267.872705
 20
116.165743
 30
0.0
 40
1.32
  1
(ORDER ONE PER SOCKET POSITION)
 41
0.909835
  7
M_STANDARD
 72
     1
 11
284.657865
 21
116.825743
 31
0.0
100
AcDbText
 73
     2
  0
LWPOLYLINE
  5
416
100
AcDbEntity
  8
TEXT1
100
AcDbPolyline
 90
        3
 70
   129
 43
0.0
 10
295.934078
 20
108.119926
 10
295.214078
 20
106.679926
 10
296.654078
 20
106.679926
  0
TEXT
  5
417
100
AcDbEntity
  8
TEXT1
100
AcDbText
 10
258.817449
 20
108.907498
 30
0.0
 40
1.32
  1
RATING
 41
0.898447
  7
M_STANDARD
 72
     1
 11
261.810561
 21
109.567498
 31
0.0
100
AcDbText
 73
     2
  0
TEXT
  5
418
100
AcDbEntity
  8
TEXT1
100
AcDbText
 10
303.419808
 20
107.883053
 30
0.0
 40
1.32
  1
(AWG)
 41
0.966376
  7
M_STANDARD
 72
     1
 11
306.092527
 21
108.543053
 31
0.0
100
AcDbText
 73
     2
  0
TEXT
  5
419
100
AcDbEntity
  8
TEXT1
100
AcDbText
 10
304.233337
 20
112.063053
 30
0.0
 40
1.32
  1
WIRE
 41
0.896304
  7
M_STANDARD
 72
     1
 11
306.092527
 21
112.723053
 31
0.0
100
AcDbText
 73
     2
  0
TEXT
  5
41A
100
AcDbEntity
  8
TEXT1
100
AcDbText
 10
283.810986
 20
113.087498
 30
0.0
 40
1.32
  1
SHORT CIRCUIT
 41
0.899689
  7
M_STANDARD
 72
     1
 11
290.512381
 21
113.747498
 31
0.0
100
AcDbText
 73
     2
  0
TEXT
  5
41B
100
AcDbEntity
  8
TEXT1
100
AcDbText
 10
269.67447
 20
110.997498
 30
0.0
 40
1.32
  1
CATALOG
 41
0.898877
  7
M_STANDARD
 72
     1
 11
273.544778
 21
111.657498
 31
0.0
100
AcDbText
 73
     2
  0
TEXT
  5
41C
100
AcDbEntity
  8
TEXT1
100
AcDbText
 10
258.422132
 20
110.997498
 30
0.0
 40
1.32
  1
AMPERE
 41
0.898447
  7
M_STANDARD
 72
     1
 11
261.810561
 21
111.657498
 31
0.0
100
AcDbText
 73
     2
  0
TEXT
  5
41D
100
AcDbEntity
  8
TEXT1
100
AcDbText
 10
303.299358
 20
109.973053
 30
0.0
 40
1.32
  1
RANGE
 41
0.897713
  7
M_STANDARD
 72
     1
 11
306.092527
 21
110.633053
 31
0.0
100
AcDbText
 73
     2
  0
TEXT
  5
41E
100
AcDbEntity
  8
TEXT1
100
AcDbText
 10
282.905786
 20
110.997498
 30
0.0
 40
1.32
  1
CURRENT RATING
 41
0.899732
  7
M_STANDARD
 72
     1
 11
290.512381
 21
111.657498
 31
0.0
100
AcDbText
 73
     2
  0
TEXT
  5
41F
100
AcDbEntity
  8
TEXT1
100
AcDbText
 10
286.557321
 20
106.817498
 30
0.0
 40
1.32
  1
AMPERES
 41
0.898877
  7
M_STANDARD
 72
     1
 11
290.512381
 21
107.477498
 31
0.0
100
AcDbText
 73
     2
  0
TEXT
  5
420
100
AcDbEntity
  8
TEXT1
100
AcDbText
 10
282.226806
 20
108.907498
 30
0.0
 40
1.32
  1
RMS SYMMETRICAL
 41
0.899768
  7
M_STANDARD
 72
     1
 11
290.512381
 21
109.567498
 31
0.0
100
AcDbText
 73
     2
  0
TEXT
  5
421
100
AcDbEntity
  8
TEXT1
100
AcDbText
 10
270.099876
 20
108.907498
 30
0.0
 40
1.32
  1
NUMBER
 41
0.898447
  7
M_STANDARD
 72
     1
 11
273.544778
 21
109.567498
 31
0.0
100
AcDbText
 73
     2
  0
TEXT
  5
422
100
AcDbEntity
  8
TEXT1
100
AcDbText
 10
260.25753
 20
103.622499
 30
0.0
 40
1.32
  1
100
 41
0.951579
  7
M_STANDARD
 72
     1
 11
261.752868
 21
104.282499
 31
0.0
100
AcDbText
 73
     2
  0
TEXT
  5
423
100
AcDbEntity
  8
TEXT1
100
AcDbText
 10
260.25753
 20
90.822499
 30
0.0
 40
1.32
  1
100
 41
0.951579
  7
M_STANDARD
 72
     1
 11
261.752868
 21
91.482499
 31
0.0
100
AcDbText
 73
     2
  0
TEXT
  5
424
100
AcDbEntity
  8
TEXT1
100
AcDbText
 10
268.344052
 20
103.622499
 30
0.0
 40
1.32
  1
QOM2100MM
 41
0.899335
  7
M_STANDARD
 72
     1
 11
273.544778
 21
104.282499
 31
0.0
100
AcDbText
 73
     2
  0
TEXT
  5
425
100
AcDbEntity
  8
TEXT1
100
AcDbText
 10
267.834458
 20
90.822499
 30
0.0
 40
1.32
  1
QOM2100MVH
 41
0.899465
  7
M_STANDARD
 72
     1
 11
273.544778
 21
91.482499
 31
0.0
100
AcDbText
 73
     2
  0
TEXT
  5
426
100
AcDbEntity
  8
TEXT1
100
AcDbText
 10
260.137903
 20
94.022499
 30
0.0
 40
1.32
  1
200
 41
0.951579
  7
M_STANDARD
 72
     1
 11
261.752868
 21
94.682499
 31
0.0
100
AcDbText
 73
     2
  0
TEXT
  5
427
100
AcDbEntity
  8
TEXT1
100
AcDbText
 10
260.137903
 20
81.222499
 30
0.0
 40
1.32
  1
200
 41
0.951579
  7
M_STANDARD
 72
     1
 11
261.752868
 21
81.882499
 31
0.0
100
AcDbText
 73
     2
  0
TEXT
  5
428
100
AcDbEntity
  8
TEXT1
100
AcDbText
 10
268.230993
 20
94.022499
 30
0.0
 40
1.32
  1
QOM2200MM
 41
0.899335
  7
M_STANDARD
 72
     1
 11
273.544778
 21
94.682499
 31
0.0
100
AcDbText
 73
     2
  0
TEXT
  5
429
100
AcDbEntity
  8
TEXT1
100
AcDbText
 10
267.721382
 20
81.222499
 30
0.0
 40
1.32
  1
QOM2200MVH
 41
0.899465
  7
M_STANDARD
 72
     1
 11
273.544778
 21
81.882499
 31
0.0
100
AcDbText
 73
     2
  0
TEXT
  5
42A
100
AcDbEntity
  8
TEXT1
100
AcDbText
 10
260.349504
 20
96.422499
 30
0.0
 40
1.32
  1
175
 41
0.89305
  7
M_STANDARD
 72
     1
 11
261.752868
 21
97.082499
 31
0.0
100
AcDbText
 73
     2
  0
TEXT
  5
42B
100
AcDbEntity
  8
TEXT1
100
AcDbText
 10
260.349504
 20
83.622499
 30
0.0
 40
1.32
  1
175
 41
0.89305
  7
M_STANDARD
 72
     1
 11
261.752868
 21
84.282499
 31
0.0
100
AcDbText
 73
     2
  0
TEXT
  5
42C
100
AcDbEntity
  8
TEXT1
100
AcDbText
 10
268.344052
 20
96.422499
 30
0.0
 40
1.32
  1
QOM2175MM
 41
0.899335
  7
M_STANDARD
 72
     1
 11
273.544778
 21
97.082499
 31
0.0
100
AcDbText
 73
     2
  0
TEXT
  5
42D
100
AcDbEntity
  8
TEXT1
100
AcDbText
 10
267.834458
 20
83.622499
 30
0.0
 40
1.32
  1
QOM2175MVH
 41
0.899465
  7
M_STANDARD
 72
     1
 11
273.544778
 21
84.282499
 31
0.0
100
AcDbText
 73
     2
  0
TEXT
  5
42E
100
AcDbEntity
  8
TEXT1
100
AcDbText
 10
260.25753
 20
98.822499
 30
0.0
 40
1.32
  1
150
 41
0.951579
  7
M_STANDARD
 72
     1
 11
261.752868
 21
99.482499
 31
0.0
100
AcDbText
 73
     2
  0
TEXT
  5
42F
100
AcDbEntity
  8
TEXT1
100
AcDbText
 10
260.25753
 20
86.022499
 30
0.0
 40
1.32
  1
150
 41
0.951579
  7
M_STANDARD
 72
     1
 11
261.752868
 21
86.682499
 31
0.0
100
AcDbText
 73
     2
  0
TEXT
  5
430
100
AcDbEntity
  8
TEXT1
100
AcDbText
 10
303.253481
 20
84.977499
 30
0.0
 40
1.32
  1
AL/CU
 41
0.897713
  7
M_STANDARD
 72
     1
 11
305.962009
 21
85.637499
 31
0.0
100
AcDbText
 73
     2
  0
TEXT
  5
431
100
AcDbEntity
  8
TEXT1
100
AcDbText
 10
303.253481
 20
97.777499
 30
0.0
 40
1.32
  1
AL/CU
 41
0.897713
  7
M_STANDARD
 72
     1
 11
305.962009
 21
98.437499
 31
0.0
100
AcDbText
 73
     2
  0
TEXT
  5
432
100
AcDbEntity
  8
TEXT1
100
AcDbText
 10
300.122956
 20
86.767499
 30
0.0
 40
1.92
  1
 4-250
 41
0.925574
  7
M_STANDARD
 72
     1
 11
305.962009
 21
87.727499
 31
0.0
100
AcDbText
 73
     2
  0
TEXT
  5
433
100
AcDbEntity
  8
TEXT1
100
AcDbText
 10
301.94766
 20
99.867499
 30
0.0
 40
1.32
  1
 4-250
 41
0.925574
  7
M_STANDARD
 72
     1
 11
305.962009
 21
100.527499
 31
0.0
100
AcDbText
 73
     2
  0
TEXT
  5
434
100
AcDbEntity
  8
TEXT1
100
AcDbText
 10
287.603433
 20
98.822499
 30
0.0
 40
1.32
  1
10,000
 41
0.925574
  7
M_STANDARD
 72
     1
 11
290.512381
 21
99.482499
 31
0.0
100
AcDbText
 73
     2
  0
TEXT
  5
435
100
AcDbEntity
  8
TEXT1
100
AcDbText
 10
287.487075
 20
86.022499
 30
0.0
 40
1.32
  1
22,000
 41
0.925574
  7
M_STANDARD
 72
     1
 11
290.512381
 21
86.682499
 31
0.0
100
AcDbText
 73
     2
  0
TEXT
  5
436
100
AcDbEntity
  8
TEXT1
100
AcDbText
 10
268.344052
 20
98.822499
 30
0.0
 40
1.32
  1
QOM2150MM
 41
0.899335
  7
M_STANDARD
 72
     1
 11
273.544778
 21
99.482499
 31
0.0
100
AcDbText
 73
     2
  0
TEXT
  5
437
100
AcDbEntity
  8
TEXT1
100
AcDbText
 10
267.834458
 20
86.022499
 30
0.0
 40
1.32
  1
QOM2150MVH
 41
0.899465
  7
M_STANDARD
 72
     1
 11
273.544778
 21
86.682499
 31
0.0
100
AcDbText
 73
     2
  0
TEXT
  5
438
100
AcDbEntity
  8
TEXT1
100
AcDbText
 10
260.349504
 20
101.222499
 30
0.0
 40
1.32
  1
125
 41
0.89305
  7
M_STANDARD
 72
     1
 11
261.752868
 21
101.882499
 31
0.0
100
AcDbText
 73
     2
  0
TEXT
  5
439
100
AcDbEntity
  8
TEXT1
100
AcDbText
 10
260.349504
 20
88.422499
 30
0.0
 40
1.32
  1
125
 41
0.89305
  7
M_STANDARD
 72
     1
 11
261.752868
 21
89.082499
 31
0.0
100
AcDbText
 73
     2
  0
TEXT
  5
43A
100
AcDbEntity
  8
TEXT1
100
AcDbText
 10
301.819562
 20
87.065509
 30
0.0
 40
1.92
  1
#
 41
0.8
  7
M_STANDARD
 72
     1
 11
302.368133
 21
88.025509
 31
0.0
100
AcDbText
 73
     2
  0
TEXT
  5
43B
100
AcDbEntity
  8
TEXT1
100
AcDbText
 10
301.819562
 20
99.865509
 30
0.0
 40
1.92
  1
#
 41
0.8
  7
M_STANDARD
 72
     1
 11
302.368133
 21
100.825509
 31
0.0
100
AcDbText
 73
     2
  0
TEXT
  5
43C
100
AcDbEntity
  8
TEXT1
100
AcDbText
 10
268.344052
 20
101.222499
 30
0.0
 40
1.32
  1
QOM2125MM
 41
0.899335
  7
M_STANDARD
 72
     1
 11
273.544778
 21
101.882499
 31
0.0
100
AcDbText
 73
     2
  0
TEXT
  5
43D
100
AcDbEntity
  8
TEXT1
100
AcDbText
 10
267.834458
 20
88.422499
 30
0.0
 40
1.32
  1
QOM2125MVH
 41
0.899465
  7
M_STANDARD
 72
     1
 11
273.544778
 21
89.082499
 31
0.0
100
AcDbText
 73
     2
  0
LWPOLYLINE
  5
43E
100
AcDbEntity
  8
0
100
AcDbPolyline
 90
        4
 70
   129
 43
0.0
 10
312.102747
 20
115.342498
 10
257.212982
 20
115.342498
 10
257.212982
 20
120.402496
 10
312.102747
 20
120.402496
  0
LINE
  5
43F
100
AcDbEntity
  8
0
100
AcDbLine
 10
257.212982
 20
62.653525
 30
0.0
 11
312.102747
 21
62.653525
 31
0.0
  0
LINE
  5
440
100
AcDbEntity
  8
0
100
AcDbLine
 10
257.212982
 20
68.468012
 30
0.0
 11
296.030347
 21
68.468012
 31
0.0
  0
LINE
  5
441
100
AcDbEntity
  8
0
100
AcDbLine
 10
257.212982
 20
59.239038
 30
0.0
 11
312.102747
 21
59.239038
 31
0.0
  0
TEXT
  5
442
100
AcDbEntity
  8
TEXT1
100
AcDbText
 10
270.855696
 20
73.422499
 30
0.0
 40
1.32
  1
ALTERNATE MECHANICAL LUGS
 41
0.899918
  7
M_STANDARD
 72
     1
 11
284.657865
 21
74.082499
 31
0.0
100
AcDbText
 73
     2
  0
LINE
  5
443
100
AcDbEntity
  8
0
100
AcDbLine
 10
257.212982
 20
105.882499
 30
0.0
 11
312.102747
 21
105.882499
 31
0.0
  0
LINE
  5
444
100
AcDbEntity
  8
0
100
AcDbLine
 10
257.212982
 20
93.082499
 30
0.0
 11
312.102747
 21
93.082499
 31
0.0
  0
LWPOLYLINE
  5
445
100
AcDbEntity
  8
0
100
AcDbPolyline
 90
        4
 70
   129
 43
0.0
 10
257.212982
 20
80.282499
 10
266.147102
 20
80.282499
 10
266.147102
 20
115.342498
 10
257.212982
 20
115.342498
  0
LWPOLYLINE
  5
446
100
AcDbEntity
  8
0
100
AcDbPolyline
 90
        4
 70
   129
 43
0.0
 10
266.147102
 20
115.342498
 10
280.942455
 20
115.342498
 10
280.942455
 20
80.282499
 10
266.147102
 20
80.282499
  0
LWPOLYLINE
  5
447
100
AcDbEntity
  8
0
100
AcDbPolyline
 90
        4
 70
   129
 43
0.0
 10
280.942455
 20
80.282499
 10
300.082307
 20
80.282499
 10
300.082307
 20
115.342498
 10
280.942455
 20
115.342498
  0
LWPOLYLINE
  5
448
100
AcDbEntity
  8
0
100
AcDbPolyline
 90
        4
 70
   129
 43
0.0
 10
257.212982
 20
71.882499
 10
296.030347
 20
71.882499
 10
296.030347
 20
55.824551
 10
257.212982
 20
55.824551
  0
LWPOLYLINE
  5
449
100
AcDbEntity
  8
0
100
AcDbPolyline
 90
        4
 70
   129
 43
0.0
 10
257.212982
 20
71.882499
 10
312.102747
 20
71.882499
 10
312.102747
 20
76.282499
 10
257.212982
 20
76.282499
  0
LWPOLYLINE
  5
44A
100
AcDbEntity
  8
0
100
AcDbPolyline
 90
        4
 70
   129
 43
0.0
 10
296.030347
 20
71.882499
 10
312.102747
 20
71.882499
 10
312.102747
 20
55.824551
 10
296.030347
 20
55.824551
  0
LWPOLYLINE
  5
44B
100
AcDbEntity
  8
0
100
AcDbPolyline
 90
        4
 70
   129
 43
0.0
 10
312.102747
 20
71.882499
 10
296.030347
 20
71.882499
 10
296.030347
 20
68.468012
 10
312.102747
 20
68.468012
  0
LINE
  5
44C
100
AcDbEntity
  8
TEXT1
100
AcDbLine
 10
254.159545
 20
74.238715
 30
0.0
 11
255.595547
 21
74.238715
 31
0.0
  0
LINE
  5
44D
100
AcDbEntity
  8
TEXT1
100
AcDbLine
 10
254.159545
 20
73.462006
 30
0.0
 11
255.595547
 21
73.462006
 31
0.0
  0
LINE
  5
44E
100
AcDbEntity
  8
TEXT1
100
AcDbLine
 10
254.877546
 20
75.036952
 30
0.0
 11
254.877546
 21
72.66377
 31
0.0
  0
LWPOLYLINE
  5
44F
100
AcDbEntity
  8
0
100
AcDbPolyline
 90
        4
 70
   129
 43
0.0
 10
300.082307
 20
115.342498
 10
312.102747
 20
115.342498
 10
312.102747
 20
80.282499
 10
300.082307
 20
80.282499
  0
TEXT
  5
450
100
AcDbEntity
  8
TEXT1
100
AcDbText
 10
223.332938
 20
118.170041
 30
0.0
 40
1.28
  1
KNOCKOUTS
 41
0.899335
  7
M_STANDARD
 72
     1
 11
228.348658
 21
118.810041
 31
0.0
100
AcDbText
 73
     2
  0
LINE
  5
451
100
AcDbEntity
  8
0
100
AcDbLine
 10
202.106213
 20
102.121113
 30
0.0
 11
254.475749
 21
102.121113
 31
0.0
  0
LINE
  5
452
100
AcDbEntity
  8
0
100
AcDbLine
 10
202.106213
 20
98.921113
 30
0.0
 11
254.475749
 21
98.921113
 31
0.0
  0
LINE
  5
453
100
AcDbEntity
  8
0
100
AcDbLine
 10
202.106213
 20
89.321113
 30
0.0
 11
254.475749
 21
89.321113
 31
0.0
  0
LINE
  5
454
100
AcDbEntity
  8
0
100
AcDbLine
 10
202.106213
 20
95.721113
 30
0.0
 11
254.475749
 21
95.721113
 31
0.0
  0
LINE
  5
455
100
AcDbEntity
  8
0
100
AcDbLine
 10
202.106213
 20
86.121113
 30
0.0
 11
254.475749
 21
86.121113
 31
0.0
  0
LINE
  5
456
100
AcDbEntity
  8
0
100
AcDbLine
 10
202.106213
 20
92.521113
 30
0.0
 11
254.475749
 21
92.521113
 31
0.0
  0
LINE
  5
457
100
AcDbEntity
  8
0
100
AcDbLine
 10
202.106213
 20
82.921113
 30
0.0
 11
254.475749
 21
82.921113
 31
0.0
  0
LINE
  5
458
100
AcDbEntity
  8
0
100
AcDbLine
 10
202.106213
 20
105.321113
 30
0.0
 11
254.475749
 21
105.321113
 31
0.0
  0
LINE
  5
459
100
AcDbEntity
  8
0
100
AcDbLine
 10
223.053645
 20
98.921113
 30
0.0
 11
254.475749
 21
98.921113
 31
0.0
  0
LINE
  5
45A
100
AcDbEntity
  8
0
100
AcDbLine
 10
202.106213
 20
108.521113
 30
0.0
 11
254.475749
 21
108.521113
 31
0.0
  0
LINE
  5
45B
100
AcDbEntity
  8
0
100
AcDbLine
 10
202.106213
 20
111.721113
 30
0.0
 11
254.475749
 21
111.721113
 31
0.0
  0
LINE
  5
45C
100
AcDbEntity
  8
0
100
AcDbLine
 10
202.106213
 20
117.279554
 30
0.0
 11
254.475749
 21
117.279554
 31
0.0
  0
TEXT
  5
45D
100
AcDbEntity
  8
TEXT1
100
AcDbText
 10
237.147735
 20
115.181371
 30
0.0
 40
1.28
  1
HOLE DIAMETER
 41
0.899689
  7
M_STANDARD
 72
     1
 11
243.83799
 21
115.821371
 31
0.0
100
AcDbText
 73
     2
  0
TEXT
  5
45E
100
AcDbEntity
  8
TEXT1
100
AcDbText
 10
227.217056
 20
112.386021
 30
0.0
 40
1.28
  1
MM
 41
0.882523
  7
M_STANDARD
 72
     1
 11
228.292893
 21
113.026021
 31
0.0
100
AcDbText
 73
     2
  0
TEXT
  5
45F
100
AcDbEntity
  8
TEXT1
100
AcDbText
 10
248.164488
 20
112.386021
 30
0.0
 40
1.28
  1
MM
 41
0.882523
  7
M_STANDARD
 72
     1
 11
249.240325
 21
113.026021
 31
0.0
100
AcDbText
 73
     2
  0
TEXT
  5
460
100
AcDbEntity
  8
TEXT1
100
AcDbText
 10
217.378151
 20
115.181371
 30
0.0
 40
1.28
  1
CONDUIT SIZE
 41
0.899633
  7
M_STANDARD
 72
     1
 11
223.245471
 21
115.821371
 31
0.0
100
AcDbText
 73
     2
  0
TEXT
  5
461
100
AcDbEntity
  8
TEXT1
100
AcDbText
 10
217.163711
 20
112.386021
 30
0.0
 40
1.28
  1
IN
 41
0.976187
  7
M_STANDARD
 72
     1
 11
217.818221
 21
113.026021
 31
0.0
100
AcDbText
 73
     2
  0
TEXT
  5
462
100
AcDbEntity
  8
TEXT1
100
AcDbText
 10
238.111143
 20
112.386021
 30
0.0
 40
1.28
  1
IN
 41
0.976187
  7
M_STANDARD
 72
     1
 11
238.765653
 21
113.026021
 31
0.0
100
AcDbText
 73
     2
  0
TEXT
  5
463
100
AcDbEntity
  8
TEXT1
100
AcDbText
 10
248.325864
 20
109.481113
 30
0.0
 40
1.28
  1
22
 41
0.882523
  7
M_STANDARD
 72
     1
 11
249.240325
 21
110.121113
 31
0.0
100
AcDbText
 73
     2
  0
TEXT
  5
464
100
AcDbEntity
  8
TEXT1
100
AcDbText
 10
237.568116
 20
109.481113
 30
0.0
 40
1.28
  1
.88
 41
0.89305
  7
M_STANDARD
 72
     1
 11
238.765653
 21
110.121113
 31
0.0
100
AcDbText
 73
     2
  0
TEXT
  5
465
100
AcDbEntity
  8
TEXT1
100
AcDbText
 10
227.486015
 20
109.481113
 30
0.0
 40
1.28
  1
13
 41
0.882523
  7
M_STANDARD
 72
     1
 11
228.292893
 21
110.121113
 31
0.0
100
AcDbText
 73
     2
  0
TEXT
  5
466
100
AcDbEntity
  8
TEXT1
100
AcDbText
 10
248.298968
 20
99.881113
 30
0.0
 40
1.28
  1
44
 41
0.882523
  7
M_STANDARD
 72
     1
 11
249.240325
 21
100.521113
 31
0.0
100
AcDbText
 73
     2
  0
TEXT
  5
467
100
AcDbEntity
  8
TEXT1
100
AcDbText
 10
237.126697
 20
99.881113
 30
0.0
 40
1.28
  1
1.75
 41
0.896304
  7
M_STANDARD
 72
     1
 11
238.765653
 21
100.521113
 31
0.0
100
AcDbText
 73
     2
  0
TEXT
  5
468
100
AcDbEntity
  8
TEXT1
100
AcDbText
 10
227.378432
 20
99.881113
 30
0.0
 40
1.28
  1
32
 41
0.882523
  7
M_STANDARD
 72
     1
 11
228.292893
 21
100.521113
 31
0.0
100
AcDbText
 73
     2
  0
TEXT
  5
469
100
AcDbEntity
  8
TEXT1
100
AcDbText
 10
248.325864
 20
103.081113
 30
0.0
 40
1.28
  1
35
 41
0.882523
  7
M_STANDARD
 72
     1
 11
249.240325
 21
103.721113
 31
0.0
100
AcDbText
 73
     2
  0
TEXT
  5
46A
100
AcDbEntity
  8
TEXT1
100
AcDbText
 10
237.126697
 20
103.081113
 30
0.0
 40
1.28
  1
1.38
 41
0.896304
  7
M_STANDARD
 72
     1
 11
238.765653
 21
103.721113
 31
0.0
100
AcDbText
 73
     2
  0
TEXT
  5
46B
100
AcDbEntity
  8
TEXT1
100
AcDbText
 10
227.378432
 20
103.081113
 30
0.0
 40
1.28
  1
25
 41
0.882523
  7
M_STANDARD
 72
     1
 11
228.292893
 21
103.721113
 31
0.0
100
AcDbText
 73
     2
  0
TEXT
  5
46C
100
AcDbEntity
  8
TEXT1
100
AcDbText
 10
248.408774
 20
96.681113
 30
0.0
 40
1.28
  1
51
 41
1.09141
  7
M_STANDARD
 72
     1
 11
249.240325
 21
97.321113
 31
0.0
100
AcDbText
 73
     2
  0
TEXT
  5
46D
100
AcDbEntity
  8
TEXT1
100
AcDbText
 10
248.325864
 20
87.081113
 30
0.0
 40
1.28
  1
92
 41
0.882523
  7
M_STANDARD
 72
     1
 11
249.240325
 21
87.721113
 31
0.0
100
AcDbText
 73
     2
  0
TEXT
  5
46E
100
AcDbEntity
  8
TEXT1
100
AcDbText
 10
236.934917
 20
96.681113
 30
0.0
 40
1.28
  1
2.00
 41
0.93861
  7
M_STANDARD
 72
     1
 11
238.765653
 21
97.321113
 31
0.0
100
AcDbText
 73
     2
  0
TEXT
  5
46F
100
AcDbEntity
  8
TEXT1
100
AcDbText
 10
237.017434
 20
87.081113
 30
0.0
 40
1.28
  1
3.63
 41
0.896304
  7
M_STANDARD
 72
     1
 11
238.765653
 21
87.721113
 31
0.0
100
AcDbText
 73
     2
  0
TEXT
  5
470
100
AcDbEntity
  8
TEXT1
100
AcDbText
 10
227.378432
 20
96.681113
 30
0.0
 40
1.28
  1
38
 41
0.882523
  7
M_STANDARD
 72
     1
 11
228.292893
 21
97.321113
 31
0.0
100
AcDbText
 73
     2
  0
TEXT
  5
471
100
AcDbEntity
  8
TEXT1
100
AcDbText
 10
227.405328
 20
87.081113
 30
0.0
 40
1.28
  1
76
 41
0.882523
  7
M_STANDARD
 72
     1
 11
228.292893
 21
87.721113
 31
0.0
100
AcDbText
 73
     2
  0
TEXT
  5
472
100
AcDbEntity
  8
TEXT1
100
AcDbText
 10
248.298968
 20
93.481113
 30
0.0
 40
1.28
  1
64
 41
0.882523
  7
M_STANDARD
 72
     1
 11
249.240325
 21
94.121113
 31
0.0
100
AcDbText
 73
     2
  0
TEXT
  5
473
100
AcDbEntity
  8
TEXT1
100
AcDbText
 10
247.879487
 20
83.881113
 30
0.0
 40
1.28
  1
105
 41
0.89305
  7
M_STANDARD
 72
     1
 11
249.240325
 21
84.521113
 31
0.0
100
AcDbText
 73
     2
  0
TEXT
  5
474
100
AcDbEntity
  8
TEXT1
100
AcDbText
 10
236.934917
 20
93.481113
 30
0.0
 40
1.28
  1
2.50
 41
0.93861
  7
M_STANDARD
 72
     1
 11
238.765653
 21
94.121113
 31
0.0
100
AcDbText
 73
     2
  0
TEXT
  5
475
100
AcDbEntity
  8
TEXT1
100
AcDbText
 10
237.126697
 20
83.881113
 30
0.0
 40
1.28
  1
4.13
 41
0.896304
  7
M_STANDARD
 72
     1
 11
238.765653
 21
84.521113
 31
0.0
100
AcDbText
 73
     2
  0
TEXT
  5
476
100
AcDbEntity
  8
TEXT1
100
AcDbText
 10
227.461343
 20
93.481113
 30
0.0
 40
1.28
  1
51
 41
1.09141
  7
M_STANDARD
 72
     1
 11
228.292893
 21
94.121113
 31
0.0
100
AcDbText
 73
     2
  0
TEXT
  5
477
100
AcDbEntity
  8
TEXT1
100
AcDbText
 10
227.405328
 20
83.881113
 30
0.0
 40
1.28
  1
89
 41
0.882523
  7
M_STANDARD
 72
     1
 11
228.292893
 21
84.521113
 31
0.0
100
AcDbText
 73
     2
  0
TEXT
  5
478
100
AcDbEntity
  8
TEXT1
100
AcDbText
 10
248.35276
 20
90.281113
 30
0.0
 40
1.28
  1
76
 41
0.882523
  7
M_STANDARD
 72
     1
 11
249.240325
 21
90.921113
 31
0.0
100
AcDbText
 73
     2
  0
TEXT
  5
479
100
AcDbEntity
  8
TEXT1
100
AcDbText
 10
247.988354
 20
80.681113
 30
0.0
 40
1.28
  1
118
 41
0.89305
  7
M_STANDARD
 72
     1
 11
249.240325
 21
81.321113
 31
0.0
100
AcDbText
 73
     2
  0
TEXT
  5
47A
100
AcDbEntity
  8
TEXT1
100
AcDbText
 10
236.934917
 20
90.281113
 30
0.0
 40
1.28
  1
3.00
 41
0.93861
  7
M_STANDARD
 72
     1
 11
238.765653
 21
90.921113
 31
0.0
100
AcDbText
 73
     2
  0
TEXT
  5
47B
100
AcDbEntity
  8
TEXT1
100
AcDbText
 10
237.017434
 20
80.681113
 30
0.0
 40
1.28
  1
4.63
 41
0.896304
  7
M_STANDARD
 72
     1
 11
238.765653
 21
81.321113
 31
0.0
100
AcDbText
 73
     2
  0
TEXT
  5
47C
100
AcDbEntity
  8
TEXT1
100
AcDbText
 10
227.351536
 20
90.281113
 30
0.0
 40
1.28
  1
64
 41
0.882523
  7
M_STANDARD
 72
     1
 11
228.292893
 21
90.921113
 31
0.0
100
AcDbText
 73
     2
  0
TEXT
  5
47D
100
AcDbEntity
  8
TEXT1
100
AcDbText
 10
226.932055
 20
80.681113
 30
0.0
 40
1.28
  1
102
 41
0.89305
  7
M_STANDARD
 72
     1
 11
228.292893
 21
81.321113
 31
0.0
100
AcDbText
 73
     2
  0
TEXT
  5
47E
100
AcDbEntity
  8
TEXT1
100
AcDbText
 10
248.325864
 20
106.281113
 30
0.0
 40
1.28
  1
32
 41
0.882523
  7
M_STANDARD
 72
     1
 11
249.240325
 21
106.921113
 31
0.0
100
AcDbText
 73
     2
  0
TEXT
  5
47F
100
AcDbEntity
  8
TEXT1
100
AcDbText
 10
237.126697
 20
106.281113
 30
0.0
 40
1.28
  1
1.25
 41
0.896304
  7
M_STANDARD
 72
     1
 11
238.765653
 21
106.921113
 31
0.0
100
AcDbText
 73
     2
  0
TEXT
  5
480
100
AcDbEntity
  8
TEXT1
100
AcDbText
 10
227.512911
 20
106.281113
 30
0.0
 40
1.28
  1
19
 41
0.882523
  7
M_STANDARD
 72
     1
 11
228.292893
 21
106.921113
 31
0.0
100
AcDbText
 73
     2
  0
TEXT
  5
481
100
AcDbEntity
  8
TEXT1
100
AcDbText
 10
216.542199
 20
109.481113
 30
0.0
 40
1.28
  1
.50
 41
0.951579
  7
M_STANDARD
 72
     1
 11
217.818221
 21
110.121113
 31
0.0
100
AcDbText
 73
     2
  0
TEXT
  5
482
100
AcDbEntity
  8
TEXT1
100
AcDbText
 10
216.179266
 20
99.881113
 30
0.0
 40
1.28
  1
1.25
 41
0.896304
  7
M_STANDARD
 72
     1
 11
217.818221
 21
100.521113
 31
0.0
100
AcDbText
 73
     2
  0
TEXT
  5
483
100
AcDbEntity
  8
TEXT1
100
AcDbText
 10
216.101906
 20
103.081113
 30
0.0
 40
1.28
  1
1.00
 41
0.93861
  7
M_STANDARD
 72
     1
 11
217.818221
 21
103.721113
 31
0.0
100
AcDbText
 73
     2
  0
TEXT
  5
484
100
AcDbEntity
  8
TEXT1
100
AcDbText
 10
216.101906
 20
96.681113
 30
0.0
 40
1.28
  1
1.50
 41
0.93861
  7
M_STANDARD
 72
     1
 11
217.818221
 21
97.321113
 31
0.0
100
AcDbText
 73
     2
  0
TEXT
  5
485
100
AcDbEntity
  8
TEXT1
100
AcDbText
 10
215.987485
 20
87.081113
 30
0.0
 40
1.28
  1
3.00
 41
0.93861
  7
M_STANDARD
 72
     1
 11
217.818221
 21
87.721113
 31
0.0
100
AcDbText
 73
     2
  0
TEXT
  5
486
100
AcDbEntity
  8
TEXT1
100
AcDbText
 10
215.987485
 20
93.481113
 30
0.0
 40
1.28
  1
2.00
 41
0.93861
  7
M_STANDARD
 72
     1
 11
217.818221
 21
94.121113
 31
0.0
100
AcDbText
 73
     2
  0
TEXT
  5
487
100
AcDbEntity
  8
TEXT1
100
AcDbText
 10
215.987485
 20
83.881113
 30
0.0
 40
1.28
  1
3.50
 41
0.93861
  7
M_STANDARD
 72
     1
 11
217.818221
 21
84.521113
 31
0.0
100
AcDbText
 73
     2
  0
TEXT
  5
488
100
AcDbEntity
  8
TEXT1
100
AcDbText
 10
215.987485
 20
90.281113
 30
0.0
 40
1.28
  1
2.50
 41
0.93861
  7
M_STANDARD
 72
     1
 11
217.818221
 21
90.921113
 31
0.0
100
AcDbText
 73
     2
  0
TEXT
  5
489
100
AcDbEntity
  8
TEXT1
100
AcDbText
 10
215.987485
 20
80.681113
 30
0.0
 40
1.28
  1
4.00
 41
0.93861
  7
M_STANDARD
 72
     1
 11
217.818221
 21
81.321113
 31
0.0
100
AcDbText
 73
     2
  0
TEXT
  5
48A
100
AcDbEntity
  8
TEXT1
100
AcDbText
 10
216.620684
 20
106.281113
 30
0.0
 40
1.28
  1
.75
 41
0.89305
  7
M_STANDARD
 72
     1
 11
217.818221
 21
106.921113
 31
0.0
100
AcDbText
 73
     2
  0
TEXT
  5
48B
100
AcDbEntity
  8
TEXT1
100
AcDbText
 10
206.953454
 20
109.481113
 30
0.0
 40
1.28
  1
A
 41
0.8
  7
M_STANDARD
 72
     1
 11
207.343549
 21
110.121113
 31
0.0
100
AcDbText
 73
     2
  0
TEXT
  5
48C
100
AcDbEntity
  8
TEXT1
100
AcDbText
 10
207.002216
 20
99.881113
 30
0.0
 40
1.28
  1
D
 41
0.8
  7
M_STANDARD
 72
     1
 11
207.343549
 21
100.521113
 31
0.0
100
AcDbText
 73
     2
  0
TEXT
  5
48D
100
AcDbEntity
  8
TEXT1
100
AcDbText
 10
206.977835
 20
103.081113
 30
0.0
 40
1.28
  1
C
 41
0.8
  7
M_STANDARD
 72
     1
 11
207.343549
 21
103.721113
 31
0.0
100
AcDbText
 73
     2
  0
TEXT
  5
48E
100
AcDbEntity
  8
TEXT1
100
AcDbText
 10
207.026597
 20
96.681113
 30
0.0
 40
1.28
  1
E
 41
0.8
  7
M_STANDARD
 72
     1
 11
207.343549
 21
97.321113
 31
0.0
100
AcDbText
 73
     2
  0
TEXT
  5
48F
100
AcDbEntity
  8
TEXT1
100
AcDbText
 10
207.002216
 20
87.081113
 30
0.0
 40
1.28
  1
H
 41
0.8
  7
M_STANDARD
 72
     1
 11
207.343549
 21
87.721113
 31
0.0
100
AcDbText
 73
     2
  0
TEXT
  5
490
100
AcDbEntity
  8
TEXT1
100
AcDbText
 10
207.026597
 20
93.481113
 30
0.0
 40
1.28
  1
F
 41
0.8
  7
M_STANDARD
 72
     1
 11
207.343549
 21
94.121113
 31
0.0
100
AcDbText
 73
     2
  0
TEXT
  5
491
100
AcDbEntity
  8
TEXT1
100
AcDbText
 10
207.343549
 20
83.881113
 30
0.0
 40
1.28
  1
I
 41
0.8
  7
M_STANDARD
 72
     1
 11
207.343549
 21
84.521113
 31
0.0
100
AcDbText
 73
     2
  0
TEXT
  5
492
100
AcDbEntity
  8
TEXT1
100
AcDbText
 10
206.977835
 20
90.281113
 30
0.0
 40
1.28
  1
G
 41
0.8
  7
M_STANDARD
 72
     1
 11
207.343549
 21
90.921113
 31
0.0
100
AcDbText
 73
     2
  0
TEXT
  5
493
100
AcDbEntity
  8
TEXT1
100
AcDbText
 10
207.09974
 20
80.681113
 30
0.0
 40
1.28
  1
J
 41
0.8
  7
M_STANDARD
 72
     1
 11
207.343549
 21
81.321113
 31
0.0
100
AcDbText
 73
     2
  0
TEXT
  5
494
100
AcDbEntity
  8
TEXT1
100
AcDbText
 10
207.002216
 20
106.281113
 30
0.0
 40
1.28
  1
B
 41
0.8
  7
M_STANDARD
 72
     1
 11
207.343549
 21
106.921113
 31
0.0
100
AcDbText
 73
     2
  0
TEXT
  5
495
100
AcDbEntity
  8
TEXT1
100
AcDbText
 10
204.085182
 20
113.548657
 30
0.0
 40
1.28
  1
SYMBOL
 41
0.898447
  7
M_STANDARD
 72
     1
 11
207.343549
 21
114.188657
 31
0.0
100
AcDbText
 73
     2
  0
LINE
  5
496
100
AcDbEntity
  8
0
100
AcDbLine
 10
233.528317
 20
117.279554
 30
0.0
 11
233.528317
 21
79.721113
 31
0.0
  0
LINE
  5
497
100
AcDbEntity
  8
0
100
AcDbLine
 10
223.053645
 20
114.403826
 30
0.0
 11
223.053645
 21
79.721113
 31
0.0
  0
LINE
  5
498
100
AcDbEntity
  8
0
100
AcDbLine
 10
244.002989
 20
114.403826
 30
0.0
 11
244.002989
 21
79.721113
 31
0.0
  0
LINE
  5
499
100
AcDbEntity
  8
0
100
AcDbLine
 10
212.580885
 20
117.279554
 30
0.0
 11
212.580885
 21
79.721113
 31
0.0
  0
LWPOLYLINE
  5
49A
100
AcDbEntity
  8
0
100
AcDbPolyline
 90
        4
 70
   129
 43
0.0
 10
202.106213
 20
120.402496
 10
254.475749
 20
120.402496
 10
254.475749
 20
79.721113
 10
202.106213
 20
79.721113
  0
LINE
  5
49B
100
AcDbEntity
  8
0
100
AcDbLine
 10
212.580885
 20
114.403826
 30
0.0
 11
254.475749
 21
114.403826
 31
0.0
  0
TEXT
  5
49C
100
AcDbEntity
  8
DIM
100
AcDbText
 10
243.091161
 20
28.897526
 30
0.0
 40
1.6
  1
.10 X .40 SLOT
 41
0.899732
  7
M_STANDARD
 11
243.091161
 21
29.697526
 31
0.0
100
AcDbText
 73
     2
  0
TEXT
  5
49D
100
AcDbEntity
  8
DIM
100
AcDbText
 10
231.959551
 20
56.662543
 30
0.0
 40
1.6
  1
.09 X .33 SLOT
 41
0.899732
  7
M_STANDARD
 11
231.959551
 21
57.462543
 31
0.0
100
AcDbText
 73
     2
  0
TEXT
  5
49E
100
AcDbEntity
  8
DIM
100
AcDbText
 10
220.196656
 20
24.502429
 30
0.0
 40
1.28
  1
11
 41
1.09141
  7
M_STANDARD
 11
220.196656
 21
25.142429
 31
0.0
100
AcDbText
 73
     2
  0
TEXT
  5
49F
100
AcDbEntity
  8
DIM
100
AcDbText
 10
212.050815
 20
62.988588
 30
0.0
 40
1.28
  1
2
 41
0.8
  7
M_STANDARD
 11
212.050815
 21
63.628588
 31
0.0
100
AcDbText
 73
     2
  0
TEXT
  5
4A0
100
AcDbEntity
  8
DIM
100
AcDbText
 10
218.248581
 20
31.320692
 30
0.0
 40
1.28
  1
3
 41
0.8
  7
M_STANDARD
 11
218.248581
 21
31.960692
 31
0.0
100
AcDbText
 73
     2
  0
TEXT
  5
4A1
100
AcDbEntity
  8
DIM
100
AcDbText
 10
232.216092
 20
71.330503
 30
0.0
 40
1.28
  1
11
 41
1.09141
  7
M_STANDARD
 11
232.216092
 21
71.970503
 31
0.0
100
AcDbText
 73
     2
  0
TEXT
  5
4A2
100
AcDbEntity
  8
DIM
100
AcDbText
 10
245.384378
 20
26.842453
 30
0.0
 40
1.28
  1
3
 41
0.8
  7
M_STANDARD
 11
245.384378
 21
27.482453
 31
0.0
100
AcDbText
 73
     2
  0
TEXT
  5
4A3
100
AcDbEntity
  8
DIM
100
AcDbText
 10
234.252769
 20
54.607471
 30
0.0
 40
1.28
  1
3
 41
0.8
  7
M_STANDARD
 11
234.252769
 21
55.247471
 31
0.0
100
AcDbText
 73
     2
  0
TEXT
  5
4A4
100
AcDbEntity
  8
DIM
100
AcDbText
 10
253.706113
 20
26.8142
 30
0.0
 40
1.28
  1
10
 41
0.976187
  7
M_STANDARD
 11
253.706113
 21
27.4542
 31
0.0
100
AcDbText
 73
     2
  0
TEXT
  5
4A5
100
AcDbEntity
  8
DIM
100
AcDbText
 10
242.574504
 20
54.579217
 30
0.0
 40
1.28
  1
8
 41
0.8
  7
M_STANDARD
 11
242.574504
 21
55.219217
 31
0.0
100
AcDbText
 73
     2
  0
TEXT
  5
4A6
100
AcDbEntity
  8
TEXT1
100
AcDbText
 10
220.190671
 20
51.02994
 30
0.0
 40
1.6
  1
RINGLESS COVER LATCH
 41
0.954988
  7
M_STANDARD
 72
     1
 11
234.051637
 21
51.82994
 31
0.0
100
AcDbText
 73
     2
  0
TEXT
  5
4A7
100
AcDbEntity
  8
TEXT1
100
AcDbText
 10
282.680793
 20
20.124832
 30
0.0
 40
1.6
  1
MOUNTING FOOT
 41
0.954794
  7
M_STANDARD
 72
     1
 11
291.919566
 21
20.924832
 31
0.0
100
AcDbText
 73
     2
  0
TEXT
  5
4A8
100
AcDbEntity
  8
TEXT1
100
AcDbText
 10
226.764085
 20
22.145259
 30
0.0
 40
1.6
  1
SEAL BRACKET
 41
0.954735
  7
M_STANDARD
 72
     1
 11
235.347611
 21
22.945259
 31
0.0
100
AcDbText
 73
     2
  0
LWPOLYLINE
  5
4A9
100
AcDbEntity
  8
DIM
100
AcDbPolyline
 90
        3
 70
   128
 43
0.0
 10
229.438569
 20
27.211754
 10
230.974569
 20
27.211754
 10
233.170359
 20
30.721479
  0
INSERT
  5
4AB
100
AcDbEntity
  8
DIM
100
AcDbBlockReference
  2
M_PFN_100
 10
233.170359
 20
30.721479
 30
0.0
 41
16.0
 42
16.0
 43
16.0
 50
57.96865
  0
LWPOLYLINE
  5
4AC
100
AcDbEntity
  8
DIM
100
AcDbPolyline
 90
        3
 70
   128
 43
0.0
 10
221.292728
 20
65.697913
 10
222.828728
 20
65.697913
 10
226.172065
 20
64.615851
  0
INSERT
  5
4AE
100
AcDbEntity
  8
DIM
100
AcDbBlockReference
  2
M_PFN_100
 10
226.172065
 20
64.615851
 30
0.0
 41
16.0
 42
16.0
 43
16.0
 50
342.06597
  0
LWPOLYLINE
  5
4AF
100
AcDbEntity
  8
DIM
100
AcDbPolyline
 90
        3
 70
   128
 43
0.0
 10
227.490494
 20
34.030016
 10
229.026494
 20
34.030016
 10
231.533047
 20
37.406045
  0
INSERT
  5
4B1
100
AcDbEntity
  8
DIM
100
AcDbBlockReference
  2
M_PFN_100
 10
231.533047
 20
37.406045
 30
0.0
 41
16.0
 42
16.0
 43
16.0
 50
53.407733
  0
LWPOLYLINE
  5
4B2
100
AcDbEntity
  8
DIM
100
AcDbPolyline
 90
        3
 70
   128
 43
0.0
 10
229.247578
 20
74.039828
 10
227.711578
 20
74.039828
 10
227.366771
 20
68.831606
  0
INSERT
  5
4B4
100
AcDbEntity
  8
DIM
100
AcDbBlockReference
  2
M_PFN_100
 10
227.366771
 20
68.831606
 30
0.0
 41
16.0
 42
16.0
 43
16.0
 50
266.212296
  0
LWPOLYLINE
  5
4B5
100
AcDbEntity
  8
DIM
100
AcDbPolyline
 90
        3
 70
   128
 43
0.0
 10
242.008409
 20
29.682819
 10
240.472409
 20
29.682819
 10
238.513804
 20
32.431731
  0
INSERT
  5
4B7
100
AcDbEntity
  8
DIM
100
AcDbBlockReference
  2
M_PFN_100
 10
238.513804
 20
32.431731
 30
0.0
 41
16.0
 42
16.0
 43
16.0
 50
125.469943
  0
LWPOLYLINE
  5
4B8
100
AcDbEntity
  8
DIM
100
AcDbPolyline
 90
        3
 70
   128
 43
0.0
 10
230.8768
 20
57.447837
 10
229.3408
 20
57.447837
 10
227.47777
 20
62.387836
  0
INSERT
  5
4BA
100
AcDbEntity
  8
DIM
100
AcDbBlockReference
  2
M_PFN_100
 10
227.47777
 20
62.387836
 30
0.0
 41
16.0
 42
16.0
 43
16.0
 50
110.663047
  0
LWPOLYLINE
  5
4BB
100
AcDbEntity
  8
OBJECT1
100
AcDbPolyline
 90
        6
 70
   129
 43
0.0
 10
230.544846
 20
31.296295
 42
0.414214
 10
232.211512
 20
29.629629
 10
238.374071
 20
29.629629
 42
0.414214
 10
240.040738
 20
31.296295
 10
240.040738
 20
39.629629
 10
230.544846
 20
39.629629
  0
CIRCLE
  5
4BC
100
AcDbEntity
  8
OBJECT1
100
AcDbCircle
 10
233.912896
 20
31.90834
 30
0.0
 40
1.4
  0
TEXT
  5
4BD
100
AcDbEntity
  8
DIM
100
AcDbText
 10
217.903439
 20
26.426461
 30
0.0
 40
1.6
  1
.42 DIA.
 41
0.984599
  7
M_STANDARD
 11
217.903439
 21
27.226461
 31
0.0
100
AcDbText
 73
     2
  0
TEXT
  5
4BE
100
AcDbEntity
  8
DIM
100
AcDbText
 10
209.757598
 20
64.912619
 30
0.0
 40
1.6
  1
.09 DIA.
 41
0.984599
  7
M_STANDARD
 11
209.757598
 21
65.712619
 31
0.0
100
AcDbText
 73
     2
  0
TEXT
  5
4BF
100
AcDbEntity
  8
DIM
100
AcDbText
 10
215.955364
 20
33.244723
 30
0.0
 40
1.6
  1
.10 DIA.
 41
0.984599
  7
M_STANDARD
 11
215.955364
 21
34.044723
 31
0.0
100
AcDbText
 73
     2
  0
TEXT
  5
4C0
100
AcDbEntity
  8
DIM
100
AcDbText
 10
230.296096
 20
73.254535
 30
0.0
 40
1.6
  1
.42 DIA
 41
0.898877
  7
M_STANDARD
 11
230.296096
 21
74.054535
 31
0.0
100
AcDbText
 73
     2
  0
LWPOLYLINE
  5
4C1
100
AcDbEntity
  8
OBJECT1
100
AcDbPolyline
 90
        4
 70
   129
 43
0.0
 10
237.380228
 20
32.431731
 10
238.980228
 20
32.431731
 10
238.980228
 20
38.831731
 10
237.380228
 20
38.831731
  0
CIRCLE
  5
4C2
100
AcDbEntity
  8
OBJECT1
100
AcDbCircle
 10
232.00994
 20
38.048363
 30
0.0
 40
0.8
  0
LWPOLYLINE
  5
4C3
100
AcDbEntity
  8
OBJECT1
100
AcDbPolyline
 90
        4
 70
   129
 43
0.0
 10
228.86971
 20
40.363992
 10
241.715874
 20
40.363992
 10
241.715874
 20
39.629629
 10
228.86971
 20
39.629629
  0
LWPOLYLINE
  5
4C4
100
AcDbEntity
  8
OBJECT1
100
AcDbPolyline
 90
        9
 70
   128
 43
0.0
 10
234.078136
 20
62.623193
 10
237.078136
 20
62.623193
 10
237.078136
 20
66.623193
 10
237.744802
 20
67.289859
 10
242.744802
 20
67.289859
 10
243.411469
 20
66.623193
 10
243.411469
 20
61.623193
 10
242.744802
 20
60.956526
 10
234.078136
 20
60.956526
  0
LWPOLYLINE
  5
4C5
100
AcDbEntity
  8
OBJECT1
100
AcDbPolyline
 90
        4
 70
   129
 43
0.0
 10
233.078136
 20
69.623193
 10
234.078136
 20
69.623193
 10
234.078136
 20
60.956526
 10
233.078136
 20
60.956526
  0
CIRCLE
  5
4C6
100
AcDbEntity
  8
OBJECT1
100
AcDbCircle
 10
240.244802
 20
64.123193
 30
0.0
 40
1.5
  0
LWPOLYLINE
  5
4C7
100
AcDbEntity
  8
OBJECT1
100
AcDbPolyline
 90
        6
 70
   128
 43
0.0
 10
225.652073
 20
61.789859
 10
224.81874
 20
61.789859
 10
224.81874
 20
67.289859
 10
223.985406
 20
67.289859
 10
223.985406
 20
60.956526
 10
225.652073
 20
60.956526
  0
LWPOLYLINE
  5
4C8
100
AcDbEntity
  8
OBJECT1
100
AcDbPolyline
 90
        6
 70
   129
 43
0.0
 10
225.652073
 20
60.956526
 10
229.652073
 20
60.956526
 10
229.652073
 20
68.956526
 10
228.985406
 20
69.623193
 10
226.31874
 20
69.623193
 10
225.652073
 20
68.956526
  0
CIRCLE
  5
4C9
100
AcDbEntity
  8
OBJECT1
100
AcDbCircle
 10
227.652073
 20
67.529154
 30
0.0
 40
1.333333
  0
CIRCLE
  5
4CA
100
AcDbEntity
  8
OBJECT1
100
AcDbCircle
 10
226.645512
 20
64.776622
 30
0.0
 40
0.5
  0
LWPOLYLINE
  5
4CB
100
AcDbEntity
  8
OBJECT1
100
AcDbPolyline
 90
        4
 70
   129
 43
0.0
 10
226.485406
 20
62.641262
 10
228.81874
 20
62.641262
 10
228.81874
 20
63.641262
 10
226.485406
 20
63.641262
  0
LWPOLYLINE
  5
4CC
100
AcDbEntity
  8
OBJECT1
100
AcDbPolyline
 90
        3
 70
   128
 43
0.0
 10
289.632744
 20
31.47906
 42
-0.414214
 10
290.832744
 20
32.67906
 42
-0.414214
 10
292.032744
 20
31.47906
  0
LINE
  5
4CD
100
AcDbEntity
  8
CENTER1
100
AcDbLine
 10
290.16608
 20
31.47906
 30
0.0
 11
291.499408
 21
31.47906
 31
0.0
  0
LINE
  5
4CE
100
AcDbEntity
  8
CENTER1
100
AcDbLine
 10
290.832744
 20
30.812396
 30
0.0
 11
290.832744
 21
32.145724
 31
0.0
  0
LWPOLYLINE
  5
4CF
100
AcDbEntity
  8
OBJECT1
100
AcDbPolyline
 90
       10
 70
   128
 43
0.0
 10
292.032744
 20
31.47906
 10
292.032744
 20
28.144879
 10
293.232744
 20
26.48706
 10
295.632744
 20
26.48706
 10
295.632744
 20
37.55906
 10
286.032744
 20
37.55906
 10
286.032744
 20
26.48706
 10
288.432744
 20
26.48706
 10
289.632744
 20
28.144879
 10
289.632744
 20
31.47906
  0
TEXT
  5
4D0
100
AcDbEntity
  8
DIM
100
AcDbText
 10
299.414788
 20
34.704844
 30
0.0
 40
1.6
  1
.38 DIA
 41
0.898877
  7
M_STANDARD
 11
299.414788
 21
35.504844
 31
0.0
100
AcDbText
 73
     2
  0
LWPOLYLINE
  5
4D1
100
AcDbEntity
  8
DIM
100
AcDbPolyline
 90
        3
 70
   128
 43
0.0
 10
298.939854
 20
35.490138
 10
297.403854
 20
35.490138
 10
291.857001
 20
32.104278
  0
INSERT
  5
4D3
100
AcDbEntity
  8
DIM
100
AcDbBlockReference
  2
M_PFN_100
 10
291.857001
 20
32.104278
 30
0.0
 41
16.0
 42
16.0
 43
16.0
 50
211.40035
  0
HATCH
  5
506
100
AcDbEntity
  8
TEXT1
100
AcDbHatch
 10
0.0
 20
0.0
 30
0.0
210
0.0
220
0.0
230
1.0
  2
_U
 70
     0
 71
     0
 91
        1
 92
        0
 93
        1
 72
     2
 10
59.919856
 20
-37.134091
 40
0.8
 50
0.0
 51
359.999994
 73
     1
 97
        0
 75
     0
 76
     0
 52
45.0
 41
0.0032
 77
     0
 78
     1
 53
45.0
 43
48.917511
 44
-45.987537
 45
-0.0022627416997971
 46
0.0022627416997968
 79
     0
 98
        1
 10
48.917511
 20
-45.987537
  0
HATCH
  5
507
100
AcDbEntity
  8
TEXT1
100
AcDbHatch
 10
0.0
 20
0.0
 30
0.0
210
0.0
220
0.0
230
1.0
  2
_U
 70
     0
 71
     0
 91
        1
 92
        0
 93
        1
 72
     2
 10
310.243655
 20
108.550114
 40
0.8
 50
0.0
 51
359.999994
 73
     1
 97
        0
 75
     0
 76
     0
 52
45.0
 41
0.0032
 77
     0
 78
     1
 53
45.0
 43
48.917511
 44
-45.987537
 45
-0.0022627416997971
 46
0.0022627416997968
 79
     0
 98
        1
 10
48.917511
 20
-45.987537
  0
CIRCLE
  5
508
100
AcDbEntity
  8
TEXT1
100
AcDbCircle
 10
59.919856
 20
-37.134091
 30
0.0
 40
0.8
  0
CIRCLE
  5
509
100
AcDbEntity
  8
TEXT1
100
AcDbCircle
 10
310.243655
 20
108.550114
 30
0.0
 40
0.8
  0
LWPOLYLINE
  5
50A
100
AcDbEntity
  8
OBJECT1
100
AcDbPolyline
 90
        4
 70
   129
 43
0.0
 10
161.78306
 20
106.729739
 10
176.823198
 20
106.729739
 10
176.823198
 20
104.479739
 10
161.78306
 20
104.479739
  0
LWPOLYLINE
  5
50B
100
AcDbEntity
  8
OBJECT1
100
AcDbPolyline
 90
        4
 70
   128
 43
0.0
 10
176.823198
 20
85.87152
 10
176.823198
 20
104.479739
 10
163.606986
 20
104.479739
 10
163.606986
 20
85.87152
  0
TEXT
  5
50C
100
AcDbEntity
  8
TEXT1
100
AcDbText
 10
182.18818
 20
87.878628
 30
0.0
 40
1.6
  1
MOUNTING
 41
0.899151
  7
M_STANDARD
 11
182.18818
 21
88.678628
 31
0.0
100
AcDbText
 73
     2
  0
TEXT
  5
50D
100
AcDbEntity
  8
TEXT1
100
AcDbText
 10
182.18818
 20
85.241703
 30
0.0
 40
1.6
  1
CHANNEL
 41
0.898877
  7
M_STANDARD
 11
182.18818
 21
86.041703
 31
0.0
100
AcDbText
 73
     2
  0
TEXT
  5
50E
100
AcDbEntity
  8
TEXT1
100
AcDbText
 10
166.433315
 20
109.101039
 30
0.0
 40
1.6
  1
(NTS)
 41
0.966376
  7
M_STANDARD
 72
     1
 11
169.415275
 21
109.901039
 31
0.0
100
AcDbText
 73
     2
  0
TEXT
  5
50F
100
AcDbEntity
  8
TEXT1
100
AcDbText
 10
182.18818
 20
90.515552
 30
0.0
 40
1.6
  1
TO TOP OF
 41
0.899335
  7
M_STANDARD
 11
182.18818
 21
91.315552
 31
0.0
100
AcDbText
 73
     2
  0
LWPOLYLINE
  5
510
100
AcDbEntity
  8
OBJECT1
100
AcDbPolyline
 90
        8
 70
   128
 43
0.0
 10
175.090453
 20
85.87152
 10
180.011203
 20
85.87152
 10
172.682338
 20
85.87152
 10
171.478394
 20
83.756963
 10
169.070279
 20
87.986078
 10
167.866335
 20
85.87152
 10
167.179244
 20
85.87152
 10
160.537698
 20
85.87152
  0
LWPOLYLINE
  5
511
100
AcDbEntity
  8
OBJECT1
100
AcDbPolyline
 90
        6
 70
   129
 43
0.0
 10
177.794982
 20
98.479739
 10
177.794982
 20
102.796561
 10
176.823198
 20
104.479739
 10
176.823198
 20
103.783424
 10
177.382974
 20
102.813863
 10
177.382974
 20
98.479739
  0
TEXT
  5
512
100
AcDbEntity
  8
TEXT1
100
AcDbText
 10
158.583266
 20
79.41013
 30
0.0
 40
1.6
  1
MOUNTING CHANNEL
 41
0.954909
  7
M_STANDARD
 72
     1
 11
170.151304
 21
80.21013
 31
0.0
100
AcDbText
 73
     2
  0
TEXT
  5
513
100
AcDbEntity
  8
TEXT1
100
AcDbText
 10
166.519012
 20
76.773206
 30
0.0
 40
1.6
  1
DETAIL
 41
0.953477
  7
M_STANDARD
 72
     1
 11
170.151304
 21
77.573206
 31
0.0
100
AcDbText
 73
     2
  0
LINE
  5
53B
100
AcDbEntity
  8
OBJECT1
100
AcDbLine
 10
106.013839
 20
91.882146
 30
0.0
 11
106.013839
 21
40.686959
 31
0.0
  0
CIRCLE
  5
53C
100
AcDbEntity
  8
OBJECT1
100
AcDbCircle
 10
109.81932
 20
52.907391
 30
0.0
 40
2.500078
  0
CIRCLE
  5
53D
100
AcDbEntity
  8
OBJECT1
100
AcDbCircle
 10
109.81932
 20
70.908027
 30
0.0
 40
2.500078
  0
CIRCLE
  5
53E
100
AcDbEntity
  8
OBJECT1
100
AcDbCircle
 10
109.81932
 20
79.908344
 30
0.0
 40
2.500078
  0
CIRCLE
  5
53F
100
AcDbEntity
  8
OBJECT1
100
AcDbCircle
 10
109.81932
 20
61.907709
 30
0.0
 40
2.500078
  0
CIRCLE
  5
540
100
AcDbEntity
  8
OBJECT1
100
AcDbCircle
 10
109.81932
 20
52.907391
 30
0.0
 40
2.25007
  0
CIRCLE
  5
541
100
AcDbEntity
  8
OBJECT1
100
AcDbCircle
 10
109.81932
 20
70.908027
 30
0.0
 40
2.25007
  0
CIRCLE
  5
542
100
AcDbEntity
  8
OBJECT1
100
AcDbCircle
 10
109.81932
 20
79.908344
 30
0.0
 40
2.25007
  0
CIRCLE
  5
543
100
AcDbEntity
  8
OBJECT1
100
AcDbCircle
 10
109.81932
 20
61.907709
 30
0.0
 40
2.25007
  0
LINE
  5
544
100
AcDbEntity
  8
CENTER1
100
AcDbLine
 10
109.319304
 20
52.907391
 30
0.0
 11
110.319336
 21
52.907391
 31
0.0
  0
LINE
  5
545
100
AcDbEntity
  8
CENTER1
100
AcDbLine
 10
109.319304
 20
70.908027
 30
0.0
 11
110.319336
 21
70.908027
 31
0.0
  0
LINE
  5
546
100
AcDbEntity
  8
CENTER1
100
AcDbLine
 10
109.319304
 20
79.908344
 30
0.0
 11
110.319336
 21
79.908344
 31
0.0
  0
LINE
  5
547
100
AcDbEntity
  8
CENTER1
100
AcDbLine
 10
109.319304
 20
61.907709
 30
0.0
 11
110.319336
 21
61.907709
 31
0.0
  0
LINE
  5
548
100
AcDbEntity
  8
CENTER1
100
AcDbLine
 10
109.81932
 20
52.407375
 30
0.0
 11
109.81932
 21
53.407406
 31
0.0
  0
LINE
  5
549
100
AcDbEntity
  8
CENTER1
100
AcDbLine
 10
109.81932
 20
70.408011
 30
0.0
 11
109.81932
 21
71.408042
 31
0.0
  0
LINE
  5
54A
100
AcDbEntity
  8
CENTER1
100
AcDbLine
 10
109.81932
 20
79.408329
 30
0.0
 11
109.81932
 21
80.40836
 31
0.0
  0
LINE
  5
54B
100
AcDbEntity
  8
CENTER1
100
AcDbLine
 10
109.81932
 20
61.407693
 30
0.0
 11
109.81932
 21
62.407724
 31
0.0
  0
LWPOLYLINE
  5
54C
100
AcDbEntity
  8
OBJECT1
100
AcDbPolyline
 90
        4
 70
   129
 43
0.0
 10
107.594244
 20
41.233124
 10
109.094291
 20
41.233124
 10
109.094291
 20
41.483131
 10
107.594244
 20
41.483131
  0
LWPOLYLINE
  5
54D
100
AcDbEntity
  8
OBJECT1
100
AcDbPolyline
 90
        4
 70
   129
 43
0.0
 10
117.675986
 20
41.233124
 10
119.176033
 20
41.233124
 10
119.176033
 20
41.483131
 10
117.675986
 20
41.483131
  0
LWPOLYLINE
  5
54F
100
AcDbEntity
  8
HIDDEN1
100
AcDbPolyline
 90
        4
 70
   129
 43
0.0
 10
118.224622
 20
68.686959
 10
118.224622
 20
69.936998
 10
120.7247
 20
69.936998
 10
120.7247
 20
68.686959
  0
LWPOLYLINE
  5
550
100
AcDbEntity
  8
HIDDEN1
100
AcDbPolyline
 90
        4
 70
   129
 43
0.0
 10
120.7247
 20
65.306959
 10
120.7247
 20
66.556998
 10
123.224778
 20
66.556998
 10
123.224778
 20
65.306959
  0
LWPOLYLINE
  5
551
100
AcDbEntity
  8
HIDDEN1
100
AcDbPolyline
 90
        4
 70
   129
 43
0.0
 10
118.224622
 20
72.188072
 10
118.224622
 20
73.438111
 10
115.724543
 20
73.438111
 10
115.724543
 20
72.188072
  0
LWPOLYLINE
  5
552
100
AcDbEntity
  8
OBJECT1
100
AcDbPolyline
 90
        4
 70
   129
 43
0.0
 10
96.128836
 20
92.688796
 10
125.569876
 20
92.688796
 10
125.569876
 20
91.882146
 10
96.128836
 20
91.882146
  0
LWPOLYLINE
  5
553
100
AcDbEntity
  8
OBJECT1
100
AcDbPolyline
 90
        4
 70
   129
 43
0.0
 10
125.504874
 20
91.882146
 10
96.193839
 20
91.882146
 10
96.193839
 20
40.686959
 10
125.504874
 20
40.686959
  0
LINE
  5
554
100
AcDbEntity
  8
OBJECT1
100
AcDbLine
 10
113.373839
 20
91.882146
 30
0.0
 11
113.373839
 21
40.686959
 31
0.0
  0
CIRCLE
  5
555
100
AcDbEntity
  8
OBJECT1
100
AcDbCircle
 10
98.643925
 20
42.916959
 30
0.0
 40
1.000035
  0
CIRCLE
  5
556
100
AcDbEntity
  8
OBJECT1
100
AcDbCircle
 10
98.643925
 20
46.337159
 30
0.0
 40
1.000035
  0
CIRCLE
  5
557
100
AcDbEntity
  8
OBJECT1
100
AcDbCircle
 10
108.344268
 20
42.916959
 30
0.0
 40
1.000035
  0
CIRCLE
  5
558
100
AcDbEntity
  8
OBJECT1
100
AcDbCircle
 10
102.044045
 20
42.916959
 30
0.0
 40
1.000035
  0
CIRCLE
  5
559
100
AcDbEntity
  8
OBJECT1
100
AcDbCircle
 10
122.439766
 20
7.586889
 30
0.0
 40
2.000071
  0
CIRCLE
  5
55A
100
AcDbEntity
  8
OBJECT1
100
AcDbCircle
 10
121.804743
 20
108.374037
 30
0.0
 40
2.000071
  0
CIRCLE
  5
55B
100
AcDbEntity
  8
OBJECT1
100
AcDbCircle
 10
116.239547
 20
7.586889
 30
0.0
 40
2.000071
  0
CIRCLE
  5
55C
100
AcDbEntity
  8
OBJECT1
100
AcDbCircle
 10
115.804531
 20
108.374037
 30
0.0
 40
2.000071
  0
LWPOLYLINE
  5
55D
100
AcDbEntity
  8
OBJECT1
100
AcDbPolyline
 90
        4
 70
   129
 43
0.0
 10
96.128836
 20
4.546889
 10
125.439872
 20
4.546889
 10
125.439872
 20
12.07717
 10
96.128836
 20
12.07717
  0
CIRCLE
  5
55E
100
AcDbEntity
  8
OBJECT1
100
AcDbCircle
 10
111.608836
 20
6.486889
 30
0.0
 40
0.375013
  0
CIRCLE
  5
55F
100
AcDbEntity
  8
OBJECT1
100
AcDbCircle
 10
115.069872
 20
10.665084
 30
0.0
 40
0.375013
  0
CIRCLE
  5
560
100
AcDbEntity
  8
OBJECT1
100
AcDbCircle
 10
98.788836
 20
6.486889
 30
0.0
 40
1.000035
  0
CIRCLE
  5
561
100
AcDbEntity
  8
OBJECT1
100
AcDbCircle
 10
108.779189
 20
6.486889
 30
0.0
 40
1.000035
  0
CIRCLE
  5
562
100
AcDbEntity
  8
OBJECT1
100
AcDbCircle
 10
105.449072
 20
6.486889
 30
0.0
 40
1.000035
  0
CIRCLE
  5
563
100
AcDbEntity
  8
OBJECT1
100
AcDbCircle
 10
102.118954
 20
6.486889
 30
0.0
 40
1.000035
  0
CIRCLE
  5
564
100
AcDbEntity
  8
OBJECT1
100
AcDbCircle
 10
114.239476
 20
9.58696
 30
0.0
 40
0.250009
  0
CIRCLE
  5
565
100
AcDbEntity
  8
OBJECT1
100
AcDbCircle
 10
113.804461
 20
106.373966
 30
0.0
 40
0.250009
  0
CIRCLE
  5
566
100
AcDbEntity
  8
OBJECT1
100
AcDbCircle
 10
120.439695
 20
9.58696
 30
0.0
 40
0.250009
  0
CIRCLE
  5
567
100
AcDbEntity
  8
OBJECT1
100
AcDbCircle
 10
119.804673
 20
106.373966
 30
0.0
 40
0.250009
  0
CIRCLE
  5
568
100
AcDbEntity
  8
OBJECT1
100
AcDbCircle
 10
118.239617
 20
9.58696
 30
0.0
 40
0.250009
  0
CIRCLE
  5
569
100
AcDbEntity
  8
OBJECT1
100
AcDbCircle
 10
117.804602
 20
106.373966
 30
0.0
 40
0.250009
  0
CIRCLE
  5
56A
100
AcDbEntity
  8
OBJECT1
100
AcDbCircle
 10
124.439836
 20
9.58696
 30
0.0
 40
0.250009
  0
CIRCLE
  5
56B
100
AcDbEntity
  8
OBJECT1
100
AcDbCircle
 10
123.804814
 20
106.373966
 30
0.0
 40
0.250009
  0
CIRCLE
  5
56C
100
AcDbEntity
  8
OBJECT1
100
AcDbCircle
 10
118.239617
 20
5.586819
 30
0.0
 40
0.250009
  0
CIRCLE
  5
56D
100
AcDbEntity
  8
OBJECT1
100
AcDbCircle
 10
117.804602
 20
110.374107
 30
0.0
 40
0.250009
  0
CIRCLE
  5
56E
100
AcDbEntity
  8
OBJECT1
100
AcDbCircle
 10
124.439836
 20
5.586819
 30
0.0
 40
0.250009
  0
CIRCLE
  5
56F
100
AcDbEntity
  8
OBJECT1
100
AcDbCircle
 10
123.804814
 20
110.374107
 30
0.0
 40
0.250009
  0
CIRCLE
  5
570
100
AcDbEntity
  8
OBJECT1
100
AcDbCircle
 10
114.239476
 20
5.586819
 30
0.0
 40
0.250009
  0
CIRCLE
  5
571
100
AcDbEntity
  8
OBJECT1
100
AcDbCircle
 10
113.804461
 20
110.374107
 30
0.0
 40
0.250009
  0
CIRCLE
  5
572
100
AcDbEntity
  8
OBJECT1
100
AcDbCircle
 10
120.439695
 20
5.586819
 30
0.0
 40
0.250009
  0
CIRCLE
  5
573
100
AcDbEntity
  8
OBJECT1
100
AcDbCircle
 10
119.804673
 20
110.374107
 30
0.0
 40
0.250009
  0
LWPOLYLINE
  5
574
100
AcDbEntity
  8
OBJECT1
100
AcDbPolyline
 90
        4
 70
   129
 43
0.0
 10
107.254239
 20
13.077206
 10
112.254396
 20
13.077206
 10
112.254396
 20
13.577223
 10
107.254239
 20
13.577223
  0
LWPOLYLINE
  5
575
100
AcDbEntity
  8
OBJECT1
100
AcDbPolyline
 90
        4
 70
   129
 43
0.0
 10
107.254239
 20
101.863807
 10
112.254396
 20
101.863807
 10
112.254396
 20
101.363789
 10
107.254239
 20
101.363789
  0
LWPOLYLINE
  5
576
100
AcDbEntity
  8
OBJECT1
100
AcDbPolyline
 90
        4
 70
   129
 43
0.0
 10
96.063834
 20
110.954128
 10
125.504874
 20
110.954128
 10
125.504874
 20
102.863842
 10
96.063834
 20
102.863842
  0
LWPOLYLINE
  5
577
100
AcDbEntity
  8
OBJECT1
100
AcDbPolyline
 90
        9
 70
   129
 43
0.0
 10
110.048035
 20
66.490305
 10
110.610555
 20
66.490305
 10
110.610555
 20
67.240332
 10
110.73556
 20
67.365336
 10
111.673093
 20
67.365336
 10
111.798097
 20
67.240332
 10
111.798097
 20
66.302799
 10
111.673093
 20
66.177794
 10
110.048035
 20
66.177794
  0
LWPOLYLINE
  5
578
100
AcDbEntity
  8
OBJECT1
100
AcDbPolyline
 90
        9
 70
   129
 43
0.0
 10
110.048035
 20
75.490623
 10
110.610555
 20
75.490623
 10
110.610555
 20
76.24065
 10
110.73556
 20
76.365654
 10
111.673093
 20
76.365654
 10
111.798097
 20
76.24065
 10
111.798097
 20
75.303116
 10
111.673093
 20
75.178112
 10
110.048035
 20
75.178112
  0
LWPOLYLINE
  5
579
100
AcDbEntity
  8
OBJECT1
100
AcDbPolyline
 90
        9
 70
   129
 43
0.0
 10
110.048035
 20
48.489669
 10
110.610555
 20
48.489669
 10
110.610555
 20
49.239696
 10
110.73556
 20
49.3647
 10
111.673093
 20
49.3647
 10
111.798097
 20
49.239696
 10
111.798097
 20
48.302163
 10
111.673093
 20
48.177158
 10
110.048035
 20
48.177158
  0
LWPOLYLINE
  5
57A
100
AcDbEntity
  8
OBJECT1
100
AcDbPolyline
 90
        9
 70
   129
 43
0.0
 10
110.048035
 20
57.489987
 10
110.610555
 20
57.489987
 10
110.610555
 20
58.240014
 10
110.73556
 20
58.365018
 10
111.673093
 20
58.365018
 10
111.798097
 20
58.240014
 10
111.798097
 20
57.302481
 10
111.673093
 20
57.177476
 10
110.048035
 20
57.177476
  0
CIRCLE
  5
57B
100
AcDbEntity
  8
OBJECT1
100
AcDbCircle
 10
111.204326
 20
66.771565
 30
0.0
 40
0.28126
  0
CIRCLE
  5
57C
100
AcDbEntity
  8
OBJECT1
100
AcDbCircle
 10
111.204326
 20
75.771883
 30
0.0
 40
0.28126
  0
CIRCLE
  5
57D
100
AcDbEntity
  8
OBJECT1
100
AcDbCircle
 10
111.204326
 20
48.770929
 30
0.0
 40
0.28126
  0
CIRCLE
  5
57E
100
AcDbEntity
  8
OBJECT1
100
AcDbCircle
 10
111.204326
 20
57.771247
 30
0.0
 40
0.28126
  0
CIRCLE
  5
57F
100
AcDbEntity
  8
OBJECT1
100
AcDbCircle
 10
106.898532
 20
66.318324
 30
0.0
 40
0.28126
  0
CIRCLE
  5
580
100
AcDbEntity
  8
OBJECT1
100
AcDbCircle
 10
106.898532
 20
75.318641
 30
0.0
 40
0.28126
  0
CIRCLE
  5
581
100
AcDbEntity
  8
OBJECT1
100
AcDbCircle
 10
106.898532
 20
48.317688
 30
0.0
 40
0.28126
  0
CIRCLE
  5
582
100
AcDbEntity
  8
OBJECT1
100
AcDbCircle
 10
106.898532
 20
57.318006
 30
0.0
 40
0.28126
  0
LWPOLYLINE
  5
583
100
AcDbEntity
  8
OBJECT1
100
AcDbPolyline
 90
        3
 70
   128
 43
0.0
 10
104.384128
 20
39.686924
 42
-0.414214
 10
104.574135
 20
39.876931
 42
-0.414214
 10
104.764141
 20
39.686924
  0
LWPOLYLINE
  5
584
100
AcDbEntity
  8
OBJECT1
100
AcDbPolyline
 90
        3
 70
   128
 43
0.0
 10
117.314585
 20
39.686924
 42
0.414214
 10
117.124578
 20
39.876931
 42
0.414214
 10
116.934571
 20
39.686924
  0
LWPOLYLINE
  5
585
100
AcDbEntity
  8
OBJECT1
100
AcDbPolyline
 90
        8
 70
   128
 43
0.0
 10
104.384128
 20
39.686924
 10
104.384128
 20
38.886896
 10
103.88411
 20
38.886896
 10
103.88411
 20
40.686959
 10
105.264159
 20
40.686959
 10
105.264159
 20
38.886896
 10
104.764141
 20
38.886896
 10
104.764141
 20
39.686924
  0
LWPOLYLINE
  5
586
100
AcDbEntity
  8
OBJECT1
100
AcDbPolyline
 90
        8
 70
   128
 43
0.0
 10
117.314585
 20
39.686924
 10
117.314585
 20
38.886896
 10
117.814602
 20
38.886896
 10
117.814602
 20
40.686959
 10
116.434554
 20
40.686959
 10
116.434554
 20
38.886896
 10
116.934571
 20
38.886896
 10
116.934571
 20
39.686924
  0
LWPOLYLINE
  5
587
100
AcDbEntity
  8
OBJECT1
100
AcDbPolyline
 90
       10
 70
   129
 43
0.0
 10
102.283456
 20
72.242867
 10
102.283456
 20
71.242832
 10
102.533465
 20
71.242832
 10
102.533465
 20
68.742744
 10
102.783474
 20
68.492735
 10
103.783509
 20
68.492735
 10
104.033518
 20
68.742744
 10
104.033518
 20
71.242832
 10
104.283527
 20
71.242832
 10
104.283527
 20
72.242867
  0
LWPOLYLINE
  5
588
100
AcDbEntity
  8
OBJECT1
100
AcDbPolyline
 90
       10
 70
   129
 43
0.0
 10
102.283456
 20
81.243185
 10
102.283456
 20
80.24315
 10
102.533465
 20
80.24315
 10
102.533465
 20
77.743061
 10
102.783474
 20
77.493053
 10
103.783509
 20
77.493053
 10
104.033518
 20
77.743061
 10
104.033518
 20
80.24315
 10
104.283527
 20
80.24315
 10
104.283527
 20
81.243185
  0
LWPOLYLINE
  5
589
100
AcDbEntity
  8
OBJECT1
100
AcDbPolyline
 90
       10
 70
   129
 43
0.0
 10
102.283456
 20
54.242231
 10
102.283456
 20
53.242196
 10
102.533465
 20
53.242196
 10
102.533465
 20
50.742108
 10
102.783474
 20
50.492099
 10
103.783509
 20
50.492099
 10
104.033518
 20
50.742108
 10
104.033518
 20
53.242196
 10
104.283527
 20
53.242196
 10
104.283527
 20
54.242231
  0
LWPOLYLINE
  5
58A
100
AcDbEntity
  8
OBJECT1
100
AcDbPolyline
 90
       10
 70
   129
 43
0.0
 10
102.283456
 20
63.242549
 10
102.283456
 20
62.242514
 10
102.533465
 20
62.242514
 10
102.533465
 20
59.742426
 10
102.783474
 20
59.492417
 10
103.783509
 20
59.492417
 10
104.033518
 20
59.742426
 10
104.033518
 20
62.242514
 10
104.283527
 20
62.242514
 10
104.283527
 20
63.242549
  0
LINE
  5
58B
100
AcDbEntity
  8
OBJECT1
100
AcDbLine
 10
102.783474
 20
68.742744
 30
0.0
 11
103.783509
 21
68.742744
 31
0.0
  0
LINE
  5
58C
100
AcDbEntity
  8
OBJECT1
100
AcDbLine
 10
102.783474
 20
77.743061
 30
0.0
 11
103.783509
 21
77.743061
 31
0.0
  0
LINE
  5
58D
100
AcDbEntity
  8
OBJECT1
100
AcDbLine
 10
102.783474
 20
50.742108
 30
0.0
 11
103.783509
 21
50.742108
 31
0.0
  0
LINE
  5
58E
100
AcDbEntity
  8
OBJECT1
100
AcDbLine
 10
102.783474
 20
59.742426
 30
0.0
 11
103.783509
 21
59.742426
 31
0.0
  0
LWPOLYLINE
  5
58F
100
AcDbEntity
  8
OBJECT1
100
AcDbPolyline
 90
        4
 70
   129
 43
0.0
 10
106.013839
 20
74.090162
 10
113.373839
 20
74.090162
 10
113.373839
 20
65.089844
 10
106.013839
 20
65.089844
  0
LWPOLYLINE
  5
590
100
AcDbEntity
  8
OBJECT1
100
AcDbPolyline
 90
        4
 70
   129
 43
0.0
 10
106.013839
 20
83.09048
 10
113.373839
 20
83.09048
 10
113.373839
 20
74.090162
 10
106.013839
 20
74.090162
  0
LWPOLYLINE
  5
591
100
AcDbEntity
  8
OBJECT1
100
AcDbPolyline
 90
        4
 70
   129
 43
0.0
 10
106.013839
 20
56.089527
 10
113.373839
 20
56.089527
 10
113.373839
 20
47.089209
 10
106.013839
 20
47.089209
  0
LWPOLYLINE
  5
592
100
AcDbEntity
  8
OBJECT1
100
AcDbPolyline
 90
        4
 70
   129
 43
0.0
 10
106.013839
 20
65.089844
 10
113.373839
 20
65.089844
 10
113.373839
 20
56.089527
 10
106.013839
 20
56.089527
  0
LWPOLYLINE
  5
593
100
AcDbEntity
  8
OBJECT1
100
AcDbPolyline
 90
        4
 70
   129
 43
0.0
 10
118.485364
 20
69.624489
 10
119.110384
 20
69.624489
 10
119.110384
 20
68.999469
 10
118.485364
 20
68.999469
  0
LWPOLYLINE
  5
594
100
AcDbEntity
  8
OBJECT1
100
AcDbPolyline
 90
        4
 70
   129
 43
0.0
 10
120.985442
 20
66.244489
 10
121.610462
 20
66.244489
 10
121.610462
 20
65.619469
 10
120.985442
 20
65.619469
  0
LWPOLYLINE
  5
595
100
AcDbEntity
  8
OBJECT1
100
AcDbPolyline
 90
        4
 70
   129
 43
0.0
 10
117.963879
 20
73.125601
 10
117.33886
 20
73.125601
 10
117.33886
 20
72.500582
 10
117.963879
 20
72.500582
  0
LWPOLYLINE
  5
596
100
AcDbEntity
  8
OBJECT1
100
AcDbPolyline
 90
        4
 70
   129
 43
0.0
 10
120.463958
 20
69.624489
 10
119.838938
 20
69.624489
 10
119.838938
 20
68.999469
 10
120.463958
 20
68.999469
  0
LWPOLYLINE
  5
597
100
AcDbEntity
  8
OBJECT1
100
AcDbPolyline
 90
        4
 70
   129
 43
0.0
 10
122.964036
 20
66.244489
 10
122.339016
 20
66.244489
 10
122.339016
 20
65.619469
 10
122.964036
 20
65.619469
  0
LWPOLYLINE
  5
598
100
AcDbEntity
  8
OBJECT1
100
AcDbPolyline
 90
        4
 70
   129
 43
0.0
 10
115.985286
 20
73.125601
 10
116.610305
 20
73.125601
 10
116.610305
 20
72.500582
 10
115.985286
 20
72.500582
  0
LWPOLYLINE
  5
599
100
AcDbEntity
  8
OBJECT1
100
AcDbPolyline
 90
        4
 70
   129
 43
0.0
 10
103.059081
 20
12.07717
 10
103.059081
 20
13.077206
 10
101.05901
 20
13.077206
 10
101.05901
 20
12.07717
  0
LWPOLYLINE
  5
59A
100
AcDbEntity
  8
OBJECT1
100
AcDbPolyline
 90
        4
 70
   129
 43
0.0
 10
103.059081
 20
101.863807
 10
103.059081
 20
102.863842
 10
101.05901
 20
102.863842
 10
101.05901
 20
101.863807
  0
LWPOLYLINE
  5
59B
100
AcDbEntity
  8
OBJECT1
100
AcDbPolyline
 90
        4
 70
   129
 43
0.0
 10
107.754257
 20
13.077206
 10
111.754378
 20
13.077206
 10
111.754378
 20
12.07717
 10
107.754257
 20
12.07717
  0
LWPOLYLINE
  5
59C
100
AcDbEntity
  8
OBJECT1
100
AcDbPolyline
 90
        4
 70
   129
 43
0.0
 10
107.754257
 20
101.863807
 10
111.754378
 20
101.863807
 10
111.754378
 20
102.863842
 10
107.754257
 20
102.863842
  0
TEXT
  5
59D
100
AcDbEntity
  8
DIM
100
AcDbText
 10
119.319169
 20
54.010766
 30
0.0
 40
1.4
  1
TYP
 41
0.89305
  7
M_STANDARD
 11
119.319169
 21
54.710766
 31
0.0
100
AcDbText
 73
     2
  0
TEXT
  5
59E
100
AcDbEntity
  8
TEXT1
100
AcDbText
 10
106.027697
 20
-3.164595
 30
0.0
 40
1.4
  1
TYP
 41
0.89305
  7
M_STANDARD
 11
106.027697
 21
-2.464595
 31
0.0
100
AcDbText
 73
     2
  0
LWPOLYLINE
  5
59F
100
AcDbEntity
  8
OBJECT1
100
AcDbPolyline
 90
        4
 70
   129
 43
0.0
 10
105.055742
 20
45.26102
 10
106.013839
 20
45.26102
 10
106.013839
 20
51.388662
 10
105.055742
 20
51.388662
  0
CIRCLE
  5
5A0
100
AcDbEntity
  8
OBJECT1
100
AcDbCircle
 10
105.542971
 20
45.904042
 30
0.0
 40
0.328125
  0
CIRCLE
  5
5A1
100
AcDbEntity
  8
OBJECT1
100
AcDbCircle
 10
105.542971
 20
46.872362
 30
0.0
 40
0.328125
  0
CIRCLE
  5
5A2
100
AcDbEntity
  8
OBJECT1
100
AcDbCircle
 10
105.542971
 20
47.840681
 30
0.0
 40
0.328125
  0
CIRCLE
  5
5A3
100
AcDbEntity
  8
OBJECT1
100
AcDbCircle
 10
105.542971
 20
48.809001
 30
0.0
 40
0.328125
  0
CIRCLE
  5
5A4
100
AcDbEntity
  8
OBJECT1
100
AcDbCircle
 10
105.542971
 20
49.777321
 30
0.0
 40
0.328125
  0
CIRCLE
  5
5A5
100
AcDbEntity
  8
OBJECT1
100
AcDbCircle
 10
105.542971
 20
50.74564
 30
0.0
 40
0.328125
  0
LWPOLYLINE
  5
5A6
100
AcDbEntity
  8
OBJECT1
100
AcDbPolyline
 90
        4
 70
   129
 43
0.0
 10
107.840844
 20
47.089209
 10
107.840844
 20
46.159852
 10
111.940625
 20
46.159852
 10
111.940625
 20
47.089209
  0
CIRCLE
  5
5A7
100
AcDbEntity
  8
OBJECT1
100
AcDbCircle
 10
108.438255
 20
46.633525
 30
0.0
 40
0.328125
  0
CIRCLE
  5
5A8
100
AcDbEntity
  8
OBJECT1
100
AcDbCircle
 10
109.406575
 20
46.633525
 30
0.0
 40
0.328125
  0
CIRCLE
  5
5A9
100
AcDbEntity
  8
OBJECT1
100
AcDbCircle
 10
110.374895
 20
46.633525
 30
0.0
 40
0.328125
  0
CIRCLE
  5
5AA
100
AcDbEntity
  8
OBJECT1
100
AcDbCircle
 10
111.343214
 20
46.633525
 30
0.0
 40
0.328125
  0
LWPOLYLINE
  5
5AB
100
AcDbEntity
  8
OBJECT1
100
AcDbPolyline
 90
        4
 70
   129
 43
0.0
 10
96.063834
 20
110.954128
 10
125.504874
 20
110.954128
 10
125.504874
 20
111.726928
 10
96.063834
 20
111.726928
  0
LINE
  5
6ED
100
AcDbEntity
  8
DIM
100
AcDbLine
 10
108.344268
 20
41.431643
 30
0.0
 11
108.344268
 21
37.584195
 31
0.0
  0
LWPOLYLINE
  5
837
100
AcDbEntity
  8
DIM
100
AcDbPolyline
 90
        3
 70
   128
 43
0.0
 10
95.563917
 20
40.686959
 10
94.230598
 20
40.686959
 10
93.600676
 20
40.686959
  0
INSERT
  5
838
100
AcDbEntity
  8
DIM
100
AcDbBlockReference
  2
M_PFN_2
 10
96.193839
 20
40.686959
 30
0.0
 41
16.0
 42
16.0
 43
16.0
 50
180.0
  0
LWPOLYLINE
  5
839
100
AcDbEntity
  8
DIM
100
AcDbPolyline
 90
        3
 70
   128
 43
0.0
 10
97.013969
 20
42.916959
 10
94.230598
 20
42.916959
 10
93.600676
 20
42.916959
  0
INSERT
  5
83A
100
AcDbEntity
  8
DIM
100
AcDbBlockReference
  2
M_PFN_2
 10
97.64389
 20
42.916959
 30
0.0
 41
16.0
 42
16.0
 43
16.0
 50
180.0
  0
TEXT
  5
83B
100
AcDbEntity
  8
DIM
100
AcDbText
 10
87.315435
 20
50.868359
 30
0.0
 40
1.6
  1
2.23
 41
0.896304
  7
M_STANDARD
 11
87.315435
 21
51.668359
 31
0.0
100
AcDbText
 73
     2
  0
TEXT
  5
83C
100
AcDbEntity
  8
DIM
100
AcDbText
 10
88.812358
 20
48.202759
 30
0.0
 40
1.6
  1
57
 41
0.882523
  7
M_STANDARD
 72
     1
 11
89.955435
 21
49.802759
 31
0.0
100
AcDbText
 73
     3
  0
LWPOLYLINE
  5
83D
100
AcDbEntity
  8
DIM
100
AcDbPolyline
 90
        3
 70
   128
 43
0.0
 10
93.128235
 20
51.668359
 10
94.230598
 20
51.668359
 10
94.230598
 20
42.916959
  0
LINE
  5
83E
100
AcDbEntity
  8
DIM
100
AcDbLine
 10
94.230598
 20
40.686959
 30
0.0
 11
94.230598
 21
38.482235
 31
0.0
  0
INSERT
  5
83F
100
AcDbEntity
  8
DIM
100
AcDbBlockReference
  2
M_PFN_100
 10
94.230598
 20
42.916959
 30
0.0
 41
16.0
 42
16.0
 43
16.0
 50
270.0
  0
INSERT
  5
840
100
AcDbEntity
  8
DIM
100
AcDbBlockReference
  2
M_PFN_101
 10
94.230598
 20
40.686959
 30
0.0
 41
16.0
 42
16.0
 43
16.0
 50
270.0
  0
LWPOLYLINE
  5
841
100
AcDbEntity
  8
DIM
100
AcDbPolyline
 90
        3
 70
   128
 43
0.0
 10
95.563917
 20
40.686959
 10
85.98082
 20
40.686959
 10
85.350899
 20
40.686959
  0
INSERT
  5
842
100
AcDbEntity
  8
DIM
100
AcDbBlockReference
  2
M_PFN_2
 10
96.193839
 20
40.686959
 30
0.0
 41
16.0
 42
16.0
 43
16.0
 50
180.0
  0
LWPOLYLINE
  5
843
100
AcDbEntity
  8
DIM
100
AcDbPolyline
 90
        3
 70
   128
 43
0.0
 10
97.013969
 20
46.337159
 10
85.98082
 20
46.337159
 10
85.350899
 20
46.337159
  0
INSERT
  5
844
100
AcDbEntity
  8
DIM
100
AcDbBlockReference
  2
M_PFN_2
 10
97.64389
 20
46.337159
 30
0.0
 41
16.0
 42
16.0
 43
16.0
 50
180.0
  0
TEXT
  5
845
100
AcDbEntity
  8
DIM
100
AcDbText
 10
79.065658
 20
50.868359
 30
0.0
 40
1.6
  1
5.65
 41
0.896304
  7
M_STANDARD
 11
79.065658
 21
51.668359
 31
0.0
100
AcDbText
 73
     2
  0
TEXT
  5
846
100
AcDbEntity
  8
DIM
100
AcDbText
 10
79.970589
 20
48.202759
 30
0.0
 40
1.6
  1
144
 41
0.89305
  7
M_STANDARD
 72
     1
 11
81.705658
 21
49.802759
 31
0.0
100
AcDbText
 73
     3
  0
LWPOLYLINE
  5
847
100
AcDbEntity
  8
DIM
100
AcDbPolyline
 90
        3
 70
   128
 43
0.0
 10
84.878458
 20
51.668359
 10
85.98082
 20
51.668359
 10
85.98082
 20
46.337159
  0
LINE
  5
848
100
AcDbEntity
  8
DIM
100
AcDbLine
 10
85.98082
 20
40.686959
 30
0.0
 11
85.98082
 21
38.482235
 31
0.0
  0
INSERT
  5
849
100
AcDbEntity
  8
DIM
100
AcDbBlockReference
  2
M_PFN_100
 10
85.98082
 20
46.337159
 30
0.0
 41
16.0
 42
16.0
 43
16.0
 50
270.0
  0
INSERT
  5
84A
100
AcDbEntity
  8
DIM
100
AcDbBlockReference
  2
M_PFN_101
 10
85.98082
 20
40.686959
 30
0.0
 41
16.0
 42
16.0
 43
16.0
 50
270.0
  0
LINE
  5
84B
100
AcDbEntity
  8
DIM
100
AcDbLine
 10
120.90004
 20
40.686959
 30
0.0
 11
120.940131
 21
40.686959
 31
0.0
  0
INSERT
  5
84C
100
AcDbEntity
  8
DIM
100
AcDbBlockReference
  2
M_PFN_2
 10
120.90004
 20
40.686959
 30
0.0
 41
16.0
 42
16.0
 43
16.0
  0
LWPOLYLINE
  5
84D
100
AcDbEntity
  8
DIM
100
AcDbPolyline
 90
        3
 70
   128
 43
0.0
 10
112.949319
 20
52.907391
 10
120.940131
 20
52.907391
 10
121.570052
 20
52.907391
  0
INSERT
  5
84E
100
AcDbEntity
  8
DIM
100
AcDbBlockReference
  2
M_PFN_2
 10
112.319398
 20
52.907391
 30
0.0
 41
16.0
 42
16.0
 43
16.0
  0
TEXT
  5
84F
100
AcDbEntity
  8
DIM
100
AcDbText
 10
117.580131
 20
47.216078
 30
0.0
 40
1.6
  1
12.22
 41
0.897713
  7
M_STANDARD
 11
117.580131
 21
48.016078
 31
0.0
100
AcDbText
 73
     2
  0
TEXT
  5
850
100
AcDbEntity
  8
DIM
100
AcDbText
 10
119.490106
 20
44.977038
 30
0.0
 40
1.28
  1
310
 41
0.951579
  7
M_STANDARD
 72
     1
 11
120.940131
 21
46.257038
 31
0.0
100
AcDbText
 73
     3
  0
LINE
  5
851
100
AcDbEntity
  8
DIM
100
AcDbLine
 10
120.940131
 20
49.109683
 30
0.0
 11
120.940131
 21
52.907391
 31
0.0
  0
LINE
  5
852
100
AcDbEntity
  8
DIM
100
AcDbLine
 10
120.940131
 20
40.686959
 30
0.0
 11
120.940131
 21
43.771591
 31
0.0
  0
INSERT
  5
853
100
AcDbEntity
  8
DIM
100
AcDbBlockReference
  2
M_PFN_100
 10
120.940131
 20
52.907391
 30
0.0
 41
16.0
 42
16.0
 43
16.0
 50
90.0
  0
INSERT
  5
854
100
AcDbEntity
  8
DIM
100
AcDbBlockReference
  2
M_PFN_101
 10
120.940131
 20
40.686959
 30
0.0
 41
16.0
 42
16.0
 43
16.0
 50
90.0
  0
LWPOLYLINE
  5
855
100
AcDbEntity
  8
DIM
100
AcDbPolyline
 90
        3
 70
   128
 43
0.0
 10
126.199797
 20
92.688796
 10
146.762294
 20
92.688796
 10
147.392215
 20
92.688796
  0
INSERT
  5
856
100
AcDbEntity
  8
DIM
100
AcDbBlockReference
  2
M_PFN_2
 10
125.569876
 20
92.688796
 30
0.0
 41
16.0
 42
16.0
 43
16.0
  0
LWPOLYLINE
  5
857
100
AcDbEntity
  8
DIM
100
AcDbPolyline
 90
        3
 70
   128
 43
0.0
 10
126.134795
 20
40.686959
 10
146.762294
 20
40.686959
 10
147.392215
 20
40.686959
  0
INSERT
  5
858
100
AcDbEntity
  8
DIM
100
AcDbBlockReference
  2
M_PFN_2
 10
125.504874
 20
40.686959
 30
0.0
 41
16.0
 42
16.0
 43
16.0
  0
TEXT
  5
859
100
AcDbEntity
  8
DIM
100
AcDbText
 10
143.402294
 20
65.887877
 30
0.0
 40
1.6
  1
52.00
 50
360.0
 41
0.930783
  7
M_STANDARD
 11
143.402294
 21
66.687877
 31
0.0
100
AcDbText
 73
     2
  0
TEXT
  5
85A
100
AcDbEntity
  8
DIM
100
AcDbText
 10
144.93097
 20
63.648837
 30
0.0
 40
1.28
  1
1321
 50
360.0
 41
0.985087
  7
M_STANDARD
 72
     1
 11
146.762294
 21
64.928837
 31
0.0
100
AcDbText
 73
     3
  0
LINE
  5
85B
100
AcDbEntity
  8
DIM
100
AcDbLine
 10
146.762294
 20
40.686959
 30
0.0
 11
146.762294
 21
62.689477
 31
0.0
  0
LINE
  5
85C
100
AcDbEntity
  8
DIM
100
AcDbLine
 10
146.762294
 20
68.020677
 30
0.0
 11
146.762294
 21
92.688796
 31
0.0
  0
INSERT
  5
85D
100
AcDbEntity
  8
DIM
100
AcDbBlockReference
  2
M_PFN_101
 10
146.762294
 20
40.686959
 30
0.0
 41
16.0
 42
16.0
 43
16.0
 50
90.0
  0
INSERT
  5
85E
100
AcDbEntity
  8
DIM
100
AcDbBlockReference
  2
M_PFN_100
 10
146.762294
 20
92.688796
 30
0.0
 41
16.0
 42
16.0
 43
16.0
 50
90.0
  0
LWPOLYLINE
  5
85F
100
AcDbEntity
  8
DIM
100
AcDbPolyline
 90
        3
 70
   128
 43
0.0
 10
118.854543
 20
72.188072
 10
141.666843
 20
72.188072
 10
142.296764
 20
72.188072
  0
INSERT
  5
860
100
AcDbEntity
  8
DIM
100
AcDbBlockReference
  2
M_PFN_2
 10
118.224622
 20
72.188072
 30
0.0
 41
16.0
 42
16.0
 43
16.0
  0
LWPOLYLINE
  5
861
100
AcDbEntity
  8
DIM
100
AcDbPolyline
 90
        3
 70
   128
 43
0.0
 10
126.134795
 20
40.686959
 10
141.666843
 20
40.686959
 10
142.296764
 20
40.686959
  0
INSERT
  5
862
100
AcDbEntity
  8
DIM
100
AcDbBlockReference
  2
M_PFN_2
 10
125.504874
 20
40.686959
 30
0.0
 41
16.0
 42
16.0
 43
16.0
  0
TEXT
  5
863
100
AcDbEntity
  8
DIM
100
AcDbText
 10
138.306843
 20
59.349826
 30
0.0
 40
1.6
  1
31.50
 41
0.930783
  7
M_STANDARD
 11
138.306843
 21
60.149826
 31
0.0
100
AcDbText
 73
     2
  0
TEXT
  5
864
100
AcDbEntity
  8
DIM
100
AcDbText
 10
140.100816
 20
57.110786
 30
0.0
 40
1.28
  1
800
 41
0.951579
  7
M_STANDARD
 72
     1
 11
141.666843
 21
58.390786
 31
0.0
100
AcDbText
 73
     3
  0
LINE
  5
865
100
AcDbEntity
  8
DIM
100
AcDbLine
 10
141.666843
 20
40.686959
 30
0.0
 11
141.666843
 21
56.151426
 31
0.0
  0
LINE
  5
866
100
AcDbEntity
  8
DIM
100
AcDbLine
 10
141.666843
 20
61.482626
 30
0.0
 11
141.666843
 21
72.188072
 31
0.0
  0
INSERT
  5
867
100
AcDbEntity
  8
DIM
100
AcDbBlockReference
  2
M_PFN_101
 10
141.666843
 20
40.686959
 30
0.0
 41
16.0
 42
16.0
 43
16.0
 50
90.0
  0
INSERT
  5
868
100
AcDbEntity
  8
DIM
100
AcDbBlockReference
  2
M_PFN_100
 10
141.666843
 20
72.188072
 30
0.0
 41
16.0
 42
16.0
 43
16.0
 50
90.0
  0
LWPOLYLINE
  5
869
100
AcDbEntity
  8
DIM
100
AcDbPolyline
 90
        3
 70
   128
 43
0.0
 10
121.354621
 20
68.686959
 10
135.964791
 20
68.686959
 10
136.594713
 20
68.686959
  0
INSERT
  5
86A
100
AcDbEntity
  8
DIM
100
AcDbBlockReference
  2
M_PFN_2
 10
120.7247
 20
68.686959
 30
0.0
 41
16.0
 42
16.0
 43
16.0
  0
LWPOLYLINE
  5
86B
100
AcDbEntity
  8
DIM
100
AcDbPolyline
 90
        3
 70
   128
 43
0.0
 10
126.134795
 20
40.686959
 10
135.964791
 20
40.686959
 10
136.594713
 20
40.686959
  0
INSERT
  5
86C
100
AcDbEntity
  8
DIM
100
AcDbBlockReference
  2
M_PFN_2
 10
125.504874
 20
40.686959
 30
0.0
 41
16.0
 42
16.0
 43
16.0
  0
TEXT
  5
86D
100
AcDbEntity
  8
DIM
100
AcDbText
 10
132.604791
 20
54.497015
 30
0.0
 40
1.6
  1
28.00
 41
0.930783
  7
M_STANDARD
 11
132.604791
 21
55.297015
 31
0.0
100
AcDbText
 73
     2
  0
TEXT
  5
86E
100
AcDbEntity
  8
DIM
100
AcDbText
 10
134.692484
 20
52.257975
 30
0.0
 40
1.28
  1
711
 41
1.018234
  7
M_STANDARD
 72
     1
 11
135.964791
 21
53.537975
 31
0.0
100
AcDbText
 73
     3
  0
LINE
  5
86F
100
AcDbEntity
  8
DIM
100
AcDbLine
 10
135.964791
 20
40.686959
 30
0.0
 11
135.964791
 21
51.298615
 31
0.0
  0
LINE
  5
870
100
AcDbEntity
  8
DIM
100
AcDbLine
 10
135.964791
 20
56.629815
 30
0.0
 11
135.964791
 21
68.686959
 31
0.0
  0
INSERT
  5
871
100
AcDbEntity
  8
DIM
100
AcDbBlockReference
  2
M_PFN_101
 10
135.964791
 20
40.686959
 30
0.0
 41
16.0
 42
16.0
 43
16.0
 50
90.0
  0
INSERT
  5
872
100
AcDbEntity
  8
DIM
100
AcDbBlockReference
  2
M_PFN_100
 10
135.964791
 20
68.686959
 30
0.0
 41
16.0
 42
16.0
 43
16.0
 50
90.0
  0
LWPOLYLINE
  5
873
100
AcDbEntity
  8
DIM
100
AcDbPolyline
 90
        3
 70
   128
 43
0.0
 10
123.8547
 20
65.306959
 10
129.980776
 20
65.306959
 10
130.610697
 20
65.306959
  0
INSERT
  5
874
100
AcDbEntity
  8
DIM
100
AcDbBlockReference
  2
M_PFN_2
 10
123.224778
 20
65.306959
 30
0.0
 41
16.0
 42
16.0
 43
16.0
  0
LWPOLYLINE
  5
875
100
AcDbEntity
  8
DIM
100
AcDbPolyline
 90
        3
 70
   128
 43
0.0
 10
126.134795
 20
40.686959
 10
129.980776
 20
40.686959
 10
130.610697
 20
40.686959
  0
INSERT
  5
876
100
AcDbEntity
  8
DIM
100
AcDbBlockReference
  2
M_PFN_2
 10
125.504874
 20
40.686959
 30
0.0
 41
16.0
 42
16.0
 43
16.0
  0
TEXT
  5
877
100
AcDbEntity
  8
DIM
100
AcDbText
 10
126.620776
 20
50.129486
 30
0.0
 40
1.6
  1
24.62
 41
0.897713
  7
M_STANDARD
 11
126.620776
 21
50.929486
 31
0.0
100
AcDbText
 73
     2
  0
TEXT
  5
878
100
AcDbEntity
  8
DIM
100
AcDbText
 10
128.511071
 20
47.890446
 30
0.0
 40
1.28
  1
625
 41
0.89305
  7
M_STANDARD
 72
     1
 11
129.980776
 21
49.170446
 31
0.0
100
AcDbText
 73
     3
  0
LINE
  5
879
100
AcDbEntity
  8
DIM
100
AcDbLine
 10
129.980776
 20
40.686959
 30
0.0
 11
129.980776
 21
46.931086
 31
0.0
  0
LINE
  5
87A
100
AcDbEntity
  8
DIM
100
AcDbLine
 10
129.980776
 20
52.262286
 30
0.0
 11
129.980776
 21
65.306959
 31
0.0
  0
INSERT
  5
87B
100
AcDbEntity
  8
DIM
100
AcDbBlockReference
  2
M_PFN_101
 10
129.980776
 20
40.686959
 30
0.0
 41
16.0
 42
16.0
 43
16.0
 50
90.0
  0
INSERT
  5
87C
100
AcDbEntity
  8
DIM
100
AcDbBlockReference
  2
M_PFN_100
 10
129.980776
 20
65.306959
 30
0.0
 41
16.0
 42
16.0
 43
16.0
 50
90.0
  0
LWPOLYLINE
  5
87D
100
AcDbEntity
  8
DIM
100
AcDbPolyline
 90
        3
 70
   128
 43
0.0
 10
125.438836
 20
12.706811
 10
125.438836
 20
20.72068
 10
125.438836
 20
21.350601
  0
INSERT
  5
87E
100
AcDbEntity
  8
DIM
100
AcDbBlockReference
  2
M_PFN_2
 10
125.438836
 20
12.076889
 30
0.0
 41
16.0
 42
16.0
 43
16.0
 50
90.0
  0
LWPOLYLINE
  5
87F
100
AcDbEntity
  8
DIM
100
AcDbPolyline
 90
        3
 70
   128
 43
0.0
 10
96.128836
 20
12.707092
 10
96.128836
 20
20.72068
 10
96.128836
 20
21.350601
  0
INSERT
  5
880
100
AcDbEntity
  8
DIM
100
AcDbBlockReference
  2
M_PFN_2
 10
96.128836
 20
12.07717
 30
0.0
 41
16.0
 42
16.0
 43
16.0
 50
90.0
  0
TEXT
  5
881
100
AcDbEntity
  8
DIM
100
AcDbText
 10
107.423836
 20
19.92068
 30
0.0
 40
1.6
  1
29.31
 41
0.966376
  7
M_STANDARD
 11
107.423836
 21
20.72068
 31
0.0
100
AcDbText
 73
     2
  0
TEXT
  5
882
100
AcDbEntity
  8
DIM
100
AcDbText
 10
109.286914
 20
17.68164
 30
0.0
 40
1.28
  1
744
 41
0.89305
  7
M_STANDARD
 72
     1
 11
110.783836
 21
18.96164
 31
0.0
100
AcDbText
 73
     3
  0
LINE
  5
883
100
AcDbEntity
  8
DIM
100
AcDbLine
 10
96.128836
 20
20.72068
 30
0.0
 11
106.891036
 21
20.72068
 31
0.0
  0
LINE
  5
884
100
AcDbEntity
  8
DIM
100
AcDbLine
 10
114.676636
 20
20.72068
 30
0.0
 11
125.438836
 21
20.72068
 31
0.0
  0
INSERT
  5
885
100
AcDbEntity
  8
DIM
100
AcDbBlockReference
  2
M_PFN_101
 10
96.128836
 20
20.72068
 30
0.0
 41
16.0
 42
16.0
 43
16.0
  0
INSERT
  5
886
100
AcDbEntity
  8
DIM
100
AcDbBlockReference
  2
M_PFN_100
 10
125.438836
 20
20.72068
 30
0.0
 41
16.0
 42
16.0
 43
16.0
  0
LWPOLYLINE
  5
887
100
AcDbEntity
  8
DIM
100
AcDbPolyline
 90
        3
 70
   128
 43
0.0
 10
111.608836
 20
5.481955
 10
111.608836
 20
-5.085894
 10
111.608836
 20
-5.715815
  0
INSERT
  5
888
100
AcDbEntity
  8
DIM
100
AcDbBlockReference
  2
M_PFN_2
 10
111.608836
 20
6.111876
 30
0.0
 41
16.0
 42
16.0
 43
16.0
 50
270.0
  0
LWPOLYLINE
  5
889
100
AcDbEntity
  8
DIM
100
AcDbPolyline
 90
        3
 70
   128
 43
0.0
 10
96.128836
 20
3.916968
 10
96.128836
 20
-5.085894
 10
96.128836
 20
-5.715815
  0
INSERT
  5
88A
100
AcDbEntity
  8
DIM
100
AcDbBlockReference
  2
M_PFN_2
 10
96.128836
 20
4.546889
 30
0.0
 41
16.0
 42
16.0
 43
16.0
 50
270.0
  0
TEXT
  5
88B
100
AcDbEntity
  8
DIM
100
AcDbText
 10
100.508836
 20
-5.885894
 30
0.0
 40
1.6
  1
15.48
 41
0.897713
  7
M_STANDARD
 11
100.508836
 21
-5.085894
 31
0.0
100
AcDbText
 73
     2
  0
TEXT
  5
88C
100
AcDbEntity
  8
DIM
100
AcDbText
 10
102.399131
 20
-8.124934
 30
0.0
 40
1.28
  1
393
 41
0.89305
  7
M_STANDARD
 72
     1
 11
103.868836
 21
-6.844934
 31
0.0
100
AcDbText
 73
     3
  0
LINE
  5
88D
100
AcDbEntity
  8
DIM
100
AcDbLine
 10
96.128836
 20
-5.085894
 30
0.0
 11
99.976036
 21
-5.085894
 31
0.0
  0
LINE
  5
88E
100
AcDbEntity
  8
DIM
100
AcDbLine
 10
107.761636
 20
-5.085894
 30
0.0
 11
111.608836
 21
-5.085894
 31
0.0
  0
INSERT
  5
88F
100
AcDbEntity
  8
DIM
100
AcDbBlockReference
  2
M_PFN_101
 10
96.128836
 20
-5.085894
 30
0.0
 41
16.0
 42
16.0
 43
16.0
  0
INSERT
  5
890
100
AcDbEntity
  8
DIM
100
AcDbBlockReference
  2
M_PFN_100
 10
111.608836
 20
-5.085894
 30
0.0
 41
16.0
 42
16.0
 43
16.0
  0
LWPOLYLINE
  5
891
100
AcDbEntity
  8
DIM
100
AcDbPolyline
 90
        3
 70
   128
 43
0.0
 10
98.788836
 20
8.116846
 10
98.788836
 20
10.206475
 10
98.788836
 20
10.836396
  0
INSERT
  5
892
100
AcDbEntity
  8
DIM
100
AcDbBlockReference
  2
M_PFN_2
 10
98.788836
 20
7.486925
 30
0.0
 41
16.0
 42
16.0
 43
16.0
 50
90.0
  0
LINE
  5
893
100
AcDbEntity
  8
DIM
100
AcDbLine
 10
96.128836
 20
10.119402
 30
0.0
 11
96.128836
 21
10.206475
 31
0.0
  0
INSERT
  5
894
100
AcDbEntity
  8
DIM
100
AcDbBlockReference
  2
M_PFN_2
 10
96.128836
 20
10.119402
 30
0.0
 41
16.0
 42
16.0
 43
16.0
 50
90.0
  0
TEXT
  5
895
100
AcDbEntity
  8
DIM
100
AcDbText
 10
88.111312
 20
9.406475
 30
0.0
 40
1.6
  1
2.66
 41
0.896304
  7
M_STANDARD
 11
88.111312
 21
10.206475
 31
0.0
100
AcDbText
 73
     2
  0
TEXT
  5
896
100
AcDbEntity
  8
DIM
100
AcDbText
 10
89.83685
 20
7.167435
 30
0.0
 40
1.28
  1
68
 41
0.882523
  7
M_STANDARD
 72
     1
 11
90.751312
 21
8.447435
 31
0.0
100
AcDbText
 73
     3
  0
LINE
  5
897
100
AcDbEntity
  8
DIM
100
AcDbLine
 10
93.924112
 20
10.206475
 30
0.0
 11
96.128836
 21
10.206475
 31
0.0
  0
LINE
  5
898
100
AcDbEntity
  8
DIM
100
AcDbLine
 10
98.788836
 20
10.206475
 30
0.0
 11
100.993561
 21
10.206475
 31
0.0
  0
INSERT
  5
899
100
AcDbEntity
  8
DIM
100
AcDbBlockReference
  2
M_PFN_100
 10
96.128836
 20
10.206475
 30
0.0
 41
16.0
 42
16.0
 43
16.0
  0
INSERT
  5
89A
100
AcDbEntity
  8
DIM
100
AcDbBlockReference
  2
M_PFN_101
 10
98.788836
 20
10.206475
 30
0.0
 41
16.0
 42
16.0
 43
16.0
  0
LWPOLYLINE
  5
89B
100
AcDbEntity
  8
DIM
100
AcDbPolyline
 90
        3
 70
   128
 43
0.0
 10
108.344268
 20
33.095346
 10
108.344268
 20
27.150653
 10
108.344268
 20
26.520732
  0
LWPOLYLINE
  5
89C
100
AcDbEntity
  8
DIM
100
AcDbPolyline
 90
        3
 70
   128
 43
0.0
 10
96.193839
 20
40.057038
 10
96.193839
 20
27.150653
 10
96.193839
 20
26.520732
  0
INSERT
  5
89D
100
AcDbEntity
  8
DIM
100
AcDbBlockReference
  2
M_PFN_2
 10
96.193839
 20
40.686959
 30
0.0
 41
16.0
 42
16.0
 43
16.0
 50
270.0
  0
TEXT
  5
89E
100
AcDbEntity
  8
DIM
100
AcDbText
 10
98.886744
 20
26.350653
 30
0.0
 40
1.6
  1
12.15
 41
0.897713
  7
M_STANDARD
 11
98.886744
 21
27.150653
 31
0.0
100
AcDbText
 73
     2
  0
TEXT
  5
89F
100
AcDbEntity
  8
DIM
100
AcDbText
 10
100.804255
 20
24.111613
 30
0.0
 40
1.28
  1
309
 41
0.89305
  7
M_STANDARD
 72
     1
 11
102.246743
 21
25.391613
 31
0.0
100
AcDbText
 73
     3
  0
LINE
  5
8A0
100
AcDbEntity
  8
DIM
100
AcDbLine
 10
98.353944
 20
27.150653
 30
0.0
 11
96.193839
 21
27.150653
 31
0.0
  0
LINE
  5
8A1
100
AcDbEntity
  8
DIM
100
AcDbLine
 10
108.344268
 20
27.150653
 30
0.0
 11
106.362622
 21
27.150653
 31
0.0
  0
INSERT
  5
8A2
100
AcDbEntity
  8
DIM
100
AcDbBlockReference
  2
M_PFN_100
 10
96.193839
 20
27.150653
 30
0.0
 41
16.0
 42
16.0
 43
16.0
 50
180.0
  0
INSERT
  5
8A3
100
AcDbEntity
  8
DIM
100
AcDbBlockReference
  2
M_PFN_101
 10
108.344268
 20
27.150653
 30
0.0
 41
16.0
 42
16.0
 43
16.0
 50
180.0
  0
LWPOLYLINE
  5
8A4
100
AcDbEntity
  8
DIM
100
AcDbPolyline
 90
        3
 70
   128
 43
0.0
 10
102.044045
 20
41.307082
 10
102.044045
 20
31.154222
 10
102.044045
 20
30.524301
  0
INSERT
  5
8A5
100
AcDbEntity
  8
DIM
100
AcDbBlockReference
  2
M_PFN_2
 10
102.044045
 20
41.937003
 30
0.0
 41
16.0
 42
16.0
 43
16.0
 50
270.0
  0
LWPOLYLINE
  5
8A6
100
AcDbEntity
  8
DIM
100
AcDbPolyline
 90
        3
 70
   128
 43
0.0
 10
96.193839
 20
40.057038
 10
96.193839
 20
31.154222
 10
96.193839
 20
30.524301
  0
INSERT
  5
8A7
100
AcDbEntity
  8
DIM
100
AcDbBlockReference
  2
M_PFN_2
 10
96.193839
 20
40.686959
 30
0.0
 41
16.0
 42
16.0
 43
16.0
 50
270.0
  0
TEXT
  5
8A8
100
AcDbEntity
  8
DIM
100
AcDbText
 10
88.176314
 20
30.354222
 30
0.0
 40
1.6
  1
5.85
 41
0.896304
  7
M_STANDARD
 11
88.176314
 21
31.154222
 31
0.0
100
AcDbText
 73
     2
  0
TEXT
  5
8A9
100
AcDbEntity
  8
DIM
100
AcDbText
 10
89.482693
 20
28.115182
 30
0.0
 40
1.28
  1
149
 41
0.89305
  7
M_STANDARD
 72
     1
 11
90.816314
 21
29.395182
 31
0.0
100
AcDbText
 73
     3
  0
LINE
  5
8AA
100
AcDbEntity
  8
DIM
100
AcDbLine
 10
93.989114
 20
31.154222
 30
0.0
 11
96.193839
 21
31.154222
 31
0.0
  0
LINE
  5
8AB
100
AcDbEntity
  8
DIM
100
AcDbLine
 10
102.044045
 20
31.154222
 30
0.0
 11
104.24877
 21
31.154222
 31
0.0
  0
INSERT
  5
8AC
100
AcDbEntity
  8
DIM
100
AcDbBlockReference
  2
M_PFN_100
 10
96.193839
 20
31.154222
 30
0.0
 41
16.0
 42
16.0
 43
16.0
  0
INSERT
  5
8AD
100
AcDbEntity
  8
DIM
100
AcDbBlockReference
  2
M_PFN_101
 10
102.044045
 20
31.154222
 30
0.0
 41
16.0
 42
16.0
 43
16.0
  0
LWPOLYLINE
  5
8AE
100
AcDbEntity
  8
DIM
100
AcDbPolyline
 90
        3
 70
   128
 43
0.0
 10
98.643925
 20
41.307082
 10
98.643925
 20
36.452255
 10
98.643925
 20
35.822333
  0
INSERT
  5
8AF
100
AcDbEntity
  8
DIM
100
AcDbBlockReference
  2
M_PFN_2
 10
98.643925
 20
41.937003
 30
0.0
 41
16.0
 42
16.0
 43
16.0
 50
270.0
  0
LWPOLYLINE
  5
8B0
100
AcDbEntity
  8
DIM
100
AcDbPolyline
 90
        3
 70
   128
 43
0.0
 10
96.193839
 20
40.057038
 10
96.193839
 20
36.452255
 10
96.193839
 20
35.822333
  0
INSERT
  5
8B1
100
AcDbEntity
  8
DIM
100
AcDbBlockReference
  2
M_PFN_2
 10
96.193839
 20
40.686959
 30
0.0
 41
16.0
 42
16.0
 43
16.0
 50
270.0
  0
TEXT
  5
8B2
100
AcDbEntity
  8
DIM
100
AcDbText
 10
88.176314
 20
35.652255
 30
0.0
 40
1.6
  1
2.45
 41
0.896304
  7
M_STANDARD
 11
88.176314
 21
36.452255
 31
0.0
100
AcDbText
 73
     2
  0
TEXT
  5
8B3
100
AcDbEntity
  8
DIM
100
AcDbText
 10
89.901853
 20
33.413215
 30
0.0
 40
1.28
  1
62
 41
0.882523
  7
M_STANDARD
 72
     1
 11
90.816314
 21
34.693215
 31
0.0
100
AcDbText
 73
     3
  0
LINE
  5
8B4
100
AcDbEntity
  8
DIM
100
AcDbLine
 10
93.989114
 20
36.452255
 30
0.0
 11
96.193839
 21
36.452255
 31
0.0
  0
LINE
  5
8B5
100
AcDbEntity
  8
DIM
100
AcDbLine
 10
98.643925
 20
36.452255
 30
0.0
 11
100.84865
 21
36.452255
 31
0.0
  0
INSERT
  5
8B6
100
AcDbEntity
  8
DIM
100
AcDbBlockReference
  2
M_PFN_100
 10
96.193839
 20
36.452255
 30
0.0
 41
16.0
 42
16.0
 43
16.0
  0
INSERT
  5
8B7
100
AcDbEntity
  8
DIM
100
AcDbBlockReference
  2
M_PFN_101
 10
98.643925
 20
36.452255
 30
0.0
 41
16.0
 42
16.0
 43
16.0
  0
LWPOLYLINE
  5
8B8
100
AcDbEntity
  8
DIM
100
AcDbPolyline
 90
        3
 70
   128
 43
0.0
 10
98.788836
 20
4.856933
 10
98.788836
 20
1.919164
 10
98.788836
 20
1.289243
  0
INSERT
  5
8B9
100
AcDbEntity
  8
DIM
100
AcDbBlockReference
  2
M_PFN_2
 10
98.788836
 20
5.486854
 30
0.0
 41
16.0
 42
16.0
 43
16.0
 50
270.0
  0
LWPOLYLINE
  5
8BA
100
AcDbEntity
  8
DIM
100
AcDbPolyline
 90
        3
 70
   128
 43
0.0
 10
102.118954
 20
4.856933
 10
102.118954
 20
1.919164
 10
102.118954
 20
1.289243
  0
INSERT
  5
8BB
100
AcDbEntity
  8
DIM
100
AcDbBlockReference
  2
M_PFN_2
 10
102.118954
 20
5.486854
 30
0.0
 41
16.0
 42
16.0
 43
16.0
 50
270.0
  0
TEXT
  5
8BC
100
AcDbEntity
  8
DIM
100
AcDbText
 10
104.856478
 20
1.119164
 30
0.0
 40
1.6
  1
3.33
 41
0.896304
  7
M_STANDARD
 11
104.856478
 21
1.919164
 31
0.0
100
AcDbText
 73
     2
  0
TEXT
  5
8BD
100
AcDbEntity
  8
DIM
100
AcDbText
 10
106.582017
 20
-1.119876
 30
0.0
 40
1.28
  1
85
 41
0.882523
  7
M_STANDARD
 72
     1
 11
107.496478
 21
0.160124
 31
0.0
100
AcDbText
 73
     3
  0
LINE
  5
8BE
100
AcDbEntity
  8
DIM
100
AcDbLine
 10
104.323678
 20
1.919164
 30
0.0
 11
102.118954
 21
1.919164
 31
0.0
  0
LINE
  5
8BF
100
AcDbEntity
  8
DIM
100
AcDbLine
 10
98.788836
 20
1.919164
 30
0.0
 11
96.584112
 21
1.919164
 31
0.0
  0
INSERT
  5
8C0
100
AcDbEntity
  8
DIM
100
AcDbBlockReference
  2
M_PFN_100
 10
102.118954
 20
1.919164
 30
0.0
 41
16.0
 42
16.0
 43
16.0
 50
180.0
  0
INSERT
  5
8C1
100
AcDbEntity
  8
DIM
100
AcDbBlockReference
  2
M_PFN_101
 10
98.788836
 20
1.919164
 30
0.0
 41
16.0
 42
16.0
 43
16.0
 50
180.0
  0
LWPOLYLINE
  5
8C2
100
AcDbEntity
  8
DIM
100
AcDbPolyline
 90
        3
 70
   128
 43
0.0
 10
95.498915
 20
4.546889
 10
83.103968
 20
4.546889
 10
82.474047
 20
4.546889
  0
INSERT
  5
8C3
100
AcDbEntity
  8
DIM
100
AcDbBlockReference
  2
M_PFN_2
 10
96.128836
 20
4.546889
 30
0.0
 41
16.0
 42
16.0
 43
16.0
 50
180.0
  0
LWPOLYLINE
  5
8C4
100
AcDbEntity
  8
DIM
100
AcDbPolyline
 90
        3
 70
   128
 43
0.0
 10
95.498915
 20
12.07717
 10
83.103968
 20
12.07717
 10
82.474047
 20
12.07717
  0
INSERT
  5
8C5
100
AcDbEntity
  8
DIM
100
AcDbBlockReference
  2
M_PFN_2
 10
96.128836
 20
12.07717
 30
0.0
 41
16.0
 42
16.0
 43
16.0
 50
180.0
  0
TEXT
  5
8C6
100
AcDbEntity
  8
DIM
100
AcDbText
 10
80.463969
 20
9.000135
 30
0.0
 40
1.6
  1
7.53
 41
0.896304
  7
M_STANDARD
 11
80.463969
 21
9.800135
 31
0.0
100
AcDbText
 73
     2
  0
TEXT
  5
8C7
100
AcDbEntity
  8
DIM
100
AcDbText
 10
81.831661
 20
6.761095
 30
0.0
 40
1.28
  1
191
 41
1.018234
  7
M_STANDARD
 72
     1
 11
83.103968
 21
8.041095
 31
0.0
100
AcDbText
 73
     3
  0
LINE
  5
8C8
100
AcDbEntity
  8
DIM
100
AcDbLine
 10
83.103968
 20
14.654667
 30
0.0
 11
83.103968
 21
12.07717
 31
0.0
  0
LINE
  5
8C9
100
AcDbEntity
  8
DIM
100
AcDbLine
 10
83.103968
 20
4.546889
 30
0.0
 11
83.103968
 21
2.342165
 31
0.0
  0
INSERT
  5
8CA
100
AcDbEntity
  8
DIM
100
AcDbBlockReference
  2
M_PFN_100
 10
83.103968
 20
12.07717
 30
0.0
 41
16.0
 42
16.0
 43
16.0
 50
270.0
  0
INSERT
  5
8CB
100
AcDbEntity
  8
DIM
100
AcDbBlockReference
  2
M_PFN_101
 10
83.103968
 20
4.546889
 30
0.0
 41
16.0
 42
16.0
 43
16.0
 50
270.0
  0
LWPOLYLINE
  5
8CC
100
AcDbEntity
  8
DIM
100
AcDbPolyline
 90
        3
 70
   128
 43
0.0
 10
97.098972
 20
6.486889
 10
94.288073
 20
6.486889
 10
93.658151
 20
6.486889
  0
INSERT
  5
8CD
100
AcDbEntity
  8
DIM
100
AcDbBlockReference
  2
M_PFN_2
 10
97.728893
 20
6.486889
 30
0.0
 41
16.0
 42
16.0
 43
16.0
 50
180.0
  0
LWPOLYLINE
  5
8CE
100
AcDbEntity
  8
DIM
100
AcDbPolyline
 90
        3
 70
   128
 43
0.0
 10
95.498915
 20
4.546889
 10
94.288073
 20
4.546889
 10
93.658151
 20
4.546889
  0
INSERT
  5
8CF
100
AcDbEntity
  8
DIM
100
AcDbBlockReference
  2
M_PFN_2
 10
96.128836
 20
4.546889
 30
0.0
 41
16.0
 42
16.0
 43
16.0
 50
180.0
  0
TEXT
  5
8D0
100
AcDbEntity
  8
DIM
100
AcDbText
 10
87.372911
 20
1.542165
 30
0.0
 40
1.6
  1
1.94
 41
0.896304
  7
M_STANDARD
 11
87.372911
 21
2.342165
 31
0.0
100
AcDbText
 73
     2
  0
TEXT
  5
8D1
100
AcDbEntity
  8
DIM
100
AcDbText
 10
89.125345
 20
-0.696875
 30
0.0
 40
1.28
  1
49
 41
0.882523
  7
M_STANDARD
 72
     1
 11
90.012911
 21
0.583125
 31
0.0
100
AcDbText
 73
     3
  0
LWPOLYLINE
  5
8D2
100
AcDbEntity
  8
DIM
100
AcDbPolyline
 90
        3
 70
   128
 43
0.0
 10
93.185711
 20
2.342165
 10
94.288073
 20
2.342165
 10
94.288073
 20
4.546889
  0
LINE
  5
8D3
100
AcDbEntity
  8
DIM
100
AcDbLine
 10
94.288073
 20
6.486889
 30
0.0
 11
94.288073
 21
8.691614
 31
0.0
  0
INSERT
  5
8D4
100
AcDbEntity
  8
DIM
100
AcDbBlockReference
  2
M_PFN_100
 10
94.288073
 20
4.546889
 30
0.0
 41
16.0
 42
16.0
 43
16.0
 50
90.0
  0
INSERT
  5
8D5
100
AcDbEntity
  8
DIM
100
AcDbBlockReference
  2
M_PFN_101
 10
94.288073
 20
6.486889
 30
0.0
 41
16.0
 42
16.0
 43
16.0
 50
90.0
  0
LWPOLYLINE
  5
8D6
100
AcDbEntity
  8
DIM
100
AcDbPolyline
 90
        3
 70
   128
 43
0.0
 10
125.438836
 20
12.707092
 10
125.438836
 20
15.86787
 10
125.438836
 20
16.497791
  0
INSERT
  5
8D7
100
AcDbEntity
  8
DIM
100
AcDbBlockReference
  2
M_PFN_2
 10
125.438836
 20
12.07717
 30
0.0
 41
16.0
 42
16.0
 43
16.0
 50
90.0
  0
LWPOLYLINE
  5
8D8
100
AcDbEntity
  8
DIM
100
AcDbPolyline
 90
        3
 70
   128
 43
0.0
 10
115.069872
 20
11.295005
 10
115.069872
 20
15.86787
 10
115.069872
 20
16.497791
  0
INSERT
  5
8D9
100
AcDbEntity
  8
DIM
100
AcDbBlockReference
  2
M_PFN_2
 10
115.069872
 20
10.665084
 30
0.0
 41
16.0
 42
16.0
 43
16.0
 50
90.0
  0
TEXT
  5
8DA
100
AcDbEntity
  8
DIM
100
AcDbText
 10
117.016451
 20
15.06787
 30
0.0
 40
1.6
  1
10.37
 41
0.897713
  7
M_STANDARD
 11
117.016451
 21
15.86787
 31
0.0
100
AcDbText
 73
     2
  0
TEXT
  5
8DB
100
AcDbEntity
  8
DIM
100
AcDbText
 10
118.906746
 20
12.82883
 30
0.0
 40
1.28
  1
263
 41
0.89305
  7
M_STANDARD
 72
     1
 11
120.376451
 21
14.10883
 31
0.0
100
AcDbText
 73
     3
  0
LINE
  5
8DC
100
AcDbEntity
  8
DIM
100
AcDbLine
 10
116.483651
 20
15.86787
 30
0.0
 11
115.069872
 21
15.86787
 31
0.0
  0
LINE
  5
8DD
100
AcDbEntity
  8
DIM
100
AcDbLine
 10
125.438836
 20
15.86787
 30
0.0
 11
123.954058
 21
15.86787
 31
0.0
  0
INSERT
  5
8DE
100
AcDbEntity
  8
DIM
100
AcDbBlockReference
  2
M_PFN_100
 10
115.069872
 20
15.86787
 30
0.0
 41
16.0
 42
16.0
 43
16.0
 50
180.0
  0
INSERT
  5
8DF
100
AcDbEntity
  8
DIM
100
AcDbBlockReference
  2
M_PFN_101
 10
125.438836
 20
15.86787
 30
0.0
 41
16.0
 42
16.0
 43
16.0
 50
180.0
  0
LWPOLYLINE
  5
8E0
100
AcDbEntity
  8
DIM
100
AcDbPolyline
 90
        3
 70
   128
 43
0.0
 10
116.239547
 20
4.956897
 10
116.239547
 20
-2.780809
 10
116.239547
 20
-3.410731
  0
INSERT
  5
8E1
100
AcDbEntity
  8
DIM
100
AcDbBlockReference
  2
M_PFN_2
 10
116.239547
 20
5.586819
 30
0.0
 41
16.0
 42
16.0
 43
16.0
 50
270.0
  0
LWPOLYLINE
  5
8E2
100
AcDbEntity
  8
DIM
100
AcDbPolyline
 90
        3
 70
   128
 43
0.0
 10
125.439872
 20
3.916968
 10
125.439872
 20
-2.780809
 10
125.439872
 20
-3.410731
  0
INSERT
  5
8E3
100
AcDbEntity
  8
DIM
100
AcDbBlockReference
  2
M_PFN_2
 10
125.439872
 20
4.546889
 30
0.0
 41
16.0
 42
16.0
 43
16.0
 50
270.0
  0
TEXT
  5
8E4
100
AcDbEntity
  8
DIM
100
AcDbText
 10
128.177396
 20
-3.580809
 30
0.0
 40
1.6
  1
9.20
 41
0.93861
  7
M_STANDARD
 11
128.177396
 21
-2.780809
 31
0.0
100
AcDbText
 73
     2
  0
TEXT
  5
8E5
100
AcDbEntity
  8
DIM
100
AcDbText
 10
129.320474
 20
-5.819849
 30
0.0
 40
1.28
  1
234
 41
0.89305
  7
M_STANDARD
 72
     1
 11
130.817396
 21
-4.539849
 31
0.0
100
AcDbText
 73
     3
  0
LINE
  5
8E6
100
AcDbEntity
  8
DIM
100
AcDbLine
 10
127.644596
 20
-2.780809
 30
0.0
 11
125.439872
 21
-2.780809
 31
0.0
  0
LINE
  5
8E7
100
AcDbEntity
  8
DIM
100
AcDbLine
 10
116.239547
 20
-2.780809
 30
0.0
 11
114.034822
 21
-2.780809
 31
0.0
  0
INSERT
  5
8E8
100
AcDbEntity
  8
DIM
100
AcDbBlockReference
  2
M_PFN_100
 10
125.439872
 20
-2.780809
 30
0.0
 41
16.0
 42
16.0
 43
16.0
 50
180.0
  0
INSERT
  5
8E9
100
AcDbEntity
  8
DIM
100
AcDbBlockReference
  2
M_PFN_101
 10
116.239547
 20
-2.780809
 30
0.0
 41
16.0
 42
16.0
 43
16.0
 50
180.0
  0
LWPOLYLINE
  5
8EA
100
AcDbEntity
  8
DIM
100
AcDbPolyline
 90
        3
 70
   128
 43
0.0
 10
122.439766
 20
4.956897
 10
122.439766
 20
1.919164
 10
122.439766
 20
1.289243
  0
INSERT
  5
8EB
100
AcDbEntity
  8
DIM
100
AcDbBlockReference
  2
M_PFN_2
 10
122.439766
 20
5.586819
 30
0.0
 41
16.0
 42
16.0
 43
16.0
 50
270.0
  0
LWPOLYLINE
  5
8EC
100
AcDbEntity
  8
DIM
100
AcDbPolyline
 90
        3
 70
   128
 43
0.0
 10
125.439872
 20
3.279253
 10
125.439872
 20
1.919164
 10
125.439872
 20
1.289243
  0
INSERT
  5
8ED
100
AcDbEntity
  8
DIM
100
AcDbBlockReference
  2
M_PFN_2
 10
125.439872
 20
3.909174
 30
0.0
 41
16.0
 42
16.0
 43
16.0
 50
270.0
  0
TEXT
  5
8EE
100
AcDbEntity
  8
DIM
100
AcDbText
 10
128.177396
 20
1.119164
 30
0.0
 40
1.6
  1
3.00
 41
0.93861
  7
M_STANDARD
 11
128.177396
 21
1.919164
 31
0.0
100
AcDbText
 73
     2
  0
TEXT
  5
8EF
100
AcDbEntity
  8
DIM
100
AcDbText
 10
129.92983
 20
-1.119876
 30
0.0
 40
1.28
  1
76
 41
0.882523
  7
M_STANDARD
 72
     1
 11
130.817396
 21
0.160124
 31
0.0
100
AcDbText
 73
     3
  0
LINE
  5
8F0
100
AcDbEntity
  8
DIM
100
AcDbLine
 10
127.644596
 20
1.919164
 30
0.0
 11
125.439872
 21
1.919164
 31
0.0
  0
LINE
  5
8F1
100
AcDbEntity
  8
DIM
100
AcDbLine
 10
122.439766
 20
1.919164
 30
0.0
 11
120.235041
 21
1.919164
 31
0.0
  0
INSERT
  5
8F2
100
AcDbEntity
  8
DIM
100
AcDbBlockReference
  2
M_PFN_100
 10
125.439872
 20
1.919164
 30
0.0
 41
16.0
 42
16.0
 43
16.0
 50
180.0
  0
INSERT
  5
8F3
100
AcDbEntity
  8
DIM
100
AcDbBlockReference
  2
M_PFN_101
 10
122.439766
 20
1.919164
 30
0.0
 41
16.0
 42
16.0
 43
16.0
 50
180.0
  0
LWPOLYLINE
  5
8F4
100
AcDbEntity
  8
DIM
100
AcDbPolyline
 90
        3
 70
   128
 43
0.0
 10
126.069793
 20
4.546889
 10
134.22148
 20
4.546889
 10
134.851401
 20
4.546889
  0
INSERT
  5
8F5
100
AcDbEntity
  8
DIM
100
AcDbBlockReference
  2
M_PFN_2
 10
125.439872
 20
4.546889
 30
0.0
 41
16.0
 42
16.0
 43
16.0
  0
LWPOLYLINE
  5
8F6
100
AcDbEntity
  8
DIM
100
AcDbPolyline
 90
        3
 70
   128
 43
0.0
 10
125.069754
 20
7.590791
 10
134.22148
 20
7.590791
 10
134.851401
 20
7.590791
  0
INSERT
  5
8F7
100
AcDbEntity
  8
DIM
100
AcDbBlockReference
  2
M_PFN_2
 10
124.439832
 20
7.590791
 30
0.0
 41
16.0
 42
16.0
 43
16.0
  0
TEXT
  5
8F8
100
AcDbEntity
  8
DIM
100
AcDbText
 10
135.856642
 20
12.121991
 30
0.0
 40
1.6
  1
3.04
 41
0.896304
  7
M_STANDARD
 11
135.856642
 21
12.921991
 31
0.0
100
AcDbText
 73
     2
  0
TEXT
  5
8F9
100
AcDbEntity
  8
DIM
100
AcDbText
 10
137.58218
 20
9.882951
 30
0.0
 40
1.28
  1
77
 41
0.882523
  7
M_STANDARD
 72
     1
 11
138.496642
 21
11.162951
 31
0.0
100
AcDbText
 73
     3
  0
LWPOLYLINE
  5
8FA
100
AcDbEntity
  8
DIM
100
AcDbPolyline
 90
        3
 70
   128
 43
0.0
 10
135.323842
 20
12.921991
 10
134.22148
 20
12.921991
 10
134.22148
 20
7.590791
  0
LINE
  5
8FB
100
AcDbEntity
  8
DIM
100
AcDbLine
 10
134.22148
 20
4.546889
 30
0.0
 11
134.22148
 21
2.342165
 31
0.0
  0
INSERT
  5
8FC
100
AcDbEntity
  8
DIM
100
AcDbBlockReference
  2
M_PFN_100
 10
134.22148
 20
7.590791
 30
0.0
 41
16.0
 42
16.0
 43
16.0
 50
270.0
  0
INSERT
  5
8FD
100
AcDbEntity
  8
DIM
100
AcDbBlockReference
  2
M_PFN_101
 10
134.22148
 20
4.546889
 30
0.0
 41
16.0
 42
16.0
 43
16.0
 50
270.0
  0
LWPOLYLINE
  5
8FE
100
AcDbEntity
  8
DIM
100
AcDbPolyline
 90
        3
 70
   128
 43
0.0
 10
117.124578
 20
39.247009
 10
117.124578
 20
36.452255
 10
117.124578
 20
35.822333
  0
INSERT
  5
8FF
100
AcDbEntity
  8
DIM
100
AcDbBlockReference
  2
M_PFN_2
 10
117.124578
 20
39.876931
 30
0.0
 41
16.0
 42
16.0
 43
16.0
 50
270.0
  0
LWPOLYLINE
  5
900
100
AcDbEntity
  8
DIM
100
AcDbPolyline
 90
        3
 70
   128
 43
0.0
 10
125.504874
 20
40.057038
 10
125.504874
 20
36.452255
 10
125.504874
 20
35.822333
  0
INSERT
  5
901
100
AcDbEntity
  8
DIM
100
AcDbBlockReference
  2
M_PFN_2
 10
125.504874
 20
40.686959
 30
0.0
 41
16.0
 42
16.0
 43
16.0
 50
270.0
  0
TEXT
  5
902
100
AcDbEntity
  8
DIM
100
AcDbText
 10
118.789299
 20
35.652255
 30
0.0
 40
1.6
  1
8.38
 41
0.896304
  7
M_STANDARD
 11
118.789299
 21
36.452255
 31
0.0
100
AcDbText
 73
     2
  0
TEXT
  5
903
100
AcDbEntity
  8
DIM
100
AcDbText
 10
120.068461
 20
33.413215
 30
0.0
 40
1.28
  1
213
 41
0.89305
  7
M_STANDARD
 72
     1
 11
121.429299
 21
34.693215
 31
0.0
100
AcDbText
 73
     3
  0
LINE
  5
904
100
AcDbEntity
  8
DIM
100
AcDbLine
 10
127.709598
 20
36.452255
 30
0.0
 11
125.504874
 21
36.452255
 31
0.0
  0
LINE
  5
905
100
AcDbEntity
  8
DIM
100
AcDbLine
 10
117.124578
 20
36.452255
 30
0.0
 11
114.919853
 21
36.452255
 31
0.0
  0
INSERT
  5
906
100
AcDbEntity
  8
DIM
100
AcDbBlockReference
  2
M_PFN_100
 10
125.504874
 20
36.452255
 30
0.0
 41
16.0
 42
16.0
 43
16.0
 50
180.0
  0
INSERT
  5
907
100
AcDbEntity
  8
DIM
100
AcDbBlockReference
  2
M_PFN_101
 10
117.124578
 20
36.452255
 30
0.0
 41
16.0
 42
16.0
 43
16.0
 50
180.0
  0
LWPOLYLINE
  5
908
100
AcDbEntity
  8
DIM
100
AcDbPolyline
 90
        3
 70
   128
 43
0.0
 10
117.124578
 20
39.247009
 10
117.124578
 20
36.452255
 10
117.124578
 20
35.822333
  0
INSERT
  5
909
100
AcDbEntity
  8
DIM
100
AcDbBlockReference
  2
M_PFN_2
 10
117.124578
 20
39.876931
 30
0.0
 41
16.0
 42
16.0
 43
16.0
 50
270.0
  0
LWPOLYLINE
  5
90A
100
AcDbEntity
  8
DIM
100
AcDbPolyline
 90
        3
 70
   128
 43
0.0
 10
104.574135
 20
39.247009
 10
104.574135
 20
36.452255
 10
104.574135
 20
35.822333
  0
INSERT
  5
90B
100
AcDbEntity
  8
DIM
100
AcDbBlockReference
  2
M_PFN_2
 10
104.574135
 20
39.876931
 30
0.0
 41
16.0
 42
16.0
 43
16.0
 50
270.0
  0
TEXT
  5
90C
100
AcDbEntity
  8
DIM
100
AcDbText
 10
107.489356
 20
35.652255
 30
0.0
 40
1.6
  1
12.55
 41
0.897713
  7
M_STANDARD
 11
107.489356
 21
36.452255
 31
0.0
100
AcDbText
 73
     2
  0
TEXT
  5
90D
100
AcDbEntity
  8
DIM
100
AcDbText
 10
109.515735
 20
33.413215
 30
0.0
 40
1.28
  1
319
 41
0.89305
  7
M_STANDARD
 72
     1
 11
110.849356
 21
34.693215
 31
0.0
100
AcDbText
 73
     3
  0
LINE
  5
90E
100
AcDbEntity
  8
DIM
100
AcDbLine
 10
104.574135
 20
36.452255
 30
0.0
 11
106.956556
 21
36.452255
 31
0.0
  0
LINE
  5
90F
100
AcDbEntity
  8
DIM
100
AcDbLine
 10
114.742156
 20
36.452255
 30
0.0
 11
117.124578
 21
36.452255
 31
0.0
  0
INSERT
  5
910
100
AcDbEntity
  8
DIM
100
AcDbBlockReference
  2
M_PFN_101
 10
104.574135
 20
36.452255
 30
0.0
 41
16.0
 42
16.0
 43
16.0
  0
INSERT
  5
911
100
AcDbEntity
  8
DIM
100
AcDbBlockReference
  2
M_PFN_100
 10
117.124578
 20
36.452255
 30
0.0
 41
16.0
 42
16.0
 43
16.0
  0
LWPOLYLINE
  5
912
100
AcDbEntity
  8
DIM
100
AcDbPolyline
 90
        3
 70
   128
 43
0.0
 10
106.013839
 20
91.252224
 10
106.013839
 20
89.314994
 10
106.013839
 20
88.685072
  0
INSERT
  5
913
100
AcDbEntity
  8
DIM
100
AcDbBlockReference
  2
M_PFN_2
 10
106.013839
 20
91.882146
 30
0.0
 41
16.0
 42
16.0
 43
16.0
 50
270.0
  0
LWPOLYLINE
  5
914
100
AcDbEntity
  8
DIM
100
AcDbPolyline
 90
        3
 70
   128
 43
0.0
 10
96.193839
 20
91.252224
 10
96.193839
 20
89.314994
 10
96.193839
 20
88.685072
  0
INSERT
  5
915
100
AcDbEntity
  8
DIM
100
AcDbBlockReference
  2
M_PFN_2
 10
96.193839
 20
91.882146
 30
0.0
 41
16.0
 42
16.0
 43
16.0
 50
270.0
  0
TEXT
  5
916
100
AcDbEntity
  8
DIM
100
AcDbText
 10
98.602916
 20
88.514994
 30
0.0
 40
1.6
  1
9.82
 41
0.896304
  7
M_STANDARD
 11
98.602916
 21
89.314994
 31
0.0
100
AcDbText
 73
     2
  0
TEXT
  5
917
100
AcDbEntity
  8
DIM
100
AcDbText
 10
99.800427
 20
86.275954
 30
0.0
 40
1.28
  1
249
 41
0.89305
  7
M_STANDARD
 72
     1
 11
101.242916
 21
87.555954
 31
0.0
100
AcDbText
 73
     3
  0
LINE
  5
918
100
AcDbEntity
  8
DIM
100
AcDbLine
 10
98.070116
 20
89.314994
 30
0.0
 11
96.193839
 21
89.314994
 31
0.0
  0
LINE
  5
919
100
AcDbEntity
  8
DIM
100
AcDbLine
 10
106.013839
 20
89.314994
 30
0.0
 11
104.239535
 21
89.314994
 31
0.0
  0
INSERT
  5
91A
100
AcDbEntity
  8
DIM
100
AcDbBlockReference
  2
M_PFN_100
 10
96.193839
 20
89.314994
 30
0.0
 41
16.0
 42
16.0
 43
16.0
 50
180.0
  0
INSERT
  5
91B
100
AcDbEntity
  8
DIM
100
AcDbBlockReference
  2
M_PFN_101
 10
106.013839
 20
89.314994
 30
0.0
 41
16.0
 42
16.0
 43
16.0
 50
180.0
  0
LWPOLYLINE
  5
91C
100
AcDbEntity
  8
DIM
100
AcDbPolyline
 90
        3
 70
   128
 43
0.0
 10
125.569876
 20
93.318717
 10
125.569876
 20
97.273823
 10
125.569876
 20
97.903744
  0
INSERT
  5
91D
100
AcDbEntity
  8
DIM
100
AcDbBlockReference
  2
M_PFN_2
 10
125.569876
 20
92.688796
 30
0.0
 41
16.0
 42
16.0
 43
16.0
 50
90.0
  0
LWPOLYLINE
  5
91E
100
AcDbEntity
  8
DIM
100
AcDbPolyline
 90
        3
 70
   128
 43
0.0
 10
96.128836
 20
93.318717
 10
96.128836
 20
97.273823
 10
96.128836
 20
97.903744
  0
INSERT
  5
91F
100
AcDbEntity
  8
DIM
100
AcDbBlockReference
  2
M_PFN_2
 10
96.128836
 20
92.688796
 30
0.0
 41
16.0
 42
16.0
 43
16.0
 50
90.0
  0
TEXT
  5
920
100
AcDbEntity
  8
DIM
100
AcDbText
 10
107.489356
 20
96.473823
 30
0.0
 40
1.6
  1
29.44
 50
360.0
 41
0.897713
  7
M_STANDARD
 11
107.489356
 21
97.273823
 31
0.0
100
AcDbText
 73
     2
  0
TEXT
  5
921
100
AcDbEntity
  8
DIM
100
AcDbText
 10
109.379651
 20
94.234783
 30
0.0
 40
1.28
  1
748
 50
360.0
 41
0.89305
  7
M_STANDARD
 72
     1
 11
110.849356
 21
95.514783
 31
0.0
100
AcDbText
 73
     3
  0
LINE
  5
922
100
AcDbEntity
  8
DIM
100
AcDbLine
 10
96.128836
 20
97.273823
 30
0.0
 11
106.956556
 21
97.273823
 31
0.0
  0
LINE
  5
923
100
AcDbEntity
  8
DIM
100
AcDbLine
 10
114.742156
 20
97.273823
 30
0.0
 11
125.569876
 21
97.273823
 31
0.0
  0
INSERT
  5
924
100
AcDbEntity
  8
DIM
100
AcDbBlockReference
  2
M_PFN_101
 10
96.128836
 20
97.273823
 30
0.0
 41
16.0
 42
16.0
 43
16.0
  0
INSERT
  5
925
100
AcDbEntity
  8
DIM
100
AcDbBlockReference
  2
M_PFN_100
 10
125.569876
 20
97.273823
 30
0.0
 41
16.0
 42
16.0
 43
16.0
  0
LWPOLYLINE
  5
926
100
AcDbEntity
  8
DIM
100
AcDbPolyline
 90
        3
 70
   128
 43
0.0
 10
112.949319
 20
61.907709
 10
120.940131
 20
61.907709
 10
121.570052
 20
61.907709
  0
INSERT
  5
927
100
AcDbEntity
  8
DIM
100
AcDbBlockReference
  2
M_PFN_2
 10
112.319398
 20
61.907709
 30
0.0
 41
16.0
 42
16.0
 43
16.0
  0
LWPOLYLINE
  5
928
100
AcDbEntity
  8
DIM
100
AcDbPolyline
 90
        3
 70
   128
 43
0.0
 10
112.949319
 20
52.907391
 10
120.940131
 20
52.907391
 10
121.570052
 20
52.907391
  0
INSERT
  5
929
100
AcDbEntity
  8
DIM
100
AcDbBlockReference
  2
M_PFN_2
 10
112.319398
 20
52.907391
 30
0.0
 41
16.0
 42
16.0
 43
16.0
  0
TEXT
  5
92A
100
AcDbEntity
  8
DIM
100
AcDbText
 10
118.300131
 20
58.771391
 30
0.0
 40
1.6
  1
9.00
 41
0.93861
  7
M_STANDARD
 11
118.300131
 21
59.571391
 31
0.0
100
AcDbText
 73
     2
  0
TEXT
  5
92B
100
AcDbEntity
  8
DIM
100
AcDbText
 10
119.497643
 20
56.532351
 30
0.0
 40
1.28
  1
229
 41
0.89305
  7
M_STANDARD
 72
     1
 11
120.940131
 21
57.812351
 31
0.0
100
AcDbText
 73
     3
  0
LINE
  5
92C
100
AcDbEntity
  8
DIM
100
AcDbLine
 10
120.940131
 20
50.702666
 30
0.0
 11
120.940131
 21
52.907391
 31
0.0
  0
LINE
  5
92D
100
AcDbEntity
  8
DIM
100
AcDbLine
 10
120.940131
 20
61.907709
 30
0.0
 11
120.940131
 21
64.112433
 31
0.0
  0
INSERT
  5
92E
100
AcDbEntity
  8
DIM
100
AcDbBlockReference
  2
M_PFN_100
 10
120.940131
 20
52.907391
 30
0.0
 41
16.0
 42
16.0
 43
16.0
 50
90.0
  0
INSERT
  5
92F
100
AcDbEntity
  8
DIM
100
AcDbBlockReference
  2
M_PFN_101
 10
120.940131
 20
61.907709
 30
0.0
 41
16.0
 42
16.0
 43
16.0
 50
90.0
  0
LWPOLYLINE
  5
930
100
AcDbEntity
  8
DIM
100
AcDbPolyline
 90
        3
 70
   128
 43
0.0
 10
106.013839
 20
91.252224
 10
106.013839
 20
89.314994
 10
106.013839
 20
88.685072
  0
INSERT
  5
931
100
AcDbEntity
  8
DIM
100
AcDbBlockReference
  2
M_PFN_2
 10
106.013839
 20
91.882146
 30
0.0
 41
16.0
 42
16.0
 43
16.0
 50
270.0
  0
LWPOLYLINE
  5
932
100
AcDbEntity
  8
DIM
100
AcDbPolyline
 90
        3
 70
   128
 43
0.0
 10
113.373839
 20
91.252224
 10
113.373839
 20
89.314994
 10
113.373839
 20
88.685072
  0
INSERT
  5
933
100
AcDbEntity
  8
DIM
100
AcDbBlockReference
  2
M_PFN_2
 10
113.373839
 20
91.882146
 30
0.0
 41
16.0
 42
16.0
 43
16.0
 50
270.0
  0
TEXT
  5
934
100
AcDbEntity
  8
DIM
100
AcDbText
 10
107.13808
 20
88.514994
 30
0.0
 40
1.6
  1
7.36
 41
0.896304
  7
M_STANDARD
 11
107.13808
 21
89.314994
 31
0.0
100
AcDbText
 73
     2
  0
TEXT
  5
935
100
AcDbEntity
  8
DIM
100
AcDbText
 10
108.417242
 20
86.275954
 30
0.0
 40
1.28
  1
187
 41
0.89305
  7
M_STANDARD
 72
     1
 11
109.77808
 21
87.555954
 31
0.0
100
AcDbText
 73
     3
  0
LINE
  5
936
100
AcDbEntity
  8
DIM
100
AcDbLine
 10
115.578563
 20
89.314994
 30
0.0
 11
113.373839
 21
89.314994
 31
0.0
  0
LINE
  5
937
100
AcDbEntity
  8
DIM
100
AcDbLine
 10
106.013839
 20
89.314994
 30
0.0
 11
104.239535
 21
89.314994
 31
0.0
  0
INSERT
  5
938
100
AcDbEntity
  8
DIM
100
AcDbBlockReference
  2
M_PFN_100
 10
113.373839
 20
89.314994
 30
0.0
 41
16.0
 42
16.0
 43
16.0
 50
180.0
  0
INSERT
  5
939
100
AcDbEntity
  8
DIM
100
AcDbBlockReference
  2
M_PFN_101
 10
106.013839
 20
89.314994
 30
0.0
 41
16.0
 42
16.0
 43
16.0
 50
180.0
  0
LWPOLYLINE
  5
93A
100
AcDbEntity
  8
DIM
100
AcDbPolyline
 90
        3
 70
   128
 43
0.0
 10
121.804743
 20
105.744045
 10
121.804743
 20
103.931517
 10
121.804743
 20
103.301596
  0
INSERT
  5
93B
100
AcDbEntity
  8
DIM
100
AcDbBlockReference
  2
M_PFN_2
 10
121.804743
 20
106.373966
 30
0.0
 41
16.0
 42
16.0
 43
16.0
 50
270.0
  0
LINE
  5
93C
100
AcDbEntity
  8
DIM
100
AcDbLine
 10
125.504874
 20
104.065781
 30
0.0
 11
125.504874
 21
103.931517
 31
0.0
  0
INSERT
  5
93D
100
AcDbEntity
  8
DIM
100
AcDbBlockReference
  2
M_PFN_2
 10
125.504874
 20
104.065781
 30
0.0
 41
16.0
 42
16.0
 43
16.0
 50
270.0
  0
TEXT
  5
93E
100
AcDbEntity
  8
DIM
100
AcDbText
 10
128.242398
 20
103.131517
 30
0.0
 40
1.6
  1
3.70
 41
0.93861
  7
M_STANDARD
 11
128.242398
 21
103.931517
 31
0.0
100
AcDbText
 73
     2
  0
TEXT
  5
93F
100
AcDbEntity
  8
DIM
100
AcDbText
 10
129.941041
 20
100.892477
 30
0.0
 40
1.28
  1
94
 41
0.882523
  7
M_STANDARD
 72
     1
 11
130.882398
 21
102.172477
 31
0.0
100
AcDbText
 73
     3
  0
LINE
  5
940
100
AcDbEntity
  8
DIM
100
AcDbLine
 10
127.709598
 20
103.931517
 30
0.0
 11
125.504874
 21
103.931517
 31
0.0
  0
LINE
  5
941
100
AcDbEntity
  8
DIM
100
AcDbLine
 10
121.804743
 20
103.931517
 30
0.0
 11
119.600019
 21
103.931517
 31
0.0
  0
INSERT
  5
942
100
AcDbEntity
  8
DIM
100
AcDbBlockReference
  2
M_PFN_100
 10
125.504874
 20
103.931517
 30
0.0
 41
16.0
 42
16.0
 43
16.0
 50
180.0
  0
INSERT
  5
943
100
AcDbEntity
  8
DIM
100
AcDbBlockReference
  2
M_PFN_101
 10
121.804743
 20
103.931517
 30
0.0
 41
16.0
 42
16.0
 43
16.0
 50
180.0
  0
LWPOLYLINE
  5
944
100
AcDbEntity
  8
DIM
100
AcDbPolyline
 90
        3
 70
   128
 43
0.0
 10
115.804531
 20
111.004029
 10
115.804531
 20
116.927645
 10
115.804531
 20
117.557567
  0
INSERT
  5
945
100
AcDbEntity
  8
DIM
100
AcDbBlockReference
  2
M_PFN_2
 10
115.804531
 20
110.374107
 30
0.0
 41
16.0
 42
16.0
 43
16.0
 50
90.0
  0
LWPOLYLINE
  5
946
100
AcDbEntity
  8
DIM
100
AcDbPolyline
 90
        3
 70
   128
 43
0.0
 10
125.504874
 20
112.583436
 10
125.504874
 20
116.927645
 10
125.504874
 20
117.557567
  0
INSERT
  5
947
100
AcDbEntity
  8
DIM
100
AcDbBlockReference
  2
M_PFN_2
 10
125.504874
 20
111.953515
 30
0.0
 41
16.0
 42
16.0
 43
16.0
 50
90.0
  0
TEXT
  5
948
100
AcDbEntity
  8
DIM
100
AcDbText
 10
118.178095
 20
116.127645
 30
0.0
 40
1.6
  1
9.70
 41
0.93861
  7
M_STANDARD
 11
118.178095
 21
116.927645
 31
0.0
100
AcDbText
 73
     2
  0
TEXT
  5
949
100
AcDbEntity
  8
DIM
100
AcDbText
 10
119.375606
 20
113.888605
 30
0.0
 40
1.28
  1
246
 41
0.89305
  7
M_STANDARD
 72
     1
 11
120.818095
 21
115.168605
 31
0.0
100
AcDbText
 73
     3
  0
LINE
  5
94A
100
AcDbEntity
  8
DIM
100
AcDbLine
 10
123.832764
 20
116.927645
 30
0.0
 11
125.504874
 21
116.927645
 31
0.0
  0
LINE
  5
94B
100
AcDbEntity
  8
DIM
100
AcDbLine
 10
115.804531
 20
116.927645
 30
0.0
 11
117.645295
 21
116.927645
 31
0.0
  0
INSERT
  5
94C
100
AcDbEntity
  8
DIM
100
AcDbBlockReference
  2
M_PFN_100
 10
125.504874
 20
116.927645
 30
0.0
 41
16.0
 42
16.0
 43
16.0
  0
INSERT
  5
94D
100
AcDbEntity
  8
DIM
100
AcDbBlockReference
  2
M_PFN_101
 10
115.804531
 20
116.927645
 30
0.0
 41
16.0
 42
16.0
 43
16.0
  0
LWPOLYLINE
  5
94E
100
AcDbEntity
  8
DIM
100
AcDbPolyline
 90
        3
 70
   128
 43
0.0
 10
124.434735
 20
108.374037
 10
127.709598
 20
108.374037
 10
128.33952
 20
108.374037
  0
INSERT
  5
94F
100
AcDbEntity
  8
DIM
100
AcDbBlockReference
  2
M_PFN_2
 10
123.804814
 20
108.374037
 30
0.0
 41
16.0
 42
16.0
 43
16.0
  0
LWPOLYLINE
  5
950
100
AcDbEntity
  8
DIM
100
AcDbPolyline
 90
        3
 70
   128
 43
0.0
 10
126.134795
 20
110.954128
 10
127.709598
 20
110.954128
 10
128.33952
 20
110.954128
  0
INSERT
  5
951
100
AcDbEntity
  8
DIM
100
AcDbBlockReference
  2
M_PFN_2
 10
125.504874
 20
110.954128
 30
0.0
 41
16.0
 42
16.0
 43
16.0
  0
TEXT
  5
952
100
AcDbEntity
  8
DIM
100
AcDbText
 10
129.34476
 20
115.485328
 30
0.0
 40
1.6
  1
2.58
 41
0.896304
  7
M_STANDARD
 11
129.34476
 21
116.285328
 31
0.0
100
AcDbText
 73
     2
  0
TEXT
  5
953
100
AcDbEntity
  8
DIM
100
AcDbText
 10
131.097195
 20
113.246288
 30
0.0
 40
1.28
  1
66
 41
0.882523
  7
M_STANDARD
 72
     1
 11
131.98476
 21
114.526288
 31
0.0
100
AcDbText
 73
     3
  0
LWPOLYLINE
  5
954
100
AcDbEntity
  8
DIM
100
AcDbPolyline
 90
        3
 70
   128
 43
0.0
 10
128.81196
 20
116.285328
 10
127.709598
 20
116.285328
 10
127.709598
 20
110.954128
  0
LINE
  5
955
100
AcDbEntity
  8
DIM
100
AcDbLine
 10
127.709598
 20
108.374037
 30
0.0
 11
127.709598
 21
106.169312
 31
0.0
  0
INSERT
  5
956
100
AcDbEntity
  8
DIM
100
AcDbBlockReference
  2
M_PFN_100
 10
127.709598
 20
110.954128
 30
0.0
 41
16.0
 42
16.0
 43
16.0
 50
270.0
  0
INSERT
  5
957
100
AcDbEntity
  8
DIM
100
AcDbBlockReference
  2
M_PFN_101
 10
127.709598
 20
108.374037
 30
0.0
 41
16.0
 42
16.0
 43
16.0
 50
270.0
  0
LWPOLYLINE
  5
958
100
AcDbEntity
  8
DIM
100
AcDbPolyline
 90
        3
 70
   128
 43
0.0
 10
177.45312
 20
104.479739
 10
180.139377
 20
104.479739
 10
180.769298
 20
104.479739
  0
INSERT
  5
959
100
AcDbEntity
  8
DIM
100
AcDbBlockReference
  2
M_PFN_2
 10
176.823198
 20
104.479739
 30
0.0
 41
16.0
 42
16.0
 43
16.0
  0
LWPOLYLINE
  5
95A
100
AcDbEntity
  8
DIM
100
AcDbPolyline
 90
        3
 70
   128
 43
0.0
 10
178.424903
 20
98.479739
 10
180.139377
 20
98.479739
 10
180.769298
 20
98.479739
  0
INSERT
  5
95B
100
AcDbEntity
  8
DIM
100
AcDbBlockReference
  2
M_PFN_2
 10
177.794982
 20
98.479739
 30
0.0
 41
16.0
 42
16.0
 43
16.0
  0
TEXT
  5
95C
100
AcDbEntity
  8
DIM
100
AcDbText
 10
181.774539
 20
95.475015
 30
0.0
 40
1.6
  1
.75
 41
0.89305
  7
M_STANDARD
 11
181.774539
 21
96.275015
 31
0.0
100
AcDbText
 73
     2
  0
TEXT
  5
95D
100
AcDbEntity
  8
DIM
100
AcDbText
 10
182.724083
 20
93.235975
 30
0.0
 40
1.28
  1
19
 41
0.882523
  7
M_STANDARD
 72
     1
 11
183.504065
 21
94.515975
 31
0.0
100
AcDbText
 73
     3
  0
LWPOLYLINE
  5
95E
100
AcDbEntity
  8
DIM
100
AcDbPolyline
 90
        3
 70
   128
 43
0.0
 10
181.241739
 20
96.275015
 10
180.139377
 20
96.275015
 10
180.139377
 20
98.479739
  0
LINE
  5
95F
100
AcDbEntity
  8
DIM
100
AcDbLine
 10
180.139377
 20
104.479739
 30
0.0
 11
180.139377
 21
106.684464
 31
0.0
  0
INSERT
  5
960
100
AcDbEntity
  8
DIM
100
AcDbBlockReference
  2
M_PFN_100
 10
180.139377
 20
98.479739
 30
0.0
 41
16.0
 42
16.0
 43
16.0
 50
90.0
  0
INSERT
  5
961
100
AcDbEntity
  8
DIM
100
AcDbBlockReference
  2
M_PFN_101
 10
180.139377
 20
104.479739
 30
0.0
 41
16.0
 42
16.0
 43
16.0
 50
90.0
  0
LWPOLYLINE
  5
962
100
AcDbEntity
  8
DIM
100
AcDbPolyline
 90
        3
 70
   128
 43
0.0
 10
177.794982
 20
103.426483
 10
177.794982
 20
114.630388
 10
177.794982
 20
115.260309
  0
INSERT
  5
963
100
AcDbEntity
  8
DIM
100
AcDbBlockReference
  2
M_PFN_2
 10
177.794982
 20
102.796561
 30
0.0
 41
16.0
 42
16.0
 43
16.0
 50
90.0
  0
LWPOLYLINE
  5
964
100
AcDbEntity
  8
DIM
100
AcDbPolyline
 90
        3
 70
   128
 43
0.0
 10
161.78306
 20
107.359661
 10
161.78306
 20
114.630388
 10
161.78306
 20
115.260309
  0
INSERT
  5
965
100
AcDbEntity
  8
DIM
100
AcDbBlockReference
  2
M_PFN_2
 10
161.78306
 20
106.729739
 30
0.0
 41
16.0
 42
16.0
 43
16.0
 50
90.0
  0
TEXT
  5
966
100
AcDbEntity
  8
DIM
100
AcDbText
 10
166.429021
 20
113.830388
 30
0.0
 40
1.6
  1
8.28
 41
0.896304
  7
M_STANDARD
 11
166.429021
 21
114.630388
 31
0.0
100
AcDbText
 73
     2
  0
TEXT
  5
967
100
AcDbEntity
  8
DIM
100
AcDbText
 10
168.338996
 20
111.591348
 30
0.0
 40
1.28
  1
210
 41
0.951579
  7
M_STANDARD
 72
     1
 11
169.789021
 21
112.871348
 31
0.0
100
AcDbText
 73
     3
  0
LINE
  5
968
100
AcDbEntity
  8
DIM
100
AcDbLine
 10
161.78306
 20
114.630388
 30
0.0
 11
165.896221
 21
114.630388
 31
0.0
  0
LINE
  5
969
100
AcDbEntity
  8
DIM
100
AcDbLine
 10
173.681821
 20
114.630388
 30
0.0
 11
177.794982
 21
114.630388
 31
0.0
  0
INSERT
  5
96A
100
AcDbEntity
  8
DIM
100
AcDbBlockReference
  2
M_PFN_101
 10
161.78306
 20
114.630388
 30
0.0
 41
16.0
 42
16.0
 43
16.0
  0
INSERT
  5
96B
100
AcDbEntity
  8
DIM
100
AcDbBlockReference
  2
M_PFN_100
 10
177.794982
 20
114.630388
 30
0.0
 41
16.0
 42
16.0
 43
16.0
  0
LWPOLYLINE
  5
96C
100
AcDbEntity
  8
DIM
100
AcDbPolyline
 90
        3
 70
   128
 43
0.0
 10
289.002823
 20
31.47906
 10
281.669008
 20
31.47906
 10
281.039086
 20
31.47906
  0
INSERT
  5
96D
100
AcDbEntity
  8
DIM
100
AcDbBlockReference
  2
M_PFN_2
 10
289.632744
 20
31.47906
 30
0.0
 41
16.0
 42
16.0
 43
16.0
 50
180.0
  0
LWPOLYLINE
  5
96E
100
AcDbEntity
  8
DIM
100
AcDbPolyline
 90
        3
 70
   128
 43
0.0
 10
285.402823
 20
37.55906
 10
281.669008
 20
37.55906
 10
281.039086
 20
37.55906
  0
INSERT
  5
96F
100
AcDbEntity
  8
DIM
100
AcDbBlockReference
  2
M_PFN_2
 10
286.032744
 20
37.55906
 30
0.0
 41
16.0
 42
16.0
 43
16.0
 50
180.0
  0
TEXT
  5
970
100
AcDbEntity
  8
DIM
100
AcDbText
 10
276.296402
 20
42.09026
 30
0.0
 40
1.6
  1
.95
 41
0.89305
  7
M_STANDARD
 11
276.296402
 21
42.89026
 31
0.0
100
AcDbText
 73
     2
  0
TEXT
  5
971
100
AcDbEntity
  8
DIM
100
AcDbText
 10
277.711718
 20
39.85122
 30
0.0
 40
1.28
  1
24
 41
0.882523
  7
M_STANDARD
 72
     1
 11
278.653075
 21
41.13122
 31
0.0
100
AcDbText
 73
     3
  0
LWPOLYLINE
  5
972
100
AcDbEntity
  8
DIM
100
AcDbPolyline
 90
        3
 70
   128
 43
0.0
 10
280.566645
 20
42.89026
 10
281.669008
 20
42.89026
 10
281.669008
 20
37.55906
  0
LINE
  5
973
100
AcDbEntity
  8
DIM
100
AcDbLine
 10
281.669008
 20
31.47906
 30
0.0
 11
281.669008
 21
29.274336
 31
0.0
  0
INSERT
  5
974
100
AcDbEntity
  8
DIM
100
AcDbBlockReference
  2
M_PFN_100
 10
281.669008
 20
37.55906
 30
0.0
 41
16.0
 42
16.0
 43
16.0
 50
270.0
  0
INSERT
  5
975
100
AcDbEntity
  8
DIM
100
AcDbBlockReference
  2
M_PFN_101
 10
281.669008
 20
31.47906
 30
0.0
 41
16.0
 42
16.0
 43
16.0
 50
270.0
  0
LWPOLYLINE
  5
976
100
AcDbEntity
  8
DIM
100
AcDbPolyline
 90
        3
 70
   128
 43
0.0
 10
285.402823
 20
26.48706
 10
273.110098
 20
26.48706
 10
272.480177
 20
26.48706
  0
INSERT
  5
977
100
AcDbEntity
  8
DIM
100
AcDbBlockReference
  2
M_PFN_2
 10
286.032744
 20
26.48706
 30
0.0
 41
16.0
 42
16.0
 43
16.0
 50
180.0
  0
LWPOLYLINE
  5
978
100
AcDbEntity
  8
DIM
100
AcDbPolyline
 90
        3
 70
   128
 43
0.0
 10
285.402823
 20
37.55906
 10
273.110098
 20
37.55906
 10
272.480177
 20
37.55906
  0
INSERT
  5
979
100
AcDbEntity
  8
DIM
100
AcDbBlockReference
  2
M_PFN_2
 10
286.032744
 20
37.55906
 30
0.0
 41
16.0
 42
16.0
 43
16.0
 50
180.0
  0
TEXT
  5
97A
100
AcDbEntity
  8
DIM
100
AcDbText
 10
270.470098
 20
32.55586
 30
0.0
 40
1.6
  1
1.73
 41
0.896304
  7
M_STANDARD
 11
270.470098
 21
33.35586
 31
0.0
100
AcDbText
 73
     2
  0
TEXT
  5
97B
100
AcDbEntity
  8
DIM
100
AcDbText
 10
272.16874
 20
30.31682
 30
0.0
 40
1.28
  1
44
 41
0.882523
  7
M_STANDARD
 72
     1
 11
273.110098
 21
31.59682
 31
0.0
100
AcDbText
 73
     3
  0
LINE
  5
97C
100
AcDbEntity
  8
DIM
100
AcDbLine
 10
273.110098
 20
37.55906
 30
0.0
 11
273.110098
 21
34.68866
 31
0.0
  0
LINE
  5
97D
100
AcDbEntity
  8
DIM
100
AcDbLine
 10
273.110098
 20
29.35746
 30
0.0
 11
273.110098
 21
26.48706
 31
0.0
  0
INSERT
  5
97E
100
AcDbEntity
  8
DIM
100
AcDbBlockReference
  2
M_PFN_101
 10
273.110098
 20
37.55906
 30
0.0
 41
16.0
 42
16.0
 43
16.0
 50
270.0
  0
INSERT
  5
97F
100
AcDbEntity
  8
DIM
100
AcDbBlockReference
  2
M_PFN_100
 10
273.110098
 20
26.48706
 30
0.0
 41
16.0
 42
16.0
 43
16.0
 50
270.0
  0
LWPOLYLINE
  5
9B2
102
{ACAD_REACTORS
330
9B3
102
}
100
AcDbEntity
  8
0
 62
     0
100
AcDbPolyline
 90
        6
 70
     1
 43
0.0
 10
53.717483
 20
125.202863
 10
316.117499
 20
125.202863
 10
316.117023
 20
-26.595565
 10
181.756854
 20
-26.595565
 10
181.756854
 20
-41.187564
 10
53.717483
 20
-41.187569
  0
VIEWPORT
  5
9B3
102
{ACAD_XDICTIONARY
360
A1B
102
}
100
AcDbEntity
  8
0
 62
     0
100
AcDbViewport
 10
184.917491
 20
42.007647
 30
0.0
 40
262.400016
 41
166.390432
 69
     0
1001
ACAD
1000
MVIEW
1002
{
1070
    16
1010
0.0
1020
0.0
1030
0.0
1010
0.0
1020
0.0
1030
1.0
1040
0.0
1040
2662.246912
1040
-1165.730496
1040
284.735132
1040
50.0
1040
0.0
1040
0.0
1070
     0
1070
   100
1070
     1
1070
     0
1070
     0
1070
     0
1070
     0
1070
     0
1040
0.0
1040
0.0
1040
0.0
1040
0.19685
1040
0.19685
1040
0.19685
1040
0.19685
1070
     0
1002
{
1002
}
1002
}
  0
VIEWPORT
  5
984
102
{ACAD_XDICTIONARY
360
A17
102
}
100
AcDbEntity
 67
     1
  8
0
 62
     0
100
AcDbViewport
 10
8.992385
 20
5.292084
 30
0.0
 40
18.131657
 41
10.663948
 68
     1
 69
     1
1001
ACAD
1000
MVIEW
1002
{
1070
    16
1010
0.0
1020
0.0
1030
0.0
1010
0.0
1020
0.0
1030
1.0
1040
0.0
1040
10.663948
1040
8.992385
1040
5.292084
1040
50.0
1040
0.0
1040
0.0
1070
     0
1070
   100
1070
     1
1070
     1
1070
     0
1070
     0
1070
     0
1070
     0
1040
0.0
1040
0.0
1040
0.0
1040
0.5
1040
0.5
1040
0.5
1040
0.5
1070
     0
1002
{
1002
}
1002
}
  0
LWPOLYLINE
  5
999
100
AcDbEntity
 67
     1
  8
BORDER
100
AcDbPolyline
 90
        4
 70
   129
 43
0.0
 10
0.000981
 20
0.177386
 10
16.400982
 20
0.177386
 10
16.400982
 20
10.576788
 10
0.000981
 20
10.576788
  0
LWPOLYLINE
  5
99A
100
AcDbEntity
 67
     1
  8
BORDER
100
AcDbPolyline
 90
        3
 70
   128
 43
0.0
 10
8.003442
 20
0.177386
 10
8.003442
 20
1.089386
 10
16.400952
 20
1.089386
  0
INSERT
  5
99B
100
AcDbEntity
 67
     1
  8
BORDER
100
AcDbBlockReference
  2
M_PIC_H94
 10
14.381513
 20
0.917239
 30
0.0
 41
0.21
 42
0.21
 43
0.21
1001
MED_PRIMTYPE
1000
SUP
  0
LINE
  5
99C
100
AcDbEntity
 67
     1
  8
BORDER
100
AcDbLine
 10
12.202197
 20
0.472959
 30
0.0
 11
16.400952
 21
0.472959
 31
0.0
  0
TEXT
  5
99D
100
AcDbEntity
 67
     1
  8
BORDER
100
AcDbText
 10
8.782897
 20
0.718663
 30
0.0
 40
0.1
  1
MP METER-PAK METERING EQUIPMENT
 41
0.899947
  7
M_STANDARD
 72
     1
 11
10.102819
 21
0.768663
 31
0.0
100
AcDbText
 73
     2
  0
TEXT
  5
99E
100
AcDbEntity
 67
     1
  8
BORDER
100
AcDbText
 10
8.902872
 20
0.457663
 30
0.0
 40
0.08
  1
200A MAXIMUM TENANT CIRCUIT BREAKERS
 41
0.899961
  7
M_STANDARD
 72
     1
 11
10.102819
 21
0.497663
 31
0.0
100
AcDbText
 73
     2
  0
TEXT
  5
99F
100
AcDbEntity
 67
     1
  8
BORDER
100
AcDbText
 10
9.348623
 20
0.593386
 30
0.0
 40
0.08
  1
NEMA TYPE 3R ENCLOSURE
 41
0.899894
  7
M_STANDARD
 72
     1
 11
10.102819
 21
0.633386
 31
0.0
100
AcDbText
 73
     2
  0
LINE
  5
9A0
100
AcDbEntity
 67
     1
  8
BORDER
100
AcDbLine
 10
12.202197
 20
1.089386
 30
0.0
 11
12.202197
 21
0.177386
 31
0.0
  0
TEXT
  5
9A1
100
AcDbEntity
 67
     1
  8
BORDER
100
AcDbText
 10
12.748705
 20
0.273927
 30
0.0
 40
0.12
  1
2528
 41
0.951202
  7
M_STANDARD
 11
12.748705
 21
0.333927
 31
0.0
100
AcDbText
 73
     2
  0
TEXT
  5
9A2
100
AcDbEntity
 67
     1
  8
BORDER
100
AcDbText
 10
12.369958
 20
0.343543
 30
0.0
 40
0.07
  1
DWG.
 41
1.093272
  7
M_STANDARD
 11
12.369958
 21
0.378543
 31
0.0
100
AcDbText
 73
     2
  0
TEXT
  5
9A3
100
AcDbEntity
 67
     1
  8
BORDER
100
AcDbText
 10
12.369958
 20
0.238543
 30
0.0
 40
0.07
  1
NO.
 41
1.183673
  7
M_STANDARD
 11
12.369958
 21
0.273543
 31
0.0
100
AcDbText
 73
     2
  0
TEXT
  5
9A4
100
AcDbEntity
 67
     1
  8
BORDER
100
AcDbText
 10
15.500358
 20
0.026667
 30
0.0
 40
0.08
  1
REF DWG #2528
 41
0.899689
  7
M_STANDARD
 72
     2
 11
16.374341
 21
0.066667
 31
0.0
100
AcDbText
 73
     2
  0
TEXT
  5
9A5
100
AcDbEntity
 67
     1
  8
BORDER
100
AcDbText
 10
16.363487
 20
0.174796
 30
0.0
 40
0.001
  1
2528
 41
1.375826
  7
M_STANDARD
 11
16.363487
 21
0.175296
 31
0.0
100
AcDbText
 73
     2
  0
TEXT
  5
9A6
100
AcDbEntity
 67
     1
  8
BORDER
100
AcDbText
 10
0.027621
 20
0.026667
 30
0.0
 40
0.08
  1
APRIL 1999
 41
0.899465
  7
M_STANDARD
 11
0.027621
 21
0.066667
 31
0.0
100
AcDbText
 73
     2
  0
TEXT
  5
9A7
100
AcDbEntity
 67
     1
  8
BORDER
100
AcDbText
 10
0.0
 20
10.583167
 30
0.0
 40
0.001
  1
SCALE 1:16
 41
0.899465
  7
M_STANDARD
 72
     1
 11
0.003812
 21
10.583667
 31
0.0
100
AcDbText
 73
     2
  0
TEXT
  5
9A8
100
AcDbEntity
 67
     1
  8
BORDER
  6
CONTINUOUS
 62
     7
100
AcDbText
 10
16.380999
 20
10.574265
 30
0.0
 40
0.005
  1
SCALE 1:16
 41
0.899465
  7
M_STANDARD
 72
     1
 11
16.400059
 21
10.576765
 31
0.0
100
AcDbText
 73
     2
  0
LWPOLYLINE
  5
9A9
102
{ACAD_REACTORS
330
9AB
102
}
100
AcDbEntity
 67
     1
  8
0
 62
     0
100
AcDbPolyline
 90
        6
 70
     1
 43
0.0
 10
0.000981
 20
10.576788
 10
16.400982
 20
10.576788
 10
16.400952
 20
1.089386
 10
8.003442
 20
1.089386
 10
8.003442
 20
0.177386
 10
0.000981
 20
0.177386
  0
VIEWPORT
  5
9AB
102
{ACAD_XDICTIONARY
360
A19
102
}
100
AcDbEntity
 67
     1
  8
0
 62
     0
100
AcDbViewport
 10
8.200981
 20
5.377087
 30
0.0
 40
16.400001
 41
10.399402
 68
     2
 69
     2
1001
ACAD
1000
MVIEW
1002
{
1070
    16
1010
0.0
1020
0.0
1030
0.0
1010
0.0
1020
0.0
1030
1.0
1040
0.0
1040
166.390433
1040
184.91749
1040
42.007647
1040
50.0
1040
0.0
1040
0.0
1070
     0
1070
   100
1070
     1
1070
     0
1070
     0
1070
     0
1070
     0
1070
     0
1040
0.0
1040
0.0
1040
0.0
1040
0.19685
1040
0.19685
1040
0.19685
1040
0.19685
1070
     0
1002
{
1002
}
1002
}
  0
ENDSEC
  0
SECTION
  2
OBJECTS
  0
DICTIONARY
  5
19
100
AcDbDictionary
  3
ACAD_GROUP
350
1A
  3
ACAD_LAYOUT
350
81D
  3
ACAD_MLINESTYLE
350
1B
  3
ACAD_PLOTSETTINGS
350
81E
  3
ACAD_PLOTSTYLENAME
350
81B
  3
ACDBHEADERROUNDTRIPXREC
350
9EF
  0
DICTIONARY
  5
A13
100
AcDbDictionary
280
     1
  3
ACAD_XREC_ROUNDTRIP
360
A14
  0
DICTIONARY
  5
9ED
100
AcDbDictionary
280
     1
  3
ACAD_XREC_ROUNDTRIP
360
9EE
  0
DICTIONARY
  5
A11
100
AcDbDictionary
280
     1
  3
ACAD_XREC_ROUNDTRIP
360
A12
  0
DICTIONARY
  5
9D8
100
AcDbDictionary
280
     1
  3
ACAD_LAYOUTSELFREF
360
A0F
  0
DICTIONARY
  5
9DA
100
AcDbDictionary
280
     1
  3
ACAD_LAYOUTSELFREF
360
A10
  0
DICTIONARY
  5
A1B
100
AcDbDictionary
280
     1
  3
ACAD_XREC_ROUNDTRIP
360
A1C
  0
DICTIONARY
  5
A17
100
AcDbDictionary
280
     1
  3
ACAD_XREC_ROUNDTRIP
360
A18
  0
DICTIONARY
  5
A19
100
AcDbDictionary
280
     1
  3
ACAD_XREC_ROUNDTRIP
360
A1A
  0
DICTIONARY
  5
1A
102
{ACAD_REACTORS
330
19
102
}
100
AcDbDictionary
  0
DICTIONARY
  5
81D
102
{ACAD_XDICTIONARY
360
A15
102
}
102
{ACAD_REACTORS
330
19
102
}
100
AcDbDictionary
  3
LAYOUT1
350
820
  3
MODEL
350
81F
  0
DICTIONARY
  5
1B
102
{ACAD_REACTORS
330
19
102
}
100
AcDbDictionary
  3
STANDARD
350
1C
  0
DICTIONARY
  5
81E
102
{ACAD_REACTORS
330
19
102
}
100
AcDbDictionary
  0
ACAD_PROXY_OBJECT
  5
81B
102
{ACAD_REACTORS
330
19
102
}
100
AcDbProxyObject
 90
      499
 91
      515
 93
       86
310
405010041939BDC9B585B1
350
81C
340
81C
 94
        0
  0
DICTIONARY
  5
9EF
102
{ACAD_REACTORS
330
19
102
}
100
AcDbDictionary
  3
CEPSNTYPE
350
9F9
  3
FINGERPRINTGUID
350
9FA
  3
HYPERLINKBASE
350
9F2
  3
INSUNITS
350
9F8
  3
LAYOUTDICT
350
9F4
  3
LWETCUNION
350
9F7
  3
PLOTSETDICT
350
9F5
  3
PLOTSTYLNAMDICT
350
9F6
  3
PSVPSCALE
350
9FC
  3
PUCSBASE
350
9FF
  3
PUCSORGBACK
350
A05
  3
PUCSORGBOTTOM
350
A01
  3
PUCSORGFRONT
350
A04
  3
PUCSORGLEFT
350
A02
  3
PUCSORGRIGHT
350
A03
  3
PUCSORGTOP
350
A00
  3
PUCSORTHOREF
350
9FD
  3
PUCSORTHOVIEW
350
9FE
  3
STYLESHEET
350
9F3
  3
TSTACKALIGN
350
9F0
  3
TSTACKSIZE
350
9F1
  3
UCSBASE
350
A08
  3
UCSORGBACK
350
A0E
  3
UCSORGBOTTOM
350
A0A
  3
UCSORGFRONT
350
A0D
  3
UCSORGLEFT
350
A0B
  3
UCSORGRIGHT
350
A0C
  3
UCSORGTOP
350
A09
  3
UCSORTHOREF
350
A06
  3
UCSORTHOVIEW
350
A07
  3
VERSIONGUID
350
9FB
  0
XRECORD
  5
A14
102
{ACAD_REACTORS
330
A13
102
}
100
AcDbXrecord
102
UCS
 74
     0
 71
     1
 10
0.0
 20
0.0
 30
0.0
 10
1.0
 20
0.0
 30
0.0
 10
0.0
 20
1.0
 30
0.0
146
0.0
 79
     0
102
VIEW
281
     0
  0
XRECORD
  5
9EE
102
{ACAD_REACTORS
330
9ED
102
}
100
AcDbXrecord
102
EXTNAMES
  1
*ACTIVE
  2
*Active
102
UCS
 74
     0
 71
     1
 10
0.0
 20
0.0
 30
0.0
 10
1.0
 20
0.0
 30
0.0
 10
0.0
 20
1.0
 30
0.0
146
0.0
 79
     0
102
VIEW
281
     0
  0
XRECORD
  5
A12
102
{ACAD_REACTORS
330
A11
102
}
100
AcDbXrecord
102
ACADR14ROUNDTRIP
1000
DSTYLE
1002
{
1070
   289
 70
     0
1002
}
  0
XRECORD
  5
A0F
102
{ACAD_REACTORS
330
9D8
102
}
100
AcDbXrecord
340
A
  0
XRECORD
  5
A10
102
{ACAD_REACTORS
330
9DA
102
}
100
AcDbXrecord
340
B
  0
XRECORD
  5
A1C
102
{ACAD_REACTORS
330
A1B
102
}
100
AcDbXrecord
102
UCS
 74
     0
 71
     1
 10
0.0
 20
0.0
 30
0.0
 10
1.0
 20
0.0
 30
0.0
 10
0.0
 20
1.0
 30
0.0
146
0.0
 79
     0
102
VIEW
281
     0
102
NONRECTVIEWCLIP
330
9B2
102
NEWVIEWCONTROL
280
     4
  0
XRECORD
  5
A18
102
{ACAD_REACTORS
330
A17
102
}
100
AcDbXrecord
102
UCS
 74
     0
 71
     1
 10
0.0
 20
0.0
 30
0.0
 10
1.0
 20
0.0
 30
0.0
 10
0.0
 20
1.0
 30
0.0
146
0.0
 79
     0
102
VIEW
281
     0
102
NEWVIEWCONTROL
280
     4
  0
XRECORD
  5
A1A
102
{ACAD_REACTORS
330
A19
102
}
100
AcDbXrecord
102
UCS
 74
     0
 71
     1
 10
0.0
 20
0.0
 30
0.0
 10
1.0
 20
0.0
 30
0.0
 10
0.0
 20
1.0
 30
0.0
146
0.0
 79
     0
102
VIEW
281
     0
102
NONRECTVIEWCLIP
330
9A9
102
NEWVIEWCONTROL
280
     4
  0
DICTIONARY
  5
A15
100
AcDbDictionary
280
     1
  3
ACAD_XREC_ROUNDTRIP
360
A16
  0
ACAD_PROXY_OBJECT
  5
820
102
{ACAD_REACTORS
330
81D
102
}
100
AcDbProxyObject
 90
      499
 91
      517
 93
     1444
310
9124850204C617365724A657420355369204D582C0080000002033931C40000000380D24C71000000000038931C40000000000C24C7100000000606676714000000030333F1E90106557365723432A901416AA5439B5BDB9BD8DA1C9BDB594B98DD1891069074C61796F75743140501AB83BFDFEFF7FF46FE7F3F9FCFFFFF4
310
6FC0000000002E0C1010A8543E3FDBC9502A6A6A0000140B3E7B0B8F8000000687AA618BE875398B674B6B30402C7AB67EC5CAC95020
330
B
330
984
340
0
340
0
 94
        0
  0
ACAD_PROXY_OBJECT
  5
81F
102
{ACAD_REACTORS
330
81D
102
}
100
AcDbProxyObject
 90
      499
 91
      517
 93
      700
310
9124850204C617365724A657420355369204D582C01AAAAAAAAA5439B5BDB9BD8DA1C9BDB594B98DD18A69054D6F64656C901A800000000000000000000000000000000000000000000A1000000000000008902A6A6AAAA4
330
A
330
0
340
0
340
0
 94
        0
  0
MLINESTYLE
  5
1C
102
{ACAD_REACTORS
330
1B
102
}
100
AcDbMlineStyle
  2
STANDARD
 70
     0
  3

 62
     0
 51
90.0
 52
90.0
 71
     2
 49
0.5
 62
   256
  6
BYLAYER
 49
-0.5
 62
   256
  6
BYLAYER
  0
ACAD_PROXY_OBJECT
  5
81C
102
{ACAD_REACTORS
330
81B
102
}
100
AcDbProxyObject
 90
      499
 91
      516
 93
        0
 94
        0
  0
XRECORD
  5
9F9
102
{ACAD_REACTORS
330
9EF
102
}
100
AcDbXrecord
 90
        0
  0
XRECORD
  5
9FA
102
{ACAD_REACTORS
330
9EF
102
}
100
AcDbXrecord
  1
{1162E4F9-5BF8-11D4-8248-08002BE72CB0}
  0
XRECORD
  5
9F2
102
{ACAD_REACTORS
330
9EF
102
}
100
AcDbXrecord
  1

  0
XRECORD
  5
9F8
102
{ACAD_REACTORS
330
9EF
102
}
100
AcDbXrecord
 90
        0
  0
XRECORD
  5
9F4
102
{ACAD_REACTORS
330
9EF
102
}
100
AcDbXrecord
340
81D
  0
XRECORD
  5
9F7
102
{ACAD_REACTORS
330
9EF
102
}
100
AcDbXrecord
 90
    14877
  0
XRECORD
  5
9F5
102
{ACAD_REACTORS
330
9EF
102
}
100
AcDbXrecord
340
81E
  0
XRECORD
  5
9F6
102
{ACAD_REACTORS
330
9EF
102
}
100
AcDbXrecord
340
81B
  0
XRECORD
  5
9FC
102
{ACAD_REACTORS
330
9EF
102
}
100
AcDbXrecord
 40
0.0625
  0
XRECORD
  5
9FF
102
{ACAD_REACTORS
330
9EF
102
}
100
AcDbXrecord
340
0
  0
XRECORD
  5
A05
102
{ACAD_REACTORS
330
9EF
102
}
100
AcDbXrecord
 10
0.0
 20
0.0
 30
0.0
  0
XRECORD
  5
A01
102
{ACAD_REACTORS
330
9EF
102
}
100
AcDbXrecord
 10
0.0
 20
0.0
 30
0.0
  0
XRECORD
  5
A04
102
{ACAD_REACTORS
330
9EF
102
}
100
AcDbXrecord
 10
0.0
 20
0.0
 30
0.0
  0
XRECORD
  5
A02
102
{ACAD_REACTORS
330
9EF
102
}
100
AcDbXrecord
 10
0.0
 20
0.0
 30
0.0
  0
XRECORD
  5
A03
102
{ACAD_REACTORS
330
9EF
102
}
100
AcDbXrecord
 10
0.0
 20
0.0
 30
0.0
  0
XRECORD
  5
A00
102
{ACAD_REACTORS
330
9EF
102
}
100
AcDbXrecord
 10
0.0
 20
0.0
 30
0.0
  0
XRECORD
  5
9FD
102
{ACAD_REACTORS
330
9EF
102
}
100
AcDbXrecord
340
0
  0
XRECORD
  5
9FE
102
{ACAD_REACTORS
330
9EF
102
}
100
AcDbXrecord
 70
     0
  0
XRECORD
  5
9F3
102
{ACAD_REACTORS
330
9EF
102
}
100
AcDbXrecord
  1

  0
XRECORD
  5
9F0
102
{ACAD_REACTORS
330
9EF
102
}
100
AcDbXrecord
 90
        1
  0
XRECORD
  5
9F1
102
{ACAD_REACTORS
330
9EF
102
}
100
AcDbXrecord
 90
       70
  0
XRECORD
  5
A08
102
{ACAD_REACTORS
330
9EF
102
}
100
AcDbXrecord
340
0
  0
XRECORD
  5
A0E
102
{ACAD_REACTORS
330
9EF
102
}
100
AcDbXrecord
 10
0.0
 20
0.0
 30
0.0
  0
XRECORD
  5
A0A
102
{ACAD_REACTORS
330
9EF
102
}
100
AcDbXrecord
 10
0.0
 20
0.0
 30
0.0
  0
XRECORD
  5
A0D
102
{ACAD_REACTORS
330
9EF
102
}
100
AcDbXrecord
 10
0.0
 20
0.0
 30
0.0
  0
XRECORD
  5
A0B
102
{ACAD_REACTORS
330
9EF
102
}
100
AcDbXrecord
 10
0.0
 20
0.0
 30
0.0
  0
XRECORD
  5
A0C
102
{ACAD_REACTORS
330
9EF
102
}
100
AcDbXrecord
 10
0.0
 20
0.0
 30
0.0
  0
XRECORD
  5
A09
102
{ACAD_REACTORS
330
9EF
102
}
100
AcDbXrecord
 10
0.0
 20
0.0
 30
0.0
  0
XRECORD
  5
A06
102
{ACAD_REACTORS
330
9EF
102
}
100
AcDbXrecord
340
0
  0
XRECORD
  5
A07
102
{ACAD_REACTORS
330
9EF
102
}
100
AcDbXrecord
 70
     0
  0
XRECORD
  5
9FB
102
{ACAD_REACTORS
330
9EF
102
}
100
AcDbXrecord
  1
{1162E508-5BF8-11D4-8248-08002BE72CB0}
  0
XRECORD
  5
A16
102
{ACAD_REACTORS
330
A15
102
}
100
AcDbXrecord
102
EXTNAMES
  1
LAYOUT1
  2
Layout1
  1
MODEL
  2
Model
  0
ENDSEC
  0
EOF
