  0
SECTION
  2
HEADER
  9
$ACADVER
  1
AC1014
  9
$ACADMAINTVER
 70
     0
  9
$DWGCODEPAGE
  3
ANSI_1252
  9
$INSBASE
 10
0.0
 20
0.0
 30
0.0
  9
$EXTMIN
 10
53.422438
 20
-35.316816
 30
0.0
  9
$EXTMAX
 10
315.822454
 20
131.073611
 30
0.0
  9
$LIMMIN
 10
0.0
 20
0.0
  9
$LIMMAX
 10
17.0
 20
11.0
  9
$ORTHOMODE
 70
     0
  9
$REGENMODE
 70
     1
  9
$FILLMODE
 70
     1
  9
$QTEXTMODE
 70
     0
  9
$MIRRTEXT
 70
     1
  9
$DRAGMODE
 70
     2
  9
$LTSCALE
 40
1.0
  9
$OSMODE
 70
    37
  9
$ATTMODE
 70
     1
  9
$TEXTSIZE
 40
0.2
  9
$TRACEWID
 40
0.05
  9
$TEXTSTYLE
  7
STANDARD
  9
$CLAYER
  8
0
  9
$CELTYPE
  6
BYLAYER
  9
$CECOLOR
 62
     0
  9
$CELTSCALE
 40
1.0
  9
$DELOBJ
 70
     1
  9
$DISPSILH
 70
     0
  9
$DIMSCALE
 40
1.0
  9
$DIMASZ
 40
0.18
  9
$DIMEXO
 40
0.0625
  9
$DIMDLI
 40
0.38
  9
$DIMRND
 40
0.0
  9
$DIMDLE
 40
0.0
  9
$DIMEXE
 40
0.18
  9
$DIMTP
 40
0.0
  9
$DIMTM
 40
0.0
  9
$DIMTXT
 40
0.18
  9
$DIMCEN
 40
0.09
  9
$DIMTSZ
 40
0.0
  9
$DIMTOL
 70
     0
  9
$DIMLIM
 70
     0
  9
$DIMTIH
 70
     1
  9
$DIMTOH
 70
     1
  9
$DIMSE1
 70
     0
  9
$DIMSE2
 70
     0
  9
$DIMTAD
 70
     0
  9
$DIMZIN
 70
     0
  9
$DIMBLK
  1

  9
$DIMASO
 70
     1
  9
$DIMSHO
 70
     1
  9
$DIMPOST
  1

  9
$DIMAPOST
  1

  9
$DIMALT
 70
     0
  9
$DIMALTD
 70
     2
  9
$DIMALTF
 40
25.4
  9
$DIMLFAC
 40
1.0
  9
$DIMTOFL
 70
     0
  9
$DIMTVP
 40
0.0
  9
$DIMTIX
 70
     0
  9
$DIMSOXD
 70
     0
  9
$DIMSAH
 70
     0
  9
$DIMBLK1
  1

  9
$DIMBLK2
  1

  9
$DIMSTYLE
  2
STANDARD
  9
$DIMCLRD
 70
     0
  9
$DIMCLRE
 70
     0
  9
$DIMCLRT
 70
     0
  9
$DIMTFAC
 40
1.0
  9
$DIMGAP
 40
0.09
  9
$DIMJUST
 70
     0
  9
$DIMSD1
 70
     0
  9
$DIMSD2
 70
     0
  9
$DIMTOLJ
 70
     1
  9
$DIMTZIN
 70
     0
  9
$DIMALTZ
 70
     0
  9
$DIMALTTZ
 70
     0
  9
$DIMFIT
 70
     3
  9
$DIMUPT
 70
     0
  9
$DIMUNIT
 70
     2
  9
$DIMDEC
 70
     4
  9
$DIMTDEC
 70
     4
  9
$DIMALTU
 70
     2
  9
$DIMALTTD
 70
     2
  9
$DIMTXSTY
  7
STANDARD
  9
$DIMAUNIT
 70
     0
  9
$LUNITS
 70
     2
  9
$LUPREC
 70
     4
  9
$SKETCHINC
 40
0.1
  9
$FILLETRAD
 40
0.5
  9
$AUNITS
 70
     0
  9
$AUPREC
 70
     0
  9
$MENU
  1
acad
  9
$ELEVATION
 40
0.0
  9
$PELEVATION
 40
0.0
  9
$THICKNESS
 40
0.0
  9
$LIMCHECK
 70
     0
  9
$BLIPMODE
 70
     0
  9
$CHAMFERA
 40
0.5
  9
$CHAMFERB
 40
0.5
  9
$CHAMFERC
 40
1.0
  9
$CHAMFERD
 40
0.0
  9
$SKPOLY
 70
     1
  9
$TDCREATE
 40
2444971.791666666
  9
$TDUPDATE
 40
2451744.329309317
  9
$TDINDWG
 40
0.0111498264
  9
$TDUSRTIMER
 40
0.0111498264
  9
$USRTIMER
 70
     1
  9
$ANGBASE
 50
0.0
  9
$ANGDIR
 70
     0
  9
$PDMODE
 70
     0
  9
$PDSIZE
 40
0.0
  9
$PLINEWID
 40
0.0
  9
$COORDS
 70
     1
  9
$SPLFRAME
 70
     0
  9
$SPLINETYPE
 70
     6
  9
$SPLINESEGS
 70
     8
  9
$ATTDIA
 70
     0
  9
$ATTREQ
 70
     1
  9
$HANDLING
 70
     1
  9
$HANDSEED
  5
9DA
  9
$SURFTAB1
 70
     6
  9
$SURFTAB2
 70
     6
  9
$SURFTYPE
 70
     6
  9
$SURFU
 70
     6
  9
$SURFV
 70
     6
  9
$UCSNAME
  2

  9
$UCSORG
 10
0.0
 20
0.0
 30
0.0
  9
$UCSXDIR
 10
1.0
 20
0.0
 30
0.0
  9
$UCSYDIR
 10
0.0
 20
1.0
 30
0.0
  9
$PUCSNAME
  2

  9
$PUCSORG
 10
0.0
 20
0.0
 30
0.0
  9
$PUCSXDIR
 10
1.0
 20
0.0
 30
0.0
  9
$PUCSYDIR
 10
0.0
 20
1.0
 30
0.0
  9
$USERI1
 70
     0
  9
$USERI2
 70
     0
  9
$USERI3
 70
     0
  9
$USERI4
 70
     0
  9
$USERI5
 70
     0
  9
$USERR1
 40
0.0
  9
$USERR2
 40
0.0
  9
$USERR3
 40
0.0
  9
$USERR4
 40
0.0
  9
$USERR5
 40
0.0
  9
$WORLDVIEW
 70
     1
  9
$SHADEDGE
 70
     3
  9
$SHADEDIF
 70
    70
  9
$TILEMODE
 70
     0
  9
$MAXACTVP
 70
    48
  9
$PINSBASE
 10
0.0
 20
0.0
 30
0.0
  9
$PLIMCHECK
 70
     0
  9
$PEXTMIN
 10
0.0
 20
0.0
 30
0.0
  9
$PEXTMAX
 10
16.422282
 20
10.583649
 30
0.0
  9
$PLIMMIN
 10
-0.28125
 20
-0.28125
  9
$PLIMMAX
 10
16.71875
 20
10.71875
  9
$UNITMODE
 70
     0
  9
$VISRETAIN
 70
     1
  9
$PLINEGEN
 70
     0
  9
$PSLTSCALE
 70
     1
  9
$TREEDEPTH
 70
  3020
  9
$PICKSTYLE
 70
     1
  9
$CMLSTYLE
  2
STANDARD
  9
$CMLJUST
 70
     0
  9
$CMLSCALE
 40
1.0
  9
$PROXYGRAPHICS
 70
     1
  9
$MEASUREMENT
 70
     0
  0
ENDSEC
  0
SECTION
  2
CLASSES
  0
CLASS
  1
LWPOLYLINE
  2
AcDbPolyline
  3
"AutoCAD"
 90
        0
280
     0
281
     1
  0
CLASS
  1
IMAGE
  2
AcDbRasterImage
  3
ISM
 90
      127
280
     0
281
     1
  0
CLASS
  1
OLE2FRAME
  2
AcDbOle2Frame
  3
""
 90
        0
280
     0
281
     1
  0
CLASS
  1
HATCH
  2
AcDbHatch
  3
"ACAD_SEDONA"
 90
        0
280
     0
281
     1
  0
CLASS
  1
DICTIONARYVAR
  2
AcDbDictionaryVar
  3
"AutoCAD"
 90
        0
280
     0
281
     0
  0
CLASS
  1
RASTERVARIABLES
  2
AcDbRasterVariables
  3
ISM
 90
        0
280
     0
281
     0
  0
CLASS
  1
IMAGEDEF
  2
AcDbRasterImageDef
  3
ISM
 90
        0
280
     0
281
     0
  0
CLASS
  1
IMAGEDEF_REACTOR
  2
AcDbRasterImageDefReactor
  3
ISM
 90
        1
280
     0
281
     0
  0
CLASS
  1
IDBUFFER
  2
AcDbIdBuffer
  3
"Acad"
 90
        0
280
     0
281
     0
  0
CLASS
  1
SPATIAL_FILTER
  2
AcDbSpatialFilter
  3
"Acad"
 90
        0
280
     0
281
     0
  0
CLASS
  1
XRECORD
  2
AcDbXrecord
  3
"<Built In>"
 90
        0
280
     0
281
     0
  0
CLASS
  1
SORTENTSTABLE
  2
AcDbSortentsTable
  3
"AutoCAD"
 90
        0
280
     0
281
     0
  0
CLASS
  1
LAYER_INDEX
  2
AcDbLayerIndex
  3
"Acad"
 90
        0
280
     0
281
     0
  0
CLASS
  1
SPATIAL_INDEX
  2
AcDbSpatialIndex
  3
"Acad"
 90
        0
280
     0
281
     0
  0
CLASS
  1
OBJECT_PTR
  2
CAseDLPNTableRecord
  3
ASE-LPNTableRecord
 90
        1
280
     0
281
     0
  0
CLASS
  1
ACDBDICTIONARYWDFLT
  2
AcDbDictionaryWithDefault
  3
AutoCAD 2000
 90
        0
280
     0
281
     0
  0
CLASS
  1
ACDBPLACEHOLDER
  2
AcDbPlaceHolder
  3
AutoCAD 2000
 90
        0
280
     0
281
     0
  0
CLASS
  1
LAYOUT
  2
AcDbLayout
  3
AutoCAD 2000
 90
        0
280
     0
281
     0
  0
CLASS
  1
LONG_TRANSACTION
  2
AcDbLongTransaction
  3
AutoCAD 2000
 90
        0
280
     0
281
     0
  0
CLASS
  1
LWPOLYLINE
  2
AcDbPolyline
  3
"AutoCAD"
 90
        0
280
     0
281
     1
  0
CLASS
  1
HATCH
  2
AcDbHatch
  3
"ACAD_SEDONA"
 90
        0
280
     0
281
     1
  0
CLASS
  1
XRECORD
  2
AcDbXrecord
  3
"<Built In>"
 90
        0
280
     0
281
     0
  0
CLASS
  1
LONG_TRANSACTION
  2
AcDbLongTransaction
  3
AutoCAD 2000
 90
        0
280
     0
281
     0
  0
CLASS
  1
LWPOLYLINE
  2
AcDbPolyline
  3
"AutoCAD"
 90
        0
280
     0
281
     1
  0
CLASS
  1
HATCH
  2
AcDbHatch
  3
"ACAD_SEDONA"
 90
        0
280
     0
281
     1
  0
CLASS
  1
XRECORD
  2
AcDbXrecord
  3
"<Built In>"
 90
        0
280
     0
281
     0
  0
ENDSEC
  0
SECTION
  2
TABLES
  0
TABLE
  2
VPORT
  5
7
100
AcDbSymbolTable
 70
     2
  0
VPORT
  5
1E
102
{ACAD_XDICTIONARY
360
9CD
102
}
100
AcDbSymbolTableRecord
100
AcDbViewportTableRecord
  2
M_SHEET
 70
     0
 10
0.0
 20
0.0
 11
1.0
 21
1.0
 12
8.5
 22
5.5
 13
0.0
 23
0.0
 14
0.19685
 24
0.19685
 15
0.19685
 25
0.19685
 16
0.0
 26
0.0
 36
1.0
 17
0.0
 27
0.0
 37
0.0
 40
11.0
 41
1.545455
 42
50.0
 43
0.0
 44
0.0
 50
0.0
 51
0.0
 71
     0
 72
   100
 73
     1
 74
     1
 75
     0
 76
     0
 77
     0
 78
     0
  0
VPORT
  5
96F
102
{ACAD_XDICTIONARY
360
9A7
102
}
100
AcDbSymbolTableRecord
100
AcDbViewportTableRecord
  2
*ACTIVE
 70
     0
 10
0.0
 20
0.0
 11
1.0
 21
1.0
 12
184.620914
 22
47.877718
 13
0.0
 23
0.0
 14
0.19685
 24
0.19685
 15
0.19685
 25
0.19685
 16
0.0
 26
0.0
 36
1.0
 17
0.0
 27
0.0
 37
0.0
 40
169.747424
 41
1.553459
 42
50.0
 43
0.0
 44
0.0
 50
0.0
 51
0.0
 71
     0
 72
   100
 73
     1
 74
     0
 75
     0
 76
     0
 77
     0
 78
     0
  0
ENDTAB
  0
TABLE
  2
LTYPE
  5
4
100
AcDbSymbolTable
 70
     3
  0
LTYPE
  5
11
100
AcDbSymbolTableRecord
100
AcDbLinetypeTableRecord
  2
BYBLOCK
 70
     0
  3

 72
    65
 73
     0
 40
0.0
  0
LTYPE
  5
12
100
AcDbSymbolTableRecord
100
AcDbLinetypeTableRecord
  2
BYLAYER
 70
     0
  3

 72
    65
 73
     0
 40
0.0
  0
LTYPE
  5
13
100
AcDbSymbolTableRecord
100
AcDbLinetypeTableRecord
  2
CONTINUOUS
 70
     0
  3
Solid line
 72
    65
 73
     0
 40
0.0
  0
LTYPE
  5
7F2
100
AcDbSymbolTableRecord
100
AcDbLinetypeTableRecord
  2
CENTER
 70
     0
  3
Center ____ _ ____ _ ____ _ ____ _ ____ _ ____
 72
    65
 73
     4
 40
2.0
 49
1.25
 74
     0
 49
-0.25
 74
     0
 49
0.25
 74
     0
 49
-0.25
 74
     0
  0
LTYPE
  5
7F3
100
AcDbSymbolTableRecord
100
AcDbLinetypeTableRecord
  2
HIDDEN
 70
     0
  3
Hidden __ __ __ __ __ __ __ __ __ __ __ __ __ _
 72
    65
 73
     2
 40
0.375
 49
0.25
 74
     0
 49
-0.125
 74
     0
  0
ENDTAB
  0
TABLE
  2
LAYER
  5
2
100
AcDbSymbolTable
 70
     7
  0
LAYER
  5
14
100
AcDbSymbolTableRecord
100
AcDbLayerTableRecord
  2
0
 70
     0
 62
     7
  6
CONTINUOUS
  0
LAYER
  5
7F4
100
AcDbSymbolTableRecord
100
AcDbLayerTableRecord
  2
BORDER
 70
     0
 62
     7
  6
CONTINUOUS
  0
LAYER
  5
7F5
100
AcDbSymbolTableRecord
100
AcDbLayerTableRecord
  2
CENTER1
 70
     0
 62
     5
  6
CENTER
  0
LAYER
  5
7F6
100
AcDbSymbolTableRecord
100
AcDbLayerTableRecord
  2
DIM
 70
     0
 62
     2
  6
CONTINUOUS
  0
LAYER
  5
7F8
100
AcDbSymbolTableRecord
100
AcDbLayerTableRecord
  2
HIDDEN1
 70
     0
 62
     4
  6
HIDDEN
  0
LAYER
  5
7F9
100
AcDbSymbolTableRecord
100
AcDbLayerTableRecord
  2
OBJECT1
 70
     0
 62
     1
  6
CONTINUOUS
  0
LAYER
  5
7FA
100
AcDbSymbolTableRecord
100
AcDbLayerTableRecord
  2
TEXT1
 70
     0
 62
     3
  6
CONTINUOUS
  0
ENDTAB
  0
TABLE
  2
STYLE
  5
3
100
AcDbSymbolTable
 70
     2
  0
STYLE
  5
17
100
AcDbSymbolTableRecord
100
AcDbTextStyleTableRecord
  2
STANDARD
 70
     0
 40
0.0
 41
1.0
 50
0.0
 71
     0
 42
0.0
  3
TXT.SHX
  4

  0
STYLE
  5
1D
100
AcDbSymbolTableRecord
100
AcDbTextStyleTableRecord
  2
M_STANDARD
 70
     0
 40
0.0
 41
0.8
 50
0.0
 71
     0
 42
0.0
  3
MEDUSA.SHX
  4

  0
ENDTAB
  0
TABLE
  2
VIEW
  5
5
100
AcDbSymbolTable
 70
     0
  0
ENDTAB
  0
TABLE
  2
UCS
  5
6
100
AcDbSymbolTable
 70
     0
  0
ENDTAB
  0
TABLE
  2
APPID
  5
8
100
AcDbSymbolTable
 70
     2
  0
APPID
  5
16
100
AcDbSymbolTableRecord
100
AcDbRegAppTableRecord
  2
ACAD
 70
     0
  0
APPID
  5
2B0
100
AcDbSymbolTableRecord
100
AcDbRegAppTableRecord
  2
MED_PRIMTYPE
 70
     0
  0
ENDTAB
  0
TABLE
  2
DIMSTYLE
  5
9
100
AcDbSymbolTable
 70
     1
  0
DIMSTYLE
105
18
102
{ACAD_XDICTIONARY
360
9CB
102
}
100
AcDbSymbolTableRecord
100
AcDbDimStyleTableRecord
  2
STANDARD
 70
     0
  3

  4

  5

  6

  7

 40
1.0
 41
0.18
 42
0.0625
 43
0.38
 44
0.18
 45
0.0
 46
0.0
 47
0.0
 48
0.0
140
0.18
141
0.09
142
0.0
143
25.4
144
1.0
145
0.0
146
1.0
147
0.09
 71
     0
 72
     0
 73
     1
 74
     1
 75
     0
 76
     0
 77
     0
 78
     0
170
     0
171
     2
172
     0
173
     0
174
     0
175
     0
176
     0
177
     0
178
     0
270
     2
271
     4
272
     4
273
     2
274
     2
340
17
275
     0
280
     0
281
     0
282
     0
283
     1
284
     0
285
     0
286
     0
287
     0
288
     0
  0
ENDTAB
  0
TABLE
  2
BLOCK_RECORD
  5
1
100
AcDbSymbolTable
 70
     4
  0
BLOCK_RECORD
  5
A
102
{ACAD_XDICTIONARY
360
992
102
}
100
AcDbSymbolTableRecord
100
AcDbBlockTableRecord
  2
*MODEL_SPACE
  0
BLOCK_RECORD
  5
B
102
{ACAD_XDICTIONARY
360
994
102
}
100
AcDbSymbolTableRecord
100
AcDbBlockTableRecord
  2
*PAPER_SPACE
  0
BLOCK_RECORD
  5
20
100
AcDbSymbolTableRecord
100
AcDbBlockTableRecord
  2
M_PIC_H94
  0
BLOCK_RECORD
  5
32E
100
AcDbSymbolTableRecord
100
AcDbBlockTableRecord
  2
M_PFN_100
  0
BLOCK_RECORD
  5
34B
100
AcDbSymbolTableRecord
100
AcDbBlockTableRecord
  2
M_PFN_101
  0
BLOCK_RECORD
  5
494
100
AcDbSymbolTableRecord
100
AcDbBlockTableRecord
  2
M_PFN_2
  0
ENDTAB
  0
ENDSEC
  0
SECTION
  2
BLOCKS
  0
BLOCK
  5
D
100
AcDbEntity
  8
0
100
AcDbBlockBegin
  2
*MODEL_SPACE
 70
     0
 10
0.0
 20
0.0
 30
0.0
  3
*MODEL_SPACE
  1

  0
ENDBLK
  5
E
100
AcDbEntity
  8
0
100
AcDbBlockEnd
  0
BLOCK
  5
F
100
AcDbEntity
 67
     1
  8
0
100
AcDbBlockBegin
  2
*PAPER_SPACE
 70
     0
 10
0.0
 20
0.0
 30
0.0
  3
*PAPER_SPACE
  1

  0
ENDBLK
  5
10
100
AcDbEntity
 67
     1
  8
0
100
AcDbBlockEnd
  0
BLOCK
  5
21
100
AcDbEntity
  8
0
100
AcDbBlockBegin
  2
M_PIC_H94
 70
     0
 10
0.0
 20
0.0
 30
0.0
  3
M_PIC_H94
  1

  0
LWPOLYLINE
  5
22
100
AcDbEntity
  8
0
  6
CONTINUOUS
 62
     7
100
AcDbPolyline
 90
       22
 70
   128
 43
0.0
 10
-5.11339
 20
-0.301445
 10
-4.810833
 20
-0.301445
 42
-0.199003
 10
-4.783699
 20
-0.312714
 42
-0.198673
 10
-4.772459
 20
-0.33989
 10
-4.772459
 20
-0.605909
 10
-4.929823
 20
-0.492928
 42
0.231527
 10
-4.94663
 20
-0.490172
 42
0.114949
 10
-4.954186
 20
-0.494512
 42
0.115493
 10
-4.959024
 20
-0.501734
 10
-4.986414
 20
-0.57379
 42
0.166181
 10
-4.986897
 20
-0.586213
 42
0.167547
 10
-4.979664
 20
-0.59626
 10
-4.801939
 20
-0.72377
 42
-0.032184
 10
-4.806118
 20
-0.724464
 42
-0.025916
 10
-4.810833
 20
-0.724695
 10
-5.368751
 20
-0.724695
 42
-0.198815
 10
-5.396047
 20
-0.713426
 42
-0.199202
 10
-5.407353
 20
-0.68618
 10
-5.407353
 20
-0.33989
 42
-0.199515
 10
-5.396047
 20
-0.312721
 42
-0.19831
 10
-5.368751
 20
-0.301467
 10
-5.11339
 20
-0.301467
  0
LWPOLYLINE
  5
23
100
AcDbEntity
  8
0
  6
CONTINUOUS
 62
     7
100
AcDbPolyline
 90
       19
 70
   128
 43
0.0
 10
-5.11339
 20
-0.186008
 10
-5.368751
 20
-0.186008
 42
0.198729
 10
-5.477663
 20
-0.231094
 42
0.199033
 10
-5.522776
 20
-0.33989
 10
-5.522776
 20
-0.68618
 42
0.414214
 10
-5.368751
 20
-0.840156
 10
-4.810833
 20
-0.840156
 42
0.198222
 10
-4.702351
 20
-0.79524
 10
-4.660149
 20
-0.825516
 42
0.233776
 10
-4.643412
 20
-0.828333
 42
0.232317
 10
-4.630945
 20
-0.816729
 10
-4.603556
 20
-0.744642
 42
0.164432
 10
-4.603153
 20
-0.732287
 42
0.163812
 10
-4.610317
 20
-0.722183
 10
-4.656948
 20
-0.688578
 10
-4.656948
 20
-0.68618
 10
-4.656948
 20
-0.33989
 42
0.414384
 10
-4.810833
 20
-0.186059
 10
-5.11339
 20
-0.186059
  0
LINE
  5
24
100
AcDbEntity
  8
0
  6
CONTINUOUS
 62
     7
100
AcDbLine
 10
-4.630794
 20
-0.707455
 30
0.0
 11
-4.630794
 21
-0.816225
 31
0.0
  0
LINE
  5
25
100
AcDbEntity
  8
0
  6
CONTINUOUS
 62
     7
100
AcDbLine
 10
-4.672884
 20
-0.816414
 30
0.0
 11
-4.672884
 21
-0.27178
 31
0.0
  0
LINE
  5
26
100
AcDbEntity
  8
0
  6
CONTINUOUS
 62
     7
100
AcDbLine
 10
-4.714954
 20
-0.219568
 30
0.0
 11
-4.714954
 21
-0.806457
 31
0.0
  0
LINE
  5
27
100
AcDbEntity
  8
0
  6
CONTINUOUS
 62
     7
100
AcDbLine
 10
-4.757036
 20
-0.830362
 30
0.0
 11
-4.757036
 21
-0.195751
 31
0.0
  0
LINE
  5
28
100
AcDbEntity
  8
0
  6
CONTINUOUS
 62
     7
100
AcDbLine
 10
-4.799107
 20
-0.18648
 30
0.0
 11
-4.799107
 21
-0.303289
 31
0.0
  0
LINE
  5
29
100
AcDbEntity
  8
0
  6
CONTINUOUS
 62
     7
100
AcDbLine
 10
-4.799107
 20
-0.586763
 30
0.0
 11
-4.799107
 21
-0.839691
 31
0.0
  0
LINE
  5
2A
100
AcDbEntity
  8
0
  6
CONTINUOUS
 62
     7
100
AcDbLine
 10
-4.841187
 20
-0.840132
 30
0.0
 11
-4.841187
 21
-0.724695
 31
0.0
  0
LINE
  5
2B
100
AcDbEntity
  8
0
  6
CONTINUOUS
 62
     7
100
AcDbLine
 10
-4.841187
 20
-0.695654
 30
0.0
 11
-4.841187
 21
-0.55657
 31
0.0
  0
LINE
  5
2C
100
AcDbEntity
  8
0
  6
CONTINUOUS
 62
     7
100
AcDbLine
 10
-4.841187
 20
-0.301445
 30
0.0
 11
-4.841187
 21
-0.186028
 31
0.0
  0
LINE
  5
2D
100
AcDbEntity
  8
0
  6
CONTINUOUS
 62
     7
100
AcDbLine
 10
-4.883257
 20
-0.186028
 30
0.0
 11
-4.883257
 21
-0.301445
 31
0.0
  0
LINE
  5
2E
100
AcDbEntity
  8
0
  6
CONTINUOUS
 62
     7
100
AcDbLine
 10
-4.883257
 20
-0.526375
 30
0.0
 11
-4.883257
 21
-0.665461
 31
0.0
  0
LINE
  5
2F
100
AcDbEntity
  8
0
  6
CONTINUOUS
 62
     7
100
AcDbLine
 10
-4.883257
 20
-0.724695
 30
0.0
 11
-4.883257
 21
-0.840132
 31
0.0
  0
LINE
  5
30
100
AcDbEntity
  8
0
  6
CONTINUOUS
 62
     7
100
AcDbLine
 10
-4.925337
 20
-0.840132
 30
0.0
 11
-4.925337
 21
-0.724695
 31
0.0
  0
LINE
  5
31
100
AcDbEntity
  8
0
  6
CONTINUOUS
 62
     7
100
AcDbLine
 10
-4.925337
 20
-0.635273
 30
0.0
 11
-4.925337
 21
-0.496182
 31
0.0
  0
LINE
  5
32
100
AcDbEntity
  8
0
  6
CONTINUOUS
 62
     7
100
AcDbLine
 10
-4.925337
 20
-0.301445
 30
0.0
 11
-4.925337
 21
-0.186028
 31
0.0
  0
LINE
  5
33
100
AcDbEntity
  8
0
  6
CONTINUOUS
 62
     7
100
AcDbLine
 10
-4.967409
 20
-0.186028
 30
0.0
 11
-4.967409
 21
-0.301445
 31
0.0
  0
LINE
  5
34
100
AcDbEntity
  8
0
  6
CONTINUOUS
 62
     7
100
AcDbLine
 10
-4.967409
 20
-0.523687
 30
0.0
 11
-4.967409
 21
-0.60508
 31
0.0
  0
LINE
  5
35
100
AcDbEntity
  8
0
  6
CONTINUOUS
 62
     7
100
AcDbLine
 10
-4.967409
 20
-0.724695
 30
0.0
 11
-4.967409
 21
-0.840132
 31
0.0
  0
LINE
  5
36
100
AcDbEntity
  8
0
  6
CONTINUOUS
 62
     7
100
AcDbLine
 10
-5.009499
 20
-0.840132
 30
0.0
 11
-5.009499
 21
-0.724695
 31
0.0
  0
LINE
  5
37
100
AcDbEntity
  8
0
  6
CONTINUOUS
 62
     7
100
AcDbLine
 10
-5.009499
 20
-0.301445
 30
0.0
 11
-5.009499
 21
-0.186028
 31
0.0
  0
LINE
  5
38
100
AcDbEntity
  8
0
  6
CONTINUOUS
 62
     7
100
AcDbLine
 10
-5.051578
 20
-0.186028
 30
0.0
 11
-5.051578
 21
-0.301445
 31
0.0
  0
LINE
  5
39
100
AcDbEntity
  8
0
  6
CONTINUOUS
 62
     7
100
AcDbLine
 10
-5.051578
 20
-0.724695
 30
0.0
 11
-5.051578
 21
-0.840132
 31
0.0
  0
LINE
  5
3A
100
AcDbEntity
  8
0
  6
CONTINUOUS
 62
     7
100
AcDbLine
 10
-5.093668
 20
-0.840132
 30
0.0
 11
-5.093668
 21
-0.724695
 31
0.0
  0
LINE
  5
3B
100
AcDbEntity
  8
0
  6
CONTINUOUS
 62
     7
100
AcDbLine
 10
-5.093668
 20
-0.301445
 30
0.0
 11
-5.093668
 21
-0.186028
 31
0.0
  0
LINE
  5
3C
100
AcDbEntity
  8
0
  6
CONTINUOUS
 62
     7
100
AcDbLine
 10
-5.135738
 20
-0.186014
 30
0.0
 11
-5.135738
 21
-0.301456
 31
0.0
  0
LINE
  5
3D
100
AcDbEntity
  8
0
  6
CONTINUOUS
 62
     7
100
AcDbLine
 10
-5.135738
 20
-0.724695
 30
0.0
 11
-5.135738
 21
-0.840132
 31
0.0
  0
LINE
  5
3E
100
AcDbEntity
  8
0
  6
CONTINUOUS
 62
     7
100
AcDbLine
 10
-5.177818
 20
-0.840132
 30
0.0
 11
-5.177818
 21
-0.724695
 31
0.0
  0
LINE
  5
3F
100
AcDbEntity
  8
0
  6
CONTINUOUS
 62
     7
100
AcDbLine
 10
-5.177818
 20
-0.301456
 30
0.0
 11
-5.177818
 21
-0.186014
 31
0.0
  0
LINE
  5
40
100
AcDbEntity
  8
0
  6
CONTINUOUS
 62
     7
100
AcDbLine
 10
-5.219889
 20
-0.186014
 30
0.0
 11
-5.219889
 21
-0.301456
 31
0.0
  0
LINE
  5
41
100
AcDbEntity
  8
0
  6
CONTINUOUS
 62
     7
100
AcDbLine
 10
-5.219889
 20
-0.724695
 30
0.0
 11
-5.219889
 21
-0.840132
 31
0.0
  0
LINE
  5
42
100
AcDbEntity
  8
0
  6
CONTINUOUS
 62
     7
100
AcDbLine
 10
-5.261971
 20
-0.840132
 30
0.0
 11
-5.261971
 21
-0.724695
 31
0.0
  0
LINE
  5
43
100
AcDbEntity
  8
0
  6
CONTINUOUS
 62
     7
100
AcDbLine
 10
-5.261971
 20
-0.301456
 30
0.0
 11
-5.261971
 21
-0.186014
 31
0.0
  0
LINE
  5
44
100
AcDbEntity
  8
0
  6
CONTINUOUS
 62
     7
100
AcDbLine
 10
-5.304041
 20
-0.186014
 30
0.0
 11
-5.304041
 21
-0.301456
 31
0.0
  0
LINE
  5
45
100
AcDbEntity
  8
0
  6
CONTINUOUS
 62
     7
100
AcDbLine
 10
-5.304041
 20
-0.724695
 30
0.0
 11
-5.304041
 21
-0.840132
 31
0.0
  0
LINE
  5
46
100
AcDbEntity
  8
0
  6
CONTINUOUS
 62
     7
100
AcDbLine
 10
-5.346121
 20
-0.840132
 30
0.0
 11
-5.346121
 21
-0.724695
 31
0.0
  0
LINE
  5
47
100
AcDbEntity
  8
0
  6
CONTINUOUS
 62
     7
100
AcDbLine
 10
-5.346121
 20
-0.301456
 30
0.0
 11
-5.346121
 21
-0.186014
 31
0.0
  0
LINE
  5
48
100
AcDbEntity
  8
0
  6
CONTINUOUS
 62
     7
100
AcDbLine
 10
-5.388191
 20
-0.187241
 30
0.0
 11
-5.388191
 21
-0.306694
 31
0.0
  0
LINE
  5
49
100
AcDbEntity
  8
0
  6
CONTINUOUS
 62
     7
100
AcDbLine
 10
-5.388191
 20
-0.719446
 30
0.0
 11
-5.388191
 21
-0.838903
 31
0.0
  0
LINE
  5
4A
100
AcDbEntity
  8
0
  6
CONTINUOUS
 62
     7
100
AcDbLine
 10
-5.43028
 20
-0.827322
 30
0.0
 11
-5.43028
 21
-0.19883
 31
0.0
  0
LINE
  5
4B
100
AcDbEntity
  8
0
  6
CONTINUOUS
 62
     7
100
AcDbLine
 10
-5.47237
 20
-0.226059
 30
0.0
 11
-5.47237
 21
-0.800076
 31
0.0
  0
LINE
  5
4C
100
AcDbEntity
  8
0
  6
CONTINUOUS
 62
     7
100
AcDbLine
 10
-5.51445
 20
-0.736031
 30
0.0
 11
-5.51445
 21
-0.290071
 31
0.0
  0
LWPOLYLINE
  5
4D
100
AcDbEntity
  8
0
  6
CONTINUOUS
 62
     7
100
AcDbPolyline
 90
       14
 70
   129
 43
0.0
 10
-6.444588
 20
-1.051706
 42
-0.200808
 10
-6.439001
 20
-1.038146
 42
-0.098683
 10
-6.432749
 20
-1.033989
 42
-0.097926
 10
-6.425354
 20
-1.032529
 10
8.225342
 20
-1.032529
 42
-0.199134
 10
8.238079
 20
-1.037814
 42
-0.198689
 10
8.243355
 20
-1.050573
 10
8.243355
 20
-1.091461
 42
-0.196933
 10
8.238036
 20
-1.104249
 42
-0.098339
 10
8.232204
 20
-1.108169
 42
-0.099142
 10
8.225342
 20
-1.109545
 10
-6.425354
 20
-1.109545
 42
-0.199686
 10
-6.438954
 20
-1.103878
 42
-0.198135
 10
-6.444588
 20
-1.090197
  0
LINE
  5
4E
100
AcDbEntity
  8
0
  6
CONTINUOUS
 62
     7
100
AcDbLine
 10
-6.44453
 20
-1.091763
 30
0.0
 11
8.243355
 21
-1.091763
 31
0.0
  0
LINE
  5
4F
100
AcDbEntity
  8
0
  6
CONTINUOUS
 62
     7
100
AcDbLine
 10
8.243355
 20
-1.055735
 30
0.0
 11
-6.444588
 21
-1.055735
 31
0.0
  0
LWPOLYLINE
  5
50
100
AcDbEntity
  8
0
  6
CONTINUOUS
 62
     7
100
AcDbPolyline
 90
       32
 70
   129
 43
0.0
 10
7.756069
 20
-0.565123
 42
-0.196195
 10
7.761685
 20
-0.578901
 10
7.761685
 20
-0.82089
 42
0.199759
 10
7.767373
 20
-0.834533
 42
0.198058
 10
7.781105
 20
-0.840183
 10
7.858063
 20
-0.840183
 42
0.099524
 10
7.865361
 20
-0.838715
 42
0.098914
 10
7.871548
 20
-0.834533
 42
0.197419
 10
7.877134
 20
-0.82089
 10
7.877134
 20
-0.578901
 42
-0.000302
 10
7.877125
 20
-0.565123
 10
8.237858
 20
-0.219021
 42
0.304686
 10
8.242201
 20
-0.198034
 42
0.304943
 10
8.224434
 20
-0.186069
 10
8.114228
 20
-0.186069
 42
0.026102
 10
8.112439
 20
-0.186162
 42
0.032383
 10
8.110854
 20
-0.18643
 42
0.040523
 10
8.109487
 20
-0.186873
 10
8.10889
 20
-0.187157
 10
8.108351
 20
-0.187484
 42
0.059464
 10
8.107456
 20
-0.188259
 42
0.064817
 10
8.106811
 20
-0.18919
 42
0.063275
 10
8.106421
 20
-0.190268
 10
8.106324
 20
-0.19086
 10
8.106291
 20
-0.191484
 10
7.832466
 20
-0.453274
 42
-0.42128
 10
7.806637
 20
-0.453274
 10
7.538379
 20
-0.191484
 10
7.534152
 20
-0.187456
 10
7.53267
 20
-0.186033
 10
7.414742
 20
-0.186033
 42
0.672929
 10
7.401314
 20
-0.219034
  0
LINE
  5
51
100
AcDbEntity
  8
0
  6
CONTINUOUS
 62
     7
100
AcDbLine
 10
8.202805
 20
-0.253193
 30
0.0
 11
8.202805
 21
-0.186052
 31
0.0
  0
LINE
  5
52
100
AcDbEntity
  8
0
  6
CONTINUOUS
 62
     7
100
AcDbLine
 10
8.160732
 20
-0.186052
 30
0.0
 11
8.160732
 21
-0.294243
 31
0.0
  0
LINE
  5
53
100
AcDbEntity
  8
0
  6
CONTINUOUS
 62
     7
100
AcDbLine
 10
8.118645
 20
-0.335295
 30
0.0
 11
8.118645
 21
-0.186052
 31
0.0
  0
LINE
  5
54
100
AcDbEntity
  8
0
  6
CONTINUOUS
 62
     7
100
AcDbLine
 10
8.076561
 20
-0.215075
 30
0.0
 11
8.076561
 21
-0.376347
 31
0.0
  0
LINE
  5
55
100
AcDbEntity
  8
0
  6
CONTINUOUS
 62
     7
100
AcDbLine
 10
8.034493
 20
-0.417385
 30
0.0
 11
8.034493
 21
-0.256126
 31
0.0
  0
LINE
  5
56
100
AcDbEntity
  8
0
  6
CONTINUOUS
 62
     7
100
AcDbLine
 10
7.992382
 20
-0.297176
 30
0.0
 11
7.992382
 21
-0.458448
 31
0.0
  0
LINE
  5
57
100
AcDbEntity
  8
0
  6
CONTINUOUS
 62
     7
100
AcDbLine
 10
7.950313
 20
-0.499498
 30
0.0
 11
7.950313
 21
-0.338228
 31
0.0
  0
LINE
  5
58
100
AcDbEntity
  8
0
  6
CONTINUOUS
 62
     7
100
AcDbLine
 10
7.908234
 20
-0.379278
 30
0.0
 11
7.908234
 21
-0.540556
 31
0.0
  0
LINE
  5
59
100
AcDbEntity
  8
0
  6
CONTINUOUS
 62
     7
100
AcDbLine
 10
7.866146
 20
-0.83835
 30
0.0
 11
7.866146
 21
-0.42033
 31
0.0
  0
LINE
  5
5A
100
AcDbEntity
  8
0
  6
CONTINUOUS
 62
     7
100
AcDbLine
 10
7.824074
 20
-0.458128
 30
0.0
 11
7.824074
 21
-0.84017
 31
0.0
  0
LINE
  5
5B
100
AcDbEntity
  8
0
  6
CONTINUOUS
 62
     7
100
AcDbLine
 10
7.78199
 20
-0.84017
 30
0.0
 11
7.78199
 21
-0.429312
 31
0.0
  0
LINE
  5
5C
100
AcDbEntity
  8
0
  6
CONTINUOUS
 62
     7
100
AcDbLine
 10
7.739922
 20
-0.388243
 30
0.0
 11
7.739922
 21
-0.549463
 31
0.0
  0
LINE
  5
5D
100
AcDbEntity
  8
0
  6
CONTINUOUS
 62
     7
100
AcDbLine
 10
7.697811
 20
-0.508411
 30
0.0
 11
7.697811
 21
-0.347178
 31
0.0
  0
LINE
  5
5E
100
AcDbEntity
  8
0
  6
CONTINUOUS
 62
     7
100
AcDbLine
 10
7.655742
 20
-0.306128
 30
0.0
 11
7.655742
 21
-0.467361
 31
0.0
  0
LINE
  5
5F
100
AcDbEntity
  8
0
  6
CONTINUOUS
 62
     7
100
AcDbLine
 10
7.613663
 20
-0.42631
 30
0.0
 11
7.613663
 21
-0.265057
 31
0.0
  0
LINE
  5
60
100
AcDbEntity
  8
0
  6
CONTINUOUS
 62
     7
100
AcDbLine
 10
7.571575
 20
-0.223988
 30
0.0
 11
7.571575
 21
-0.385258
 31
0.0
  0
LINE
  5
61
100
AcDbEntity
  8
0
  6
CONTINUOUS
 62
     7
100
AcDbLine
 10
7.529503
 20
-0.344194
 30
0.0
 11
7.529503
 21
-0.186619
 31
0.0
  0
LINE
  5
62
100
AcDbEntity
  8
0
  6
CONTINUOUS
 62
     7
100
AcDbLine
 10
7.487419
 20
-0.186033
 30
0.0
 11
7.487419
 21
-0.303156
 31
0.0
  0
LINE
  5
63
100
AcDbEntity
  8
0
  6
CONTINUOUS
 62
     7
100
AcDbLine
 10
7.445351
 20
-0.262106
 30
0.0
 11
7.445351
 21
-0.186033
 31
0.0
  0
LINE
  5
64
100
AcDbEntity
  8
0
  6
CONTINUOUS
 62
     7
100
AcDbLine
 10
7.403271
 20
-0.189772
 30
0.0
 11
7.403271
 21
-0.221041
 31
0.0
  0
LWPOLYLINE
  5
65
100
AcDbEntity
  8
0
  6
CONTINUOUS
 62
     7
100
AcDbPolyline
 90
       50
 70
   129
 43
0.0
 10
7.099693
 20
-0.20525
 42
-0.201328
 10
7.105263
 20
-0.191683
 42
-0.098817
 10
7.111519
 20
-0.187525
 42
-0.097853
 10
7.118927
 20
-0.186064
 10
7.19587
 20
-0.186064
 42
-0.199225
 10
7.209384
 20
-0.191689
 42
-0.198418
 10
7.214982
 20
-0.20525
 10
7.214982
 20
-0.82089
 42
-0.197477
 10
7.209377
 20
-0.834533
 42
-0.200133
 10
7.19587
 20
-0.840183
 10
7.068707
 20
-0.840183
 42
-0.025621
 10
7.066981
 20
-0.840098
 42
-0.031939
 10
7.065454
 20
-0.839846
 42
-0.040183
 10
7.06414
 20
-0.83943
 10
7.063565
 20
-0.839161
 10
7.063048
 20
-0.838852
 10
7.062589
 20
-0.838505
 10
7.062189
 20
-0.838119
 42
-0.06536
 10
7.06157
 20
-0.837236
 42
-0.063885
 10
7.061197
 20
-0.836211
 10
7.061103
 20
-0.835648
 10
7.061072
 20
-0.835052
 10
6.516304
 20
-0.339676
 42
0.145077
 10
6.506378
 20
-0.33488
 42
0.144593
 10
6.495421
 20
-0.336253
 42
0.145334
 10
6.486997
 20
-0.343348
 42
0.146426
 10
6.483848
 20
-0.353857
 10
6.483848
 20
-0.82089
 42
-0.097783
 10
6.482418
 20
-0.828273
 42
-0.09845
 10
6.478297
 20
-0.834533
 42
-0.200587
 10
6.464802
 20
-0.840183
 10
6.387871
 20
-0.840183
 42
-0.198356
 10
6.37417
 20
-0.834533
 42
-0.199465
 10
6.368495
 20
-0.82089
 10
6.368495
 20
-0.20525
 42
-0.200189
 10
6.37417
 20
-0.191683
 42
-0.197632
 10
6.387871
 20
-0.186064
 10
6.515049
 20
-0.186064
 42
-0.026006
 10
6.516715
 20
-0.186146
 42
-0.032398
 10
6.518189
 20
-0.186392
 42
-0.040686
 10
6.519459
 20
-0.1868
 10
6.520014
 20
-0.187063
 10
6.520513
 20
-0.187365
 42
-0.059852
 10
6.521343
 20
-0.188083
 42
-0.065063
 10
6.52194
 20
-0.188948
 42
-0.063191
 10
6.522301
 20
-0.189953
 10
6.522391
 20
-0.190504
 10
6.522422
 20
-0.191088
 10
7.067433
 20
-0.686476
 42
0.653089
 10
7.099693
 20
-0.672314
  0
LINE
  5
66
100
AcDbEntity
  8
0
  6
CONTINUOUS
 62
     7
100
AcDbLine
 10
7.192963
 20
-0.186045
 30
0.0
 11
7.192963
 21
-0.84017
 31
0.0
  0
LINE
  5
67
100
AcDbEntity
  8
0
  6
CONTINUOUS
 62
     7
100
AcDbLine
 10
7.150894
 20
-0.84017
 30
0.0
 11
7.150894
 21
-0.186045
 31
0.0
  0
LINE
  5
68
100
AcDbEntity
  8
0
  6
CONTINUOUS
 62
     7
100
AcDbLine
 10
7.108807
 20
-0.188896
 30
0.0
 11
7.108807
 21
-0.84017
 31
0.0
  0
LINE
  5
69
100
AcDbEntity
  8
0
  6
CONTINUOUS
 62
     7
100
AcDbLine
 10
7.066712
 20
-0.840069
 30
0.0
 11
7.066712
 21
-0.685871
 31
0.0
  0
LINE
  5
6A
100
AcDbEntity
  8
0
  6
CONTINUOUS
 62
     7
100
AcDbLine
 10
7.024635
 20
-0.647224
 30
0.0
 11
7.024635
 21
-0.806589
 31
0.0
  0
LINE
  5
6B
100
AcDbEntity
  8
0
  6
CONTINUOUS
 62
     7
100
AcDbLine
 10
6.982563
 20
-0.767942
 30
0.0
 11
6.982563
 21
-0.608572
 31
0.0
  0
LINE
  5
6C
100
AcDbEntity
  8
0
  6
CONTINUOUS
 62
     7
100
AcDbLine
 10
6.940483
 20
-0.569939
 30
0.0
 11
6.940483
 21
-0.729301
 31
0.0
  0
LINE
  5
6D
100
AcDbEntity
  8
0
  6
CONTINUOUS
 62
     7
100
AcDbLine
 10
6.898414
 20
-0.690655
 30
0.0
 11
6.898414
 21
-0.531284
 31
0.0
  0
LINE
  5
6E
100
AcDbEntity
  8
0
  6
CONTINUOUS
 62
     7
100
AcDbLine
 10
6.856334
 20
-0.492645
 30
0.0
 11
6.856334
 21
-0.652021
 31
0.0
  0
LINE
  5
6F
100
AcDbEntity
  8
0
  6
CONTINUOUS
 62
     7
100
AcDbLine
 10
6.814244
 20
-0.613361
 30
0.0
 11
6.814244
 21
-0.453999
 31
0.0
  0
LINE
  5
70
100
AcDbEntity
  8
0
  6
CONTINUOUS
 62
     7
100
AcDbLine
 10
6.772156
 20
-0.415344
 30
0.0
 11
6.772156
 21
-0.574728
 31
0.0
  0
LINE
  5
71
100
AcDbEntity
  8
0
  6
CONTINUOUS
 62
     7
100
AcDbLine
 10
6.730084
 20
-0.536076
 30
0.0
 11
6.730084
 21
-0.376705
 31
0.0
  0
LINE
  5
72
100
AcDbEntity
  8
0
  6
CONTINUOUS
 62
     7
100
AcDbLine
 10
6.688004
 20
-0.338058
 30
0.0
 11
6.688004
 21
-0.497429
 31
0.0
  0
LINE
  5
73
100
AcDbEntity
  8
0
  6
CONTINUOUS
 62
     7
100
AcDbLine
 10
6.645931
 20
-0.458788
 30
0.0
 11
6.645931
 21
-0.299418
 31
0.0
  0
LINE
  5
74
100
AcDbEntity
  8
0
  6
CONTINUOUS
 62
     7
100
AcDbLine
 10
6.603844
 20
-0.260771
 30
0.0
 11
6.603844
 21
-0.420141
 31
0.0
  0
LINE
  5
75
100
AcDbEntity
  8
0
  6
CONTINUOUS
 62
     7
100
AcDbLine
 10
6.561763
 20
-0.3815
 30
0.0
 11
6.561763
 21
-0.222118
 31
0.0
  0
LINE
  5
76
100
AcDbEntity
  8
0
  6
CONTINUOUS
 62
     7
100
AcDbLine
 10
6.519691
 20
-0.18663
 30
0.0
 11
6.519691
 21
-0.342848
 31
0.0
  0
LINE
  5
77
100
AcDbEntity
  8
0
  6
CONTINUOUS
 62
     7
100
AcDbLine
 10
6.477611
 20
-0.835222
 30
0.0
 11
6.477611
 21
-0.186045
 31
0.0
  0
LINE
  5
78
100
AcDbEntity
  8
0
  6
CONTINUOUS
 62
     7
100
AcDbLine
 10
6.435539
 20
-0.186045
 30
0.0
 11
6.435539
 21
-0.84017
 31
0.0
  0
LINE
  5
79
100
AcDbEntity
  8
0
  6
CONTINUOUS
 62
     7
100
AcDbLine
 10
6.393452
 20
-0.84017
 30
0.0
 11
6.393452
 21
-0.186045
 31
0.0
  0
LWPOLYLINE
  5
7A
100
AcDbEntity
  8
0
  6
CONTINUOUS
 62
     7
100
AcDbPolyline
 90
       53
 70
   129
 43
0.0
 10
4.272854
 20
-0.820871
 42
0.200163
 10
4.278433
 20
-0.834527
 42
0.199439
 10
4.292088
 20
-0.840183
 10
4.369053
 20
-0.840183
 42
0.200133
 10
4.382568
 20
-0.834533
 42
0.197691
 10
4.388166
 20
-0.82089
 10
4.388166
 20
-0.205236
 42
0.198558
 10
4.382565
 20
-0.19168
 42
0.199265
 10
4.369045
 20
-0.186064
 10
4.244163
 20
-0.186064
 42
0.031263
 10
4.241967
 20
-0.186201
 42
0.03752
 10
4.239999
 20
-0.186597
 42
0.044963
 10
4.238285
 20
-0.187249
 42
0.052655
 10
4.236849
 20
-0.188147
 42
0.058565
 10
4.235711
 20
-0.189278
 42
0.060292
 10
4.234887
 20
-0.190627
 42
0.056989
 10
4.234388
 20
-0.192175
 42
0.050217
 10
4.234221
 20
-0.193901
 10
3.884388
 20
-0.664957
 42
-0.11737
 10
3.877529
 20
-0.670776
 42
-0.117966
 10
3.868805
 20
-0.672867
 42
-0.240739
 10
3.853317
 20
-0.664957
 10
3.509075
 20
-0.193888
 42
0.115246
 10
3.502195
 20
-0.188131
 42
0.117226
 10
3.493545
 20
-0.186062
 10
3.368664
 20
-0.186062
 42
0.197338
 10
3.354962
 20
-0.191685
 42
0.098834
 10
3.350761
 20
-0.197903
 42
0.099476
 10
3.349286
 20
-0.205236
 10
3.349286
 20
-0.820866
 42
0.19933
 10
3.354962
 20
-0.834523
 42
0.198495
 10
3.368664
 20
-0.840181
 10
3.445602
 20
-0.840181
 42
0.20007
 10
3.459122
 20
-0.834531
 42
0.197756
 10
3.464722
 20
-0.82089
 10
3.464722
 20
-0.387928
 42
-0.158655
 10
3.468402
 20
-0.37664
 42
-0.157919
 10
3.478036
 20
-0.369651
 42
-0.157583
 10
3.489952
 20
-0.369625
 42
-0.158107
 10
3.499607
 20
-0.376572
 10
3.832584
 20
-0.832232
 42
0.121214
 10
3.839334
 20
-0.838078
 42
0.118857
 10
3.848107
 20
-0.840179
 10
3.88958
 20
-0.840179
 42
0.032804
 10
3.891709
 20
-0.840046
 42
0.039254
 10
3.893618
 20
-0.839648
 42
0.04666
 10
3.895279
 20
-0.838989
 42
0.053842
 10
3.896672
 20
-0.83808
 42
0.118153
 10
3.898574
 20
-0.835562
 42
0.054885
 10
3.899058
 20
-0.833988
 42
0.047931
 10
3.89922
 20
-0.832232
 10
4.238083
 20
-0.376572
 42
-0.725453
 10
4.272854
 20
-0.387928
  0
LINE
  5
7B
100
AcDbEntity
  8
0
  6
CONTINUOUS
 62
     7
100
AcDbLine
 10
4.373783
 20
-0.186638
 30
0.0
 11
4.373783
 21
-0.83956
 31
0.0
  0
LINE
  5
7C
100
AcDbEntity
  8
0
  6
CONTINUOUS
 62
     7
100
AcDbLine
 10
4.331696
 20
-0.840162
 30
0.0
 11
4.331696
 21
-0.186033
 31
0.0
  0
LINE
  5
7D
100
AcDbEntity
  8
0
  6
CONTINUOUS
 62
     7
100
AcDbLine
 10
4.289604
 20
-0.186033
 30
0.0
 11
4.289604
 21
-0.840012
 31
0.0
  0
LINE
  5
7E
100
AcDbEntity
  8
0
  6
CONTINUOUS
 62
     7
100
AcDbLine
 10
4.247532
 20
-0.369667
 30
0.0
 11
4.247532
 21
-0.186033
 31
0.0
  0
LINE
  5
7F
100
AcDbEntity
  8
0
  6
CONTINUOUS
 62
     7
100
AcDbLine
 10
4.205452
 20
-0.225536
 30
0.0
 11
4.205452
 21
-0.421173
 31
0.0
  0
LINE
  5
80
100
AcDbEntity
  8
0
  6
CONTINUOUS
 62
     7
100
AcDbLine
 10
4.16338
 20
-0.478754
 30
0.0
 11
4.16338
 21
-0.28311
 31
0.0
  0
LINE
  5
81
100
AcDbEntity
  8
0
  6
CONTINUOUS
 62
     7
100
AcDbLine
 10
4.121292
 20
-0.340702
 30
0.0
 11
4.121292
 21
-0.536327
 31
0.0
  0
LINE
  5
82
100
AcDbEntity
  8
0
  6
CONTINUOUS
 62
     7
100
AcDbLine
 10
4.079212
 20
-0.593912
 30
0.0
 11
4.079212
 21
-0.398275
 31
0.0
  0
LINE
  5
83
100
AcDbEntity
  8
0
  6
CONTINUOUS
 62
     7
100
AcDbLine
 10
4.03714
 20
-0.455862
 30
0.0
 11
4.03714
 21
-0.651487
 31
0.0
  0
LINE
  5
84
100
AcDbEntity
  8
0
  6
CONTINUOUS
 62
     7
100
AcDbLine
 10
3.99506
 20
-0.709066
 30
0.0
 11
3.99506
 21
-0.513435
 31
0.0
  0
LINE
  5
85
100
AcDbEntity
  8
0
  6
CONTINUOUS
 62
     7
100
AcDbLine
 10
3.952991
 20
-0.571014
 30
0.0
 11
3.952991
 21
-0.766653
 31
0.0
  0
LINE
  5
86
100
AcDbEntity
  8
0
  6
CONTINUOUS
 62
     7
100
AcDbLine
 10
3.9109
 20
-0.824226
 30
0.0
 11
3.9109
 21
-0.628601
 31
0.0
  0
LINE
  5
87
100
AcDbEntity
  8
0
  6
CONTINUOUS
 62
     7
100
AcDbLine
 10
3.868809
 20
-0.672869
 30
0.0
 11
3.868809
 21
-0.840151
 31
0.0
  0
LINE
  5
88
100
AcDbEntity
  8
0
  6
CONTINUOUS
 62
     7
100
AcDbLine
 10
3.826732
 20
-0.824339
 30
0.0
 11
3.826732
 21
-0.628683
 31
0.0
  0
LINE
  5
89
100
AcDbEntity
  8
0
  6
CONTINUOUS
 62
     7
100
AcDbLine
 10
3.78466
 20
-0.571102
 30
0.0
 11
3.78466
 21
-0.766752
 31
0.0
  0
LINE
  5
8A
100
AcDbEntity
  8
0
  6
CONTINUOUS
 62
     7
100
AcDbLine
 10
3.74258
 20
-0.709173
 30
0.0
 11
3.74258
 21
-0.513517
 31
0.0
  0
LINE
  5
8B
100
AcDbEntity
  8
0
  6
CONTINUOUS
 62
     7
100
AcDbLine
 10
3.700508
 20
-0.455936
 30
0.0
 11
3.700508
 21
-0.651587
 31
0.0
  0
LINE
  5
8C
100
AcDbEntity
  8
0
  6
CONTINUOUS
 62
     7
100
AcDbLine
 10
3.658428
 20
-0.594013
 30
0.0
 11
3.658428
 21
-0.398363
 31
0.0
  0
LINE
  5
8D
100
AcDbEntity
  8
0
  6
CONTINUOUS
 62
     7
100
AcDbLine
 10
3.616341
 20
-0.340776
 30
0.0
 11
3.616341
 21
-0.536434
 31
0.0
  0
LINE
  5
8E
100
AcDbEntity
  8
0
  6
CONTINUOUS
 62
     7
100
AcDbLine
 10
3.574249
 20
-0.478842
 30
0.0
 11
3.574249
 21
-0.283203
 31
0.0
  0
LINE
  5
8F
100
AcDbEntity
  8
0
  6
CONTINUOUS
 62
     7
100
AcDbLine
 10
3.532181
 20
-0.225611
 30
0.0
 11
3.532181
 21
-0.421268
 31
0.0
  0
LINE
  5
90
100
AcDbEntity
  8
0
  6
CONTINUOUS
 62
     7
100
AcDbLine
 10
3.490097
 20
-0.369699
 30
0.0
 11
3.490097
 21
-0.186033
 31
0.0
  0
LINE
  5
91
100
AcDbEntity
  8
0
  6
CONTINUOUS
 62
     7
100
AcDbLine
 10
3.448029
 20
-0.186033
 30
0.0
 11
3.448029
 21
-0.84
 31
0.0
  0
LINE
  5
92
100
AcDbEntity
  8
0
  6
CONTINUOUS
 62
     7
100
AcDbLine
 10
3.405949
 20
-0.840151
 30
0.0
 11
3.405949
 21
-0.186033
 31
0.0
  0
LINE
  5
93
100
AcDbEntity
  8
0
  6
CONTINUOUS
 62
     7
100
AcDbLine
 10
3.363876
 20
-0.18663
 30
0.0
 11
3.363876
 21
-0.839584
 31
0.0
  0
LWPOLYLINE
  5
94
100
AcDbEntity
  8
0
  6
CONTINUOUS
 62
     7
100
AcDbPolyline
 90
       31
 70
   129
 43
0.0
 10
1.524818
 20
-0.518616
 10
1.524818
 20
-0.339909
 42
-0.19989
 10
1.536039
 20
-0.312741
 42
-0.198727
 10
1.563293
 20
-0.301488
 10
2.025024
 20
-0.301488
 42
-0.199067
 10
2.05214
 20
-0.312747
 42
-0.198667
 10
2.063372
 20
-0.339909
 42
0.199288
 10
2.069042
 20
-0.353557
 42
0.198536
 10
2.082729
 20
-0.35921
 10
2.159687
 20
-0.35921
 42
0.199959
 10
2.173216
 20
-0.353561
 42
0.197866
 10
2.178821
 20
-0.339922
 42
0.414265
 10
2.025024
 20
-0.186064
 10
1.563293
 20
-0.186064
 42
0.198781
 10
1.454389
 20
-0.231128
 42
0.199044
 10
1.40928
 20
-0.339922
 10
1.40928
 20
-0.686193
 42
0.414214
 10
1.563293
 20
-0.840181
 10
2.025024
 20
-0.840181
 42
0.199069
 10
2.133775
 20
-0.79508
 42
0.198756
 10
2.178821
 20
-0.686199
 42
0.198335
 10
2.173205
 20
-0.672648
 42
0.199124
 10
2.159687
 20
-0.667035
 10
2.082729
 20
-0.667035
 42
0.197611
 10
2.069042
 20
-0.672648
 42
0.200214
 10
2.063372
 20
-0.686199
 42
-0.198268
 10
2.05214
 20
-0.71345
 42
-0.199557
 10
2.025024
 20
-0.724737
 10
1.563293
 20
-0.724737
 42
-0.198731
 10
1.536005
 20
-0.71345
 42
-0.199094
 10
1.524701
 20
-0.686199
  0
LINE
  5
95
100
AcDbEntity
  8
0
  6
CONTINUOUS
 62
     7
100
AcDbLine
 10
2.143673
 20
-0.241957
 30
0.0
 11
2.143673
 21
-0.359188
 31
0.0
  0
LINE
  5
96
100
AcDbEntity
  8
0
  6
CONTINUOUS
 62
     7
100
AcDbLine
 10
2.143673
 20
-0.667007
 30
0.0
 11
2.143673
 21
-0.78422
 31
0.0
  0
LINE
  5
97
100
AcDbEntity
  8
0
  6
CONTINUOUS
 62
     7
100
AcDbLine
 10
2.101593
 20
-0.819733
 30
0.0
 11
2.101593
 21
-0.667007
 31
0.0
  0
LINE
  5
98
100
AcDbEntity
  8
0
  6
CONTINUOUS
 62
     7
100
AcDbLine
 10
2.101593
 20
-0.359188
 30
0.0
 11
2.101593
 21
-0.206457
 31
0.0
  0
LINE
  5
99
100
AcDbEntity
  8
0
  6
CONTINUOUS
 62
     7
100
AcDbLine
 10
2.059521
 20
-0.189974
 30
0.0
 11
2.059521
 21
-0.322971
 31
0.0
  0
LINE
  5
9A
100
AcDbEntity
  8
0
  6
CONTINUOUS
 62
     7
100
AcDbLine
 10
2.059521
 20
-0.703175
 30
0.0
 11
2.059521
 21
-0.836235
 31
0.0
  0
LINE
  5
9B
100
AcDbEntity
  8
0
  6
CONTINUOUS
 62
     7
100
AcDbLine
 10
2.017433
 20
-0.840151
 30
0.0
 11
2.017433
 21
-0.72472
 31
0.0
  0
LINE
  5
9C
100
AcDbEntity
  8
0
  6
CONTINUOUS
 62
     7
100
AcDbLine
 10
2.017433
 20
-0.301476
 30
0.0
 11
2.017433
 21
-0.186045
 31
0.0
  0
LINE
  5
9D
100
AcDbEntity
  8
0
  6
CONTINUOUS
 62
     7
100
AcDbLine
 10
1.975353
 20
-0.186045
 30
0.0
 11
1.975353
 21
-0.301476
 31
0.0
  0
LINE
  5
9E
100
AcDbEntity
  8
0
  6
CONTINUOUS
 62
     7
100
AcDbLine
 10
1.975353
 20
-0.72472
 30
0.0
 11
1.975353
 21
-0.840151
 31
0.0
  0
LINE
  5
9F
100
AcDbEntity
  8
0
  6
CONTINUOUS
 62
     7
100
AcDbLine
 10
1.933281
 20
-0.840151
 30
0.0
 11
1.933281
 21
-0.72472
 31
0.0
  0
LINE
  5
A0
100
AcDbEntity
  8
0
  6
CONTINUOUS
 62
     7
100
AcDbLine
 10
1.933281
 20
-0.301476
 30
0.0
 11
1.933281
 21
-0.186045
 31
0.0
  0
LINE
  5
A1
100
AcDbEntity
  8
0
  6
CONTINUOUS
 62
     7
100
AcDbLine
 10
1.891201
 20
-0.186045
 30
0.0
 11
1.891201
 21
-0.301476
 31
0.0
  0
LINE
  5
A2
100
AcDbEntity
  8
0
  6
CONTINUOUS
 62
     7
100
AcDbLine
 10
1.891201
 20
-0.72472
 30
0.0
 11
1.891201
 21
-0.840151
 31
0.0
  0
LINE
  5
A3
100
AcDbEntity
  8
0
  6
CONTINUOUS
 62
     7
100
AcDbLine
 10
1.84911
 20
-0.840151
 30
0.0
 11
1.84911
 21
-0.72472
 31
0.0
  0
LINE
  5
A4
100
AcDbEntity
  8
0
  6
CONTINUOUS
 62
     7
100
AcDbLine
 10
1.84911
 20
-0.301476
 30
0.0
 11
1.84911
 21
-0.186045
 31
0.0
  0
LINE
  5
A5
100
AcDbEntity
  8
0
  6
CONTINUOUS
 62
     7
100
AcDbLine
 10
1.807022
 20
-0.186045
 30
0.0
 11
1.807022
 21
-0.301464
 31
0.0
  0
LINE
  5
A6
100
AcDbEntity
  8
0
  6
CONTINUOUS
 62
     7
100
AcDbLine
 10
1.807022
 20
-0.72472
 30
0.0
 11
1.807022
 21
-0.840151
 31
0.0
  0
LINE
  5
A7
100
AcDbEntity
  8
0
  6
CONTINUOUS
 62
     7
100
AcDbLine
 10
1.76495
 20
-0.840151
 30
0.0
 11
1.76495
 21
-0.72472
 31
0.0
  0
LINE
  5
A8
100
AcDbEntity
  8
0
  6
CONTINUOUS
 62
     7
100
AcDbLine
 10
1.76495
 20
-0.301464
 30
0.0
 11
1.76495
 21
-0.186045
 31
0.0
  0
LINE
  5
A9
100
AcDbEntity
  8
0
  6
CONTINUOUS
 62
     7
100
AcDbLine
 10
1.722874
 20
-0.186045
 30
0.0
 11
1.722874
 21
-0.301464
 31
0.0
  0
LINE
  5
AA
100
AcDbEntity
  8
0
  6
CONTINUOUS
 62
     7
100
AcDbLine
 10
1.722874
 20
-0.72472
 30
0.0
 11
1.722874
 21
-0.840151
 31
0.0
  0
LINE
  5
AB
100
AcDbEntity
  8
0
  6
CONTINUOUS
 62
     7
100
AcDbLine
 10
1.680801
 20
-0.840151
 30
0.0
 11
1.680801
 21
-0.72472
 31
0.0
  0
LINE
  5
AC
100
AcDbEntity
  8
0
  6
CONTINUOUS
 62
     7
100
AcDbLine
 10
1.680801
 20
-0.301464
 30
0.0
 11
1.680801
 21
-0.186045
 31
0.0
  0
LINE
  5
AD
100
AcDbEntity
  8
0
  6
CONTINUOUS
 62
     7
100
AcDbLine
 10
1.638721
 20
-0.186045
 30
0.0
 11
1.638721
 21
-0.301464
 31
0.0
  0
LINE
  5
AE
100
AcDbEntity
  8
0
  6
CONTINUOUS
 62
     7
100
AcDbLine
 10
1.638721
 20
-0.72472
 30
0.0
 11
1.638721
 21
-0.840151
 31
0.0
  0
LINE
  5
AF
100
AcDbEntity
  8
0
  6
CONTINUOUS
 62
     7
100
AcDbLine
 10
1.59663
 20
-0.840151
 30
0.0
 11
1.59663
 21
-0.72472
 31
0.0
  0
LINE
  5
B0
100
AcDbEntity
  8
0
  6
CONTINUOUS
 62
     7
100
AcDbLine
 10
1.59663
 20
-0.301464
 30
0.0
 11
1.59663
 21
-0.186045
 31
0.0
  0
LINE
  5
B1
100
AcDbEntity
  8
0
  6
CONTINUOUS
 62
     7
100
AcDbLine
 10
1.554558
 20
-0.186291
 30
0.0
 11
1.554558
 21
-0.302464
 31
0.0
  0
LINE
  5
B2
100
AcDbEntity
  8
0
  6
CONTINUOUS
 62
     7
100
AcDbLine
 10
1.554558
 20
-0.723732
 30
0.0
 11
1.554558
 21
-0.839918
 31
0.0
  0
LINE
  5
B3
100
AcDbEntity
  8
0
  6
CONTINUOUS
 62
     7
100
AcDbLine
 10
1.51247
 20
-0.831539
 30
0.0
 11
1.51247
 21
-0.194656
 31
0.0
  0
LINE
  5
B4
100
AcDbEntity
  8
0
  6
CONTINUOUS
 62
     7
100
AcDbLine
 10
1.47039
 20
-0.21719
 30
0.0
 11
1.47039
 21
-0.808994
 31
0.0
  0
LINE
  5
B5
100
AcDbEntity
  8
0
  6
CONTINUOUS
 62
     7
100
AcDbLine
 10
1.428318
 20
-0.760326
 30
0.0
 11
1.428318
 21
-0.26585
 31
0.0
  0
LWPOLYLINE
  5
B6
100
AcDbEntity
  8
0
  6
CONTINUOUS
 62
     7
100
AcDbPolyline
 90
       25
 70
   128
 43
0.0
 10
-0.108934
 20
-0.5158
 10
-0.108934
 20
-0.320662
 42
0.197803
 10
-0.114613
 20
-0.307104
 42
0.198515
 10
-0.128166
 20
-0.301488
 10
-0.205124
 20
-0.301488
 42
-0.198608
 10
-0.218811
 20
-0.295832
 42
-0.199217
 10
-0.224481
 20
-0.282177
 10
-0.224481
 20
-0.205217
 42
-0.200159
 10
-0.218811
 20
-0.191661
 42
-0.197667
 10
-0.205124
 20
-0.186045
 10
0.545181
 20
-0.186045
 42
-0.414242
 10
0.737452
 20
-0.378386
 10
0.737452
 20
-0.647717
 42
-0.198762
 10
0.681127
 20
-0.783809
 42
-0.199038
 10
0.545174
 20
-0.840181
 10
-0.205124
 20
-0.840181
 42
-0.198631
 10
-0.218811
 20
-0.834523
 42
-0.199194
 10
-0.224481
 20
-0.820866
 10
-0.224481
 20
-0.743917
 42
-0.200104
 10
-0.218811
 20
-0.730355
 42
-0.197721
 10
-0.205124
 20
-0.724737
 10
-0.128166
 20
-0.724737
 42
0.200196
 10
-0.114655
 20
-0.719085
 42
0.19763
 10
-0.109059
 20
-0.705441
 10
-0.109059
 20
-0.5158
  0
LWPOLYLINE
  5
B7
100
AcDbEntity
  8
0
  6
CONTINUOUS
 62
     7
100
AcDbPolyline
 90
       14
 70
   128
 43
0.0
 10
0.006504
 20
-0.5158
 10
0.006504
 20
-0.320662
 42
-0.201
 10
0.01209
 20
-0.307104
 42
-0.098683
 10
0.018345
 20
-0.302948
 42
-0.097851
 10
0.025745
 20
-0.301488
 10
0.545181
 20
-0.301488
 42
-0.414214
 10
0.622012
 20
-0.378386
 10
0.622012
 20
-0.647717
 42
-0.198603
 10
0.599506
 20
-0.702178
 42
-0.199221
 10
0.545174
 20
-0.724737
 10
0.025745
 20
-0.724737
 42
-0.198477
 10
0.012055
 20
-0.719085
 42
-0.199344
 10
0.006384
 20
-0.705441
 10
0.006384
 20
-0.5158
  0
LINE
  5
B8
100
AcDbEntity
  8
0
  6
CONTINUOUS
 62
     7
100
AcDbLine
 10
0.713051
 20
-0.28447
 30
0.0
 11
0.713051
 21
-0.741676
 31
0.0
  0
LINE
  5
B9
100
AcDbEntity
  8
0
  6
CONTINUOUS
 62
     7
100
AcDbLine
 10
0.670959
 20
-0.793303
 30
0.0
 11
0.670959
 21
-0.232862
 31
0.0
  0
LINE
  5
BA
100
AcDbEntity
  8
0
  6
CONTINUOUS
 62
     7
100
AcDbLine
 10
0.628872
 20
-0.205212
 30
0.0
 11
0.628872
 21
-0.820978
 31
0.0
  0
LINE
  5
BB
100
AcDbEntity
  8
0
  6
CONTINUOUS
 62
     7
100
AcDbLine
 10
0.586792
 20
-0.835581
 30
0.0
 11
0.586792
 21
-0.712465
 31
0.0
  0
LINE
  5
BC
100
AcDbEntity
  8
0
  6
CONTINUOUS
 62
     7
100
AcDbLine
 10
0.586792
 20
-0.313711
 30
0.0
 11
0.586792
 21
-0.190596
 31
0.0
  0
LINE
  5
BD
100
AcDbEntity
  8
0
  6
CONTINUOUS
 62
     7
100
AcDbLine
 10
0.54472
 20
-0.186028
 30
0.0
 11
0.54472
 21
-0.301464
 31
0.0
  0
LINE
  5
BE
100
AcDbEntity
  8
0
  6
CONTINUOUS
 62
     7
100
AcDbLine
 10
0.54472
 20
-0.724714
 30
0.0
 11
0.54472
 21
-0.840151
 31
0.0
  0
LINE
  5
BF
100
AcDbEntity
  8
0
  6
CONTINUOUS
 62
     7
100
AcDbLine
 10
0.50264
 20
-0.840151
 30
0.0
 11
0.50264
 21
-0.724714
 31
0.0
  0
LINE
  5
C0
100
AcDbEntity
  8
0
  6
CONTINUOUS
 62
     7
100
AcDbLine
 10
0.50264
 20
-0.301464
 30
0.0
 11
0.50264
 21
-0.186028
 31
0.0
  0
LINE
  5
C1
100
AcDbEntity
  8
0
  6
CONTINUOUS
 62
     7
100
AcDbLine
 10
0.460567
 20
-0.186028
 30
0.0
 11
0.460567
 21
-0.301464
 31
0.0
  0
LINE
  5
C2
100
AcDbEntity
  8
0
  6
CONTINUOUS
 62
     7
100
AcDbLine
 10
0.460567
 20
-0.724714
 30
0.0
 11
0.460567
 21
-0.840151
 31
0.0
  0
LINE
  5
C3
100
AcDbEntity
  8
0
  6
CONTINUOUS
 62
     7
100
AcDbLine
 10
0.41848
 20
-0.840151
 30
0.0
 11
0.41848
 21
-0.724714
 31
0.0
  0
LINE
  5
C4
100
AcDbEntity
  8
0
  6
CONTINUOUS
 62
     7
100
AcDbLine
 10
0.41848
 20
-0.301464
 30
0.0
 11
0.41848
 21
-0.186028
 31
0.0
  0
LINE
  5
C5
100
AcDbEntity
  8
0
  6
CONTINUOUS
 62
     7
100
AcDbLine
 10
0.3764
 20
-0.186028
 30
0.0
 11
0.3764
 21
-0.301464
 31
0.0
  0
LINE
  5
C6
100
AcDbEntity
  8
0
  6
CONTINUOUS
 62
     7
100
AcDbLine
 10
0.3764
 20
-0.724714
 30
0.0
 11
0.3764
 21
-0.840151
 31
0.0
  0
LINE
  5
C7
100
AcDbEntity
  8
0
  6
CONTINUOUS
 62
     7
100
AcDbLine
 10
0.334328
 20
-0.840151
 30
0.0
 11
0.334328
 21
-0.724714
 31
0.0
  0
LINE
  5
C8
100
AcDbEntity
  8
0
  6
CONTINUOUS
 62
     7
100
AcDbLine
 10
0.334328
 20
-0.301464
 30
0.0
 11
0.334328
 21
-0.186028
 31
0.0
  0
LINE
  5
C9
100
AcDbEntity
  8
0
  6
CONTINUOUS
 62
     7
100
AcDbLine
 10
0.292248
 20
-0.186028
 30
0.0
 11
0.292248
 21
-0.301464
 31
0.0
  0
LINE
  5
CA
100
AcDbEntity
  8
0
  6
CONTINUOUS
 62
     7
100
AcDbLine
 10
0.292248
 20
-0.724714
 30
0.0
 11
0.292248
 21
-0.840151
 31
0.0
  0
LINE
  5
CB
100
AcDbEntity
  8
0
  6
CONTINUOUS
 62
     7
100
AcDbLine
 10
0.250156
 20
-0.840151
 30
0.0
 11
0.250156
 21
-0.724714
 31
0.0
  0
LINE
  5
CC
100
AcDbEntity
  8
0
  6
CONTINUOUS
 62
     7
100
AcDbLine
 10
0.250156
 20
-0.301464
 30
0.0
 11
0.250156
 21
-0.186028
 31
0.0
  0
LINE
  5
CD
100
AcDbEntity
  8
0
  6
CONTINUOUS
 62
     7
100
AcDbLine
 10
0.208088
 20
-0.186028
 30
0.0
 11
0.208088
 21
-0.301464
 31
0.0
  0
LINE
  5
CE
100
AcDbEntity
  8
0
  6
CONTINUOUS
 62
     7
100
AcDbLine
 10
0.208088
 20
-0.724714
 30
0.0
 11
0.208088
 21
-0.840151
 31
0.0
  0
LINE
  5
CF
100
AcDbEntity
  8
0
  6
CONTINUOUS
 62
     7
100
AcDbLine
 10
0.165997
 20
-0.840151
 30
0.0
 11
0.165997
 21
-0.724714
 31
0.0
  0
LINE
  5
D0
100
AcDbEntity
  8
0
  6
CONTINUOUS
 62
     7
100
AcDbLine
 10
0.165997
 20
-0.301464
 30
0.0
 11
0.165997
 21
-0.186028
 31
0.0
  0
LINE
  5
D1
100
AcDbEntity
  8
0
  6
CONTINUOUS
 62
     7
100
AcDbLine
 10
0.123917
 20
-0.186028
 30
0.0
 11
0.123917
 21
-0.301464
 31
0.0
  0
LINE
  5
D2
100
AcDbEntity
  8
0
  6
CONTINUOUS
 62
     7
100
AcDbLine
 10
0.123917
 20
-0.724714
 30
0.0
 11
0.123917
 21
-0.840151
 31
0.0
  0
LINE
  5
D3
100
AcDbEntity
  8
0
  6
CONTINUOUS
 62
     7
100
AcDbLine
 10
0.081848
 20
-0.840151
 30
0.0
 11
0.081848
 21
-0.724714
 31
0.0
  0
LINE
  5
D4
100
AcDbEntity
  8
0
  6
CONTINUOUS
 62
     7
100
AcDbLine
 10
0.081848
 20
-0.301464
 30
0.0
 11
0.081848
 21
-0.186028
 31
0.0
  0
LINE
  5
D5
100
AcDbEntity
  8
0
  6
CONTINUOUS
 62
     7
100
AcDbLine
 10
0.039768
 20
-0.186028
 30
0.0
 11
0.039768
 21
-0.301464
 31
0.0
  0
LINE
  5
D6
100
AcDbEntity
  8
0
  6
CONTINUOUS
 62
     7
100
AcDbLine
 10
0.039768
 20
-0.724714
 30
0.0
 11
0.039768
 21
-0.840151
 31
0.0
  0
LINE
  5
D7
100
AcDbEntity
  8
0
  6
CONTINUOUS
 62
     7
100
AcDbLine
 10
-0.002304
 20
-0.840151
 30
0.0
 11
-0.002304
 21
-0.186028
 31
0.0
  0
LINE
  5
D8
100
AcDbEntity
  8
0
  6
CONTINUOUS
 62
     7
100
AcDbLine
 10
-0.044382
 20
-0.186028
 30
0.0
 11
-0.044382
 21
-0.840151
 31
0.0
  0
LINE
  5
D9
100
AcDbEntity
  8
0
  6
CONTINUOUS
 62
     7
100
AcDbLine
 10
-0.086483
 20
-0.840151
 30
0.0
 11
-0.086483
 21
-0.186028
 31
0.0
  0
LINE
  5
DA
100
AcDbEntity
  8
0
  6
CONTINUOUS
 62
     7
100
AcDbLine
 10
-0.128561
 20
-0.186028
 30
0.0
 11
-0.128561
 21
-0.301456
 31
0.0
  0
LINE
  5
DB
100
AcDbEntity
  8
0
  6
CONTINUOUS
 62
     7
100
AcDbLine
 10
-0.128561
 20
-0.724714
 30
0.0
 11
-0.128561
 21
-0.840151
 31
0.0
  0
LINE
  5
DC
100
AcDbEntity
  8
0
  6
CONTINUOUS
 62
     7
100
AcDbLine
 10
-0.170633
 20
-0.840151
 30
0.0
 11
-0.170633
 21
-0.724714
 31
0.0
  0
LINE
  5
DD
100
AcDbEntity
  8
0
  6
CONTINUOUS
 62
     7
100
AcDbLine
 10
-0.170633
 20
-0.301456
 30
0.0
 11
-0.170633
 21
-0.186028
 31
0.0
  0
LINE
  5
DE
100
AcDbEntity
  8
0
  6
CONTINUOUS
 62
     7
100
AcDbLine
 10
-0.212713
 20
-0.187555
 30
0.0
 11
-0.212713
 21
-0.299927
 31
0.0
  0
LINE
  5
DF
100
AcDbEntity
  8
0
  6
CONTINUOUS
 62
     7
100
AcDbLine
 10
-0.212713
 20
-0.726231
 30
0.0
 11
-0.212713
 21
-0.838621
 31
0.0
  0
LWPOLYLINE
  5
E0
100
AcDbEntity
  8
0
  6
CONTINUOUS
 62
     7
100
AcDbPolyline
 90
       38
 70
   129
 43
0.0
 10
-1.550293
 20
-0.570749
 10
-1.550293
 20
-0.205217
 42
-0.200604
 10
-1.544698
 20
-0.191661
 42
-0.098627
 10
-1.538448
 20
-0.187505
 42
-0.097951
 10
-1.531059
 20
-0.186045
 10
-0.915417
 20
-0.186045
 42
-0.199198
 10
-0.90189
 20
-0.191661
 42
-0.198626
 10
-0.896287
 20
-0.205217
 10
-0.896287
 20
-0.282177
 42
-0.19774
 10
-0.90189
 20
-0.295827
 42
-0.200085
 10
-0.915417
 20
-0.30148
 10
-1.415621
 20
-0.30148
 42
0.197774
 10
-1.429303
 20
-0.307098
 42
0.200051
 10
-1.434971
 20
-0.320662
 10
-1.434971
 20
-0.436079
 42
0.199202
 10
-1.429303
 20
-0.449731
 42
0.198622
 10
-1.415621
 20
-0.455386
 10
-0.915417
 20
-0.455386
 42
-0.19904
 10
-0.90189
 20
-0.461008
 42
-0.198601
 10
-0.896287
 20
-0.474562
 10
-0.896287
 20
-0.551527
 42
-0.197767
 10
-0.90189
 20
-0.565174
 42
-0.200058
 10
-0.915417
 20
-0.570826
 10
-1.415621
 20
-0.570826
 42
0.197749
 10
-1.429303
 20
-0.576443
 42
0.200075
 10
-1.434971
 20
-0.590004
 10
-1.434971
 20
-0.705435
 42
0.199231
 10
-1.429303
 20
-0.719084
 42
0.198594
 10
-1.415621
 20
-0.724737
 10
-0.915417
 20
-0.724737
 42
-0.199252
 10
-0.90189
 20
-0.730355
 42
-0.198572
 10
-0.896287
 20
-0.743917
 10
-0.896287
 20
-0.820866
 42
-0.197663
 10
-0.90189
 20
-0.834523
 42
-0.200163
 10
-0.915417
 20
-0.840181
 10
-1.531059
 20
-0.840181
 42
-0.198568
 10
-1.544737
 20
-0.834519
 42
-0.199101
 10
-1.550402
 20
-0.820866
  0
LINE
  5
E1
100
AcDbEntity
  8
0
  6
CONTINUOUS
 62
     7
100
AcDbLine
 10
-0.927982
 20
-0.186028
 30
0.0
 11
-0.927982
 21
-0.301456
 31
0.0
  0
LINE
  5
E2
100
AcDbEntity
  8
0
  6
CONTINUOUS
 62
     7
100
AcDbLine
 10
-0.927982
 20
-0.45537
 30
0.0
 11
-0.927982
 21
-0.570807
 31
0.0
  0
LINE
  5
E3
100
AcDbEntity
  8
0
  6
CONTINUOUS
 62
     7
100
AcDbLine
 10
-0.927982
 20
-0.724701
 30
0.0
 11
-0.927982
 21
-0.840151
 31
0.0
  0
LINE
  5
E4
100
AcDbEntity
  8
0
  6
CONTINUOUS
 62
     7
100
AcDbLine
 10
-0.970053
 20
-0.840151
 30
0.0
 11
-0.970053
 21
-0.724701
 31
0.0
  0
LINE
  5
E5
100
AcDbEntity
  8
0
  6
CONTINUOUS
 62
     7
100
AcDbLine
 10
-0.970053
 20
-0.570807
 30
0.0
 11
-0.970053
 21
-0.45537
 31
0.0
  0
LINE
  5
E6
100
AcDbEntity
  8
0
  6
CONTINUOUS
 62
     7
100
AcDbLine
 10
-0.970053
 20
-0.301456
 30
0.0
 11
-0.970053
 21
-0.186028
 31
0.0
  0
LINE
  5
E7
100
AcDbEntity
  8
0
  6
CONTINUOUS
 62
     7
100
AcDbLine
 10
-1.012142
 20
-0.186028
 30
0.0
 11
-1.012142
 21
-0.301456
 31
0.0
  0
LINE
  5
E8
100
AcDbEntity
  8
0
  6
CONTINUOUS
 62
     7
100
AcDbLine
 10
-1.012142
 20
-0.45537
 30
0.0
 11
-1.012142
 21
-0.570807
 31
0.0
  0
LINE
  5
E9
100
AcDbEntity
  8
0
  6
CONTINUOUS
 62
     7
100
AcDbLine
 10
-1.012142
 20
-0.724701
 30
0.0
 11
-1.012142
 21
-0.840151
 31
0.0
  0
LINE
  5
EA
100
AcDbEntity
  8
0
  6
CONTINUOUS
 62
     7
100
AcDbLine
 10
-1.054224
 20
-0.840151
 30
0.0
 11
-1.054224
 21
-0.724701
 31
0.0
  0
LINE
  5
EB
100
AcDbEntity
  8
0
  6
CONTINUOUS
 62
     7
100
AcDbLine
 10
-1.054224
 20
-0.570807
 30
0.0
 11
-1.054224
 21
-0.45537
 31
0.0
  0
LINE
  5
EC
100
AcDbEntity
  8
0
  6
CONTINUOUS
 62
     7
100
AcDbLine
 10
-1.054224
 20
-0.301456
 30
0.0
 11
-1.054224
 21
-0.186028
 31
0.0
  0
LINE
  5
ED
100
AcDbEntity
  8
0
  6
CONTINUOUS
 62
     7
100
AcDbLine
 10
-1.096294
 20
-0.186028
 30
0.0
 11
-1.096294
 21
-0.301456
 31
0.0
  0
LINE
  5
EE
100
AcDbEntity
  8
0
  6
CONTINUOUS
 62
     7
100
AcDbLine
 10
-1.096294
 20
-0.45537
 30
0.0
 11
-1.096294
 21
-0.570807
 31
0.0
  0
LINE
  5
EF
100
AcDbEntity
  8
0
  6
CONTINUOUS
 62
     7
100
AcDbLine
 10
-1.096294
 20
-0.724701
 30
0.0
 11
-1.096294
 21
-0.840151
 31
0.0
  0
LINE
  5
F0
100
AcDbEntity
  8
0
  6
CONTINUOUS
 62
     7
100
AcDbLine
 10
-1.138384
 20
-0.840151
 30
0.0
 11
-1.138384
 21
-0.724701
 31
0.0
  0
LINE
  5
F1
100
AcDbEntity
  8
0
  6
CONTINUOUS
 62
     7
100
AcDbLine
 10
-1.138384
 20
-0.570807
 30
0.0
 11
-1.138384
 21
-0.45537
 31
0.0
  0
LINE
  5
F2
100
AcDbEntity
  8
0
  6
CONTINUOUS
 62
     7
100
AcDbLine
 10
-1.138384
 20
-0.301456
 30
0.0
 11
-1.138384
 21
-0.186028
 31
0.0
  0
LINE
  5
F3
100
AcDbEntity
  8
0
  6
CONTINUOUS
 62
     7
100
AcDbLine
 10
-1.180464
 20
-0.186028
 30
0.0
 11
-1.180464
 21
-0.301456
 31
0.0
  0
LINE
  5
F4
100
AcDbEntity
  8
0
  6
CONTINUOUS
 62
     7
100
AcDbLine
 10
-1.180464
 20
-0.45537
 30
0.0
 11
-1.180464
 21
-0.570807
 31
0.0
  0
LINE
  5
F5
100
AcDbEntity
  8
0
  6
CONTINUOUS
 62
     7
100
AcDbLine
 10
-1.180464
 20
-0.724701
 30
0.0
 11
-1.180464
 21
-0.840151
 31
0.0
  0
LINE
  5
F6
100
AcDbEntity
  8
0
  6
CONTINUOUS
 62
     7
100
AcDbLine
 10
-1.222534
 20
-0.840151
 30
0.0
 11
-1.222534
 21
-0.724701
 31
0.0
  0
LINE
  5
F7
100
AcDbEntity
  8
0
  6
CONTINUOUS
 62
     7
100
AcDbLine
 10
-1.222534
 20
-0.570807
 30
0.0
 11
-1.222534
 21
-0.45537
 31
0.0
  0
LINE
  5
F8
100
AcDbEntity
  8
0
  6
CONTINUOUS
 62
     7
100
AcDbLine
 10
-1.222534
 20
-0.301456
 30
0.0
 11
-1.222534
 21
-0.186028
 31
0.0
  0
LINE
  5
F9
100
AcDbEntity
  8
0
  6
CONTINUOUS
 62
     7
100
AcDbLine
 10
-1.264616
 20
-0.186028
 30
0.0
 11
-1.264616
 21
-0.301456
 31
0.0
  0
LINE
  5
FA
100
AcDbEntity
  8
0
  6
CONTINUOUS
 62
     7
100
AcDbLine
 10
-1.264616
 20
-0.45537
 30
0.0
 11
-1.264616
 21
-0.570807
 31
0.0
  0
LINE
  5
FB
100
AcDbEntity
  8
0
  6
CONTINUOUS
 62
     7
100
AcDbLine
 10
-1.264616
 20
-0.724701
 30
0.0
 11
-1.264616
 21
-0.840151
 31
0.0
  0
LINE
  5
FC
100
AcDbEntity
  8
0
  6
CONTINUOUS
 62
     7
100
AcDbLine
 10
-1.306686
 20
-0.840151
 30
0.0
 11
-1.306686
 21
-0.724701
 31
0.0
  0
LINE
  5
FD
100
AcDbEntity
  8
0
  6
CONTINUOUS
 62
     7
100
AcDbLine
 10
-1.306686
 20
-0.570807
 30
0.0
 11
-1.306686
 21
-0.45537
 31
0.0
  0
LINE
  5
FE
100
AcDbEntity
  8
0
  6
CONTINUOUS
 62
     7
100
AcDbLine
 10
-1.306686
 20
-0.301456
 30
0.0
 11
-1.306686
 21
-0.186028
 31
0.0
  0
LINE
  5
FF
100
AcDbEntity
  8
0
  6
CONTINUOUS
 62
     7
100
AcDbLine
 10
-1.348764
 20
-0.186028
 30
0.0
 11
-1.348764
 21
-0.301456
 31
0.0
  0
LINE
  5
100
100
AcDbEntity
  8
0
  6
CONTINUOUS
 62
     7
100
AcDbLine
 10
-1.348764
 20
-0.45537
 30
0.0
 11
-1.348764
 21
-0.570807
 31
0.0
  0
LINE
  5
101
100
AcDbEntity
  8
0
  6
CONTINUOUS
 62
     7
100
AcDbLine
 10
-1.348764
 20
-0.724701
 30
0.0
 11
-1.348764
 21
-0.840151
 31
0.0
  0
LINE
  5
102
100
AcDbEntity
  8
0
  6
CONTINUOUS
 62
     7
100
AcDbLine
 10
-1.390865
 20
-0.840151
 30
0.0
 11
-1.390865
 21
-0.724701
 31
0.0
  0
LINE
  5
103
100
AcDbEntity
  8
0
  6
CONTINUOUS
 62
     7
100
AcDbLine
 10
-1.390865
 20
-0.570807
 30
0.0
 11
-1.390865
 21
-0.45537
 31
0.0
  0
LINE
  5
104
100
AcDbEntity
  8
0
  6
CONTINUOUS
 62
     7
100
AcDbLine
 10
-1.390865
 20
-0.301456
 30
0.0
 11
-1.390865
 21
-0.186028
 31
0.0
  0
LINE
  5
105
100
AcDbEntity
  8
0
  6
CONTINUOUS
 62
     7
100
AcDbLine
 10
-1.432945
 20
-0.186028
 30
0.0
 11
-1.432945
 21
-0.312164
 31
0.0
  0
LINE
  5
106
100
AcDbEntity
  8
0
  6
CONTINUOUS
 62
     7
100
AcDbLine
 10
-1.432945
 20
-0.444626
 30
0.0
 11
-1.432945
 21
-0.581512
 31
0.0
  0
LINE
  5
107
100
AcDbEntity
  8
0
  6
CONTINUOUS
 62
     7
100
AcDbLine
 10
-1.432945
 20
-0.71397
 30
0.0
 11
-1.432945
 21
-0.840151
 31
0.0
  0
LINE
  5
108
100
AcDbEntity
  8
0
  6
CONTINUOUS
 62
     7
100
AcDbLine
 10
-1.475016
 20
-0.840151
 30
0.0
 11
-1.475016
 21
-0.186028
 31
0.0
  0
LINE
  5
109
100
AcDbEntity
  8
0
  6
CONTINUOUS
 62
     7
100
AcDbLine
 10
-1.517097
 20
-0.186028
 30
0.0
 11
-1.517097
 21
-0.840151
 31
0.0
  0
LWPOLYLINE
  5
10A
100
AcDbEntity
  8
0
  6
CONTINUOUS
 62
     7
100
AcDbPolyline
 90
       31
 70
   128
 43
0.0
 10
-2.491427
 20
-0.394573
 10
-2.491427
 20
-0.205217
 42
-0.201099
 10
-2.485848
 20
-0.191661
 42
-0.098731
 10
-2.479595
 20
-0.187505
 42
-0.097859
 10
-2.472195
 20
-0.186045
 10
-1.87582
 20
-0.186045
 42
-0.41425
 10
-1.722009
 20
-0.33989
 10
-1.722009
 20
-0.472668
 42
-0.198627
 10
-1.744519
 20
-0.527132
 42
-0.199198
 10
-1.798864
 20
-0.549692
 10
-1.798864
 20
-0.54962
 42
-0.413937
 10
-1.722009
 20
-0.626579
 10
-1.722009
 20
-0.820866
 42
-0.197672
 10
-1.727612
 20
-0.834523
 42
-0.200154
 10
-1.74114
 20
-0.840181
 10
-1.818096
 20
-0.840181
 42
-0.198472
 10
-1.831781
 20
-0.834518
 42
-0.199171
 10
-1.83745
 20
-0.820866
 10
-1.83745
 20
-0.647717
 42
0.198737
 10
-1.848688
 20
-0.620548
 42
0.199088
 10
-1.87582
 20
-0.609294
 10
-2.356773
 20
-0.609294
 42
0.197615
 10
-2.370465
 20
-0.614914
 42
0.200138
 10
-2.376136
 20
-0.628475
 10
-2.376136
 20
-0.820866
 42
-0.197684
 10
-2.381736
 20
-0.834514
 42
-0.200142
 10
-2.395256
 20
-0.840167
 10
-2.472195
 20
-0.840167
 42
-0.198496
 10
-2.485887
 20
-0.834514
 42
-0.199329
 10
-2.491558
 20
-0.820866
 10
-2.491558
 20
-0.394573
  0
LWPOLYLINE
  5
10B
100
AcDbEntity
  8
0
  6
CONTINUOUS
 62
     7
100
AcDbPolyline
 90
       13
 70
   128
 43
0.0
 10
-2.376024
 20
-0.394573
 10
-2.376024
 20
-0.45532
 42
0.415065
 10
-2.337542
 20
-0.49388
 10
-1.87582
 20
-0.49388
 42
0.199489
 10
-1.848688
 20
-0.482592
 42
0.198337
 10
-1.83745
 20
-0.455339
 10
-1.83745
 20
-0.33989
 42
0.198782
 10
-1.848688
 20
-0.31273
 42
0.199043
 10
-1.87582
 20
-0.30148
 10
-2.337542
 20
-0.30148
 42
0.198286
 10
-2.364832
 20
-0.31273
 42
0.199538
 10
-2.376136
 20
-0.33989
 10
-2.376136
 20
-0.394573
  0
LINE
  5
10C
100
AcDbEntity
  8
0
  6
CONTINUOUS
 62
     7
100
AcDbLine
 10
-1.72744
 20
-0.299116
 30
0.0
 11
-1.72744
 21
-0.50128
 31
0.0
  0
LINE
  5
10D
100
AcDbEntity
  8
0
  6
CONTINUOUS
 62
     7
100
AcDbLine
 10
-1.72744
 20
-0.597998
 30
0.0
 11
-1.72744
 21
-0.834372
 31
0.0
  0
LINE
  5
10E
100
AcDbEntity
  8
0
  6
CONTINUOUS
 62
     7
100
AcDbLine
 10
-1.769529
 20
-0.840143
 30
0.0
 11
-1.769529
 21
-0.555454
 31
0.0
  0
LINE
  5
10F
100
AcDbEntity
  8
0
  6
CONTINUOUS
 62
     7
100
AcDbLine
 10
-1.769529
 20
-0.543842
 30
0.0
 11
-1.769529
 21
-0.228632
 31
0.0
  0
LINE
  5
110
100
AcDbEntity
  8
0
  6
CONTINUOUS
 62
     7
100
AcDbLine
 10
-1.811619
 20
-0.200064
 30
0.0
 11
-1.811619
 21
-0.840143
 31
0.0
  0
LINE
  5
111
100
AcDbEntity
  8
0
  6
CONTINUOUS
 62
     7
100
AcDbLine
 10
-1.853701
 20
-0.616276
 30
0.0
 11
-1.853701
 21
-0.486835
 31
0.0
  0
LINE
  5
112
100
AcDbEntity
  8
0
  6
CONTINUOUS
 62
     7
100
AcDbLine
 10
-1.853701
 20
-0.308481
 30
0.0
 11
-1.853701
 21
-0.187632
 31
0.0
  0
LINE
  5
113
100
AcDbEntity
  8
0
  6
CONTINUOUS
 62
     7
100
AcDbLine
 10
-1.895771
 20
-0.186028
 30
0.0
 11
-1.895771
 21
-0.301456
 31
0.0
  0
LINE
  5
114
100
AcDbEntity
  8
0
  6
CONTINUOUS
 62
     7
100
AcDbLine
 10
-1.895771
 20
-0.493853
 30
0.0
 11
-1.895771
 21
-0.60927
 31
0.0
  0
LINE
  5
115
100
AcDbEntity
  8
0
  6
CONTINUOUS
 62
     7
100
AcDbLine
 10
-1.937851
 20
-0.60927
 30
0.0
 11
-1.937851
 21
-0.493853
 31
0.0
  0
LINE
  5
116
100
AcDbEntity
  8
0
  6
CONTINUOUS
 62
     7
100
AcDbLine
 10
-1.937851
 20
-0.301456
 30
0.0
 11
-1.937851
 21
-0.186028
 31
0.0
  0
LINE
  5
117
100
AcDbEntity
  8
0
  6
CONTINUOUS
 62
     7
100
AcDbLine
 10
-1.979921
 20
-0.186028
 30
0.0
 11
-1.979921
 21
-0.301456
 31
0.0
  0
LINE
  5
118
100
AcDbEntity
  8
0
  6
CONTINUOUS
 62
     7
100
AcDbLine
 10
-1.979921
 20
-0.493853
 30
0.0
 11
-1.979921
 21
-0.60927
 31
0.0
  0
LINE
  5
119
100
AcDbEntity
  8
0
  6
CONTINUOUS
 62
     7
100
AcDbLine
 10
-2.022011
 20
-0.60927
 30
0.0
 11
-2.022011
 21
-0.493853
 31
0.0
  0
LINE
  5
11A
100
AcDbEntity
  8
0
  6
CONTINUOUS
 62
     7
100
AcDbLine
 10
-2.022011
 20
-0.301456
 30
0.0
 11
-2.022011
 21
-0.186028
 31
0.0
  0
LINE
  5
11B
100
AcDbEntity
  8
0
  6
CONTINUOUS
 62
     7
100
AcDbLine
 10
-2.064091
 20
-0.186028
 30
0.0
 11
-2.064091
 21
-0.301456
 31
0.0
  0
LINE
  5
11C
100
AcDbEntity
  8
0
  6
CONTINUOUS
 62
     7
100
AcDbLine
 10
-2.064091
 20
-0.493853
 30
0.0
 11
-2.064091
 21
-0.60927
 31
0.0
  0
LINE
  5
11D
100
AcDbEntity
  8
0
  6
CONTINUOUS
 62
     7
100
AcDbLine
 10
-2.106161
 20
-0.60927
 30
0.0
 11
-2.106161
 21
-0.493853
 31
0.0
  0
LINE
  5
11E
100
AcDbEntity
  8
0
  6
CONTINUOUS
 62
     7
100
AcDbLine
 10
-2.106161
 20
-0.301456
 30
0.0
 11
-2.106161
 21
-0.186014
 31
0.0
  0
LINE
  5
11F
100
AcDbEntity
  8
0
  6
CONTINUOUS
 62
     7
100
AcDbLine
 10
-2.148241
 20
-0.186014
 30
0.0
 11
-2.148241
 21
-0.301456
 31
0.0
  0
LINE
  5
120
100
AcDbEntity
  8
0
  6
CONTINUOUS
 62
     7
100
AcDbLine
 10
-2.148241
 20
-0.493853
 30
0.0
 11
-2.148241
 21
-0.60927
 31
0.0
  0
LINE
  5
121
100
AcDbEntity
  8
0
  6
CONTINUOUS
 62
     7
100
AcDbLine
 10
-2.190332
 20
-0.60927
 30
0.0
 11
-2.190332
 21
-0.493853
 31
0.0
  0
LINE
  5
122
100
AcDbEntity
  8
0
  6
CONTINUOUS
 62
     7
100
AcDbLine
 10
-2.190332
 20
-0.301456
 30
0.0
 11
-2.190332
 21
-0.186014
 31
0.0
  0
LINE
  5
123
100
AcDbEntity
  8
0
  6
CONTINUOUS
 62
     7
100
AcDbLine
 10
-2.232403
 20
-0.186014
 30
0.0
 11
-2.232403
 21
-0.301456
 31
0.0
  0
LINE
  5
124
100
AcDbEntity
  8
0
  6
CONTINUOUS
 62
     7
100
AcDbLine
 10
-2.232403
 20
-0.493853
 30
0.0
 11
-2.232403
 21
-0.60927
 31
0.0
  0
LINE
  5
125
100
AcDbEntity
  8
0
  6
CONTINUOUS
 62
     7
100
AcDbLine
 10
-2.274483
 20
-0.60927
 30
0.0
 11
-2.274483
 21
-0.493853
 31
0.0
  0
LINE
  5
126
100
AcDbEntity
  8
0
  6
CONTINUOUS
 62
     7
100
AcDbLine
 10
-2.274483
 20
-0.301456
 30
0.0
 11
-2.274483
 21
-0.186014
 31
0.0
  0
LINE
  5
127
100
AcDbEntity
  8
0
  6
CONTINUOUS
 62
     7
100
AcDbLine
 10
-2.316553
 20
-0.186014
 30
0.0
 11
-2.316553
 21
-0.301456
 31
0.0
  0
LINE
  5
128
100
AcDbEntity
  8
0
  6
CONTINUOUS
 62
     7
100
AcDbLine
 10
-2.316553
 20
-0.493853
 30
0.0
 11
-2.316553
 21
-0.60927
 31
0.0
  0
LINE
  5
129
100
AcDbEntity
  8
0
  6
CONTINUOUS
 62
     7
100
AcDbLine
 10
-2.358643
 20
-0.60936
 30
0.0
 11
-2.358643
 21
-0.487572
 31
0.0
  0
LINE
  5
12A
100
AcDbEntity
  8
0
  6
CONTINUOUS
 62
     7
100
AcDbLine
 10
-2.358643
 20
-0.307713
 30
0.0
 11
-2.358643
 21
-0.186014
 31
0.0
  0
LINE
  5
12B
100
AcDbEntity
  8
0
  6
CONTINUOUS
 62
     7
100
AcDbLine
 10
-2.400703
 20
-0.186014
 30
0.0
 11
-2.400703
 21
-0.840143
 31
0.0
  0
LINE
  5
12C
100
AcDbEntity
  8
0
  6
CONTINUOUS
 62
     7
100
AcDbLine
 10
-2.442795
 20
-0.840143
 30
0.0
 11
-2.442795
 21
-0.186014
 31
0.0
  0
LINE
  5
12D
100
AcDbEntity
  8
0
  6
CONTINUOUS
 62
     7
100
AcDbLine
 10
-2.484875
 20
-0.190729
 30
0.0
 11
-2.484875
 21
-0.835423
 31
0.0
  0
LWPOLYLINE
  5
12E
100
AcDbEntity
  8
0
  6
CONTINUOUS
 62
     7
100
AcDbPolyline
 90
       20
 70
   128
 43
0.0
 10
4.559917
 20
-0.394592
 10
4.559917
 20
-0.205236
 42
-0.201384
 10
4.565488
 20
-0.19168
 42
-0.098782
 10
4.571744
 20
-0.187524
 42
-0.097796
 10
4.579151
 20
-0.186064
 10
5.175545
 20
-0.186064
 42
-0.414213
 10
5.329312
 20
-0.339922
 10
5.329312
 20
-0.455351
 42
-0.198757
 10
5.284269
 20
-0.564224
 42
-0.199068
 10
5.175526
 20
-0.609321
 10
4.694584
 20
-0.609321
 42
0.197919
 10
4.680884
 20
-0.614931
 42
0.200195
 10
4.675209
 20
-0.628506
 10
4.675209
 20
-0.820871
 42
-0.197629
 10
4.669609
 20
-0.834525
 42
-0.200198
 10
4.65609
 20
-0.840181
 10
4.579151
 20
-0.840181
 42
-0.198402
 10
4.565444
 20
-0.834525
 42
-0.199425
 10
4.559766
 20
-0.820871
 10
4.559766
 20
-0.394592
  0
LWPOLYLINE
  5
12F
100
AcDbEntity
  8
0
  6
CONTINUOUS
 62
     7
100
AcDbPolyline
 90
       14
 70
   128
 43
0.0
 10
4.67535
 20
-0.394592
 10
4.67535
 20
-0.455339
 42
0.199631
 10
4.686563
 20
-0.4826
 42
0.199145
 10
4.713833
 20
-0.493891
 10
5.175526
 20
-0.493891
 42
0.199517
 10
5.202652
 20
-0.482603
 42
0.198309
 10
5.213887
 20
-0.455351
 10
5.213887
 20
-0.339922
 42
0.198715
 10
5.202652
 20
-0.312755
 42
0.199111
 10
5.175526
 20
-0.301502
 10
4.713833
 20
-0.301502
 42
0.198179
 10
4.686522
 20
-0.312751
 42
0.199645
 10
4.675209
 20
-0.339909
 10
4.675209
 20
-0.394592
  0
LINE
  5
130
100
AcDbEntity
  8
0
  6
CONTINUOUS
 62
     7
100
AcDbLine
 10
5.299492
 20
-0.248743
 30
0.0
 11
5.299492
 21
-0.546574
 31
0.0
  0
LINE
  5
131
100
AcDbEntity
  8
0
  6
CONTINUOUS
 62
     7
100
AcDbLine
 10
5.257401
 20
-0.585686
 30
0.0
 11
5.257401
 21
-0.209637
 31
0.0
  0
LINE
  5
132
100
AcDbEntity
  8
0
  6
CONTINUOUS
 62
     7
100
AcDbLine
 10
5.215321
 20
-0.191277
 30
0.0
 11
5.215321
 21
-0.604053
 31
0.0
  0
LINE
  5
133
100
AcDbEntity
  8
0
  6
CONTINUOUS
 62
     7
100
AcDbLine
 10
5.173249
 20
-0.609289
 30
0.0
 11
5.173249
 21
-0.49386
 31
0.0
  0
LINE
  5
134
100
AcDbEntity
  8
0
  6
CONTINUOUS
 62
     7
100
AcDbLine
 10
5.173249
 20
-0.301476
 30
0.0
 11
5.173249
 21
-0.186033
 31
0.0
  0
LINE
  5
135
100
AcDbEntity
  8
0
  6
CONTINUOUS
 62
     7
100
AcDbLine
 10
5.131172
 20
-0.186033
 30
0.0
 11
5.131172
 21
-0.301476
 31
0.0
  0
LINE
  5
136
100
AcDbEntity
  8
0
  6
CONTINUOUS
 62
     7
100
AcDbLine
 10
5.131172
 20
-0.49386
 30
0.0
 11
5.131172
 21
-0.609289
 31
0.0
  0
LINE
  5
137
100
AcDbEntity
  8
0
  6
CONTINUOUS
 62
     7
100
AcDbLine
 10
5.089069
 20
-0.609289
 30
0.0
 11
5.089069
 21
-0.49386
 31
0.0
  0
LINE
  5
138
100
AcDbEntity
  8
0
  6
CONTINUOUS
 62
     7
100
AcDbLine
 10
5.089069
 20
-0.301476
 30
0.0
 11
5.089069
 21
-0.186033
 31
0.0
  0
LINE
  5
139
100
AcDbEntity
  8
0
  6
CONTINUOUS
 62
     7
100
AcDbLine
 10
5.046989
 20
-0.186033
 30
0.0
 11
5.046989
 21
-0.301476
 31
0.0
  0
LINE
  5
13A
100
AcDbEntity
  8
0
  6
CONTINUOUS
 62
     7
100
AcDbLine
 10
5.046989
 20
-0.49386
 30
0.0
 11
5.046989
 21
-0.609289
 31
0.0
  0
LINE
  5
13B
100
AcDbEntity
  8
0
  6
CONTINUOUS
 62
     7
100
AcDbLine
 10
5.004921
 20
-0.609289
 30
0.0
 11
5.004921
 21
-0.49386
 31
0.0
  0
LINE
  5
13C
100
AcDbEntity
  8
0
  6
CONTINUOUS
 62
     7
100
AcDbLine
 10
5.004921
 20
-0.301476
 30
0.0
 11
5.004921
 21
-0.186033
 31
0.0
  0
LINE
  5
13D
100
AcDbEntity
  8
0
  6
CONTINUOUS
 62
     7
100
AcDbLine
 10
4.962837
 20
-0.186033
 30
0.0
 11
4.962837
 21
-0.301476
 31
0.0
  0
LINE
  5
13E
100
AcDbEntity
  8
0
  6
CONTINUOUS
 62
     7
100
AcDbLine
 10
4.962837
 20
-0.49386
 30
0.0
 11
4.962837
 21
-0.609289
 31
0.0
  0
LINE
  5
13F
100
AcDbEntity
  8
0
  6
CONTINUOUS
 62
     7
100
AcDbLine
 10
4.920769
 20
-0.609289
 30
0.0
 11
4.920769
 21
-0.49386
 31
0.0
  0
LINE
  5
140
100
AcDbEntity
  8
0
  6
CONTINUOUS
 62
     7
100
AcDbLine
 10
4.920769
 20
-0.301476
 30
0.0
 11
4.920769
 21
-0.186033
 31
0.0
  0
LINE
  5
141
100
AcDbEntity
  8
0
  6
CONTINUOUS
 62
     7
100
AcDbLine
 10
4.878689
 20
-0.186033
 30
0.0
 11
4.878689
 21
-0.301476
 31
0.0
  0
LINE
  5
142
100
AcDbEntity
  8
0
  6
CONTINUOUS
 62
     7
100
AcDbLine
 10
4.878689
 20
-0.49386
 30
0.0
 11
4.878689
 21
-0.609289
 31
0.0
  0
LINE
  5
143
100
AcDbEntity
  8
0
  6
CONTINUOUS
 62
     7
100
AcDbLine
 10
4.836601
 20
-0.609289
 30
0.0
 11
4.836601
 21
-0.49386
 31
0.0
  0
LINE
  5
144
100
AcDbEntity
  8
0
  6
CONTINUOUS
 62
     7
100
AcDbLine
 10
4.836601
 20
-0.301476
 30
0.0
 11
4.836601
 21
-0.186033
 31
0.0
  0
LINE
  5
145
100
AcDbEntity
  8
0
  6
CONTINUOUS
 62
     7
100
AcDbLine
 10
4.794529
 20
-0.186033
 30
0.0
 11
4.794529
 21
-0.301476
 31
0.0
  0
LINE
  5
146
100
AcDbEntity
  8
0
  6
CONTINUOUS
 62
     7
100
AcDbLine
 10
4.794529
 20
-0.49386
 30
0.0
 11
4.794529
 21
-0.609289
 31
0.0
  0
LINE
  5
147
100
AcDbEntity
  8
0
  6
CONTINUOUS
 62
     7
100
AcDbLine
 10
4.752438
 20
-0.609283
 30
0.0
 11
4.752438
 21
-0.49386
 31
0.0
  0
LINE
  5
148
100
AcDbEntity
  8
0
  6
CONTINUOUS
 62
     7
100
AcDbLine
 10
4.752438
 20
-0.301476
 30
0.0
 11
4.752438
 21
-0.186033
 31
0.0
  0
LINE
  5
149
100
AcDbEntity
  8
0
  6
CONTINUOUS
 62
     7
100
AcDbLine
 10
4.710358
 20
-0.186033
 30
0.0
 11
4.710358
 21
-0.301626
 31
0.0
  0
LINE
  5
14A
100
AcDbEntity
  8
0
  6
CONTINUOUS
 62
     7
100
AcDbLine
 10
4.710358
 20
-0.493721
 30
0.0
 11
4.710358
 21
-0.609283
 31
0.0
  0
LINE
  5
14B
100
AcDbEntity
  8
0
  6
CONTINUOUS
 62
     7
100
AcDbLine
 10
4.668285
 20
-0.835732
 30
0.0
 11
4.668285
 21
-0.186033
 31
0.0
  0
LINE
  5
14C
100
AcDbEntity
  8
0
  6
CONTINUOUS
 62
     7
100
AcDbLine
 10
4.626209
 20
-0.186033
 30
0.0
 11
4.626209
 21
-0.840151
 31
0.0
  0
LINE
  5
14D
100
AcDbEntity
  8
0
  6
CONTINUOUS
 62
     7
100
AcDbLine
 10
4.584118
 20
-0.840151
 30
0.0
 11
4.584118
 21
-0.186033
 31
0.0
  0
LWPOLYLINE
  5
14E
100
AcDbEntity
  8
0
  6
CONTINUOUS
 62
     7
100
AcDbPolyline
 90
       15
 70
   128
 43
0.0
 10
-3.133875
 20
-0.570763
 10
-3.240534
 20
-0.570763
 42
-0.132207
 10
-3.250214
 20
-0.568179
 42
-0.132697
 10
-3.257267
 20
-0.561091
 42
-0.132654
 10
-3.259791
 20
-0.551414
 42
-0.132122
 10
-3.257103
 20
-0.541759
 10
-3.12212
 20
-0.312296
 42
-0.130955
 10
-3.115107
 20
-0.305368
 42
-0.130505
 10
-3.105562
 20
-0.302835
 42
-0.264937
 10
-3.088953
 20
-0.312296
 10
-2.953987
 20
-0.541765
 42
-0.267773
 10
-2.953899
 20
-0.561113
 42
-0.131974
 10
-2.960933
 20
-0.568218
 42
-0.132677
 10
-2.970558
 20
-0.570821
 10
-3.133875
 20
-0.570821
  0
LWPOLYLINE
  5
14F
100
AcDbEntity
  8
0
  6
CONTINUOUS
 62
     7
100
AcDbPolyline
 90
       42
 70
   128
 43
0.0
 10
-3.50713
 20
-0.840094
 10
-3.443617
 20
-0.840094
 42
0.035763
 10
-3.441243
 20
-0.839945
 42
0.041906
 10
-3.439098
 20
-0.839471
 42
0.048563
 10
-3.437218
 20
-0.83868
 42
0.054455
 10
-3.435635
 20
-0.837586
 42
0.115166
 10
-3.433459
 20
-0.834564
 42
0.052712
 10
-3.432903
 20
-0.832687
 42
0.046379
 10
-3.432717
 20
-0.830608
 10
-3.347656
 20
-0.695679
 42
-0.131877
 10
-3.340652
 20
-0.688768
 42
-0.130008
 10
-3.331066
 20
-0.686243
 10
-2.880033
 20
-0.686243
 42
-0.035205
 10
-2.877654
 20
-0.686404
 42
-0.041234
 10
-2.875504
 20
-0.686885
 42
-0.047851
 10
-2.87362
 20
-0.687677
 42
-0.053864
 10
-2.872033
 20
-0.688767
 42
-0.115046
 10
-2.869852
 20
-0.691763
 42
-0.053199
 10
-2.869295
 20
-0.693619
 42
-0.047017
 10
-2.869109
 20
-0.695673
 10
-2.784071
 20
-0.830608
 42
0.132869
 10
-2.777086
 20
-0.837603
 42
0.131292
 10
-2.767473
 20
-0.84016
 10
-2.67746
 20
-0.84016
 42
0.132614
 10
-2.667834
 20
-0.837555
 42
0.131904
 10
-2.660799
 20
-0.830451
 42
0.267833
 10
-2.660881
 20
-0.81111
 10
-3.023014
 20
-0.195475
 42
0.128713
 10
-3.030084
 20
-0.188572
 42
0.130034
 10
-3.039583
 20
-0.186049
 10
-3.171507
 20
-0.186049
 42
0.034665
 10
-3.173921
 20
-0.186211
 42
0.040652
 10
-3.176103
 20
-0.186692
 42
0.04732
 10
-3.178015
 20
-0.187484
 42
0.053542
 10
-3.179625
 20
-0.188574
 42
0.115524
 10
-3.181838
 20
-0.191568
 42
0.053873
 10
-3.182403
 20
-0.193423
 42
0.047734
 10
-3.182593
 20
-0.195475
 10
-3.550211
 20
-0.811102
 42
0.268888
 10
-3.550358
 20
-0.830455
 42
0.269412
 10
-3.533642
 20
-0.840166
 10
-3.50713
 20
-0.840166
  0
LINE
  5
150
100
AcDbEntity
  8
0
  6
CONTINUOUS
 62
     7
100
AcDbLine
 10
-2.695238
 20
-0.840132
 30
0.0
 11
-2.695238
 21
-0.752773
 31
0.0
  0
LINE
  5
151
100
AcDbEntity
  8
0
  6
CONTINUOUS
 62
     7
100
AcDbLine
 10
-2.737308
 20
-0.681232
 30
0.0
 11
-2.737308
 21
-0.840132
 31
0.0
  0
LINE
  5
152
100
AcDbEntity
  8
0
  6
CONTINUOUS
 62
     7
100
AcDbLine
 10
-2.779388
 20
-0.836016
 30
0.0
 11
-2.779388
 21
-0.609705
 31
0.0
  0
LINE
  5
153
100
AcDbEntity
  8
0
  6
CONTINUOUS
 62
     7
100
AcDbLine
 10
-2.821459
 20
-0.538177
 30
0.0
 11
-2.821459
 21
-0.767105
 31
0.0
  0
LINE
  5
154
100
AcDbEntity
  8
0
  6
CONTINUOUS
 62
     7
100
AcDbLine
 10
-2.863548
 20
-0.695583
 30
0.0
 11
-2.863548
 21
-0.466642
 31
0.0
  0
LINE
  5
155
100
AcDbEntity
  8
0
  6
CONTINUOUS
 62
     7
100
AcDbLine
 10
-2.905628
 20
-0.395115
 30
0.0
 11
-2.905628
 21
-0.686218
 31
0.0
  0
LINE
  5
156
100
AcDbEntity
  8
0
  6
CONTINUOUS
 62
     7
100
AcDbLine
 10
-2.9477
 20
-0.686218
 30
0.0
 11
-2.9477
 21
-0.323587
 31
0.0
  0
LINE
  5
157
100
AcDbEntity
  8
0
  6
CONTINUOUS
 62
     7
100
AcDbLine
 10
-2.98978
 20
-0.25206
 30
0.0
 11
-2.98978
 21
-0.480982
 31
0.0
  0
LINE
  5
158
100
AcDbEntity
  8
0
  6
CONTINUOUS
 62
     7
100
AcDbLine
 10
-2.98978
 20
-0.570787
 30
0.0
 11
-2.98978
 21
-0.686218
 31
0.0
  0
LINE
  5
159
100
AcDbEntity
  8
0
  6
CONTINUOUS
 62
     7
100
AcDbLine
 10
-3.03187
 20
-0.686218
 30
0.0
 11
-3.03187
 21
-0.570787
 31
0.0
  0
LINE
  5
15A
100
AcDbEntity
  8
0
  6
CONTINUOUS
 62
     7
100
AcDbLine
 10
-3.03187
 20
-0.409454
 30
0.0
 11
-3.03187
 21
-0.18767
 31
0.0
  0
LINE
  5
15B
100
AcDbEntity
  8
0
  6
CONTINUOUS
 62
     7
100
AcDbLine
 10
-3.07394
 20
-0.186033
 30
0.0
 11
-3.07394
 21
-0.337919
 31
0.0
  0
LINE
  5
15C
100
AcDbEntity
  8
0
  6
CONTINUOUS
 62
     7
100
AcDbLine
 10
-3.07394
 20
-0.570787
 30
0.0
 11
-3.07394
 21
-0.686218
 31
0.0
  0
LINE
  5
15D
100
AcDbEntity
  8
0
  6
CONTINUOUS
 62
     7
100
AcDbLine
 10
-3.11602
 20
-0.686218
 30
0.0
 11
-3.11602
 21
-0.570801
 31
0.0
  0
LINE
  5
15E
100
AcDbEntity
  8
0
  6
CONTINUOUS
 62
     7
100
AcDbLine
 10
-3.11602
 20
-0.305901
 30
0.0
 11
-3.11602
 21
-0.186033
 31
0.0
  0
LINE
  5
15F
100
AcDbEntity
  8
0
  6
CONTINUOUS
 62
     7
100
AcDbLine
 10
-3.158091
 20
-0.186033
 30
0.0
 11
-3.158091
 21
-0.373369
 31
0.0
  0
LINE
  5
160
100
AcDbEntity
  8
0
  6
CONTINUOUS
 62
     7
100
AcDbLine
 10
-3.158091
 20
-0.570763
 30
0.0
 11
-3.158091
 21
-0.686218
 31
0.0
  0
LINE
  5
161
100
AcDbEntity
  8
0
  6
CONTINUOUS
 62
     7
100
AcDbLine
 10
-3.200172
 20
-0.686218
 30
0.0
 11
-3.200172
 21
-0.570763
 31
0.0
  0
LINE
  5
162
100
AcDbEntity
  8
0
  6
CONTINUOUS
 62
     7
100
AcDbLine
 10
-3.200172
 20
-0.444891
 30
0.0
 11
-3.200172
 21
-0.215956
 31
0.0
  0
LINE
  5
163
100
AcDbEntity
  8
0
  6
CONTINUOUS
 62
     7
100
AcDbLine
 10
-3.242243
 20
-0.287491
 30
0.0
 11
-3.242243
 21
-0.516424
 31
0.0
  0
LINE
  5
164
100
AcDbEntity
  8
0
  6
CONTINUOUS
 62
     7
100
AcDbLine
 10
-3.242243
 20
-0.570686
 30
0.0
 11
-3.242243
 21
-0.686218
 31
0.0
  0
LINE
  5
165
100
AcDbEntity
  8
0
  6
CONTINUOUS
 62
     7
100
AcDbLine
 10
-3.284323
 20
-0.686218
 30
0.0
 11
-3.284323
 21
-0.359018
 31
0.0
  0
LINE
  5
166
100
AcDbEntity
  8
0
  6
CONTINUOUS
 62
     7
100
AcDbLine
 10
-3.326412
 20
-0.430546
 30
0.0
 11
-3.326412
 21
-0.686218
 31
0.0
  0
LINE
  5
167
100
AcDbEntity
  8
0
  6
CONTINUOUS
 62
     7
100
AcDbLine
 10
-3.368483
 20
-0.731028
 30
0.0
 11
-3.368483
 21
-0.502087
 31
0.0
  0
LINE
  5
168
100
AcDbEntity
  8
0
  6
CONTINUOUS
 62
     7
100
AcDbLine
 10
-3.410572
 20
-0.573614
 30
0.0
 11
-3.410572
 21
-0.802549
 31
0.0
  0
LINE
  5
169
100
AcDbEntity
  8
0
  6
CONTINUOUS
 62
     7
100
AcDbLine
 10
-3.452652
 20
-0.840094
 30
0.0
 11
-3.452652
 21
-0.645142
 31
0.0
  0
LINE
  5
16A
100
AcDbEntity
  8
0
  6
CONTINUOUS
 62
     7
100
AcDbLine
 10
-3.494724
 20
-0.716677
 30
0.0
 11
-3.494724
 21
-0.840094
 31
0.0
  0
LINE
  5
16B
100
AcDbEntity
  8
0
  6
CONTINUOUS
 62
     7
100
AcDbLine
 10
-3.536804
 20
-0.839867
 30
0.0
 11
-3.536804
 21
-0.788204
 31
0.0
  0
LWPOLYLINE
  5
16C
100
AcDbEntity
  8
0
  6
CONTINUOUS
 62
     7
100
AcDbPolyline
 90
       15
 70
   128
 43
0.0
 10
5.745434
 20
-0.570787
 10
5.638783
 20
-0.570787
 42
-0.132112
 10
5.629092
 20
-0.568204
 42
-0.132801
 10
5.622035
 20
-0.561116
 42
-0.132853
 10
5.619516
 20
-0.551439
 42
-0.132214
 10
5.622215
 20
-0.541784
 10
5.757187
 20
-0.312315
 42
-0.130948
 10
5.764199
 20
-0.30539
 42
-0.13047
 10
5.773743
 20
-0.302859
 42
-0.264914
 10
5.790348
 20
-0.312315
 10
5.925319
 20
-0.541784
 42
-0.267468
 10
5.925396
 20
-0.561136
 42
-0.131892
 10
5.918365
 20
-0.568243
 42
-0.132783
 10
5.908749
 20
-0.570846
 10
5.745434
 20
-0.570846
  0
LWPOLYLINE
  5
16D
100
AcDbEntity
  8
0
  6
CONTINUOUS
 62
     7
100
AcDbPolyline
 90
       42
 70
   128
 43
0.0
 10
5.372181
 20
-0.840126
 10
5.4357
 20
-0.840126
 42
0.036007
 10
5.438061
 20
-0.839978
 42
0.042172
 10
5.440194
 20
-0.839505
 42
0.048807
 10
5.442063
 20
-0.838714
 42
0.054605
 10
5.443638
 20
-0.837618
 42
0.11497
 10
5.445802
 20
-0.834593
 42
0.052426
 10
5.446354
 20
-0.832715
 42
0.046074
 10
5.446539
 20
-0.830633
 10
5.531662
 20
-0.695698
 42
-0.133461
 10
5.538633
 20
-0.68879
 42
-0.065168
 10
5.543264
 20
-0.686907
 42
-0.064214
 10
5.54826
 20
-0.686265
 10
5.999294
 20
-0.686265
 42
-0.035376
 10
6.001663
 20
-0.686426
 42
-0.041416
 10
6.003803
 20
-0.686907
 42
-0.048013
 10
6.005679
 20
-0.687699
 42
-0.053956
 10
6.007258
 20
-0.68879
 42
-0.114876
 10
6.009429
 20
-0.691787
 42
-0.052983
 10
6.009983
 20
-0.693643
 42
-0.046791
 10
6.010169
 20
-0.695698
 10
6.095234
 20
-0.830633
 42
0.133463
 10
6.102207
 20
-0.837624
 42
0.131209
 10
6.111835
 20
-0.840179
 10
6.201866
 20
-0.840179
 42
0.132769
 10
6.211479
 20
-0.837574
 42
0.131827
 10
6.218509
 20
-0.830468
 42
0.267429
 10
6.218437
 20
-0.811121
 10
5.856293
 20
-0.195494
 42
0.128152
 10
5.849211
 20
-0.188593
 42
0.130013
 10
5.839725
 20
-0.186071
 10
5.70781
 20
-0.186071
 42
0.034479
 10
5.705384
 20
-0.186236
 42
0.040436
 10
5.703193
 20
-0.18672
 42
0.047101
 10
5.701272
 20
-0.187514
 42
0.053371
 10
5.699654
 20
-0.188605
 42
0.115548
 10
5.697432
 20
-0.191601
 42
0.054064
 10
5.696864
 20
-0.193454
 42
0.047967
 10
5.696674
 20
-0.195505
 10
5.329098
 20
-0.811127
 42
0.580734
 10
5.345688
 20
-0.840191
 10
5.372181
 20
-0.840191
  0
LINE
  5
16E
100
AcDbEntity
  8
0
  6
CONTINUOUS
 62
     7
100
AcDbLine
 10
6.183098
 20
-0.840151
 30
0.0
 11
6.183098
 21
-0.751118
 31
0.0
  0
LINE
  5
16F
100
AcDbEntity
  8
0
  6
CONTINUOUS
 62
     7
100
AcDbLine
 10
6.141026
 20
-0.67959
 30
0.0
 11
6.141026
 21
-0.840151
 31
0.0
  0
LINE
  5
170
100
AcDbEntity
  8
0
  6
CONTINUOUS
 62
     7
100
AcDbLine
 10
6.098938
 20
-0.835222
 30
0.0
 11
6.098938
 21
-0.608057
 31
0.0
  0
LINE
  5
171
100
AcDbEntity
  8
0
  6
CONTINUOUS
 62
     7
100
AcDbLine
 10
6.056858
 20
-0.536516
 30
0.0
 11
6.056858
 21
-0.765469
 31
0.0
  0
LINE
  5
172
100
AcDbEntity
  8
0
  6
CONTINUOUS
 62
     7
100
AcDbLine
 10
6.014786
 20
-0.69413
 30
0.0
 11
6.014786
 21
-0.464989
 31
0.0
  0
LINE
  5
173
100
AcDbEntity
  8
0
  6
CONTINUOUS
 62
     7
100
AcDbLine
 10
5.972706
 20
-0.393459
 30
0.0
 11
5.972706
 21
-0.686249
 31
0.0
  0
LINE
  5
174
100
AcDbEntity
  8
0
  6
CONTINUOUS
 62
     7
100
AcDbLine
 10
5.930614
 20
-0.686249
 30
0.0
 11
5.930614
 21
-0.321932
 31
0.0
  0
LINE
  5
175
100
AcDbEntity
  8
0
  6
CONTINUOUS
 62
     7
100
AcDbLine
 10
5.888527
 20
-0.250399
 30
0.0
 11
5.888527
 21
-0.479351
 31
0.0
  0
LINE
  5
176
100
AcDbEntity
  8
0
  6
CONTINUOUS
 62
     7
100
AcDbLine
 10
5.888527
 20
-0.57082
 30
0.0
 11
5.888527
 21
-0.686249
 31
0.0
  0
LINE
  5
177
100
AcDbEntity
  8
0
  6
CONTINUOUS
 62
     7
100
AcDbLine
 10
5.846455
 20
-0.686249
 30
0.0
 11
5.846455
 21
-0.57082
 31
0.0
  0
LINE
  5
178
100
AcDbEntity
  8
0
  6
CONTINUOUS
 62
     7
100
AcDbLine
 10
5.846455
 20
-0.40781
 30
0.0
 11
5.846455
 21
-0.187298
 31
0.0
  0
LINE
  5
179
100
AcDbEntity
  8
0
  6
CONTINUOUS
 62
     7
100
AcDbLine
 10
5.804375
 20
-0.186052
 30
0.0
 11
5.804375
 21
-0.336283
 31
0.0
  0
LINE
  5
17A
100
AcDbEntity
  8
0
  6
CONTINUOUS
 62
     7
100
AcDbLine
 10
5.804375
 20
-0.57082
 30
0.0
 11
5.804375
 21
-0.686249
 31
0.0
  0
LINE
  5
17B
100
AcDbEntity
  8
0
  6
CONTINUOUS
 62
     7
100
AcDbLine
 10
5.762306
 20
-0.686237
 30
0.0
 11
5.762306
 21
-0.57082
 31
0.0
  0
LINE
  5
17C
100
AcDbEntity
  8
0
  6
CONTINUOUS
 62
     7
100
AcDbLine
 10
5.762306
 20
-0.306599
 30
0.0
 11
5.762306
 21
-0.186052
 31
0.0
  0
LINE
  5
17D
100
AcDbEntity
  8
0
  6
CONTINUOUS
 62
     7
100
AcDbLine
 10
5.720223
 20
-0.186052
 30
0.0
 11
5.720223
 21
-0.375061
 31
0.0
  0
LINE
  5
17E
100
AcDbEntity
  8
0
  6
CONTINUOUS
 62
     7
100
AcDbLine
 10
5.720223
 20
-0.570787
 30
0.0
 11
5.720223
 21
-0.686237
 31
0.0
  0
LINE
  5
17F
100
AcDbEntity
  8
0
  6
CONTINUOUS
 62
     7
100
AcDbLine
 10
5.678154
 20
-0.686237
 30
0.0
 11
5.678154
 21
-0.570787
 31
0.0
  0
LINE
  5
180
100
AcDbEntity
  8
0
  6
CONTINUOUS
 62
     7
100
AcDbLine
 10
5.678154
 20
-0.44659
 30
0.0
 11
5.678154
 21
-0.217642
 31
0.0
  0
LINE
  5
181
100
AcDbEntity
  8
0
  6
CONTINUOUS
 62
     7
100
AcDbLine
 10
5.636074
 20
-0.289183
 30
0.0
 11
5.636074
 21
-0.518105
 31
0.0
  0
LINE
  5
182
100
AcDbEntity
  8
0
  6
CONTINUOUS
 62
     7
100
AcDbLine
 10
5.636074
 20
-0.570612
 30
0.0
 11
5.636074
 21
-0.686237
 31
0.0
  0
LINE
  5
183
100
AcDbEntity
  8
0
  6
CONTINUOUS
 62
     7
100
AcDbLine
 10
5.593975
 20
-0.686237
 30
0.0
 11
5.593975
 21
-0.36071
 31
0.0
  0
LINE
  5
184
100
AcDbEntity
  8
0
  6
CONTINUOUS
 62
     7
100
AcDbLine
 10
5.551895
 20
-0.432245
 30
0.0
 11
5.551895
 21
-0.686237
 31
0.0
  0
LINE
  5
185
100
AcDbEntity
  8
0
  6
CONTINUOUS
 62
     7
100
AcDbLine
 10
5.509823
 20
-0.732719
 30
0.0
 11
5.509823
 21
-0.503773
 31
0.0
  0
LINE
  5
186
100
AcDbEntity
  8
0
  6
CONTINUOUS
 62
     7
100
AcDbLine
 10
5.467743
 20
-0.575314
 30
0.0
 11
5.467743
 21
-0.804249
 31
0.0
  0
LINE
  5
187
100
AcDbEntity
  8
0
  6
CONTINUOUS
 62
     7
100
AcDbLine
 10
5.425675
 20
-0.840132
 30
0.0
 11
5.425675
 21
-0.646841
 31
0.0
  0
LINE
  5
188
100
AcDbEntity
  8
0
  6
CONTINUOUS
 62
     7
100
AcDbLine
 10
5.383595
 20
-0.718369
 30
0.0
 11
5.383595
 21
-0.840132
 31
0.0
  0
LINE
  5
189
100
AcDbEntity
  8
0
  6
CONTINUOUS
 62
     7
100
AcDbLine
 10
5.341526
 20
-0.839716
 30
0.0
 11
5.341526
 21
-0.789904
 31
0.0
  0
LWPOLYLINE
  5
18A
100
AcDbEntity
  8
0
  6
CONTINUOUS
 62
     7
100
AcDbPolyline
 90
       24
 70
   129
 43
0.0
 10
-4.090408
 20
-0.724663
 10
-4.312178
 20
-0.724663
 42
-0.414779
 10
-4.350767
 20
-0.68618
 10
-4.350767
 20
-0.205212
 42
0.198822
 10
-4.356366
 20
-0.191653
 42
0.199182
 10
-4.369902
 20
-0.186037
 10
-4.446857
 20
-0.186037
 42
0.197565
 10
-4.460527
 20
-0.191662
 42
0.199969
 10
-4.466189
 20
-0.205212
 10
-4.466189
 20
-0.68618
 42
0.414214
 10
-4.312178
 20
-0.840156
 10
-3.831215
 20
-0.840156
 42
0.199084
 10
-3.722466
 20
-0.795062
 42
0.198758
 10
-3.677421
 20
-0.68618
 10
-3.677421
 20
-0.205212
 42
0.198491
 10
-3.683019
 20
-0.191653
 42
0.199333
 10
-3.696533
 20
-0.186037
 10
-3.773489
 20
-0.186037
 42
0.197416
 10
-3.787174
 20
-0.191662
 42
0.098772
 10
-3.791369
 20
-0.19788
 42
0.099382
 10
-3.792842
 20
-0.205212
 10
-3.792842
 20
-0.68618
 42
-0.198289
 10
-3.804081
 20
-0.713444
 42
-0.199536
 10
-3.831215
 20
-0.724737
  0
LINE
  5
18B
100
AcDbEntity
  8
0
  6
CONTINUOUS
 62
     7
100
AcDbLine
 10
-3.705088
 20
-0.186014
 30
0.0
 11
-3.705088
 21
-0.774376
 31
0.0
  0
LINE
  5
18C
100
AcDbEntity
  8
0
  6
CONTINUOUS
 62
     7
100
AcDbLine
 10
-3.747168
 20
-0.815144
 30
0.0
 11
-3.747168
 21
-0.186014
 31
0.0
  0
LINE
  5
18D
100
AcDbEntity
  8
0
  6
CONTINUOUS
 62
     7
100
AcDbLine
 10
-3.789238
 20
-0.194153
 30
0.0
 11
-3.789238
 21
-0.834297
 31
0.0
  0
LINE
  5
18E
100
AcDbEntity
  8
0
  6
CONTINUOUS
 62
     7
100
AcDbLine
 10
-3.831318
 20
-0.840143
 30
0.0
 11
-3.831318
 21
-0.724701
 31
0.0
  0
LINE
  5
18F
100
AcDbEntity
  8
0
  6
CONTINUOUS
 62
     7
100
AcDbLine
 10
-3.873407
 20
-0.724701
 30
0.0
 11
-3.873407
 21
-0.840143
 31
0.0
  0
LINE
  5
190
100
AcDbEntity
  8
0
  6
CONTINUOUS
 62
     7
100
AcDbLine
 10
-3.915478
 20
-0.840143
 30
0.0
 11
-3.915478
 21
-0.724701
 31
0.0
  0
LINE
  5
191
100
AcDbEntity
  8
0
  6
CONTINUOUS
 62
     7
100
AcDbLine
 10
-3.957569
 20
-0.724695
 30
0.0
 11
-3.957569
 21
-0.840143
 31
0.0
  0
LINE
  5
192
100
AcDbEntity
  8
0
  6
CONTINUOUS
 62
     7
100
AcDbLine
 10
-3.999649
 20
-0.840143
 30
0.0
 11
-3.999649
 21
-0.724676
 31
0.0
  0
LINE
  5
193
100
AcDbEntity
  8
0
  6
CONTINUOUS
 62
     7
100
AcDbLine
 10
-4.04172
 20
-0.724676
 30
0.0
 11
-4.04172
 21
-0.840143
 31
0.0
  0
LINE
  5
194
100
AcDbEntity
  8
0
  6
CONTINUOUS
 62
     7
100
AcDbLine
 10
-4.083799
 20
-0.840143
 30
0.0
 11
-4.083799
 21
-0.724676
 31
0.0
  0
LINE
  5
195
100
AcDbEntity
  8
0
  6
CONTINUOUS
 62
     7
100
AcDbLine
 10
-4.12587
 20
-0.724663
 30
0.0
 11
-4.12587
 21
-0.840143
 31
0.0
  0
LINE
  5
196
100
AcDbEntity
  8
0
  6
CONTINUOUS
 62
     7
100
AcDbLine
 10
-4.16795
 20
-0.840143
 30
0.0
 11
-4.16795
 21
-0.724663
 31
0.0
  0
LINE
  5
197
100
AcDbEntity
  8
0
  6
CONTINUOUS
 62
     7
100
AcDbLine
 10
-4.210022
 20
-0.724663
 30
0.0
 11
-4.210022
 21
-0.840143
 31
0.0
  0
LINE
  5
198
100
AcDbEntity
  8
0
  6
CONTINUOUS
 62
     7
100
AcDbLine
 10
-4.252111
 20
-0.840143
 30
0.0
 11
-4.252111
 21
-0.724663
 31
0.0
  0
LINE
  5
199
100
AcDbEntity
  8
0
  6
CONTINUOUS
 62
     7
100
AcDbLine
 10
-4.294191
 20
-0.724663
 30
0.0
 11
-4.294191
 21
-0.840143
 31
0.0
  0
LINE
  5
19A
100
AcDbEntity
  8
0
  6
CONTINUOUS
 62
     7
100
AcDbLine
 10
-4.336262
 20
-0.838243
 30
0.0
 11
-4.336262
 21
-0.716236
 31
0.0
  0
LINE
  5
19B
100
AcDbEntity
  8
0
  6
CONTINUOUS
 62
     7
100
AcDbLine
 10
-4.378342
 20
-0.186014
 30
0.0
 11
-4.378342
 21
-0.825209
 31
0.0
  0
LINE
  5
19C
100
AcDbEntity
  8
0
  6
CONTINUOUS
 62
     7
100
AcDbLine
 10
-4.420431
 20
-0.795675
 30
0.0
 11
-4.420431
 21
-0.186014
 31
0.0
  0
LINE
  5
19D
100
AcDbEntity
  8
0
  6
CONTINUOUS
 62
     7
100
AcDbLine
 10
-4.462502
 20
-0.193995
 30
0.0
 11
-4.462502
 21
-0.719501
 31
0.0
  0
LWPOLYLINE
  5
19E
100
AcDbEntity
  8
0
  6
CONTINUOUS
 62
     7
100
AcDbPolyline
 90
       14
 70
   128
 43
0.0
 10
2.740578
 20
-0.301426
 10
2.485214
 20
-0.301426
 42
0.197962
 10
2.457905
 20
-0.312718
 42
0.199441
 10
2.446594
 20
-0.33989
 10
2.446594
 20
-0.686193
 42
0.19917
 10
2.457905
 20
-0.713448
 42
0.198654
 10
2.485214
 20
-0.724737
 10
3.043137
 20
-0.724737
 42
0.199579
 10
3.070252
 20
-0.713448
 42
0.198246
 10
3.081483
 20
-0.686193
 10
3.081483
 20
-0.339909
 42
0.198664
 10
3.070252
 20
-0.312741
 42
0.199161
 10
3.043137
 20
-0.301488
 10
2.740578
 20
-0.301488
  0
LWPOLYLINE
  5
19F
100
AcDbEntity
  8
0
  6
CONTINUOUS
 62
     7
100
AcDbPolyline
 90
       12
 70
   128
 43
0.0
 10
2.740578
 20
-0.185995
 10
3.043137
 20
-0.185995
 42
-0.414345
 10
3.196913
 20
-0.339909
 10
3.196913
 20
-0.686193
 42
-0.198734
 10
3.151873
 20
-0.795079
 42
-0.19909
 10
3.043137
 20
-0.840181
 10
2.485214
 20
-0.840181
 42
-0.414214
 10
2.331172
 20
-0.686193
 10
2.331172
 20
-0.33989
 42
-0.199091
 10
2.37629
 20
-0.231115
 42
-0.198734
 10
2.485214
 20
-0.186059
 10
2.740578
 20
-0.186059
  0
LINE
  5
1A0
100
AcDbEntity
  8
0
  6
CONTINUOUS
 62
     7
100
AcDbLine
 10
3.195614
 20
-0.319395
 30
0.0
 11
3.195614
 21
-0.706738
 31
0.0
  0
LINE
  5
1A1
100
AcDbEntity
  8
0
  6
CONTINUOUS
 62
     7
100
AcDbLine
 10
3.153523
 20
-0.793428
 30
0.0
 11
3.153523
 21
-0.232731
 31
0.0
  0
LINE
  5
1A2
100
AcDbEntity
  8
0
  6
CONTINUOUS
 62
     7
100
AcDbLine
 10
3.111454
 20
-0.202021
 30
0.0
 11
3.111454
 21
-0.824139
 31
0.0
  0
LINE
  5
1A3
100
AcDbEntity
  8
0
  6
CONTINUOUS
 62
     7
100
AcDbLine
 10
3.069362
 20
-0.837885
 30
0.0
 11
3.069362
 21
-0.714335
 31
0.0
  0
LINE
  5
1A4
100
AcDbEntity
  8
0
  6
CONTINUOUS
 62
     7
100
AcDbLine
 10
3.069362
 20
-0.311823
 30
0.0
 11
3.069362
 21
-0.188274
 31
0.0
  0
LINE
  5
1A5
100
AcDbEntity
  8
0
  6
CONTINUOUS
 62
     7
100
AcDbLine
 10
3.027283
 20
-0.186008
 30
0.0
 11
3.027283
 21
-0.301464
 31
0.0
  0
LINE
  5
1A6
100
AcDbEntity
  8
0
  6
CONTINUOUS
 62
     7
100
AcDbLine
 10
3.027283
 20
-0.72472
 30
0.0
 11
3.027283
 21
-0.840151
 31
0.0
  0
LINE
  5
1A7
100
AcDbEntity
  8
0
  6
CONTINUOUS
 62
     7
100
AcDbLine
 10
2.98521
 20
-0.840151
 30
0.0
 11
2.98521
 21
-0.72472
 31
0.0
  0
LINE
  5
1A8
100
AcDbEntity
  8
0
  6
CONTINUOUS
 62
     7
100
AcDbLine
 10
2.98521
 20
-0.301464
 30
0.0
 11
2.98521
 21
-0.186008
 31
0.0
  0
LINE
  5
1A9
100
AcDbEntity
  8
0
  6
CONTINUOUS
 62
     7
100
AcDbLine
 10
2.943131
 20
-0.186008
 30
0.0
 11
2.943131
 21
-0.301464
 31
0.0
  0
LINE
  5
1AA
100
AcDbEntity
  8
0
  6
CONTINUOUS
 62
     7
100
AcDbLine
 10
2.943131
 20
-0.72472
 30
0.0
 11
2.943131
 21
-0.840151
 31
0.0
  0
LINE
  5
1AB
100
AcDbEntity
  8
0
  6
CONTINUOUS
 62
     7
100
AcDbLine
 10
2.901043
 20
-0.840151
 30
0.0
 11
2.901043
 21
-0.72472
 31
0.0
  0
LINE
  5
1AC
100
AcDbEntity
  8
0
  6
CONTINUOUS
 62
     7
100
AcDbLine
 10
2.901043
 20
-0.301464
 30
0.0
 11
2.901043
 21
-0.186008
 31
0.0
  0
LINE
  5
1AD
100
AcDbEntity
  8
0
  6
CONTINUOUS
 62
     7
100
AcDbLine
 10
2.858971
 20
-0.186008
 30
0.0
 11
2.858971
 21
-0.301464
 31
0.0
  0
LINE
  5
1AE
100
AcDbEntity
  8
0
  6
CONTINUOUS
 62
     7
100
AcDbLine
 10
2.858971
 20
-0.72472
 30
0.0
 11
2.858971
 21
-0.840151
 31
0.0
  0
LINE
  5
1AF
100
AcDbEntity
  8
0
  6
CONTINUOUS
 62
     7
100
AcDbLine
 10
2.816891
 20
-0.840151
 30
0.0
 11
2.816891
 21
-0.72472
 31
0.0
  0
LINE
  5
1B0
100
AcDbEntity
  8
0
  6
CONTINUOUS
 62
     7
100
AcDbLine
 10
2.816891
 20
-0.301464
 30
0.0
 11
2.816891
 21
-0.186008
 31
0.0
  0
LINE
  5
1B1
100
AcDbEntity
  8
0
  6
CONTINUOUS
 62
     7
100
AcDbLine
 10
2.774818
 20
-0.186008
 30
0.0
 11
2.774818
 21
-0.301464
 31
0.0
  0
LINE
  5
1B2
100
AcDbEntity
  8
0
  6
CONTINUOUS
 62
     7
100
AcDbLine
 10
2.774818
 20
-0.72472
 30
0.0
 11
2.774818
 21
-0.840151
 31
0.0
  0
LINE
  5
1B3
100
AcDbEntity
  8
0
  6
CONTINUOUS
 62
     7
100
AcDbLine
 10
2.732739
 20
-0.840151
 30
0.0
 11
2.732739
 21
-0.72472
 31
0.0
  0
LINE
  5
1B4
100
AcDbEntity
  8
0
  6
CONTINUOUS
 62
     7
100
AcDbLine
 10
2.732739
 20
-0.301426
 30
0.0
 11
2.732739
 21
-0.186033
 31
0.0
  0
LINE
  5
1B5
100
AcDbEntity
  8
0
  6
CONTINUOUS
 62
     7
100
AcDbLine
 10
2.690651
 20
-0.186033
 30
0.0
 11
2.690651
 21
-0.301426
 31
0.0
  0
LINE
  5
1B6
100
AcDbEntity
  8
0
  6
CONTINUOUS
 62
     7
100
AcDbLine
 10
2.690651
 20
-0.72472
 30
0.0
 11
2.690651
 21
-0.840151
 31
0.0
  0
LINE
  5
1B7
100
AcDbEntity
  8
0
  6
CONTINUOUS
 62
     7
100
AcDbLine
 10
2.64856
 20
-0.840151
 30
0.0
 11
2.64856
 21
-0.72472
 31
0.0
  0
LINE
  5
1B8
100
AcDbEntity
  8
0
  6
CONTINUOUS
 62
     7
100
AcDbLine
 10
2.64856
 20
-0.301426
 30
0.0
 11
2.64856
 21
-0.186033
 31
0.0
  0
LINE
  5
1B9
100
AcDbEntity
  8
0
  6
CONTINUOUS
 62
     7
100
AcDbLine
 10
2.606491
 20
-0.186033
 30
0.0
 11
2.606491
 21
-0.301426
 31
0.0
  0
LINE
  5
1BA
100
AcDbEntity
  8
0
  6
CONTINUOUS
 62
     7
100
AcDbLine
 10
2.606491
 20
-0.72472
 30
0.0
 11
2.606491
 21
-0.840151
 31
0.0
  0
LINE
  5
1BB
100
AcDbEntity
  8
0
  6
CONTINUOUS
 62
     7
100
AcDbLine
 10
2.564407
 20
-0.840151
 30
0.0
 11
2.564407
 21
-0.72472
 31
0.0
  0
LINE
  5
1BC
100
AcDbEntity
  8
0
  6
CONTINUOUS
 62
     7
100
AcDbLine
 10
2.564407
 20
-0.301426
 30
0.0
 11
2.564407
 21
-0.186033
 31
0.0
  0
LINE
  5
1BD
100
AcDbEntity
  8
0
  6
CONTINUOUS
 62
     7
100
AcDbLine
 10
2.522339
 20
-0.186033
 30
0.0
 11
2.522339
 21
-0.301426
 31
0.0
  0
LINE
  5
1BE
100
AcDbEntity
  8
0
  6
CONTINUOUS
 62
     7
100
AcDbLine
 10
2.522339
 20
-0.72472
 30
0.0
 11
2.522339
 21
-0.840151
 31
0.0
  0
LINE
  5
1BF
100
AcDbEntity
  8
0
  6
CONTINUOUS
 62
     7
100
AcDbLine
 10
2.480259
 20
-0.840075
 30
0.0
 11
2.480259
 21
-0.724411
 31
0.0
  0
LINE
  5
1C0
100
AcDbEntity
  8
0
  6
CONTINUOUS
 62
     7
100
AcDbLine
 10
2.480259
 20
-0.301746
 30
0.0
 11
2.480259
 21
-0.186121
 31
0.0
  0
LINE
  5
1C1
100
AcDbEntity
  8
0
  6
CONTINUOUS
 62
     7
100
AcDbLine
 10
2.438187
 20
-0.193373
 30
0.0
 11
2.438187
 21
-0.832817
 31
0.0
  0
LINE
  5
1C2
100
AcDbEntity
  8
0
  6
CONTINUOUS
 62
     7
100
AcDbLine
 10
2.396099
 20
-0.811769
 30
0.0
 11
2.396099
 21
-0.214396
 31
0.0
  0
LINE
  5
1C3
100
AcDbEntity
  8
0
  6
CONTINUOUS
 62
     7
100
AcDbLine
 10
2.354008
 20
-0.259329
 30
0.0
 11
2.354008
 21
-0.766829
 31
0.0
  0
LWPOLYLINE
  5
1C4
100
AcDbEntity
  8
0
  6
CONTINUOUS
 62
     7
100
AcDbPolyline
 90
       40
 70
   129
 43
0.0
 10
-5.694281
 20
-0.359125
 42
0.200538
 10
-5.680746
 20
-0.353521
 42
0.098505
 10
-5.676597
 20
-0.347273
 42
0.097857
 10
-5.67514
 20
-0.33989
 42
0.414269
 10
-5.828963
 20
-0.186045
 10
-6.290674
 20
-0.186045
 42
0.198759
 10
-6.399587
 20
-0.231105
 42
0.199065
 10
-6.4447
 20
-0.33989
 10
-6.4447
 20
-0.416838
 42
0.414214
 10
-6.290674
 20
-0.570818
 10
-5.828963
 20
-0.570818
 42
-0.414214
 10
-5.790592
 20
-0.609226
 10
-5.790592
 20
-0.68618
 42
-0.198326
 10
-5.801831
 20
-0.713435
 42
-0.199498
 10
-5.828963
 20
-0.724724
 10
-6.290674
 20
-0.724724
 42
-0.198717
 10
-6.31797
 20
-0.713435
 42
-0.199109
 10
-6.329276
 20
-0.68618
 42
0.198531
 10
-6.334877
 20
-0.672619
 42
0.199291
 10
-6.348398
 20
-0.667002
 10
-6.425354
 20
-0.667002
 42
0.197781
 10
-6.439033
 20
-0.672619
 42
0.20004
 10
-6.4447
 20
-0.68618
 42
0.414214
 10
-6.290674
 20
-0.840156
 10
-5.828963
 20
-0.840156
 42
0.199067
 10
-5.720214
 20
-0.795058
 42
0.198758
 10
-5.67517
 20
-0.68618
 10
-5.67517
 20
-0.609226
 42
0.414213
 10
-5.828963
 20
-0.455386
 10
-6.290674
 20
-0.455386
 42
-0.198693
 10
-6.31797
 20
-0.444099
 42
-0.199133
 10
-6.329276
 20
-0.416849
 10
-6.329276
 20
-0.33989
 42
-0.199519
 10
-6.31797
 20
-0.312721
 42
-0.198308
 10
-6.290674
 20
-0.301467
 10
-5.828963
 20
-0.301467
 42
-0.199089
 10
-5.801831
 20
-0.312721
 42
-0.198735
 10
-5.790592
 20
-0.33989
 42
0.199223
 10
-5.784924
 20
-0.353542
 42
0.198604
 10
-5.771238
 20
-0.359198
  0
LINE
  5
1C5
100
AcDbEntity
  8
0
  6
CONTINUOUS
 62
     7
100
AcDbLine
 10
-5.682724
 20
-0.292015
 30
0.0
 11
-5.682724
 21
-0.355272
 31
0.0
  0
LINE
  5
1C6
100
AcDbEntity
  8
0
  6
CONTINUOUS
 62
     7
100
AcDbLine
 10
-5.682724
 20
-0.561359
 30
0.0
 11
-5.682724
 21
-0.734085
 31
0.0
  0
LINE
  5
1C7
100
AcDbEntity
  8
0
  6
CONTINUOUS
 62
     7
100
AcDbLine
 10
-5.724814
 20
-0.799509
 30
0.0
 11
-5.724814
 21
-0.495968
 31
0.0
  0
LINE
  5
1C8
100
AcDbEntity
  8
0
  6
CONTINUOUS
 62
     7
100
AcDbLine
 10
-5.724814
 20
-0.35915
 30
0.0
 11
-5.724814
 21
-0.226631
 31
0.0
  0
LWPOLYLINE
  5
1C9
100
AcDbEntity
  8
0
  6
CONTINUOUS
 62
     7
100
AcDbPolyline
 90
        5
 70
   128
 43
0.0
 10
-8.667431
 20
0.272949
 10
-8.667431
 20
-1.568451
 10
-6.826027
 20
-1.568451
 10
-6.826027
 20
0.272957
 10
-8.667431
 20
0.272957
  0
LWPOLYLINE
  5
1CA
100
AcDbEntity
  8
0
  6
CONTINUOUS
 62
     7
100
AcDbPolyline
 90
        5
 70
   128
 43
0.0
 10
-8.510916
 20
0.116438
 10
-8.510916
 20
-1.411921
 10
-6.982548
 20
-1.411921
 10
-6.982548
 20
0.116438
 10
-8.509499
 20
0.116438
  0
LWPOLYLINE
  5
1CB
100
AcDbEntity
  8
0
  6
CONTINUOUS
 62
     7
100
AcDbPolyline
 90
       11
 70
   128
 43
0.0
 10
-8.354397
 20
-0.040089
 10
-7.286381
 20
-0.040089
 10
-7.139067
 20
-0.251839
 10
-7.139067
 20
-1.04365
 10
-7.286381
 20
-1.255402
 10
-8.354397
 20
-1.255402
 10
-8.354397
 20
-1.04365
 10
-8.188673
 20
-1.04365
 10
-8.188673
 20
-0.251839
 10
-8.354397
 20
-0.251839
 10
-8.354397
 20
-0.040089
  0
LWPOLYLINE
  5
1CC
100
AcDbEntity
  8
0
  6
CONTINUOUS
 62
     7
100
AcDbPolyline
 90
        5
 70
   128
 43
0.0
 10
-7.976904
 20
-0.251839
 10
-7.976904
 20
-1.04365
 10
-7.366112
 20
-1.04365
 10
-7.366112
 20
-0.251839
 10
-7.976904
 20
-0.251839
  0
LINE
  5
1CD
100
AcDbEntity
  8
0
  6
CONTINUOUS
 62
     7
100
AcDbLine
 10
-7.288504
 20
0.272949
 30
0.0
 11
-7.288504
 21
0.116438
 31
0.0
  0
LINE
  5
1CE
100
AcDbEntity
  8
0
  6
CONTINUOUS
 62
     7
100
AcDbLine
 10
-7.288504
 20
-0.040089
 30
0.0
 11
-7.288504
 21
-1.255402
 31
0.0
  0
LINE
  5
1CF
100
AcDbEntity
  8
0
  6
CONTINUOUS
 62
     7
100
AcDbLine
 10
-7.288504
 20
-1.411913
 30
0.0
 11
-7.288504
 21
-1.568451
 31
0.0
  0
LINE
  5
1D0
100
AcDbEntity
  8
0
  6
CONTINUOUS
 62
     7
100
AcDbLine
 10
-7.258518
 20
0.272949
 30
0.0
 11
-7.258518
 21
0.116438
 31
0.0
  0
LINE
  5
1D1
100
AcDbEntity
  8
0
  6
CONTINUOUS
 62
     7
100
AcDbLine
 10
-7.258518
 20
-0.080139
 30
0.0
 11
-7.258518
 21
-1.215351
 31
0.0
  0
LINE
  5
1D2
100
AcDbEntity
  8
0
  6
CONTINUOUS
 62
     7
100
AcDbLine
 10
-7.258518
 20
-1.411921
 30
0.0
 11
-7.258518
 21
-1.56844
 31
0.0
  0
LINE
  5
1D3
100
AcDbEntity
  8
0
  6
CONTINUOUS
 62
     7
100
AcDbLine
 10
-7.228571
 20
0.272949
 30
0.0
 11
-7.228571
 21
0.116438
 31
0.0
  0
LINE
  5
1D4
100
AcDbEntity
  8
0
  6
CONTINUOUS
 62
     7
100
AcDbLine
 10
-7.228571
 20
-0.123222
 30
0.0
 11
-7.228571
 21
-1.172272
 31
0.0
  0
LINE
  5
1D5
100
AcDbEntity
  8
0
  6
CONTINUOUS
 62
     7
100
AcDbLine
 10
-7.228571
 20
-1.411913
 30
0.0
 11
-7.228571
 21
-1.568451
 31
0.0
  0
LINE
  5
1D6
100
AcDbEntity
  8
0
  6
CONTINUOUS
 62
     7
100
AcDbLine
 10
-7.198584
 20
0.272949
 30
0.0
 11
-7.198584
 21
0.116438
 31
0.0
  0
LINE
  5
1D7
100
AcDbEntity
  8
0
  6
CONTINUOUS
 62
     7
100
AcDbLine
 10
-7.198584
 20
-0.166319
 30
0.0
 11
-7.198584
 21
-1.129169
 31
0.0
  0
LINE
  5
1D8
100
AcDbEntity
  8
0
  6
CONTINUOUS
 62
     7
100
AcDbLine
 10
-7.198584
 20
-1.411921
 30
0.0
 11
-7.198584
 21
-1.568451
 31
0.0
  0
LINE
  5
1D9
100
AcDbEntity
  8
0
  6
CONTINUOUS
 62
     7
100
AcDbLine
 10
-7.168589
 20
0.272949
 30
0.0
 11
-7.168589
 21
0.116438
 31
0.0
  0
LINE
  5
1DA
100
AcDbEntity
  8
0
  6
CONTINUOUS
 62
     7
100
AcDbLine
 10
-7.168589
 20
-0.209404
 30
0.0
 11
-7.168589
 21
-1.086092
 31
0.0
  0
LINE
  5
1DB
100
AcDbEntity
  8
0
  6
CONTINUOUS
 62
     7
100
AcDbLine
 10
-7.168589
 20
-1.411913
 30
0.0
 11
-7.168589
 21
-1.568451
 31
0.0
  0
LINE
  5
1DC
100
AcDbEntity
  8
0
  6
CONTINUOUS
 62
     7
100
AcDbLine
 10
-7.138622
 20
0.272949
 30
0.0
 11
-7.138622
 21
0.116438
 31
0.0
  0
LINE
  5
1DD
100
AcDbEntity
  8
0
  6
CONTINUOUS
 62
     7
100
AcDbLine
 10
-7.138622
 20
-1.411921
 30
0.0
 11
-7.138622
 21
-1.568451
 31
0.0
  0
LINE
  5
1DE
100
AcDbEntity
  8
0
  6
CONTINUOUS
 62
     7
100
AcDbLine
 10
-8.187804
 20
0.272949
 30
0.0
 11
-8.187804
 21
0.116438
 31
0.0
  0
LINE
  5
1DF
100
AcDbEntity
  8
0
  6
CONTINUOUS
 62
     7
100
AcDbLine
 10
-8.187804
 20
-0.040089
 30
0.0
 11
-8.187804
 21
-1.255413
 31
0.0
  0
LINE
  5
1E0
100
AcDbEntity
  8
0
  6
CONTINUOUS
 62
     7
100
AcDbLine
 10
-8.187804
 20
-1.411921
 30
0.0
 11
-8.187804
 21
-1.568451
 31
0.0
  0
LINE
  5
1E1
100
AcDbEntity
  8
0
  6
CONTINUOUS
 62
     7
100
AcDbLine
 10
-8.157809
 20
0.272949
 30
0.0
 11
-8.157809
 21
0.116438
 31
0.0
  0
LINE
  5
1E2
100
AcDbEntity
  8
0
  6
CONTINUOUS
 62
     7
100
AcDbLine
 10
-8.157809
 20
-0.040089
 30
0.0
 11
-8.157809
 21
-1.255413
 31
0.0
  0
LINE
  5
1E3
100
AcDbEntity
  8
0
  6
CONTINUOUS
 62
     7
100
AcDbLine
 10
-8.157809
 20
-1.411921
 30
0.0
 11
-8.157809
 21
-1.568451
 31
0.0
  0
LINE
  5
1E4
100
AcDbEntity
  8
0
  6
CONTINUOUS
 62
     7
100
AcDbLine
 10
-7.977951
 20
0.272949
 30
0.0
 11
-7.977951
 21
0.116438
 31
0.0
  0
LINE
  5
1E5
100
AcDbEntity
  8
0
  6
CONTINUOUS
 62
     7
100
AcDbLine
 10
-7.977951
 20
-0.040089
 30
0.0
 11
-7.977951
 21
-1.255402
 31
0.0
  0
LINE
  5
1E6
100
AcDbEntity
  8
0
  6
CONTINUOUS
 62
     7
100
AcDbLine
 10
-7.977951
 20
-1.411913
 30
0.0
 11
-7.977951
 21
-1.56844
 31
0.0
  0
LINE
  5
1E7
100
AcDbEntity
  8
0
  6
CONTINUOUS
 62
     7
100
AcDbLine
 10
-8.007946
 20
0.272949
 30
0.0
 11
-8.007946
 21
0.116438
 31
0.0
  0
LINE
  5
1E8
100
AcDbEntity
  8
0
  6
CONTINUOUS
 62
     7
100
AcDbLine
 10
-8.007946
 20
-0.040089
 30
0.0
 11
-8.007946
 21
-1.255413
 31
0.0
  0
LINE
  5
1E9
100
AcDbEntity
  8
0
  6
CONTINUOUS
 62
     7
100
AcDbLine
 10
-8.007946
 20
-1.411921
 30
0.0
 11
-8.007946
 21
-1.568451
 31
0.0
  0
LINE
  5
1EA
100
AcDbEntity
  8
0
  6
CONTINUOUS
 62
     7
100
AcDbLine
 10
-8.037931
 20
0.272949
 30
0.0
 11
-8.037931
 21
0.116438
 31
0.0
  0
LINE
  5
1EB
100
AcDbEntity
  8
0
  6
CONTINUOUS
 62
     7
100
AcDbLine
 10
-8.037931
 20
-0.040089
 30
0.0
 11
-8.037931
 21
-1.255413
 31
0.0
  0
LINE
  5
1EC
100
AcDbEntity
  8
0
  6
CONTINUOUS
 62
     7
100
AcDbLine
 10
-8.037931
 20
-1.411921
 30
0.0
 11
-8.037931
 21
-1.568451
 31
0.0
  0
LINE
  5
1ED
100
AcDbEntity
  8
0
  6
CONTINUOUS
 62
     7
100
AcDbLine
 10
-8.06788
 20
0.272949
 30
0.0
 11
-8.06788
 21
0.116438
 31
0.0
  0
LINE
  5
1EE
100
AcDbEntity
  8
0
  6
CONTINUOUS
 62
     7
100
AcDbLine
 10
-8.06788
 20
-0.040089
 30
0.0
 11
-8.06788
 21
-1.255413
 31
0.0
  0
LINE
  5
1EF
100
AcDbEntity
  8
0
  6
CONTINUOUS
 62
     7
100
AcDbLine
 10
-8.06788
 20
-1.411921
 30
0.0
 11
-8.06788
 21
-1.568451
 31
0.0
  0
LINE
  5
1F0
100
AcDbEntity
  8
0
  6
CONTINUOUS
 62
     7
100
AcDbLine
 10
-8.097865
 20
0.272949
 30
0.0
 11
-8.097865
 21
0.116438
 31
0.0
  0
LINE
  5
1F1
100
AcDbEntity
  8
0
  6
CONTINUOUS
 62
     7
100
AcDbLine
 10
-8.097865
 20
-0.040089
 30
0.0
 11
-8.097865
 21
-1.255413
 31
0.0
  0
LINE
  5
1F2
100
AcDbEntity
  8
0
  6
CONTINUOUS
 62
     7
100
AcDbLine
 10
-8.097865
 20
-1.411921
 30
0.0
 11
-8.097865
 21
-1.568451
 31
0.0
  0
LINE
  5
1F3
100
AcDbEntity
  8
0
  6
CONTINUOUS
 62
     7
100
AcDbLine
 10
-8.127842
 20
0.272949
 30
0.0
 11
-8.127842
 21
0.116438
 31
0.0
  0
LINE
  5
1F4
100
AcDbEntity
  8
0
  6
CONTINUOUS
 62
     7
100
AcDbLine
 10
-8.127842
 20
-0.040089
 30
0.0
 11
-8.127842
 21
-1.255413
 31
0.0
  0
LINE
  5
1F5
100
AcDbEntity
  8
0
  6
CONTINUOUS
 62
     7
100
AcDbLine
 10
-8.127842
 20
-1.411921
 30
0.0
 11
-8.127842
 21
-1.568451
 31
0.0
  0
LINE
  5
1F6
100
AcDbEntity
  8
0
  6
CONTINUOUS
 62
     7
100
AcDbLine
 10
-8.337685
 20
0.272949
 30
0.0
 11
-8.337685
 21
0.116438
 31
0.0
  0
LINE
  5
1F7
100
AcDbEntity
  8
0
  6
CONTINUOUS
 62
     7
100
AcDbLine
 10
-8.337685
 20
-0.040089
 30
0.0
 11
-8.337685
 21
-0.251839
 31
0.0
  0
LINE
  5
1F8
100
AcDbEntity
  8
0
  6
CONTINUOUS
 62
     7
100
AcDbLine
 10
-8.337685
 20
-1.04365
 30
0.0
 11
-8.337685
 21
-1.255413
 31
0.0
  0
LINE
  5
1F9
100
AcDbEntity
  8
0
  6
CONTINUOUS
 62
     7
100
AcDbLine
 10
-8.337685
 20
-1.411921
 30
0.0
 11
-8.337685
 21
-1.568451
 31
0.0
  0
LINE
  5
1FA
100
AcDbEntity
  8
0
  6
CONTINUOUS
 62
     7
100
AcDbLine
 10
-7.378433
 20
0.272949
 30
0.0
 11
-7.378433
 21
0.116438
 31
0.0
  0
LINE
  5
1FB
100
AcDbEntity
  8
0
  6
CONTINUOUS
 62
     7
100
AcDbLine
 10
-7.378433
 20
-0.040089
 30
0.0
 11
-7.378433
 21
-0.251839
 31
0.0
  0
LINE
  5
1FC
100
AcDbEntity
  8
0
  6
CONTINUOUS
 62
     7
100
AcDbLine
 10
-7.378433
 20
-1.04365
 30
0.0
 11
-7.378433
 21
-1.255402
 31
0.0
  0
LINE
  5
1FD
100
AcDbEntity
  8
0
  6
CONTINUOUS
 62
     7
100
AcDbLine
 10
-7.378433
 20
-1.411913
 30
0.0
 11
-7.378433
 21
-1.56844
 31
0.0
  0
LINE
  5
1FE
100
AcDbEntity
  8
0
  6
CONTINUOUS
 62
     7
100
AcDbLine
 10
-7.408409
 20
0.272949
 30
0.0
 11
-7.408409
 21
0.116438
 31
0.0
  0
LINE
  5
1FF
100
AcDbEntity
  8
0
  6
CONTINUOUS
 62
     7
100
AcDbLine
 10
-7.408409
 20
-0.040089
 30
0.0
 11
-7.408409
 21
-0.251839
 31
0.0
  0
LINE
  5
200
100
AcDbEntity
  8
0
  6
CONTINUOUS
 62
     7
100
AcDbLine
 10
-7.408409
 20
-1.04365
 30
0.0
 11
-7.408409
 21
-1.255402
 31
0.0
  0
LINE
  5
201
100
AcDbEntity
  8
0
  6
CONTINUOUS
 62
     7
100
AcDbLine
 10
-7.408409
 20
-1.411913
 30
0.0
 11
-7.408409
 21
-1.56844
 31
0.0
  0
LINE
  5
202
100
AcDbEntity
  8
0
  6
CONTINUOUS
 62
     7
100
AcDbLine
 10
-7.438377
 20
0.272949
 30
0.0
 11
-7.438377
 21
0.116438
 31
0.0
  0
LINE
  5
203
100
AcDbEntity
  8
0
  6
CONTINUOUS
 62
     7
100
AcDbLine
 10
-7.438377
 20
-0.040089
 30
0.0
 11
-7.438377
 21
-0.251839
 31
0.0
  0
LINE
  5
204
100
AcDbEntity
  8
0
  6
CONTINUOUS
 62
     7
100
AcDbLine
 10
-7.438377
 20
-1.04365
 30
0.0
 11
-7.438377
 21
-1.255402
 31
0.0
  0
LINE
  5
205
100
AcDbEntity
  8
0
  6
CONTINUOUS
 62
     7
100
AcDbLine
 10
-7.438377
 20
-1.411913
 30
0.0
 11
-7.438377
 21
-1.56844
 31
0.0
  0
LINE
  5
206
100
AcDbEntity
  8
0
  6
CONTINUOUS
 62
     7
100
AcDbLine
 10
-7.468363
 20
0.272949
 30
0.0
 11
-7.468363
 21
0.116438
 31
0.0
  0
LINE
  5
207
100
AcDbEntity
  8
0
  6
CONTINUOUS
 62
     7
100
AcDbLine
 10
-7.468363
 20
-0.040089
 30
0.0
 11
-7.468363
 21
-0.251833
 31
0.0
  0
LINE
  5
208
100
AcDbEntity
  8
0
  6
CONTINUOUS
 62
     7
100
AcDbLine
 10
-7.468363
 20
-1.04365
 30
0.0
 11
-7.468363
 21
-1.255402
 31
0.0
  0
LINE
  5
209
100
AcDbEntity
  8
0
  6
CONTINUOUS
 62
     7
100
AcDbLine
 10
-7.468363
 20
-1.411913
 30
0.0
 11
-7.468363
 21
-1.56844
 31
0.0
  0
LINE
  5
20A
100
AcDbEntity
  8
0
  6
CONTINUOUS
 62
     7
100
AcDbLine
 10
-7.498339
 20
0.272949
 30
0.0
 11
-7.498339
 21
0.116438
 31
0.0
  0
LINE
  5
20B
100
AcDbEntity
  8
0
  6
CONTINUOUS
 62
     7
100
AcDbLine
 10
-7.498339
 20
-0.040089
 30
0.0
 11
-7.498339
 21
-0.251839
 31
0.0
  0
LINE
  5
20C
100
AcDbEntity
  8
0
  6
CONTINUOUS
 62
     7
100
AcDbLine
 10
-7.498339
 20
-1.04365
 30
0.0
 11
-7.498339
 21
-1.255402
 31
0.0
  0
LINE
  5
20D
100
AcDbEntity
  8
0
  6
CONTINUOUS
 62
     7
100
AcDbLine
 10
-7.498339
 20
-1.411913
 30
0.0
 11
-7.498339
 21
-1.56844
 31
0.0
  0
LINE
  5
20E
100
AcDbEntity
  8
0
  6
CONTINUOUS
 62
     7
100
AcDbLine
 10
-7.528305
 20
0.272949
 30
0.0
 11
-7.528305
 21
0.116438
 31
0.0
  0
LINE
  5
20F
100
AcDbEntity
  8
0
  6
CONTINUOUS
 62
     7
100
AcDbLine
 10
-7.528305
 20
-0.040089
 30
0.0
 11
-7.528305
 21
-0.251839
 31
0.0
  0
LINE
  5
210
100
AcDbEntity
  8
0
  6
CONTINUOUS
 62
     7
100
AcDbLine
 10
-7.528305
 20
-1.04365
 30
0.0
 11
-7.528305
 21
-1.255402
 31
0.0
  0
LINE
  5
211
100
AcDbEntity
  8
0
  6
CONTINUOUS
 62
     7
100
AcDbLine
 10
-7.528305
 20
-1.411913
 30
0.0
 11
-7.528305
 21
-1.56844
 31
0.0
  0
LINE
  5
212
100
AcDbEntity
  8
0
  6
CONTINUOUS
 62
     7
100
AcDbLine
 10
-7.5583
 20
0.272949
 30
0.0
 11
-7.5583
 21
0.116438
 31
0.0
  0
LINE
  5
213
100
AcDbEntity
  8
0
  6
CONTINUOUS
 62
     7
100
AcDbLine
 10
-7.5583
 20
-0.040089
 30
0.0
 11
-7.5583
 21
-0.251839
 31
0.0
  0
LINE
  5
214
100
AcDbEntity
  8
0
  6
CONTINUOUS
 62
     7
100
AcDbLine
 10
-7.5583
 20
-1.04365
 30
0.0
 11
-7.5583
 21
-1.255402
 31
0.0
  0
LINE
  5
215
100
AcDbEntity
  8
0
  6
CONTINUOUS
 62
     7
100
AcDbLine
 10
-7.5583
 20
-1.411913
 30
0.0
 11
-7.5583
 21
-1.56844
 31
0.0
  0
LINE
  5
216
100
AcDbEntity
  8
0
  6
CONTINUOUS
 62
     7
100
AcDbLine
 10
-7.588268
 20
0.272949
 30
0.0
 11
-7.588268
 21
0.116438
 31
0.0
  0
LINE
  5
217
100
AcDbEntity
  8
0
  6
CONTINUOUS
 62
     7
100
AcDbLine
 10
-7.588268
 20
-0.040089
 30
0.0
 11
-7.588268
 21
-0.251839
 31
0.0
  0
LINE
  5
218
100
AcDbEntity
  8
0
  6
CONTINUOUS
 62
     7
100
AcDbLine
 10
-7.588268
 20
-1.04365
 30
0.0
 11
-7.588268
 21
-1.255402
 31
0.0
  0
LINE
  5
219
100
AcDbEntity
  8
0
  6
CONTINUOUS
 62
     7
100
AcDbLine
 10
-7.588268
 20
-1.411913
 30
0.0
 11
-7.588268
 21
-1.56844
 31
0.0
  0
LINE
  5
21A
100
AcDbEntity
  8
0
  6
CONTINUOUS
 62
     7
100
AcDbLine
 10
-7.618235
 20
0.272949
 30
0.0
 11
-7.618235
 21
0.116438
 31
0.0
  0
LINE
  5
21B
100
AcDbEntity
  8
0
  6
CONTINUOUS
 62
     7
100
AcDbLine
 10
-7.618235
 20
-0.040089
 30
0.0
 11
-7.618235
 21
-0.251839
 31
0.0
  0
LINE
  5
21C
100
AcDbEntity
  8
0
  6
CONTINUOUS
 62
     7
100
AcDbLine
 10
-7.618235
 20
-1.04365
 30
0.0
 11
-7.618235
 21
-1.255402
 31
0.0
  0
LINE
  5
21D
100
AcDbEntity
  8
0
  6
CONTINUOUS
 62
     7
100
AcDbLine
 10
-7.618235
 20
-1.411913
 30
0.0
 11
-7.618235
 21
-1.56844
 31
0.0
  0
LINE
  5
21E
100
AcDbEntity
  8
0
  6
CONTINUOUS
 62
     7
100
AcDbLine
 10
-7.64822
 20
0.272949
 30
0.0
 11
-7.64822
 21
0.116438
 31
0.0
  0
LINE
  5
21F
100
AcDbEntity
  8
0
  6
CONTINUOUS
 62
     7
100
AcDbLine
 10
-7.64822
 20
-0.040089
 30
0.0
 11
-7.64822
 21
-0.251839
 31
0.0
  0
LINE
  5
220
100
AcDbEntity
  8
0
  6
CONTINUOUS
 62
     7
100
AcDbLine
 10
-7.64822
 20
-1.04365
 30
0.0
 11
-7.64822
 21
-1.255402
 31
0.0
  0
LINE
  5
221
100
AcDbEntity
  8
0
  6
CONTINUOUS
 62
     7
100
AcDbLine
 10
-7.64822
 20
-1.411913
 30
0.0
 11
-7.64822
 21
-1.56844
 31
0.0
  0
LINE
  5
222
100
AcDbEntity
  8
0
  6
CONTINUOUS
 62
     7
100
AcDbLine
 10
-7.678196
 20
0.272949
 30
0.0
 11
-7.678196
 21
0.116438
 31
0.0
  0
LINE
  5
223
100
AcDbEntity
  8
0
  6
CONTINUOUS
 62
     7
100
AcDbLine
 10
-7.678196
 20
-0.040089
 30
0.0
 11
-7.678196
 21
-0.251839
 31
0.0
  0
LINE
  5
224
100
AcDbEntity
  8
0
  6
CONTINUOUS
 62
     7
100
AcDbLine
 10
-7.678196
 20
-1.04365
 30
0.0
 11
-7.678196
 21
-1.255402
 31
0.0
  0
LINE
  5
225
100
AcDbEntity
  8
0
  6
CONTINUOUS
 62
     7
100
AcDbLine
 10
-7.678196
 20
-1.411913
 30
0.0
 11
-7.678196
 21
-1.56844
 31
0.0
  0
LINE
  5
226
100
AcDbEntity
  8
0
  6
CONTINUOUS
 62
     7
100
AcDbLine
 10
-7.708183
 20
0.272949
 30
0.0
 11
-7.708183
 21
0.116438
 31
0.0
  0
LINE
  5
227
100
AcDbEntity
  8
0
  6
CONTINUOUS
 62
     7
100
AcDbLine
 10
-7.708183
 20
-0.040089
 30
0.0
 11
-7.708183
 21
-0.251833
 31
0.0
  0
LINE
  5
228
100
AcDbEntity
  8
0
  6
CONTINUOUS
 62
     7
100
AcDbLine
 10
-7.708183
 20
-1.04365
 30
0.0
 11
-7.708183
 21
-1.255402
 31
0.0
  0
LINE
  5
229
100
AcDbEntity
  8
0
  6
CONTINUOUS
 62
     7
100
AcDbLine
 10
-7.708183
 20
-1.411913
 30
0.0
 11
-7.708183
 21
-1.56844
 31
0.0
  0
LINE
  5
22A
100
AcDbEntity
  8
0
  6
CONTINUOUS
 62
     7
100
AcDbLine
 10
-7.738149
 20
0.272949
 30
0.0
 11
-7.738149
 21
0.116438
 31
0.0
  0
LINE
  5
22B
100
AcDbEntity
  8
0
  6
CONTINUOUS
 62
     7
100
AcDbLine
 10
-7.738149
 20
-0.040089
 30
0.0
 11
-7.738149
 21
-0.251833
 31
0.0
  0
LINE
  5
22C
100
AcDbEntity
  8
0
  6
CONTINUOUS
 62
     7
100
AcDbLine
 10
-7.738149
 20
-1.04365
 30
0.0
 11
-7.738149
 21
-1.255402
 31
0.0
  0
LINE
  5
22D
100
AcDbEntity
  8
0
  6
CONTINUOUS
 62
     7
100
AcDbLine
 10
-7.738149
 20
-1.411913
 30
0.0
 11
-7.738149
 21
-1.56844
 31
0.0
  0
LINE
  5
22E
100
AcDbEntity
  8
0
  6
CONTINUOUS
 62
     7
100
AcDbLine
 10
-7.768126
 20
0.272949
 30
0.0
 11
-7.768126
 21
0.116438
 31
0.0
  0
LINE
  5
22F
100
AcDbEntity
  8
0
  6
CONTINUOUS
 62
     7
100
AcDbLine
 10
-7.768126
 20
-0.040089
 30
0.0
 11
-7.768126
 21
-0.251833
 31
0.0
  0
LINE
  5
230
100
AcDbEntity
  8
0
  6
CONTINUOUS
 62
     7
100
AcDbLine
 10
-7.768126
 20
-1.04365
 30
0.0
 11
-7.768126
 21
-1.255402
 31
0.0
  0
LINE
  5
231
100
AcDbEntity
  8
0
  6
CONTINUOUS
 62
     7
100
AcDbLine
 10
-7.768126
 20
-1.411913
 30
0.0
 11
-7.768126
 21
-1.56844
 31
0.0
  0
LINE
  5
232
100
AcDbEntity
  8
0
  6
CONTINUOUS
 62
     7
100
AcDbLine
 10
-7.798094
 20
0.272949
 30
0.0
 11
-7.798094
 21
0.116438
 31
0.0
  0
LINE
  5
233
100
AcDbEntity
  8
0
  6
CONTINUOUS
 62
     7
100
AcDbLine
 10
-7.798094
 20
-0.040089
 30
0.0
 11
-7.798094
 21
-0.251833
 31
0.0
  0
LINE
  5
234
100
AcDbEntity
  8
0
  6
CONTINUOUS
 62
     7
100
AcDbLine
 10
-7.798094
 20
-1.04365
 30
0.0
 11
-7.798094
 21
-1.255402
 31
0.0
  0
LINE
  5
235
100
AcDbEntity
  8
0
  6
CONTINUOUS
 62
     7
100
AcDbLine
 10
-7.798094
 20
-1.411913
 30
0.0
 11
-7.798094
 21
-1.56844
 31
0.0
  0
LINE
  5
236
100
AcDbEntity
  8
0
  6
CONTINUOUS
 62
     7
100
AcDbLine
 10
-7.828079
 20
0.272949
 30
0.0
 11
-7.828079
 21
0.116438
 31
0.0
  0
LINE
  5
237
100
AcDbEntity
  8
0
  6
CONTINUOUS
 62
     7
100
AcDbLine
 10
-7.828079
 20
-0.040089
 30
0.0
 11
-7.828079
 21
-0.251833
 31
0.0
  0
LINE
  5
238
100
AcDbEntity
  8
0
  6
CONTINUOUS
 62
     7
100
AcDbLine
 10
-7.828079
 20
-1.04365
 30
0.0
 11
-7.828079
 21
-1.255402
 31
0.0
  0
LINE
  5
239
100
AcDbEntity
  8
0
  6
CONTINUOUS
 62
     7
100
AcDbLine
 10
-7.828079
 20
-1.411913
 30
0.0
 11
-7.828079
 21
-1.56844
 31
0.0
  0
LINE
  5
23A
100
AcDbEntity
  8
0
  6
CONTINUOUS
 62
     7
100
AcDbLine
 10
-7.858074
 20
0.272949
 30
0.0
 11
-7.858074
 21
0.116438
 31
0.0
  0
LINE
  5
23B
100
AcDbEntity
  8
0
  6
CONTINUOUS
 62
     7
100
AcDbLine
 10
-7.858074
 20
-0.040089
 30
0.0
 11
-7.858074
 21
-0.251833
 31
0.0
  0
LINE
  5
23C
100
AcDbEntity
  8
0
  6
CONTINUOUS
 62
     7
100
AcDbLine
 10
-7.858074
 20
-1.04365
 30
0.0
 11
-7.858074
 21
-1.255402
 31
0.0
  0
LINE
  5
23D
100
AcDbEntity
  8
0
  6
CONTINUOUS
 62
     7
100
AcDbLine
 10
-7.858074
 20
-1.411913
 30
0.0
 11
-7.858074
 21
-1.56844
 31
0.0
  0
LINE
  5
23E
100
AcDbEntity
  8
0
  6
CONTINUOUS
 62
     7
100
AcDbLine
 10
-7.888041
 20
0.272949
 30
0.0
 11
-7.888041
 21
0.116438
 31
0.0
  0
LINE
  5
23F
100
AcDbEntity
  8
0
  6
CONTINUOUS
 62
     7
100
AcDbLine
 10
-7.888041
 20
-0.040089
 30
0.0
 11
-7.888041
 21
-0.251833
 31
0.0
  0
LINE
  5
240
100
AcDbEntity
  8
0
  6
CONTINUOUS
 62
     7
100
AcDbLine
 10
-7.888041
 20
-1.04365
 30
0.0
 11
-7.888041
 21
-1.255402
 31
0.0
  0
LINE
  5
241
100
AcDbEntity
  8
0
  6
CONTINUOUS
 62
     7
100
AcDbLine
 10
-7.888041
 20
-1.411913
 30
0.0
 11
-7.888041
 21
-1.56844
 31
0.0
  0
LINE
  5
242
100
AcDbEntity
  8
0
  6
CONTINUOUS
 62
     7
100
AcDbLine
 10
-7.918007
 20
0.272949
 30
0.0
 11
-7.918007
 21
0.116438
 31
0.0
  0
LINE
  5
243
100
AcDbEntity
  8
0
  6
CONTINUOUS
 62
     7
100
AcDbLine
 10
-7.918007
 20
-0.040089
 30
0.0
 11
-7.918007
 21
-0.251839
 31
0.0
  0
LINE
  5
244
100
AcDbEntity
  8
0
  6
CONTINUOUS
 62
     7
100
AcDbLine
 10
-7.918007
 20
-1.04365
 30
0.0
 11
-7.918007
 21
-1.255402
 31
0.0
  0
LINE
  5
245
100
AcDbEntity
  8
0
  6
CONTINUOUS
 62
     7
100
AcDbLine
 10
-7.918007
 20
-1.411913
 30
0.0
 11
-7.918007
 21
-1.56844
 31
0.0
  0
LINE
  5
246
100
AcDbEntity
  8
0
  6
CONTINUOUS
 62
     7
100
AcDbLine
 10
-7.947985
 20
0.272949
 30
0.0
 11
-7.947985
 21
0.116438
 31
0.0
  0
LINE
  5
247
100
AcDbEntity
  8
0
  6
CONTINUOUS
 62
     7
100
AcDbLine
 10
-7.947985
 20
-0.040089
 30
0.0
 11
-7.947985
 21
-0.251833
 31
0.0
  0
LINE
  5
248
100
AcDbEntity
  8
0
  6
CONTINUOUS
 62
     7
100
AcDbLine
 10
-7.947985
 20
-1.04365
 30
0.0
 11
-7.947985
 21
-1.255402
 31
0.0
  0
LINE
  5
249
100
AcDbEntity
  8
0
  6
CONTINUOUS
 62
     7
100
AcDbLine
 10
-7.947985
 20
-1.411913
 30
0.0
 11
-7.947985
 21
-1.56844
 31
0.0
  0
LINE
  5
24A
100
AcDbEntity
  8
0
  6
CONTINUOUS
 62
     7
100
AcDbLine
 10
-8.21779
 20
0.272949
 30
0.0
 11
-8.21779
 21
0.116438
 31
0.0
  0
LINE
  5
24B
100
AcDbEntity
  8
0
  6
CONTINUOUS
 62
     7
100
AcDbLine
 10
-8.21779
 20
-0.040089
 30
0.0
 11
-8.21779
 21
-0.251839
 31
0.0
  0
LINE
  5
24C
100
AcDbEntity
  8
0
  6
CONTINUOUS
 62
     7
100
AcDbLine
 10
-8.21779
 20
-1.04365
 30
0.0
 11
-8.21779
 21
-1.255402
 31
0.0
  0
LINE
  5
24D
100
AcDbEntity
  8
0
  6
CONTINUOUS
 62
     7
100
AcDbLine
 10
-8.21779
 20
-1.411913
 30
0.0
 11
-8.21779
 21
-1.56844
 31
0.0
  0
LINE
  5
24E
100
AcDbEntity
  8
0
  6
CONTINUOUS
 62
     7
100
AcDbLine
 10
-8.247738
 20
0.272949
 30
0.0
 11
-8.247738
 21
0.116438
 31
0.0
  0
LINE
  5
24F
100
AcDbEntity
  8
0
  6
CONTINUOUS
 62
     7
100
AcDbLine
 10
-8.247738
 20
-0.040089
 30
0.0
 11
-8.247738
 21
-0.251839
 31
0.0
  0
LINE
  5
250
100
AcDbEntity
  8
0
  6
CONTINUOUS
 62
     7
100
AcDbLine
 10
-8.247738
 20
-1.04365
 30
0.0
 11
-8.247738
 21
-1.255413
 31
0.0
  0
LINE
  5
251
100
AcDbEntity
  8
0
  6
CONTINUOUS
 62
     7
100
AcDbLine
 10
-8.247738
 20
-1.411921
 30
0.0
 11
-8.247738
 21
-1.568451
 31
0.0
  0
LINE
  5
252
100
AcDbEntity
  8
0
  6
CONTINUOUS
 62
     7
100
AcDbLine
 10
-8.277723
 20
0.272949
 30
0.0
 11
-8.277723
 21
0.116438
 31
0.0
  0
LINE
  5
253
100
AcDbEntity
  8
0
  6
CONTINUOUS
 62
     7
100
AcDbLine
 10
-8.277723
 20
-0.040089
 30
0.0
 11
-8.277723
 21
-0.251839
 31
0.0
  0
LINE
  5
254
100
AcDbEntity
  8
0
  6
CONTINUOUS
 62
     7
100
AcDbLine
 10
-8.277723
 20
-1.04365
 30
0.0
 11
-8.277723
 21
-1.255413
 31
0.0
  0
LINE
  5
255
100
AcDbEntity
  8
0
  6
CONTINUOUS
 62
     7
100
AcDbLine
 10
-8.277723
 20
-1.411921
 30
0.0
 11
-8.277723
 21
-1.568451
 31
0.0
  0
LINE
  5
256
100
AcDbEntity
  8
0
  6
CONTINUOUS
 62
     7
100
AcDbLine
 10
-8.3077
 20
0.272949
 30
0.0
 11
-8.3077
 21
0.116438
 31
0.0
  0
LINE
  5
257
100
AcDbEntity
  8
0
  6
CONTINUOUS
 62
     7
100
AcDbLine
 10
-8.3077
 20
-0.040089
 30
0.0
 11
-8.3077
 21
-0.251839
 31
0.0
  0
LINE
  5
258
100
AcDbEntity
  8
0
  6
CONTINUOUS
 62
     7
100
AcDbLine
 10
-8.3077
 20
-1.04365
 30
0.0
 11
-8.3077
 21
-1.255402
 31
0.0
  0
LINE
  5
259
100
AcDbEntity
  8
0
  6
CONTINUOUS
 62
     7
100
AcDbLine
 10
-8.3077
 20
-1.411913
 30
0.0
 11
-8.3077
 21
-1.56844
 31
0.0
  0
LINE
  5
25A
100
AcDbEntity
  8
0
  6
CONTINUOUS
 62
     7
100
AcDbLine
 10
-5.766886
 20
-0.199101
 30
0.0
 11
-5.766886
 21
-0.359169
 31
0.0
  0
LINE
  5
25B
100
AcDbEntity
  8
0
  6
CONTINUOUS
 62
     7
100
AcDbLine
 10
-5.766886
 20
-0.468437
 30
0.0
 11
-5.766886
 21
-0.827045
 31
0.0
  0
LINE
  5
25C
100
AcDbEntity
  8
0
  6
CONTINUOUS
 62
     7
100
AcDbLine
 10
-5.808966
 20
-0.838821
 30
0.0
 11
-5.808966
 21
-0.719069
 31
0.0
  0
LINE
  5
25D
100
AcDbEntity
  8
0
  6
CONTINUOUS
 62
     7
100
AcDbLine
 10
-5.808966
 20
-0.576408
 30
0.0
 11
-5.808966
 21
-0.456673
 31
0.0
  0
LINE
  5
25E
100
AcDbEntity
  8
0
  6
CONTINUOUS
 62
     7
100
AcDbLine
 10
-5.808966
 20
-0.307066
 30
0.0
 11
-5.808966
 21
-0.187336
 31
0.0
  0
LINE
  5
25F
100
AcDbEntity
  8
0
  6
CONTINUOUS
 62
     7
100
AcDbLine
 10
-5.851036
 20
-0.186028
 30
0.0
 11
-5.851036
 21
-0.301445
 31
0.0
  0
LINE
  5
260
100
AcDbEntity
  8
0
  6
CONTINUOUS
 62
     7
100
AcDbLine
 10
-5.851036
 20
-0.455358
 30
0.0
 11
-5.851036
 21
-0.570787
 31
0.0
  0
LINE
  5
261
100
AcDbEntity
  8
0
  6
CONTINUOUS
 62
     7
100
AcDbLine
 10
-5.851036
 20
-0.724701
 30
0.0
 11
-5.851036
 21
-0.840132
 31
0.0
  0
LINE
  5
262
100
AcDbEntity
  8
0
  6
CONTINUOUS
 62
     7
100
AcDbLine
 10
-5.893116
 20
-0.840132
 30
0.0
 11
-5.893116
 21
-0.724701
 31
0.0
  0
LINE
  5
263
100
AcDbEntity
  8
0
  6
CONTINUOUS
 62
     7
100
AcDbLine
 10
-5.893116
 20
-0.570787
 30
0.0
 11
-5.893116
 21
-0.455358
 31
0.0
  0
LINE
  5
264
100
AcDbEntity
  8
0
  6
CONTINUOUS
 62
     7
100
AcDbLine
 10
-5.893116
 20
-0.301445
 30
0.0
 11
-5.893116
 21
-0.186028
 31
0.0
  0
LINE
  5
265
100
AcDbEntity
  8
0
  6
CONTINUOUS
 62
     7
100
AcDbLine
 10
-5.935205
 20
-0.186028
 30
0.0
 11
-5.935205
 21
-0.301445
 31
0.0
  0
LINE
  5
266
100
AcDbEntity
  8
0
  6
CONTINUOUS
 62
     7
100
AcDbLine
 10
-5.935205
 20
-0.455358
 30
0.0
 11
-5.935205
 21
-0.570787
 31
0.0
  0
LINE
  5
267
100
AcDbEntity
  8
0
  6
CONTINUOUS
 62
     7
100
AcDbLine
 10
-5.935205
 20
-0.724701
 30
0.0
 11
-5.935205
 21
-0.840132
 31
0.0
  0
LINE
  5
268
100
AcDbEntity
  8
0
  6
CONTINUOUS
 62
     7
100
AcDbLine
 10
-5.977276
 20
-0.840132
 30
0.0
 11
-5.977276
 21
-0.724701
 31
0.0
  0
LINE
  5
269
100
AcDbEntity
  8
0
  6
CONTINUOUS
 62
     7
100
AcDbLine
 10
-5.977276
 20
-0.570787
 30
0.0
 11
-5.977276
 21
-0.455358
 31
0.0
  0
LINE
  5
26A
100
AcDbEntity
  8
0
  6
CONTINUOUS
 62
     7
100
AcDbLine
 10
-5.977276
 20
-0.301445
 30
0.0
 11
-5.977276
 21
-0.186028
 31
0.0
  0
LINE
  5
26B
100
AcDbEntity
  8
0
  6
CONTINUOUS
 62
     7
100
AcDbLine
 10
-6.019357
 20
-0.186014
 30
0.0
 11
-6.019357
 21
-0.301445
 31
0.0
  0
LINE
  5
26C
100
AcDbEntity
  8
0
  6
CONTINUOUS
 62
     7
100
AcDbLine
 10
-6.019357
 20
-0.455358
 30
0.0
 11
-6.019357
 21
-0.570787
 31
0.0
  0
LINE
  5
26D
100
AcDbEntity
  8
0
  6
CONTINUOUS
 62
     7
100
AcDbLine
 10
-6.019357
 20
-0.724701
 30
0.0
 11
-6.019357
 21
-0.840132
 31
0.0
  0
LINE
  5
26E
100
AcDbEntity
  8
0
  6
CONTINUOUS
 62
     7
100
AcDbLine
 10
-8.637449
 20
0.272949
 30
0.0
 11
-8.637449
 21
-1.56844
 31
0.0
  0
LINE
  5
26F
100
AcDbEntity
  8
0
  6
CONTINUOUS
 62
     7
100
AcDbLine
 10
-8.607454
 20
0.272949
 30
0.0
 11
-8.607454
 21
-1.568451
 31
0.0
  0
LINE
  5
270
100
AcDbEntity
  8
0
  6
CONTINUOUS
 62
     7
100
AcDbLine
 10
-8.577487
 20
0.272949
 30
0.0
 11
-8.577487
 21
-1.568451
 31
0.0
  0
LINE
  5
271
100
AcDbEntity
  8
0
  6
CONTINUOUS
 62
     7
100
AcDbLine
 10
-6.838859
 20
0.272957
 30
0.0
 11
-6.838859
 21
-1.56844
 31
0.0
  0
LINE
  5
272
100
AcDbEntity
  8
0
  6
CONTINUOUS
 62
     7
100
AcDbLine
 10
-6.868854
 20
0.272949
 30
0.0
 11
-6.868854
 21
-1.56844
 31
0.0
  0
LINE
  5
273
100
AcDbEntity
  8
0
  6
CONTINUOUS
 62
     7
100
AcDbLine
 10
-6.898821
 20
0.272949
 30
0.0
 11
-6.898821
 21
-1.56844
 31
0.0
  0
LINE
  5
274
100
AcDbEntity
  8
0
  6
CONTINUOUS
 62
     7
100
AcDbLine
 10
-6.928787
 20
0.272949
 30
0.0
 11
-6.928787
 21
-1.568451
 31
0.0
  0
LINE
  5
275
100
AcDbEntity
  8
0
  6
CONTINUOUS
 62
     7
100
AcDbLine
 10
-6.958765
 20
0.272949
 30
0.0
 11
-6.958765
 21
-1.568451
 31
0.0
  0
LINE
  5
276
100
AcDbEntity
  8
0
  6
CONTINUOUS
 62
     7
100
AcDbLine
 10
-7.348448
 20
0.272949
 30
0.0
 11
-7.348448
 21
0.116438
 31
0.0
  0
LINE
  5
277
100
AcDbEntity
  8
0
  6
CONTINUOUS
 62
     7
100
AcDbLine
 10
-7.348448
 20
-0.040089
 30
0.0
 11
-7.348448
 21
-1.255402
 31
0.0
  0
LINE
  5
278
100
AcDbEntity
  8
0
  6
CONTINUOUS
 62
     7
100
AcDbLine
 10
-7.348448
 20
-1.411913
 30
0.0
 11
-7.348448
 21
-1.568451
 31
0.0
  0
LINE
  5
279
100
AcDbEntity
  8
0
  6
CONTINUOUS
 62
     7
100
AcDbLine
 10
-7.318482
 20
0.272949
 30
0.0
 11
-7.318482
 21
0.116438
 31
0.0
  0
LINE
  5
27A
100
AcDbEntity
  8
0
  6
CONTINUOUS
 62
     7
100
AcDbLine
 10
-7.318482
 20
-0.040089
 30
0.0
 11
-7.318482
 21
-1.255402
 31
0.0
  0
LINE
  5
27B
100
AcDbEntity
  8
0
  6
CONTINUOUS
 62
     7
100
AcDbLine
 10
-7.318482
 20
-1.411921
 30
0.0
 11
-7.318482
 21
-1.568451
 31
0.0
  0
LINE
  5
27C
100
AcDbEntity
  8
0
  6
CONTINUOUS
 62
     7
100
AcDbLine
 10
-8.547521
 20
0.272949
 30
0.0
 11
-8.547521
 21
-1.568451
 31
0.0
  0
LINE
  5
27D
100
AcDbEntity
  8
0
  6
CONTINUOUS
 62
     7
100
AcDbLine
 10
-8.517544
 20
0.272949
 30
0.0
 11
-8.517544
 21
-1.568451
 31
0.0
  0
LINE
  5
27E
100
AcDbEntity
  8
0
  6
CONTINUOUS
 62
     7
100
AcDbLine
 10
-8.487578
 20
0.272949
 30
0.0
 11
-8.487578
 21
0.116438
 31
0.0
  0
LINE
  5
27F
100
AcDbEntity
  8
0
  6
CONTINUOUS
 62
     7
100
AcDbLine
 10
-8.487578
 20
-1.411921
 30
0.0
 11
-8.487578
 21
-1.568451
 31
0.0
  0
LINE
  5
280
100
AcDbEntity
  8
0
  6
CONTINUOUS
 62
     7
100
AcDbLine
 10
-6.988731
 20
0.272949
 30
0.0
 11
-6.988731
 21
0.116438
 31
0.0
  0
LINE
  5
281
100
AcDbEntity
  8
0
  6
CONTINUOUS
 62
     7
100
AcDbLine
 10
-6.988731
 20
-1.411921
 30
0.0
 11
-6.988731
 21
-1.568451
 31
0.0
  0
LINE
  5
282
100
AcDbEntity
  8
0
  6
CONTINUOUS
 62
     7
100
AcDbLine
 10
-7.018717
 20
0.272949
 30
0.0
 11
-7.018717
 21
0.116438
 31
0.0
  0
LINE
  5
283
100
AcDbEntity
  8
0
  6
CONTINUOUS
 62
     7
100
AcDbLine
 10
-7.018717
 20
-1.411913
 30
0.0
 11
-7.018717
 21
-1.56844
 31
0.0
  0
LINE
  5
284
100
AcDbEntity
  8
0
  6
CONTINUOUS
 62
     7
100
AcDbLine
 10
-7.048712
 20
0.272949
 30
0.0
 11
-7.048712
 21
0.116438
 31
0.0
  0
LINE
  5
285
100
AcDbEntity
  8
0
  6
CONTINUOUS
 62
     7
100
AcDbLine
 10
-7.048712
 20
-1.411913
 30
0.0
 11
-7.048712
 21
-1.56844
 31
0.0
  0
LINE
  5
286
100
AcDbEntity
  8
0
  6
CONTINUOUS
 62
     7
100
AcDbLine
 10
-7.078661
 20
0.272949
 30
0.0
 11
-7.078661
 21
0.116438
 31
0.0
  0
LINE
  5
287
100
AcDbEntity
  8
0
  6
CONTINUOUS
 62
     7
100
AcDbLine
 10
-7.078661
 20
-1.411913
 30
0.0
 11
-7.078661
 21
-1.56844
 31
0.0
  0
LINE
  5
288
100
AcDbEntity
  8
0
  6
CONTINUOUS
 62
     7
100
AcDbLine
 10
-7.108646
 20
0.272949
 30
0.0
 11
-7.108646
 21
0.116438
 31
0.0
  0
LINE
  5
289
100
AcDbEntity
  8
0
  6
CONTINUOUS
 62
     7
100
AcDbLine
 10
-7.108646
 20
-1.411921
 30
0.0
 11
-7.108646
 21
-1.568451
 31
0.0
  0
LINE
  5
28A
100
AcDbEntity
  8
0
  6
CONTINUOUS
 62
     7
100
AcDbLine
 10
-8.367662
 20
0.272949
 30
0.0
 11
-8.367662
 21
0.116438
 31
0.0
  0
LINE
  5
28B
100
AcDbEntity
  8
0
  6
CONTINUOUS
 62
     7
100
AcDbLine
 10
-8.367662
 20
-1.411921
 30
0.0
 11
-8.367662
 21
-1.568451
 31
0.0
  0
LINE
  5
28C
100
AcDbEntity
  8
0
  6
CONTINUOUS
 62
     7
100
AcDbLine
 10
-8.397629
 20
0.272949
 30
0.0
 11
-8.397629
 21
0.116438
 31
0.0
  0
LINE
  5
28D
100
AcDbEntity
  8
0
  6
CONTINUOUS
 62
     7
100
AcDbLine
 10
-8.397629
 20
-1.411921
 30
0.0
 11
-8.397629
 21
-1.568451
 31
0.0
  0
LINE
  5
28E
100
AcDbEntity
  8
0
  6
CONTINUOUS
 62
     7
100
AcDbLine
 10
-8.427596
 20
0.272949
 30
0.0
 11
-8.427596
 21
0.116438
 31
0.0
  0
LINE
  5
28F
100
AcDbEntity
  8
0
  6
CONTINUOUS
 62
     7
100
AcDbLine
 10
-8.427596
 20
-1.411921
 30
0.0
 11
-8.427596
 21
-1.568451
 31
0.0
  0
LINE
  5
290
100
AcDbEntity
  8
0
  6
CONTINUOUS
 62
     7
100
AcDbLine
 10
-8.457582
 20
0.272949
 30
0.0
 11
-8.457582
 21
0.116438
 31
0.0
  0
LINE
  5
291
100
AcDbEntity
  8
0
  6
CONTINUOUS
 62
     7
100
AcDbLine
 10
-8.457582
 20
-1.411921
 30
0.0
 11
-8.457582
 21
-1.568451
 31
0.0
  0
LINE
  5
292
100
AcDbEntity
  8
0
  6
CONTINUOUS
 62
     7
100
AcDbLine
 10
-6.061428
 20
-0.840132
 30
0.0
 11
-6.061428
 21
-0.724701
 31
0.0
  0
LINE
  5
293
100
AcDbEntity
  8
0
  6
CONTINUOUS
 62
     7
100
AcDbLine
 10
-6.061428
 20
-0.570787
 30
0.0
 11
-6.061428
 21
-0.455358
 31
0.0
  0
LINE
  5
294
100
AcDbEntity
  8
0
  6
CONTINUOUS
 62
     7
100
AcDbLine
 10
-6.061428
 20
-0.301445
 30
0.0
 11
-6.061428
 21
-0.186014
 31
0.0
  0
LINE
  5
295
100
AcDbEntity
  8
0
  6
CONTINUOUS
 62
     7
100
AcDbLine
 10
-6.103508
 20
-0.186014
 30
0.0
 11
-6.103508
 21
-0.301445
 31
0.0
  0
LINE
  5
296
100
AcDbEntity
  8
0
  6
CONTINUOUS
 62
     7
100
AcDbLine
 10
-6.103508
 20
-0.455358
 30
0.0
 11
-6.103508
 21
-0.570787
 31
0.0
  0
LINE
  5
297
100
AcDbEntity
  8
0
  6
CONTINUOUS
 62
     7
100
AcDbLine
 10
-6.103508
 20
-0.724701
 30
0.0
 11
-6.103508
 21
-0.840132
 31
0.0
  0
LINE
  5
298
100
AcDbEntity
  8
0
  6
CONTINUOUS
 62
     7
100
AcDbLine
 10
-6.145597
 20
-0.840132
 30
0.0
 11
-6.145597
 21
-0.724701
 31
0.0
  0
LINE
  5
299
100
AcDbEntity
  8
0
  6
CONTINUOUS
 62
     7
100
AcDbLine
 10
-6.145597
 20
-0.570787
 30
0.0
 11
-6.145597
 21
-0.455358
 31
0.0
  0
LINE
  5
29A
100
AcDbEntity
  8
0
  6
CONTINUOUS
 62
     7
100
AcDbLine
 10
-6.145597
 20
-0.301445
 30
0.0
 11
-6.145597
 21
-0.186014
 31
0.0
  0
LINE
  5
29B
100
AcDbEntity
  8
0
  6
CONTINUOUS
 62
     7
100
AcDbLine
 10
-6.187668
 20
-0.186014
 30
0.0
 11
-6.187668
 21
-0.301445
 31
0.0
  0
LINE
  5
29C
100
AcDbEntity
  8
0
  6
CONTINUOUS
 62
     7
100
AcDbLine
 10
-6.187668
 20
-0.455358
 30
0.0
 11
-6.187668
 21
-0.570787
 31
0.0
  0
LINE
  5
29D
100
AcDbEntity
  8
0
  6
CONTINUOUS
 62
     7
100
AcDbLine
 10
-6.187668
 20
-0.724701
 30
0.0
 11
-6.187668
 21
-0.840132
 31
0.0
  0
LINE
  5
29E
100
AcDbEntity
  8
0
  6
CONTINUOUS
 62
     7
100
AcDbLine
 10
-6.229748
 20
-0.840132
 30
0.0
 11
-6.229748
 21
-0.724701
 31
0.0
  0
LINE
  5
29F
100
AcDbEntity
  8
0
  6
CONTINUOUS
 62
     7
100
AcDbLine
 10
-6.229748
 20
-0.570787
 30
0.0
 11
-6.229748
 21
-0.455358
 31
0.0
  0
LINE
  5
2A0
100
AcDbEntity
  8
0
  6
CONTINUOUS
 62
     7
100
AcDbLine
 10
-6.229748
 20
-0.301445
 30
0.0
 11
-6.229748
 21
-0.186014
 31
0.0
  0
LINE
  5
2A1
100
AcDbEntity
  8
0
  6
CONTINUOUS
 62
     7
100
AcDbLine
 10
-6.27182
 20
-0.186014
 30
0.0
 11
-6.27182
 21
-0.301445
 31
0.0
  0
LINE
  5
2A2
100
AcDbEntity
  8
0
  6
CONTINUOUS
 62
     7
100
AcDbLine
 10
-6.27182
 20
-0.455358
 30
0.0
 11
-6.27182
 21
-0.570787
 31
0.0
  0
LINE
  5
2A3
100
AcDbEntity
  8
0
  6
CONTINUOUS
 62
     7
100
AcDbLine
 10
-6.27182
 20
-0.724701
 30
0.0
 11
-6.27182
 21
-0.840132
 31
0.0
  0
LINE
  5
2A4
100
AcDbEntity
  8
0
  6
CONTINUOUS
 62
     7
100
AcDbLine
 10
-6.31391
 20
-0.838369
 30
0.0
 11
-6.31391
 21
-0.716921
 31
0.0
  0
LINE
  5
2A5
100
AcDbEntity
  8
0
  6
CONTINUOUS
 62
     7
100
AcDbLine
 10
-6.31391
 20
-0.569033
 30
0.0
 11
-6.31391
 21
-0.44759
 31
0.0
  0
LINE
  5
2A6
100
AcDbEntity
  8
0
  6
CONTINUOUS
 62
     7
100
AcDbLine
 10
-6.31391
 20
-0.309206
 30
0.0
 11
-6.31391
 21
-0.187771
 31
0.0
  0
LINE
  5
2A7
100
AcDbEntity
  8
0
  6
CONTINUOUS
 62
     7
100
AcDbLine
 10
-6.35599
 20
-0.200535
 30
0.0
 11
-6.35599
 21
-0.556261
 31
0.0
  0
LINE
  5
2A8
100
AcDbEntity
  8
0
  6
CONTINUOUS
 62
     7
100
AcDbLine
 10
-6.35599
 20
-0.666977
 30
0.0
 11
-6.35599
 21
-0.825604
 31
0.0
  0
LINE
  5
2A9
100
AcDbEntity
  8
0
  6
CONTINUOUS
 62
     7
100
AcDbLine
 10
-6.39806
 20
-0.796513
 30
0.0
 11
-6.39806
 21
-0.666977
 31
0.0
  0
LINE
  5
2AA
100
AcDbEntity
  8
0
  6
CONTINUOUS
 62
     7
100
AcDbLine
 10
-6.39806
 20
-0.527168
 30
0.0
 11
-6.39806
 21
-0.229628
 31
0.0
  0
LINE
  5
2AB
100
AcDbEntity
  8
0
  6
CONTINUOUS
 62
     7
100
AcDbLine
 10
-6.44014
 20
-0.302929
 30
0.0
 11
-6.44014
 21
-0.453829
 31
0.0
  0
LINE
  5
2AC
100
AcDbEntity
  8
0
  6
CONTINUOUS
 62
     7
100
AcDbLine
 10
-6.44014
 20
-0.673849
 30
0.0
 11
-6.44014
 21
-0.723171
 31
0.0
  0
ENDBLK
  5
2AE
100
AcDbEntity
  8
0
100
AcDbBlockEnd
  0
BLOCK
  5
32F
100
AcDbEntity
  8
0
100
AcDbBlockBegin
  2
M_PFN_100
 70
     0
 10
0.0
 20
0.0
 30
0.0
  3
M_PFN_100
  1

  0
SOLID
  5
330
100
AcDbEntity
  8
0
  6
BYBLOCK
 62
     0
100
AcDbTrace
 10
-0.068898
 20
0.016265
 30
0.0
 11
-0.068898
 21
-0.016265
 31
0.0
 12
0.0
 22
0.0
 32
0.0
 13
0.0
 23
0.0
 33
0.0
  0
ENDBLK
  5
79B
100
AcDbEntity
  8
0
100
AcDbBlockEnd
  0
BLOCK
  5
34C
100
AcDbEntity
  8
0
100
AcDbBlockBegin
  2
M_PFN_101
 70
     0
 10
0.0
 20
0.0
 30
0.0
  3
M_PFN_101
  1

  0
SOLID
  5
34D
100
AcDbEntity
  8
0
  6
BYBLOCK
 62
     0
100
AcDbTrace
 10
0.068898
 20
0.016265
 30
0.0
 11
0.068898
 21
-0.016265
 31
0.0
 12
0.0
 22
0.0
 32
0.0
 13
0.0
 23
0.0
 33
0.0
  0
ENDBLK
  5
79D
100
AcDbEntity
  8
0
100
AcDbBlockEnd
  0
BLOCK
  5
495
100
AcDbEntity
  8
0
100
AcDbBlockBegin
  2
M_PFN_2
 70
     0
 10
0.0
 20
0.0
 30
0.0
  3
M_PFN_2
  1

  0
POINT
  5
496
100
AcDbEntity
  8
0
  6
BYBLOCK
 62
     0
100
AcDbPoint
 10
0.0
 20
0.0
 30
0.0
  0
ENDBLK
  5
795
100
AcDbEntity
  8
0
100
AcDbBlockEnd
  0
ENDSEC
  0
SECTION
  2
ENTITIES
  0
TEXT
  5
2B7
100
AcDbEntity
  8
TEXT1
100
AcDbText
 10
61.848695
 20
-7.956816
 30
0.0
 40
1.28
  1
NOTES:
 41
1.017741
  7
M_STANDARD
 11
61.848695
 21
-7.316816
 31
0.0
100
AcDbText
 73
     2
  0
TEXT
  5
2B8
100
AcDbEntity
  8
TEXT1
100
AcDbText
 10
61.848695
 20
-17.556816
 30
0.0
 40
1.28
  1
SURFACE MOUNT, CONVERTIBLE TO SEMI-FLUSH WITH FIELD INSTALLED KIT.
 41
0.909219
  7
M_STANDARD
 11
61.848695
 21
-16.916816
 31
0.0
100
AcDbText
 73
     2
  0
TEXT
  5
2B9
100
AcDbEntity
  8
TEXT1
100
AcDbText
 10
61.848695
 20
-15.156816
 30
0.0
 40
1.28
  1
RING-TYPE DEVICE SUPPLIED WITH 4-JAW METER SOCKET, 5TH JAW KIT AVAILABLE.
 41
0.908324
  7
M_STANDARD
 11
61.848695
 21
-14.516816
 31
0.0
100
AcDbText
 73
     2
  0
TEXT
  5
2BA
100
AcDbEntity
  8
TEXT1
100
AcDbText
 10
61.848695
 20
-12.756816
 30
0.0
 40
1.28
  1
UL LISTED - FILE E-6294. SUITABLE ONLY FOR USE AS SERVICE EQUIPMENT.  SUITABLE FOR OH/UG SERVICE.
 41
0.906245
  7
M_STANDARD
 11
61.848695
 21
-12.116816
 31
0.0
100
AcDbText
 73
     2
  0
TEXT
  5
2BB
100
AcDbEntity
  8
TEXT1
100
AcDbText
 10
61.848695
 20
-22.356816
 30
0.0
 40
1.28
  1
LOAD PHASE LUGS ARE SUPPLIED AS A PART OF THE CIRCUIT BREAKER (TENANT SERVICE DISCONNECT).
 41
0.906735
  7
M_STANDARD
 11
61.848695
 21
-21.716816
 31
0.0
100
AcDbText
 73
     2
  0
TEXT
  5
2BC
100
AcDbEntity
  8
TEXT1
100
AcDbText
 10
61.848695
 20
-19.956816
 30
0.0
 40
1.28
  1
MECHANICAL LUGS FACTORY INSTALLED, LUG LANDING PADS AVAILABLE.
 41
0.909823
  7
M_STANDARD
 11
61.848695
 21
-19.316816
 31
0.0
100
AcDbText
 73
     2
  0
TEXT
  5
2BD
100
AcDbEntity
  8
TEXT1
100
AcDbText
 10
61.848695
 20
-10.356816
 30
0.0
 40
1.28
  1
FINISH - UL COMPONENT RECOGNIZED GRAY BAKED POWDER COAT PAINT OVER CLEANED PHOSPHATIZED STEEL.
 41
0.906446
  7
M_STANDARD
 11
61.848695
 21
-9.716816
 31
0.0
100
AcDbText
 73
     2
  0
TEXT
  5
2C7
100
AcDbEntity
  8
TEXT1
100
AcDbText
 10
61.422455
 20
-24.776816
 30
0.0
 40
1.32
  1
SHORT CIRCUIT CURRENT RATING OF METER CENTER IS EQUAL TO THE RATING OF THE LOWEST INSTALLED 
 41
0.899994
  7
M_STANDARD
 11
61.422455
 21
-24.116816
 31
0.0
100
AcDbText
 73
     2
  0
TEXT
  5
2C8
100
AcDbEntity
  8
TEXT1
100
AcDbText
 10
61.422455
 20
-29.576816
 30
0.0
 40
1.32
  1
LUGS LARGER THAN 600 KCMIL REQUIRE USE OF LUG LANDING PADS (ORDER CATALOG NUMBER MMSK2 SEPARATELY).
 41
0.906117
  7
M_STANDARD
 11
61.422455
 21
-28.916816
 31
0.0
100
AcDbText
 73
     2
  0
TEXT
  5
2C9
100
AcDbEntity
  8
TEXT1
100
AcDbText
 10
61.422455
 20
-31.976816
 30
0.0
 40
1.32
  1
WIRE BENDING SPACE PER NEC TABLE 373-6
 41
0.899965
  7
M_STANDARD
 11
61.422455
 21
-31.316816
 31
0.0
100
AcDbText
 73
     2
  0
TEXT
  5
2CA
100
AcDbEntity
  8
TEXT1
100
AcDbText
 10
61.422455
 20
-27.176816
 30
0.0
 40
1.32
  1
TENANT SERVICE DISCONNECT.
 41
0.923918
  7
M_STANDARD
 11
61.422455
 21
-26.516816
 31
0.0
100
AcDbText
 73
     2
  0
TEXT
  5
2CB
100
AcDbEntity
  8
TEXT1
100
AcDbText
 10
233.818331
 20
6.072103
 30
0.0
 40
1.32
  1
RATING
 41
0.898447
  7
M_STANDARD
 72
     1
 11
236.811443
 21
6.732103
 31
0.0
100
AcDbText
 73
     2
  0
TEXT
  5
2CC
100
AcDbEntity
  8
TEXT1
100
AcDbText
 10
223.192266
 20
8.602102
 30
0.0
 40
1.32
  1
BYPASS
 41
0.898447
  7
M_STANDARD
 72
     1
 11
226.524221
 21
9.262102
 31
0.0
100
AcDbText
 73
     2
  0
TEXT
  5
2CD
100
AcDbEntity
  8
TEXT1
100
AcDbText
 10
214.096113
 20
8.602102
 30
0.0
 40
1.32
  1
JAWS
 41
0.896304
  7
M_STANDARD
 72
     1
 11
216.236999
 21
9.262102
 31
0.0
100
AcDbText
 73
     2
  0
TEXT
  5
2CE
100
AcDbEntity
  8
TEXT1
100
AcDbText
 10
201.927058
 20
8.602102
 30
0.0
 40
1.32
  1
SOCKETS
 41
0.898877
  7
M_STANDARD
 72
     1
 11
205.740865
 21
9.262102
 31
0.0
100
AcDbText
 73
     2
  0
TEXT
  5
2CF
100
AcDbEntity
  8
TEXT1
100
AcDbText
 10
190.926479
 20
8.602102
 30
0.0
 40
1.32
  1
COVER
 41
0.897713
  7
M_STANDARD
 72
     1
 11
193.635007
 21
9.262102
 31
0.0
100
AcDbText
 73
     2
  0
TEXT
  5
2D0
100
AcDbEntity
  8
TEXT1
100
AcDbText
 10
234.895914
 20
10.252103
 30
0.0
 40
1.32
  1
MAIN
 41
0.896304
  7
M_STANDARD
 72
     1
 11
236.811443
 21
10.912103
 31
0.0
100
AcDbText
 73
     2
  0
TEXT
  5
2D1
100
AcDbEntity
  8
TEXT1
100
AcDbText
 10
222.625663
 20
12.782102
 30
0.0
 40
1.32
  1
FACTORY
 41
0.898877
  7
M_STANDARD
 72
     1
 11
226.524221
 21
13.442102
 31
0.0
100
AcDbText
 73
     2
  0
TEXT
  5
2D2
100
AcDbEntity
  8
TEXT1
100
AcDbText
 10
214.577603
 20
12.802102
 30
0.0
 40
1.28
  1
NO.
 41
1.183673
  7
M_STANDARD
 72
     1
 11
216.236999
 21
13.442102
 31
0.0
100
AcDbText
 73
     2
  0
TEXT
  5
2D3
100
AcDbEntity
  8
TEXT1
100
AcDbText
 10
202.69128
 20
12.782102
 30
0.0
 40
1.32
  1
NO. OF
 41
0.898447
  7
M_STANDARD
 72
     1
 11
205.740865
 21
13.442102
 31
0.0
100
AcDbText
 73
     2
  0
TEXT
  5
2D4
100
AcDbEntity
  8
TEXT1
100
AcDbText
 10
190.982906
 20
12.782102
 30
0.0
 40
1.32
  1
METER
 41
0.897713
  7
M_STANDARD
 72
     1
 11
193.635007
 21
13.442102
 31
0.0
100
AcDbText
 73
     2
  0
TEXT
  5
2D5
100
AcDbEntity
  8
TEXT1
100
AcDbText
 10
244.805871
 20
9.207103
 30
0.0
 40
1.32
  1
CATALOG
 41
0.898877
  7
M_STANDARD
 72
     1
 11
248.676179
 21
9.867103
 31
0.0
100
AcDbText
 73
     2
  0
TEXT
  5
2D6
100
AcDbEntity
  8
TEXT1
100
AcDbText
 10
264.214729
 20
6.67535
 30
0.0
 40
1.32
  1
PHASE AND
 41
0.899335
  7
M_STANDARD
 72
     1
 11
269.330661
 21
7.33535
 31
0.0
100
AcDbText
 73
     2
  0
TEXT
  5
2D7
100
AcDbEntity
  8
TEXT1
100
AcDbText
 10
244.738615
 20
16.795347
 30
0.0
 40
1.32
  1
120/240VAC, 1  3 WIRE OR
 41
0.899911
  7
M_STANDARD
 72
     1
 11
257.465925
 21
17.455347
 31
0.0
100
AcDbText
 73
     2
  0
TEXT
  5
2D8
100
AcDbEntity
  8
TEXT1
100
AcDbText
 10
259.828175
 20
11.735348
 30
0.0
 40
1.32
  1
LINE LUG WIRE SIZES
 41
0.899857
  7
M_STANDARD
 72
     1
 11
269.330661
 21
12.395348
 31
0.0
100
AcDbText
 73
     2
  0
TEXT
  5
2D9
100
AcDbEntity
  8
TEXT1
100
AcDbText
 10
235.211608
 20
8.162103
 30
0.0
 40
1.32
  1
BUS
 41
0.89305
  7
M_STANDARD
 72
     1
 11
236.811443
 21
8.822103
 31
0.0
100
AcDbText
 73
     2
  0
TEXT
  5
2DA
100
AcDbEntity
  8
TEXT1
100
AcDbText
 10
221.999766
 20
10.692102
 30
0.0
 40
1.32
  1
INSTALLED
 41
0.916942
  7
M_STANDARD
 72
     1
 11
226.524221
 21
11.352102
 31
0.0
100
AcDbText
 73
     2
  0
TEXT
  5
2DB
100
AcDbEntity
  8
TEXT1
100
AcDbText
 10
215.266224
 20
10.692102
 30
0.0
 40
1.32
  1
OF
 41
0.882523
  7
M_STANDARD
 72
     1
 11
216.236999
 21
11.352102
 31
0.0
100
AcDbText
 73
     2
  0
TEXT
  5
2DC
100
AcDbEntity
  8
TEXT1
100
AcDbText
 10
203.088765
 20
10.692102
 30
0.0
 40
1.32
  1
METER
 41
0.897713
  7
M_STANDARD
 72
     1
 11
205.740865
 21
11.352102
 31
0.0
100
AcDbText
 73
     2
  0
TEXT
  5
2DD
100
AcDbEntity
  8
TEXT1
100
AcDbText
 10
190.331289
 20
10.692102
 30
0.0
 40
1.32
  1
SOCKET
 41
0.898447
  7
M_STANDARD
 72
     1
 11
193.635007
 21
11.352102
 31
0.0
100
AcDbText
 73
     2
  0
TEXT
  5
2DE
100
AcDbEntity
  8
TEXT1
100
AcDbText
 10
245.231277
 20
7.117103
 30
0.0
 40
1.32
  1
NUMBER
 41
0.898447
  7
M_STANDARD
 72
     1
 11
248.676179
 21
7.777103
 31
0.0
100
AcDbText
 73
     2
  0
TEXT
  5
2DF
100
AcDbEntity
  8
TEXT1
100
AcDbText
 10
265.488603
 20
4.58535
 30
0.0
 40
1.32
  1
NEUTRAL
 41
0.898877
  7
M_STANDARD
 72
     1
 11
269.330661
 21
5.24535
 31
0.0
100
AcDbText
 73
     2
  0
TEXT
  5
2E0
100
AcDbEntity
  8
TEXT1
100
AcDbText
 10
235.449637
 20
14.705347
 30
0.0
 40
1.32
  1
208Y/240VAC, 1  3 WIRE (5TH JAW REQUIRED)
 41
0.907407
  7
M_STANDARD
 72
     1
 11
257.465925
 21
15.365347
 31
0.0
100
AcDbText
 73
     2
  0
TEXT
  5
2E1
100
AcDbEntity
  8
TEXT1
100
AcDbText
 10
263.464882
 20
9.645348
 30
0.0
 40
1.32
  1
(AWG/KCMIL)
 41
0.928549
  7
M_STANDARD
 72
     1
 11
269.330661
 21
10.305348
 31
0.0
100
AcDbText
 73
     2
  0
TEXT
  5
2E2
100
AcDbEntity
  8
TEXT1
100
AcDbText
 10
235.269304
 20
1.394861
 30
0.0
 40
1.32
  1
400
 41
0.951579
  7
M_STANDARD
 72
     1
 11
236.884269
 21
2.054861
 31
0.0
100
AcDbText
 73
     2
  0
TEXT
  5
2E3
100
AcDbEntity
  8
TEXT1
100
AcDbText
 10
235.269304
 20
-15.677574
 30
0.0
 40
1.32
  1
400
 41
0.951579
  7
M_STANDARD
 72
     1
 11
236.884269
 21
-15.017574
 31
0.0
100
AcDbText
 73
     2
  0
TEXT
  5
2E4
100
AcDbEntity
  8
TEXT1
100
AcDbText
 10
235.269304
 20
-12.263087
 30
0.0
 40
1.32
  1
400
 41
0.951579
  7
M_STANDARD
 72
     1
 11
236.884269
 21
-11.603087
 31
0.0
100
AcDbText
 73
     2
  0
TEXT
  5
2E5
100
AcDbEntity
  8
TEXT1
100
AcDbText
 10
235.269304
 20
-8.8486
 30
0.0
 40
1.32
  1
400
 41
0.951579
  7
M_STANDARD
 72
     1
 11
236.884269
 21
-8.1886
 31
0.0
100
AcDbText
 73
     2
  0
TEXT
  5
2E6
100
AcDbEntity
  8
TEXT1
100
AcDbText
 10
235.269304
 20
-5.434113
 30
0.0
 40
1.32
  1
400
 41
0.951579
  7
M_STANDARD
 72
     1
 11
236.884269
 21
-4.774113
 31
0.0
100
AcDbText
 73
     2
  0
TEXT
  5
2E7
100
AcDbEntity
  8
TEXT1
100
AcDbText
 10
235.269304
 20
-2.019626
 30
0.0
 40
1.32
  1
400
 41
0.951579
  7
M_STANDARD
 72
     1
 11
236.884269
 21
-1.359626
 31
0.0
100
AcDbText
 73
     2
  0
TEXT
  5
2E8
100
AcDbEntity
  8
TEXT1
100
AcDbText
 10
224.371652
 20
1.394861
 30
0.0
 40
1.32
  1
NONE
 41
0.896304
  7
M_STANDARD
 72
     1
 11
226.597047
 21
2.054861
 31
0.0
100
AcDbText
 73
     2
  0
TEXT
  5
2E9
100
AcDbEntity
  8
TEXT1
100
AcDbText
 10
224.371652
 20
-15.677574
 30
0.0
 40
1.32
  1
HORN
 41
0.896304
  7
M_STANDARD
 72
     1
 11
226.597047
 21
-15.017574
 31
0.0
100
AcDbText
 73
     2
  0
TEXT
  5
2EA
100
AcDbEntity
  8
TEXT1
100
AcDbText
 10
224.371652
 20
-12.263087
 30
0.0
 40
1.32
  1
NONE
 41
0.896304
  7
M_STANDARD
 72
     1
 11
226.597047
 21
-11.603087
 31
0.0
100
AcDbText
 73
     2
  0
TEXT
  5
2EB
100
AcDbEntity
  8
TEXT1
100
AcDbText
 10
224.371652
 20
-8.8486
 30
0.0
 40
1.32
  1
HORN
 41
0.896304
  7
M_STANDARD
 72
     1
 11
226.597047
 21
-8.1886
 31
0.0
100
AcDbText
 73
     2
  0
TEXT
  5
2EC
100
AcDbEntity
  8
TEXT1
100
AcDbText
 10
224.371652
 20
-5.434113
 30
0.0
 40
1.32
  1
NONE
 41
0.896304
  7
M_STANDARD
 72
     1
 11
226.597047
 21
-4.774113
 31
0.0
100
AcDbText
 73
     2
  0
TEXT
  5
2ED
100
AcDbEntity
  8
TEXT1
100
AcDbText
 10
224.371652
 20
-2.019626
 30
0.0
 40
1.32
  1
NONE
 41
0.896304
  7
M_STANDARD
 72
     1
 11
226.597047
 21
-1.359626
 31
0.0
100
AcDbText
 73
     2
  0
TEXT
  5
2EE
100
AcDbEntity
  8
TEXT1
100
AcDbText
 10
215.932682
 20
1.394861
 30
0.0
 40
1.32
  1
4
 41
0.8
  7
M_STANDARD
 72
     1
 11
216.309825
 21
2.054861
 31
0.0
100
AcDbText
 73
     2
  0
TEXT
  5
2EF
100
AcDbEntity
  8
TEXT1
100
AcDbText
 10
215.957825
 20
-15.677574
 30
0.0
 40
1.32
  1
5
 41
0.8
  7
M_STANDARD
 72
     1
 11
216.309825
 21
-15.017574
 31
0.0
100
AcDbText
 73
     2
  0
TEXT
  5
2F0
100
AcDbEntity
  8
TEXT1
100
AcDbText
 10
215.957825
 20
-12.263087
 30
0.0
 40
1.32
  1
5
 41
0.8
  7
M_STANDARD
 72
     1
 11
216.309825
 21
-11.603087
 31
0.0
100
AcDbText
 73
     2
  0
TEXT
  5
2F1
100
AcDbEntity
  8
TEXT1
100
AcDbText
 10
215.957825
 20
-8.8486
 30
0.0
 40
1.32
  1
5
 41
0.8
  7
M_STANDARD
 72
     1
 11
216.309825
 21
-8.1886
 31
0.0
100
AcDbText
 73
     2
  0
TEXT
  5
2F2
100
AcDbEntity
  8
TEXT1
100
AcDbText
 10
215.957825
 20
-5.434113
 30
0.0
 40
1.32
  1
5
 41
0.8
  7
M_STANDARD
 72
     1
 11
216.309825
 21
-4.774113
 31
0.0
100
AcDbText
 73
     2
  0
TEXT
  5
2F3
100
AcDbEntity
  8
TEXT1
100
AcDbText
 10
215.932682
 20
-2.019626
 30
0.0
 40
1.32
  1
4
 41
0.8
  7
M_STANDARD
 72
     1
 11
216.309825
 21
-1.359626
 31
0.0
100
AcDbText
 73
     2
  0
TEXT
  5
2F4
100
AcDbEntity
  8
TEXT1
100
AcDbText
 10
205.388865
 20
1.394861
 30
0.0
 40
1.32
  1
2
 41
0.8
  7
M_STANDARD
 72
     1
 11
205.740865
 21
2.054861
 31
0.0
100
AcDbText
 73
     2
  0
TEXT
  5
2F5
100
AcDbEntity
  8
TEXT1
100
AcDbText
 10
205.388865
 20
-15.677574
 30
0.0
 40
1.32
  1
3
 41
0.8
  7
M_STANDARD
 72
     1
 11
205.740865
 21
-15.017574
 31
0.0
100
AcDbText
 73
     2
  0
TEXT
  5
2F6
100
AcDbEntity
  8
TEXT1
100
AcDbText
 10
205.388865
 20
-12.263087
 30
0.0
 40
1.32
  1
3
 41
0.8
  7
M_STANDARD
 72
     1
 11
205.740865
 21
-11.603087
 31
0.0
100
AcDbText
 73
     2
  0
TEXT
  5
2F7
100
AcDbEntity
  8
TEXT1
100
AcDbText
 10
205.388865
 20
-8.8486
 30
0.0
 40
1.32
  1
2
 41
0.8
  7
M_STANDARD
 72
     1
 11
205.740865
 21
-8.1886
 31
0.0
100
AcDbText
 73
     2
  0
TEXT
  5
2F8
100
AcDbEntity
  8
TEXT1
100
AcDbText
 10
205.388865
 20
-5.434113
 30
0.0
 40
1.32
  1
2
 41
0.8
  7
M_STANDARD
 72
     1
 11
205.740865
 21
-4.774113
 31
0.0
100
AcDbText
 73
     2
  0
TEXT
  5
2F9
100
AcDbEntity
  8
TEXT1
100
AcDbText
 10
205.388865
 20
-2.019626
 30
0.0
 40
1.32
  1
3
 41
0.8
  7
M_STANDARD
 72
     1
 11
205.740865
 21
-1.359626
 31
0.0
100
AcDbText
 73
     2
  0
TEXT
  5
2FA
100
AcDbEntity
  8
TEXT1
100
AcDbText
 10
188.829988
 20
1.394861
 30
0.0
 40
1.32
  1
RING-TYPE
 41
0.899335
  7
M_STANDARD
 72
     1
 11
193.635007
 21
2.054861
 31
0.0
100
AcDbText
 73
     2
  0
TEXT
  5
2FB
100
AcDbEntity
  8
TEXT1
100
AcDbText
 10
189.622226
 20
-15.677574
 30
0.0
 40
1.32
  1
RINGLESS
 41
0.899151
  7
M_STANDARD
 72
     1
 11
193.635007
 21
-15.017574
 31
0.0
100
AcDbText
 73
     2
  0
TEXT
  5
2FC
100
AcDbEntity
  8
TEXT1
100
AcDbText
 10
189.622226
 20
-12.263087
 30
0.0
 40
1.32
  1
RINGLESS
 41
0.899151
  7
M_STANDARD
 72
     1
 11
193.635007
 21
-11.603087
 31
0.0
100
AcDbText
 73
     2
  0
TEXT
  5
2FD
100
AcDbEntity
  8
TEXT1
100
AcDbText
 10
189.622226
 20
-8.8486
 30
0.0
 40
1.32
  1
RINGLESS
 41
0.899151
  7
M_STANDARD
 72
     1
 11
193.635007
 21
-8.1886
 31
0.0
100
AcDbText
 73
     2
  0
TEXT
  5
2FE
100
AcDbEntity
  8
TEXT1
100
AcDbText
 10
189.622226
 20
-5.434113
 30
0.0
 40
1.32
  1
RINGLESS
 41
0.899151
  7
M_STANDARD
 72
     1
 11
193.635007
 21
-4.774113
 31
0.0
100
AcDbText
 73
     2
  0
TEXT
  5
2FF
100
AcDbEntity
  8
TEXT1
100
AcDbText
 10
188.829988
 20
-2.019626
 30
0.0
 40
1.32
  1
RING-TYPE
 41
0.899335
  7
M_STANDARD
 72
     1
 11
193.635007
 21
-1.359626
 31
0.0
100
AcDbText
 73
     2
  0
TEXT
  5
300
100
AcDbEntity
  8
TEXT1
100
AcDbText
 10
243.910027
 20
1.394861
 30
0.0
 40
1.32
  1
MP42-200
 41
0.919093
  7
M_STANDARD
 72
     1
 11
248.676179
 21
2.054861
 31
0.0
100
AcDbText
 73
     2
  0
TEXT
  5
301
100
AcDbEntity
  8
TEXT1
100
AcDbText
 10
243.287179
 20
-15.677574
 30
0.0
 40
1.32
  1
MPH43-200
 41
0.916942
  7
M_STANDARD
 72
     1
 11
248.676179
 21
-15.017574
 31
0.0
100
AcDbText
 73
     2
  0
TEXT
  5
302
100
AcDbEntity
  8
TEXT1
100
AcDbText
 10
243.315997
 20
-12.263087
 30
0.0
 40
1.32
  1
MPR43-200
 41
0.916942
  7
M_STANDARD
 72
     1
 11
248.676179
 21
-11.603087
 31
0.0
100
AcDbText
 73
     2
  0
TEXT
  5
303
100
AcDbEntity
  8
TEXT1
100
AcDbText
 10
243.287179
 20
-8.8486
 30
0.0
 40
1.32
  1
MPH42-200
 41
0.916942
  7
M_STANDARD
 72
     1
 11
248.676179
 21
-8.1886
 31
0.0
100
AcDbText
 73
     2
  0
TEXT
  5
304
100
AcDbEntity
  8
TEXT1
100
AcDbText
 10
243.315997
 20
-5.434113
 30
0.0
 40
1.32
  1
MPR42-200
 41
0.916942
  7
M_STANDARD
 72
     1
 11
248.676179
 21
-4.774113
 31
0.0
100
AcDbText
 73
     2
  0
TEXT
  5
305
100
AcDbEntity
  8
TEXT1
100
AcDbText
 10
243.910027
 20
-2.019626
 30
0.0
 40
1.32
  1
MP43-200
 41
0.919093
  7
M_STANDARD
 72
     1
 11
248.676179
 21
-1.359626
 31
0.0
100
AcDbText
 73
     2
  0
TEXT
  5
306
100
AcDbEntity
  8
TEXT1
100
AcDbText
 10
99.292731
 20
22.520045
 30
0.0
 40
1.6
  1
A,B
 41
0.89305
  7
M_STANDARD
 72
     1
 11
100.857695
 21
23.320045
 31
0.0
100
AcDbText
 73
     2
  0
TEXT
  5
307
100
AcDbEntity
  8
TEXT1
100
AcDbText
 10
263.443014
 20
-9.3526
 30
0.0
 40
1.32
  1
(2) 1/0-250
 41
0.913825
  7
M_STANDARD
 72
     1
 11
269.330661
 21
-8.6926
 31
0.0
100
AcDbText
 73
     2
  0
TEXT
  5
308
100
AcDbEntity
  8
TEXT1
100
AcDbText
 10
258.706915
 20
16.690547
 30
0.0
 40
1.6
  1
Ø
 41
0.8
  7
M_STANDARD
 72
     1
 11
259.194534
 21
17.490547
 31
0.0
100
AcDbText
 73
     2
  0
TEXT
  5
309
100
AcDbEntity
  8
TEXT1
100
AcDbText
 10
249.849851
 20
14.598678
 30
0.0
 40
1.6
  1
Ø
 41
0.8
  7
M_STANDARD
 72
     1
 11
250.33747
 21
15.398678
 31
0.0
100
AcDbText
 73
     2
  0
TEXT
  5
30A
100
AcDbEntity
  8
TEXT1
100
AcDbText
 10
268.332149
 20
-7.141356
 30
0.0
 40
1.32
  1
OR
 41
0.882523
  7
M_STANDARD
 72
     1
 11
269.330661
 21
-6.481356
 31
0.0
100
AcDbText
 73
     2
  0
TEXT
  5
30B
100
AcDbEntity
  8
TEXT1
100
AcDbText
 10
57.192758
 20
118.665517
 30
0.0
 40
1.6
  1
(FOR UNDERGROUND SERVICE),
 41
0.9178
  7
M_STANDARD
 11
57.192758
 21
119.465517
 31
0.0
100
AcDbText
 73
     2
  0
TEXT
  5
30C
100
AcDbEntity
  8
TEXT1
100
AcDbText
 10
56.659958
 20
64.801172
 30
0.0
 40
1.6
  1
SOCKET COVERS:
 41
0.945843
  7
M_STANDARD
 11
56.659958
 21
65.601172
 31
0.0
100
AcDbText
 73
     2
  0
TEXT
  5
30D
100
AcDbEntity
  8
TEXT1
100
AcDbText
 10
56.659958
 20
77.985795
 30
0.0
 40
1.6
  1
USE WITH UTILITY
 41
0.899796
  7
M_STANDARD
 11
56.659958
 21
78.785795
 31
0.0
100
AcDbText
 73
     2
  0
TEXT
  5
30E
100
AcDbEntity
  8
TEXT1
100
AcDbText
 10
56.659958
 20
88.533494
 30
0.0
 40
1.6
  1
BREAKER DOORS
 41
0.899689
  7
M_STANDARD
 11
56.659958
 21
89.333494
 31
0.0
100
AcDbText
 73
     2
  0
TEXT
  5
30F
100
AcDbEntity
  8
TEXT1
100
AcDbText
 10
56.659958
 20
99.081193
 30
0.0
 40
1.6
  1
OMITTED ON
 41
0.954558
  7
M_STANDARD
 11
56.659958
 21
99.881193
 31
0.0
100
AcDbText
 73
     2
  0
TEXT
  5
310
100
AcDbEntity
  8
TEXT1
100
AcDbText
 10
116.131592
 20
83.073266
 30
0.0
 40
1.6
  1
PHASE
 41
0.897713
  7
M_STANDARD
 11
116.131592
 21
83.873266
 31
0.0
100
AcDbText
 73
     2
  0
TEXT
  5
311
100
AcDbEntity
  8
TEXT1
100
AcDbText
 10
128.738675
 20
82.345345
 30
0.0
 40
1.6
  1
NEUTRAL
 41
0.898877
  7
M_STANDARD
 11
128.738675
 21
83.145345
 31
0.0
100
AcDbText
 73
     2
  0
TEXT
  5
312
100
AcDbEntity
  8
TEXT1
100
AcDbText
 10
116.131592
 20
80.436342
 30
0.0
 40
1.6
  1
LUGS
 41
0.896304
  7
M_STANDARD
 11
116.131592
 21
81.236342
 31
0.0
100
AcDbText
 73
     2
  0
TEXT
  5
313
100
AcDbEntity
  8
TEXT1
100
AcDbText
 10
128.738675
 20
79.70842
 30
0.0
 40
1.6
  1
LUGS
 41
0.896304
  7
M_STANDARD
 11
128.738675
 21
80.50842
 31
0.0
100
AcDbText
 73
     2
  0
TEXT
  5
314
100
AcDbEntity
  8
TEXT1
100
AcDbText
 10
57.192758
 20
115.964281
 30
0.0
 40
1.6
  1
ORDER TYPE A-L HUB SEPARATELY
 41
0.899939
  7
M_STANDARD
 11
57.192758
 21
116.764281
 31
0.0
100
AcDbText
 73
     2
  0
TEXT
  5
315
100
AcDbEntity
  8
TEXT1
100
AcDbText
 10
56.659958
 20
62.164247
 30
0.0
 40
1.6
  1
RING TYPE (INCLUDES
 41
0.899857
  7
M_STANDARD
 11
56.659958
 21
62.964247
 31
0.0
100
AcDbText
 73
     2
  0
TEXT
  5
316
100
AcDbEntity
  8
TEXT1
100
AcDbText
 10
56.659958
 20
75.348871
 30
0.0
 40
1.6
  1
BARREL LOCK (RINGLESS
 41
0.899883
  7
M_STANDARD
 11
56.659958
 21
76.148871
 31
0.0
100
AcDbText
 73
     2
  0
TEXT
  5
317
100
AcDbEntity
  8
TEXT1
100
AcDbText
 10
56.659958
 20
85.89657
 30
0.0
 40
1.6
  1
(PADLOCKABLE)
 41
0.923987
  7
M_STANDARD
 11
56.659958
 21
86.69657
 31
0.0
100
AcDbText
 73
     2
  0
TEXT
  5
318
100
AcDbEntity
  8
TEXT1
100
AcDbText
 10
56.659958
 20
96.444268
 30
0.0
 40
1.6
  1
2-GANG UNIT
 41
0.954659
  7
M_STANDARD
 11
56.659958
 21
97.244268
 31
0.0
100
AcDbText
 73
     2
  0
TEXT
  5
319
100
AcDbEntity
  8
TEXT1
100
AcDbText
 10
57.192758
 20
113.335317
 30
0.0
 40
1.6
  1
(FOR OVERHEAD SERVICE)
 41
0.913951
  7
M_STANDARD
 11
57.192758
 21
114.135317
 31
0.0
100
AcDbText
 73
     2
  0
TEXT
  5
31A
100
AcDbEntity
  8
TEXT1
100
AcDbText
 10
56.659958
 20
59.527322
 30
0.0
 40
1.6
  1
SNAP TYPE ALUMINUM
 41
0.89984
  7
M_STANDARD
 11
56.659958
 21
60.327322
 31
0.0
100
AcDbText
 73
     2
  0
TEXT
  5
31B
100
AcDbEntity
  8
TEXT1
100
AcDbText
 10
56.659958
 20
72.711946
 30
0.0
 40
1.6
  1
DEVICES ONLY)
 41
0.923987
  7
M_STANDARD
 11
56.659958
 21
73.511946
 31
0.0
100
AcDbText
 73
     2
  0
TEXT
  5
31C
100
AcDbEntity
  8
TEXT1
100
AcDbText
 10
56.659958
 20
51.616548
 30
0.0
 40
1.6
  1
(SUPPLIED WITH
 41
0.899732
  7
M_STANDARD
 11
56.659958
 21
52.416548
 31
0.0
100
AcDbText
 73
     2
  0
TEXT
  5
31D
100
AcDbEntity
  8
TEXT1
100
AcDbText
 10
56.659958
 20
48.979623
 30
0.0
 40
1.6
  1
COVER SEALING
 41
0.899689
  7
M_STANDARD
 11
56.659958
 21
49.779623
 31
0.0
100
AcDbText
 73
     2
  0
TEXT
  5
31E
100
AcDbEntity
  8
TEXT1
100
AcDbText
 10
56.659958
 20
46.342699
 30
0.0
 40
1.6
  1
LATCHES)
 41
0.939939
  7
M_STANDARD
 11
56.659958
 21
47.142699
 31
0.0
100
AcDbText
 73
     2
  0
TEXT
  5
31F
100
AcDbEntity
  8
TEXT1
100
AcDbText
 10
56.659958
 20
54.253473
 30
0.0
 40
1.6
  1
RINGLESS STYLE
 41
0.899732
  7
M_STANDARD
 11
56.659958
 21
55.053473
 31
0.0
100
AcDbText
 73
     2
  0
TEXT
  5
320
100
AcDbEntity
  8
TEXT1
100
AcDbText
 10
56.659958
 20
56.890398
 30
0.0
 40
1.6
  1
SEALING RINGS) OR
 41
0.89982
  7
M_STANDARD
 11
56.659958
 21
57.690398
 31
0.0
100
AcDbText
 73
     2
  0
TEXT
  5
321
100
AcDbEntity
  8
TEXT1
100
AcDbText
 10
263.557895
 20
-4.930113
 30
0.0
 40
1.32
  1
(1) 1/0-600
 41
0.913825
  7
M_STANDARD
 72
     1
 11
269.330661
 21
-4.270113
 31
0.0
100
AcDbText
 73
     2
  0
TEXT
  5
322
100
AcDbEntity
  8
TEXT1
100
AcDbText
 10
57.192758
 20
121.238131
 30
0.0
 40
1.6
  1
SUPPLIED WITH ACPL CLOSING PLATE
 41
0.89995
  7
M_STANDARD
 11
57.192758
 21
122.038131
 31
0.0
100
AcDbText
 73
     2
  0
TEXT
  5
323
100
AcDbEntity
  8
TEXT1
100
AcDbText
 10
56.659958
 20
67.438096
 30
0.0
 40
1.6
  1
INDIVIDUAL METER
 41
0.909467
  7
M_STANDARD
 11
56.659958
 21
68.238096
 31
0.0
100
AcDbText
 73
     2
  0
TEXT
  5
324
100
AcDbEntity
  8
TEXT1
100
AcDbText
 10
56.659958
 20
80.62272
 30
0.0
 40
1.6
  1
COVER KNOCKOUT FOR
 41
0.89984
  7
M_STANDARD
 11
56.659958
 21
81.42272
 31
0.0
100
AcDbText
 73
     2
  0
TEXT
  5
325
100
AcDbEntity
  8
TEXT1
100
AcDbText
 10
56.659958
 20
91.170419
 30
0.0
 40
1.6
  1
TENANT CIRCUIT
 41
0.899732
  7
M_STANDARD
 11
56.659958
 21
91.970419
 31
0.0
100
AcDbText
 73
     2
  0
TEXT
  5
326
100
AcDbEntity
  8
TEXT1
100
AcDbText
 10
56.659958
 20
101.718118
 30
0.0
 40
1.6
  1
TOP POSITION
 41
0.954735
  7
M_STANDARD
 11
56.659958
 21
102.518118
 31
0.0
100
AcDbText
 73
     2
  0
TEXT
  5
327
100
AcDbEntity
  8
TEXT1
100
AcDbText
 10
116.131592
 20
85.710191
 30
0.0
 40
1.6
  1
LINE
 41
0.896304
  7
M_STANDARD
 11
116.131592
 21
86.510191
 31
0.0
100
AcDbText
 73
     2
  0
TEXT
  5
328
100
AcDbEntity
  8
TEXT1
100
AcDbText
 10
83.157148
 20
52.734378
 30
0.0
 40
1.6
  1
C,D,F
 41
0.897713
  7
M_STANDARD
 11
83.157148
 21
53.534378
 31
0.0
100
AcDbText
 73
     2
  0
TEXT
  5
329
100
AcDbEntity
  8
TEXT1
100
AcDbText
 10
128.738675
 20
84.98227
 30
0.0
 40
1.6
  1
LINE
 41
0.896304
  7
M_STANDARD
 11
128.738675
 21
85.78227
 31
0.0
100
AcDbText
 73
     2
  0
TEXT
  5
32A
100
AcDbEntity
  8
TEXT1
100
AcDbText
 10
297.862588
 20
21.659102
 30
0.0
 40
1.28
  1
MILLIMETERS
 41
0.899561
  7
M_STANDARD
 11
297.862588
 21
22.299102
 31
0.0
100
AcDbText
 73
     2
  0
TEXT
  5
32B
100
AcDbEntity
  8
TEXT1
100
AcDbText
 10
297.969148
 20
23.899102
 30
0.0
 40
1.6
  1
INCHES
 41
0.925574
  7
M_STANDARD
 11
297.969148
 21
24.699102
 31
0.0
100
AcDbText
 73
     2
  0
TEXT
  5
32C
100
AcDbEntity
  8
TEXT1
100
AcDbText
 10
279.123311
 20
23.057435
 30
0.0
 40
1.28
  1
DUAL DIMENSIONS:
 41
0.939768
  7
M_STANDARD
 11
279.123311
 21
23.697435
 31
0.0
100
AcDbText
 73
     2
  0
LWPOLYLINE
  5
32D
100
AcDbEntity
  8
TEXT1
100
AcDbPolyline
 90
        3
 70
   128
 43
0.0
 10
103.409748
 20
23.388999
 10
104.689742
 20
23.388999
 10
111.193045
 20
14.955517
  0
INSERT
  5
333
100
AcDbEntity
  8
TEXT1
100
AcDbBlockReference
  2
M_PFN_100
 10
111.193045
 20
14.955517
 30
0.0
 41
16.0
 42
16.0
 43
16.0
 50
307.636861
  0
HATCH
  5
335
100
AcDbEntity
  8
TEXT1
100
AcDbHatch
 10
0.0
 20
0.0
 30
0.0
210
0.0
220
0.0
230
1.0
  2
_U
 70
     0
 71
     0
 91
        1
 92
        0
 93
        3
 72
     1
 10
59.593282
 20
-23.185293
 11
58.793282
 21
-24.785293
 72
     1
 10
58.793282
 20
-24.785293
 11
60.393282
 21
-24.785293
 72
     1
 10
60.393282
 20
-24.785293
 11
59.593282
 21
-23.185293
 97
        0
 75
     0
 76
     0
 52
45.0
 41
0.0032
 77
     0
 78
     1
 53
45.0
 43
48.622467
 44
-40.116789
 45
-0.0022627416997971
 46
0.0022627416997968
 79
     0
 98
        1
 10
48.622467
 20
-40.116789
  0
HATCH
  5
336
100
AcDbEntity
  8
TEXT1
100
AcDbHatch
 10
0.0
 20
0.0
 30
0.0
210
0.0
220
0.0
230
1.0
  2
_U
 70
     0
 71
     0
 91
        1
 92
        0
 93
        4
 72
     1
 10
58.856081
 20
-22.50326
 11
60.136081
 21
-22.50326
 72
     1
 10
60.136081
 20
-22.50326
 11
60.136081
 21
-21.22326
 72
     1
 10
60.136081
 20
-21.22326
 11
58.856081
 21
-21.22326
 72
     1
 10
58.856081
 20
-21.22326
 11
58.856081
 21
-22.50326
 97
        0
 75
     0
 76
     0
 52
45.0
 41
0.00256
 77
     0
 78
     1
 53
45.0
 43
48.622467
 44
-40.116789
 45
-0.0018101933598377
 46
0.0018101933598375
 79
     0
 98
        1
 10
48.622467
 20
-40.116789
  0
LWPOLYLINE
  5
337
100
AcDbEntity
  8
TEXT1
100
AcDbPolyline
 90
        4
 70
   129
 43
0.0
 10
58.856081
 20
-22.50326
 10
60.136081
 20
-22.50326
 10
60.136081
 20
-21.22326
 10
58.856081
 20
-21.22326
  0
LWPOLYLINE
  5
338
100
AcDbEntity
  8
TEXT1
100
AcDbPolyline
 90
        3
 70
   129
 43
0.0
 10
59.593282
 20
-23.185293
 10
58.793282
 20
-24.785293
 10
60.393282
 20
-24.785293
  0
LINE
  5
339
100
AcDbEntity
  8
0
100
AcDbLine
 10
187.558221
 20
0.347617
 30
0.0
 11
256.073855
 21
0.347617
 31
0.0
  0
LINE
  5
33A
100
AcDbEntity
  8
0
100
AcDbLine
 10
187.558221
 20
-13.31033
 30
0.0
 11
256.073855
 21
-13.31033
 31
0.0
  0
LINE
  5
33B
100
AcDbEntity
  8
0
100
AcDbLine
 10
187.558221
 20
-9.895843
 30
0.0
 11
256.073855
 21
-9.895843
 31
0.0
  0
LINE
  5
33C
100
AcDbEntity
  8
0
100
AcDbLine
 10
187.558221
 20
-6.481356
 30
0.0
 11
256.073855
 21
-6.481356
 31
0.0
  0
LINE
  5
33D
100
AcDbEntity
  8
0
100
AcDbLine
 10
187.558221
 20
-3.066869
 30
0.0
 11
256.073855
 21
-3.066869
 31
0.0
  0
LWPOLYLINE
  5
33E
100
AcDbEntity
  8
0
100
AcDbPolyline
 90
        4
 70
   129
 43
0.0
 10
232.344383
 20
18.9421
 10
282.587466
 20
18.9421
 10
282.587466
 20
13.882101
 10
232.344383
 20
13.882101
  0
LWPOLYLINE
  5
33F
100
AcDbEntity
  8
0
100
AcDbPolyline
 90
        4
 70
   129
 43
0.0
 10
282.587466
 20
13.882101
 10
256.073855
 20
13.882101
 10
256.073855
 20
8.822103
 10
282.587466
 20
8.822103
  0
LWPOLYLINE
  5
340
100
AcDbEntity
  8
0
100
AcDbPolyline
 90
        4
 70
   129
 43
0.0
 10
199.711792
 20
-16.724817
 10
211.769939
 20
-16.724817
 10
211.769939
 20
18.9421
 10
199.711792
 20
18.9421
  0
LWPOLYLINE
  5
341
100
AcDbEntity
  8
0
100
AcDbPolyline
 90
        4
 70
   129
 43
0.0
 10
220.704059
 20
18.9421
 10
211.769939
 20
18.9421
 10
211.769939
 20
-16.724817
 10
220.704059
 20
-16.724817
  0
LWPOLYLINE
  5
342
100
AcDbEntity
  8
0
100
AcDbPolyline
 90
        4
 70
   129
 43
0.0
 10
232.344383
 20
18.9421
 10
220.704059
 20
18.9421
 10
220.704059
 20
-16.724817
 10
232.344383
 20
-16.724817
  0
LWPOLYLINE
  5
343
100
AcDbEntity
  8
0
100
AcDbPolyline
 90
        4
 70
   129
 43
0.0
 10
241.278503
 20
13.882101
 10
232.344383
 20
13.882101
 10
232.344383
 20
-16.724817
 10
241.278503
 20
-16.724817
  0
LWPOLYLINE
  5
344
100
AcDbEntity
  8
0
100
AcDbPolyline
 90
        4
 70
   129
 43
0.0
 10
256.073855
 20
13.882101
 10
241.278503
 20
13.882101
 10
241.278503
 20
-16.724817
 10
256.073855
 20
-16.724817
  0
LWPOLYLINE
  5
345
100
AcDbEntity
  8
0
100
AcDbPolyline
 90
        4
 70
   129
 43
0.0
 10
282.587466
 20
8.822103
 10
256.073855
 20
8.822103
 10
256.073855
 20
-16.724817
 10
282.587466
 20
-16.724817
  0
LWPOLYLINE
  5
346
100
AcDbEntity
  8
0
100
AcDbPolyline
 90
        4
 70
   129
 43
0.0
 10
199.711792
 20
18.9421
 10
187.558221
 20
18.9421
 10
187.558221
 20
-16.724817
 10
199.711792
 20
-16.724817
  0
LWPOLYLINE
  5
347
100
AcDbEntity
  8
TEXT1
100
AcDbPolyline
 90
        3
 70
   128
 43
0.0
 10
170.226263
 20
45.672731
 10
171.378263
 20
45.672731
 10
185.435987
 20
43.33177
  0
INSERT
  5
349
100
AcDbEntity
  8
TEXT1
100
AcDbBlockReference
  2
M_PFN_100
 10
185.435987
 20
43.33177
 30
0.0
 41
16.0
 42
16.0
 43
16.0
 50
350.54558
  0
LWPOLYLINE
  5
34A
100
AcDbEntity
  8
TEXT1
100
AcDbPolyline
 90
        3
 70
   128
 43
0.0
 10
113.088498
 20
110.544568
 10
110.04081
 20
122.160869
 10
103.914231
 20
122.160869
  0
INSERT
  5
350
100
AcDbEntity
  8
TEXT1
100
AcDbBlockReference
  2
M_PFN_101
 10
113.088498
 20
110.544568
 30
0.0
 41
16.0
 42
16.0
 43
16.0
 50
104.700965
  0
LWPOLYLINE
  5
351
100
AcDbEntity
  8
TEXT1
100
AcDbPolyline
 90
        3
 70
   128
 43
0.0
 10
75.328989
 20
102.591909
 10
78.460299
 20
102.591909
 10
106.020787
 20
79.134543
  0
INSERT
  5
353
100
AcDbEntity
  8
TEXT1
100
AcDbBlockReference
  2
M_PFN_100
 10
106.020787
 20
79.134543
 30
0.0
 41
16.0
 42
16.0
 43
16.0
 50
319.598129
  0
LWPOLYLINE
  5
354
100
AcDbEntity
  8
TEXT1
100
AcDbPolyline
 90
        3
 70
   128
 43
0.0
 10
80.001895
 20
68.285314
 10
83.433657
 20
68.285314
 10
106.017884
 20
61.131107
  0
INSERT
  5
356
100
AcDbEntity
  8
TEXT1
100
AcDbBlockReference
  2
M_PFN_100
 10
106.017884
 20
61.131107
 30
0.0
 41
16.0
 42
16.0
 43
16.0
 50
342.422896
  0
LWPOLYLINE
  5
357
100
AcDbEntity
  8
TEXT1
100
AcDbPolyline
 90
        3
 70
   128
 43
0.0
 10
82.937046
 20
81.42272
 10
85.782198
 20
81.42272
 10
104.840521
 20
73.155521
  0
INSERT
  5
359
100
AcDbEntity
  8
TEXT1
100
AcDbBlockReference
  2
M_PFN_100
 10
104.840521
 20
73.155521
 30
0.0
 41
16.0
 42
16.0
 43
16.0
 50
336.549562
  0
LWPOLYLINE
  5
35A
100
AcDbEntity
  8
TEXT1
100
AcDbPolyline
 90
        3
 70
   128
 43
0.0
 10
77.254777
 20
91.970419
 10
79.631121
 20
91.970419
 10
100.393275
 20
78.854046
  0
INSERT
  5
35C
100
AcDbEntity
  8
TEXT1
100
AcDbBlockReference
  2
M_PFN_100
 10
100.393275
 20
78.854046
 30
0.0
 41
16.0
 42
16.0
 43
16.0
 50
327.717582
  0
LWPOLYLINE
  5
35D
100
AcDbEntity
  8
TEXT1
100
AcDbPolyline
 90
        3
 70
   128
 43
0.0
 10
105.057443
 20
18.599354
 10
106.209443
 20
18.599354
 10
107.986662
 20
15.524911
  0
INSERT
  5
35F
100
AcDbEntity
  8
TEXT1
100
AcDbBlockReference
  2
M_PFN_100
 10
107.986662
 20
15.524911
 30
0.0
 41
16.0
 42
16.0
 43
16.0
 50
300.030581
  0
TEXT
  5
360
100
AcDbEntity
  8
TEXT1
100
AcDbText
 10
156.790997
 20
36.992438
 30
0.0
 40
1.6
  1
ON RINGLESS
 41
0.899561
  7
M_STANDARD
 11
156.790997
 21
37.792438
 31
0.0
100
AcDbText
 73
     2
  0
TEXT
  5
361
100
AcDbEntity
  8
TEXT1
100
AcDbText
 10
156.790997
 20
34.355513
 30
0.0
 40
1.6
  1
DEVICE
 41
0.898447
  7
M_STANDARD
 11
156.790997
 21
35.155513
 31
0.0
100
AcDbText
 73
     2
  0
TEXT
  5
362
100
AcDbEntity
  8
TEXT1
100
AcDbText
 10
156.790997
 20
42.266287
 30
0.0
 40
1.6
  1
FACTORY
 41
0.898877
  7
M_STANDARD
 11
156.790997
 21
43.066287
 31
0.0
100
AcDbText
 73
     2
  0
TEXT
  5
363
100
AcDbEntity
  8
TEXT1
100
AcDbText
 10
156.790997
 20
39.629362
 30
0.0
 40
1.6
  1
INSTALLED
 41
0.916942
  7
M_STANDARD
 11
156.790997
 21
40.429362
 31
0.0
100
AcDbText
 73
     2
  0
TEXT
  5
364
100
AcDbEntity
  8
TEXT1
100
AcDbText
 10
156.790997
 20
44.903212
 30
0.0
 40
1.6
  1
FIFTH JAW
 41
0.899335
  7
M_STANDARD
 11
156.790997
 21
45.703212
 31
0.0
100
AcDbText
 73
     2
  0
TEXT
  5
365
100
AcDbEntity
  8
TEXT1
100
AcDbText
 10
97.478167
 20
17.527867
 30
0.0
 40
1.6
  1
C,D,F
 41
0.897713
  7
M_STANDARD
 11
97.478167
 21
18.327867
 31
0.0
100
AcDbText
 73
     2
  0
HATCH
  5
366
100
AcDbEntity
  8
OBJECT1
100
AcDbHatch
 10
0.0
 20
0.0
 30
0.0
210
0.0
220
0.0
230
1.0
  2
_U
 70
     0
 71
     0
 91
        1
 92
        0
 93
        1
 72
     2
 10
193.082872
 20
57.521814
 40
0.439836
 50
0.0
 51
359.999994
 73
     1
 97
        0
 75
     0
 76
     0
 52
45.0
 41
0.03
 77
     0
 78
     1
 53
45.0
 43
48.622467
 44
-40.116789
 45
-0.0212132034355975
 46
0.0212132034355953
 79
     0
 98
        1
 10
48.622467
 20
-40.116789
  0
HATCH
  5
367
100
AcDbEntity
  8
OBJECT1
100
AcDbHatch
 10
0.0
 20
0.0
 30
0.0
210
0.0
220
0.0
230
1.0
  2
_U
 70
     0
 71
     0
 91
        1
 92
        0
 93
        1
 72
     2
 10
193.082872
 20
70.015985
 40
0.439836
 50
0.0
 51
359.999994
 73
     1
 97
        0
 75
     0
 76
     0
 52
45.0
 41
0.03
 77
     0
 78
     1
 53
45.0
 43
48.622467
 44
-40.116789
 45
-0.0212132034355975
 46
0.0212132034355953
 79
     0
 98
        1
 10
48.622467
 20
-40.116789
  0
HATCH
  5
368
100
AcDbEntity
  8
OBJECT1
100
AcDbHatch
 10
0.0
 20
0.0
 30
0.0
210
0.0
220
0.0
230
1.0
  2
_U
 70
     0
 71
     0
 91
        1
 92
        0
 93
        1
 72
     2
 10
183.561418
 20
57.521814
 40
0.439836
 50
0.0
 51
359.999994
 73
     1
 97
        0
 75
     0
 76
     0
 52
-45.0
 41
0.03
 77
     0
 78
     1
 53
315.0
 43
48.622467
 44
-40.116789
 45
0.0212132034355975
 46
0.0212132034355953
 79
     0
 98
        1
 10
48.622467
 20
-40.116789
  0
HATCH
  5
369
100
AcDbEntity
  8
OBJECT1
100
AcDbHatch
 10
0.0
 20
0.0
 30
0.0
210
0.0
220
0.0
230
1.0
  2
_U
 70
     0
 71
     0
 91
        1
 92
        0
 93
        1
 72
     2
 10
183.561418
 20
61.225223
 40
0.439836
 50
0.0
 51
359.999994
 73
     1
 97
        0
 75
     0
 76
     0
 52
-45.0
 41
0.03
 77
     0
 78
     1
 53
315.0
 43
48.622467
 44
-40.116789
 45
0.0212132034355975
 46
0.0212132034355953
 79
     0
 98
        1
 10
48.622467
 20
-40.116789
  0
LWPOLYLINE
  5
36A
100
AcDbEntity
  8
TEXT1
100
AcDbPolyline
 90
        3
 70
   128
 43
0.0
 10
128.73494
 20
27.178935
 10
127.58294
 20
27.178935
 10
123.205366
 20
17.675426
  0
INSERT
  5
36C
100
AcDbEntity
  8
TEXT1
100
AcDbBlockReference
  2
M_PFN_100
 10
123.205366
 20
17.675426
 30
0.0
 41
16.0
 42
16.0
 43
16.0
 50
245.267919
  0
LWPOLYLINE
  5
36D
100
AcDbEntity
  8
TEXT1
100
AcDbPolyline
 90
        3
 70
   128
 43
0.0
 10
115.124819
 20
86.697786
 10
113.972819
 20
86.697786
 10
114.165697
 20
80.049248
  0
INSERT
  5
36F
100
AcDbEntity
  8
TEXT1
100
AcDbBlockReference
  2
M_PFN_100
 10
114.165697
 20
80.049248
 30
0.0
 41
16.0
 42
16.0
 43
16.0
 50
271.661723
  0
LWPOLYLINE
  5
370
100
AcDbEntity
  8
TEXT1
100
AcDbPolyline
 90
        3
 70
   128
 43
0.0
 10
127.731901
 20
85.969864
 10
126.579901
 20
85.969864
 10
120.474348
 20
73.169248
  0
INSERT
  5
372
100
AcDbEntity
  8
TEXT1
100
AcDbBlockReference
  2
M_PFN_100
 10
120.474348
 20
73.169248
 30
0.0
 41
16.0
 42
16.0
 43
16.0
 50
244.500102
  0
LWPOLYLINE
  5
373
100
AcDbEntity
  8
TEXT1
100
AcDbPolyline
 90
        3
 70
   128
 43
0.0
 10
90.434419
 20
53.721973
 10
91.586419
 20
53.721973
 10
96.455226
 20
50.385307
  0
INSERT
  5
375
100
AcDbEntity
  8
TEXT1
100
AcDbBlockReference
  2
M_PFN_100
 10
96.455226
 20
50.385307
 30
0.0
 41
16.0
 42
16.0
 43
16.0
 50
325.576579
  0
LWPOLYLINE
  5
376
100
AcDbEntity
  8
TEXT1
100
AcDbPolyline
 90
        3
 70
   128
 43
0.0
 10
190.777454
 20
29.381179
 10
189.625454
 20
29.381179
 10
187.019578
 20
33.979825
  0
INSERT
  5
378
100
AcDbEntity
  8
TEXT1
100
AcDbBlockReference
  2
M_PFN_100
 10
187.019578
 20
33.979825
 30
0.0
 41
16.0
 42
16.0
 43
16.0
 50
119.538559
  0
LWPOLYLINE
  5
379
100
AcDbEntity
  8
TEXT1
100
AcDbPolyline
 90
        3
 70
   128
 43
0.0
 10
174.089333
 20
30.971417
 10
175.241333
 20
30.971417
 10
181.204804
 20
29.609661
  0
INSERT
  5
37B
100
AcDbEntity
  8
TEXT1
100
AcDbBlockReference
  2
M_PFN_100
 10
181.204804
 20
29.609661
 30
0.0
 41
16.0
 42
16.0
 43
16.0
 50
347.137085
  0
TEXT
  5
37C
100
AcDbEntity
  8
TEXT1
100
AcDbText
 10
174.731153
 20
64.018174
 30
0.0
 40
1.6
  1
Ø
 41
0.8
  7
M_STANDARD
 72
     1
 11
175.218772
 21
64.818174
 31
0.0
100
AcDbText
 73
     2
  0
TEXT
  5
37D
100
AcDbEntity
  8
TEXT1
100
AcDbText
 10
199.202704
 20
56.570934
 30
0.0
 40
1.6
  1
N
 41
0.8
  7
M_STANDARD
 72
     1
 11
199.629371
 21
57.370934
 31
0.0
100
AcDbText
 73
     2
  0
TEXT
  5
37E
100
AcDbEntity
  8
TEXT1
100
AcDbText
 10
197.450092
 20
62.435288
 30
0.0
 40
1.6
  1
Ø
 41
0.8
  7
M_STANDARD
 72
     1
 11
197.937711
 21
63.235288
 31
0.0
100
AcDbText
 73
     2
  0
TEXT
  5
37F
100
AcDbEntity
  8
TEXT1
100
AcDbText
 10
195.925411
 20
71.22605
 30
0.0
 40
1.6
  1
Ø
 41
0.8
  7
M_STANDARD
 72
     1
 11
196.41303
 21
72.02605
 31
0.0
100
AcDbText
 73
     2
  0
TEXT
  5
380
100
AcDbEntity
  8
TEXT1
100
AcDbText
 10
174.731153
 20
39.029833
 30
0.0
 40
1.6
  1
Ø
 41
0.8
  7
M_STANDARD
 72
     1
 11
175.218772
 21
39.829833
 31
0.0
100
AcDbText
 73
     2
  0
TEXT
  5
381
100
AcDbEntity
  8
TEXT1
100
AcDbText
 10
174.731153
 20
51.524003
 30
0.0
 40
1.6
  1
Ø
 41
0.8
  7
M_STANDARD
 72
     1
 11
175.218772
 21
52.324003
 31
0.0
100
AcDbText
 73
     2
  0
TEXT
  5
382
100
AcDbEntity
  8
TEXT1
100
AcDbText
 10
174.731153
 20
61.101635
 30
0.0
 40
1.6
  1
Ø
 41
0.8
  7
M_STANDARD
 72
     1
 11
175.218772
 21
61.901635
 31
0.0
100
AcDbText
 73
     2
  0
TEXT
  5
383
100
AcDbEntity
  8
TEXT1
100
AcDbText
 10
174.731153
 20
36.113294
 30
0.0
 40
1.6
  1
Ø
 41
0.8
  7
M_STANDARD
 72
     1
 11
175.218772
 21
36.913294
 31
0.0
100
AcDbText
 73
     2
  0
TEXT
  5
384
100
AcDbEntity
  8
TEXT1
100
AcDbText
 10
174.731153
 20
48.607464
 30
0.0
 40
1.6
  1
Ø
 41
0.8
  7
M_STANDARD
 72
     1
 11
175.218772
 21
49.407464
 31
0.0
100
AcDbText
 73
     2
  0
TEXT
  5
385
100
AcDbEntity
  8
TEXT1
100
AcDbText
 10
191.784228
 20
23.119735
 30
0.0
 40
1.6
  1
TERMINALS
 41
0.899335
  7
M_STANDARD
 11
191.784228
 21
23.919735
 31
0.0
100
AcDbText
 73
     2
  0
TEXT
  5
386
100
AcDbEntity
  8
TEXT1
100
AcDbText
 10
129.741713
 20
23.554415
 30
0.0
 40
1.6
  1
G,H,I,J
 41
0.898877
  7
M_STANDARD
 11
129.741713
 21
24.354415
 31
0.0
100
AcDbText
 73
     2
  0
TEXT
  5
387
100
AcDbEntity
  8
TEXT1
100
AcDbText
 10
191.784228
 20
25.756659
 30
0.0
 40
1.6
  1
GROUNDING
 41
0.899335
  7
M_STANDARD
 11
191.784228
 21
26.556659
 31
0.0
100
AcDbText
 73
     2
  0
TEXT
  5
388
100
AcDbEntity
  8
TEXT1
100
AcDbText
 10
164.21158
 20
29.928953
 30
0.0
 40
1.6
  1
NEUTRAL
 41
0.898877
  7
M_STANDARD
 11
164.21158
 21
30.728953
 31
0.0
100
AcDbText
 73
     2
  0
TEXT
  5
389
100
AcDbEntity
  8
TEXT1
100
AcDbText
 10
194.050469
 20
54.55903
 30
0.0
 40
1.28
  1
LINE
 41
0.896304
  7
M_STANDARD
 11
194.050469
 21
55.19903
 31
0.0
100
AcDbText
 73
     2
  0
TEXT
  5
38A
100
AcDbEntity
  8
TEXT1
100
AcDbText
 10
164.21158
 20
27.292029
 30
0.0
 40
1.6
  1
AND SERVICE
 41
0.899561
  7
M_STANDARD
 11
164.21158
 21
28.092029
 31
0.0
100
AcDbText
 73
     2
  0
TEXT
  5
38B
100
AcDbEntity
  8
TEXT1
100
AcDbText
 10
164.21158
 20
24.655104
 30
0.0
 40
1.6
  1
GROUND
 41
0.898447
  7
M_STANDARD
 11
164.21158
 21
25.455104
 31
0.0
100
AcDbText
 73
     2
  0
TEXT
  5
38C
100
AcDbEntity
  8
TEXT1
100
AcDbText
 10
129.741713
 20
26.19134
 30
0.0
 40
1.6
  1
A-L HUB PROVISION
 41
0.89982
  7
M_STANDARD
 11
129.741713
 21
26.99134
 31
0.0
100
AcDbText
 73
     2
  0
TEXT
  5
38D
100
AcDbEntity
  8
TEXT1
100
AcDbText
 10
191.784228
 20
28.393584
 30
0.0
 40
1.6
  1
EQUIPMENT
 41
0.899335
  7
M_STANDARD
 11
191.784228
 21
29.193584
 31
0.0
100
AcDbText
 73
     2
  0
LWPOLYLINE
  5
38E
100
AcDbEntity
  8
OBJECT1
100
AcDbPolyline
 90
        4
 70
   129
 43
0.0
 10
189.618145
 20
66.192237
 10
190.482145
 20
66.192237
 10
190.482145
 20
67.056237
 10
189.618145
 20
67.056237
  0
LWPOLYLINE
  5
38F
100
AcDbEntity
  8
OBJECT1
100
AcDbPolyline
 90
        4
 70
   129
 43
0.0
 10
189.618145
 20
53.698067
 10
190.482145
 20
53.698067
 10
190.482145
 20
54.562067
 10
189.618145
 20
54.562067
  0
LWPOLYLINE
  5
390
100
AcDbEntity
  8
OBJECT1
100
AcDbPolyline
 90
        4
 70
   129
 43
0.0
 10
189.618145
 20
41.203896
 10
190.482145
 20
41.203896
 10
190.482145
 20
42.067896
 10
189.618145
 20
42.067896
  0
LWPOLYLINE
  5
391
100
AcDbEntity
  8
OBJECT1
100
AcDbPolyline
 90
        4
 70
   129
 43
0.0
 10
189.618145
 20
70.447985
 10
190.482145
 20
70.447985
 10
190.482145
 20
69.583985
 10
189.618145
 20
69.583985
  0
LWPOLYLINE
  5
392
100
AcDbEntity
  8
OBJECT1
100
AcDbPolyline
 90
        4
 70
   129
 43
0.0
 10
189.618145
 20
57.953814
 10
190.482145
 20
57.953814
 10
190.482145
 20
57.089814
 10
189.618145
 20
57.089814
  0
LWPOLYLINE
  5
393
100
AcDbEntity
  8
OBJECT1
100
AcDbPolyline
 90
        4
 70
   129
 43
0.0
 10
189.618145
 20
45.459644
 10
190.482145
 20
45.459644
 10
190.482145
 20
44.595644
 10
189.618145
 20
44.595644
  0
LWPOLYLINE
  5
394
100
AcDbEntity
  8
OBJECT1
100
AcDbPolyline
 90
        4
 70
   129
 43
0.0
 10
186.162145
 20
66.192237
 10
187.026145
 20
66.192237
 10
187.026145
 20
67.056237
 10
186.162145
 20
67.056237
  0
LWPOLYLINE
  5
395
100
AcDbEntity
  8
OBJECT1
100
AcDbPolyline
 90
        4
 70
   129
 43
0.0
 10
186.162145
 20
53.698067
 10
187.026145
 20
53.698067
 10
187.026145
 20
54.562067
 10
186.162145
 20
54.562067
  0
LWPOLYLINE
  5
396
100
AcDbEntity
  8
OBJECT1
100
AcDbPolyline
 90
        4
 70
   129
 43
0.0
 10
186.162145
 20
41.203896
 10
187.026145
 20
41.203896
 10
187.026145
 20
42.067896
 10
186.162145
 20
42.067896
  0
LWPOLYLINE
  5
397
100
AcDbEntity
  8
OBJECT1
100
AcDbPolyline
 90
        4
 70
   129
 43
0.0
 10
185.435987
 20
67.888111
 10
186.299987
 20
67.888111
 10
186.299987
 20
68.752111
 10
185.435987
 20
68.752111
  0
LWPOLYLINE
  5
398
100
AcDbEntity
  8
OBJECT1
100
AcDbPolyline
 90
        4
 70
   129
 43
0.0
 10
185.435987
 20
55.39394
 10
186.299987
 20
55.39394
 10
186.299987
 20
56.25794
 10
185.435987
 20
56.25794
  0
LWPOLYLINE
  5
399
100
AcDbEntity
  8
OBJECT1
100
AcDbPolyline
 90
        4
 70
   129
 43
0.0
 10
185.435987
 20
42.89977
 10
186.299987
 20
42.89977
 10
186.299987
 20
43.76377
 10
185.435987
 20
43.76377
  0
LWPOLYLINE
  5
39A
100
AcDbEntity
  8
OBJECT1
100
AcDbPolyline
 90
        4
 70
   129
 43
0.0
 10
186.162145
 20
70.447985
 10
187.026145
 20
70.447985
 10
187.026145
 20
69.583985
 10
186.162145
 20
69.583985
  0
LWPOLYLINE
  5
39B
100
AcDbEntity
  8
OBJECT1
100
AcDbPolyline
 90
        4
 70
   129
 43
0.0
 10
186.162145
 20
57.953814
 10
187.026145
 20
57.953814
 10
187.026145
 20
57.089814
 10
186.162145
 20
57.089814
  0
LWPOLYLINE
  5
39C
100
AcDbEntity
  8
OBJECT1
100
AcDbPolyline
 90
        4
 70
   129
 43
0.0
 10
186.162145
 20
45.459644
 10
187.026145
 20
45.459644
 10
187.026145
 20
44.595644
 10
186.162145
 20
44.595644
  0
CIRCLE
  5
39D
100
AcDbEntity
  8
OBJECT1
100
AcDbCircle
 10
188.322145
 20
68.320111
 30
0.0
 40
3.24
  0
CIRCLE
  5
39E
100
AcDbEntity
  8
OBJECT1
100
AcDbCircle
 10
188.322145
 20
55.82594
 30
0.0
 40
3.24
  0
CIRCLE
  5
39F
100
AcDbEntity
  8
OBJECT1
100
AcDbCircle
 10
188.322145
 20
43.33177
 30
0.0
 40
3.24
  0
ARC
  5
3A0
100
AcDbEntity
  8
OBJECT1
100
AcDbCircle
 10
179.02488
 20
64.754448
 30
0.0
 40
0.879672
100
AcDbArc
 50
90.0
 51
180.0
  0
ARC
  5
3A1
100
AcDbEntity
  8
OBJECT1
100
AcDbCircle
 10
179.02488
 20
64.754448
 30
0.0
 40
0.879672
100
AcDbArc
 50
0.0
 51
90.0
  0
ARC
  5
3A2
100
AcDbEntity
  8
OBJECT1
100
AcDbCircle
 10
186.594145
 20
64.214448
 30
0.0
 40
0.879672
100
AcDbArc
 50
90.0
 51
180.0
  0
ARC
  5
3A3
100
AcDbEntity
  8
OBJECT1
100
AcDbCircle
 10
186.594145
 20
64.214448
 30
0.0
 40
0.879672
100
AcDbArc
 50
0.0
 51
90.0
  0
ARC
  5
3A4
100
AcDbEntity
  8
OBJECT1
100
AcDbCircle
 10
186.594145
 20
39.226107
 30
0.0
 40
0.879672
100
AcDbArc
 50
90.0
 51
180.0
  0
ARC
  5
3A5
100
AcDbEntity
  8
OBJECT1
100
AcDbCircle
 10
186.594145
 20
39.226107
 30
0.0
 40
0.879672
100
AcDbArc
 50
0.0
 51
90.0
  0
ARC
  5
3A6
100
AcDbEntity
  8
OBJECT1
100
AcDbCircle
 10
186.594145
 20
51.720277
 30
0.0
 40
0.879672
100
AcDbArc
 50
90.0
 51
180.0
  0
ARC
  5
3A7
100
AcDbEntity
  8
OBJECT1
100
AcDbCircle
 10
186.594145
 20
51.720277
 30
0.0
 40
0.879672
100
AcDbArc
 50
0.0
 51
90.0
  0
ARC
  5
3A8
100
AcDbEntity
  8
OBJECT1
100
AcDbCircle
 10
183.561418
 20
64.214448
 30
0.0
 40
0.879672
100
AcDbArc
 50
90.0
 51
180.0
  0
ARC
  5
3A9
100
AcDbEntity
  8
OBJECT1
100
AcDbCircle
 10
183.561418
 20
64.214448
 30
0.0
 40
0.879672
100
AcDbArc
 50
0.0
 51
90.0
  0
ARC
  5
3AA
100
AcDbEntity
  8
OBJECT1
100
AcDbCircle
 10
183.561418
 20
51.720277
 30
0.0
 40
0.879672
100
AcDbArc
 50
90.0
 51
180.0
  0
ARC
  5
3AB
100
AcDbEntity
  8
OBJECT1
100
AcDbCircle
 10
183.561418
 20
51.720277
 30
0.0
 40
0.879672
100
AcDbArc
 50
0.0
 51
90.0
  0
ARC
  5
3AC
100
AcDbEntity
  8
OBJECT1
100
AcDbCircle
 10
179.02488
 20
52.260277
 30
0.0
 40
0.879672
100
AcDbArc
 50
90.0
 51
180.0
  0
ARC
  5
3AD
100
AcDbEntity
  8
OBJECT1
100
AcDbCircle
 10
179.02488
 20
52.260277
 30
0.0
 40
0.879672
100
AcDbArc
 50
0.0
 51
90.0
  0
ARC
  5
3AE
100
AcDbEntity
  8
OBJECT1
100
AcDbCircle
 10
179.02488
 20
39.766107
 30
0.0
 40
0.879672
100
AcDbArc
 50
90.0
 51
180.0
  0
ARC
  5
3AF
100
AcDbEntity
  8
OBJECT1
100
AcDbCircle
 10
179.02488
 20
39.766107
 30
0.0
 40
0.879672
100
AcDbArc
 50
0.0
 51
90.0
  0
ARC
  5
3B0
100
AcDbEntity
  8
OBJECT1
100
AcDbCircle
 10
179.02488
 20
62.794056
 30
0.0
 40
0.879672
100
AcDbArc
 50
90.0
 51
180.0
  0
ARC
  5
3B1
100
AcDbEntity
  8
OBJECT1
100
AcDbCircle
 10
179.02488
 20
62.794056
 30
0.0
 40
0.879672
100
AcDbArc
 50
0.0
 51
90.0
  0
ARC
  5
3B2
100
AcDbEntity
  8
OBJECT1
100
AcDbCircle
 10
183.561418
 20
62.254056
 30
0.0
 40
0.879672
100
AcDbArc
 50
90.0
 51
180.0
  0
ARC
  5
3B3
100
AcDbEntity
  8
OBJECT1
100
AcDbCircle
 10
183.561418
 20
62.254056
 30
0.0
 40
0.879672
100
AcDbArc
 50
0.0
 51
90.0
  0
ARC
  5
3B4
100
AcDbEntity
  8
OBJECT1
100
AcDbCircle
 10
183.561418
 20
49.759885
 30
0.0
 40
0.879672
100
AcDbArc
 50
90.0
 51
180.0
  0
ARC
  5
3B5
100
AcDbEntity
  8
OBJECT1
100
AcDbCircle
 10
183.561418
 20
49.759885
 30
0.0
 40
0.879672
100
AcDbArc
 50
0.0
 51
90.0
  0
ARC
  5
3B6
100
AcDbEntity
  8
OBJECT1
100
AcDbCircle
 10
179.02488
 20
50.299885
 30
0.0
 40
0.879672
100
AcDbArc
 50
90.0
 51
180.0
  0
ARC
  5
3B7
100
AcDbEntity
  8
OBJECT1
100
AcDbCircle
 10
179.02488
 20
50.299885
 30
0.0
 40
0.879672
100
AcDbArc
 50
0.0
 51
90.0
  0
ARC
  5
3B8
100
AcDbEntity
  8
OBJECT1
100
AcDbCircle
 10
179.02488
 20
37.805715
 30
0.0
 40
0.879672
100
AcDbArc
 50
90.0
 51
180.0
  0
ARC
  5
3B9
100
AcDbEntity
  8
OBJECT1
100
AcDbCircle
 10
179.02488
 20
37.805715
 30
0.0
 40
0.879672
100
AcDbArc
 50
0.0
 51
90.0
  0
LWPOLYLINE
  5
3BA
100
AcDbEntity
  8
OBJECT1
100
AcDbPolyline
 90
        3
 70
   128
 43
0.0
 10
190.050145
 20
66.192237
 10
190.050145
 20
64.214448
 10
187.473818
 20
64.214448
  0
LWPOLYLINE
  5
3BB
100
AcDbEntity
  8
OBJECT1
100
AcDbPolyline
 90
        3
 70
   128
 43
0.0
 10
190.050145
 20
41.203896
 10
190.050145
 20
39.226107
 10
187.473818
 20
39.226107
  0
LWPOLYLINE
  5
3BC
100
AcDbEntity
  8
OBJECT1
100
AcDbPolyline
 90
        3
 70
   128
 43
0.0
 10
190.050145
 20
53.698067
 10
190.050145
 20
51.720277
 10
187.473818
 20
51.720277
  0
LWPOLYLINE
  5
3BD
100
AcDbEntity
  8
OBJECT1
100
AcDbPolyline
 90
        3
 70
   128
 43
0.0
 10
186.594145
 20
66.192237
 10
186.594145
 20
62.254056
 10
184.441091
 20
62.254056
  0
LWPOLYLINE
  5
3BE
100
AcDbEntity
  8
OBJECT1
100
AcDbPolyline
 90
        3
 70
   128
 43
0.0
 10
186.594145
 20
41.203896
 10
186.594145
 20
37.265715
 10
179.904553
 20
37.265715
  0
LWPOLYLINE
  5
3BF
100
AcDbEntity
  8
OBJECT1
100
AcDbPolyline
 90
        3
 70
   128
 43
0.0
 10
186.594145
 20
53.698067
 10
186.594145
 20
49.759885
 10
184.441091
 20
49.759885
  0
LINE
  5
3C0
100
AcDbEntity
  8
OBJECT1
100
AcDbLine
 10
185.714473
 20
64.214448
 30
0.0
 11
184.441091
 21
64.214448
 31
0.0
  0
LINE
  5
3C1
100
AcDbEntity
  8
OBJECT1
100
AcDbLine
 10
185.714473
 20
39.226107
 30
0.0
 11
179.904553
 21
39.226107
 31
0.0
  0
LINE
  5
3C2
100
AcDbEntity
  8
OBJECT1
100
AcDbLine
 10
185.714473
 20
51.720277
 30
0.0
 11
184.441091
 21
51.720277
 31
0.0
  0
LINE
  5
3C3
100
AcDbEntity
  8
OBJECT1
100
AcDbLine
 10
179.904553
 20
64.214448
 30
0.0
 11
182.681746
 21
64.214448
 31
0.0
  0
LINE
  5
3C4
100
AcDbEntity
  8
OBJECT1
100
AcDbLine
 10
179.904553
 20
51.720277
 30
0.0
 11
182.681746
 21
51.720277
 31
0.0
  0
LINE
  5
3C5
100
AcDbEntity
  8
OBJECT1
100
AcDbLine
 10
179.904553
 20
62.254056
 30
0.0
 11
182.681746
 21
62.254056
 31
0.0
  0
LINE
  5
3C6
100
AcDbEntity
  8
OBJECT1
100
AcDbLine
 10
179.904553
 20
49.759885
 30
0.0
 11
182.681746
 21
49.759885
 31
0.0
  0
LINE
  5
3C7
100
AcDbEntity
  8
OBJECT1
100
AcDbLine
 10
178.145208
 20
64.214448
 30
0.0
 11
177.103577
 21
64.214448
 31
0.0
  0
LINE
  5
3C8
100
AcDbEntity
  8
OBJECT1
100
AcDbLine
 10
178.145208
 20
51.720277
 30
0.0
 11
177.103577
 21
51.720277
 31
0.0
  0
LINE
  5
3C9
100
AcDbEntity
  8
OBJECT1
100
AcDbLine
 10
178.145208
 20
39.226107
 30
0.0
 11
177.103577
 21
39.226107
 31
0.0
  0
LINE
  5
3CA
100
AcDbEntity
  8
OBJECT1
100
AcDbLine
 10
178.145208
 20
62.254056
 30
0.0
 11
177.103577
 21
62.254056
 31
0.0
  0
LINE
  5
3CB
100
AcDbEntity
  8
OBJECT1
100
AcDbLine
 10
178.145208
 20
49.759885
 30
0.0
 11
177.103577
 21
49.759885
 31
0.0
  0
LINE
  5
3CC
100
AcDbEntity
  8
OBJECT1
100
AcDbLine
 10
178.145208
 20
37.265715
 30
0.0
 11
177.103577
 21
37.265715
 31
0.0
  0
CIRCLE
  5
3CD
100
AcDbEntity
  8
OBJECT1
100
AcDbCircle
 10
193.082872
 20
57.521814
 30
0.0
 40
0.439836
  0
CIRCLE
  5
3CE
100
AcDbEntity
  8
OBJECT1
100
AcDbCircle
 10
193.082872
 20
70.015985
 30
0.0
 40
0.439836
  0
CIRCLE
  5
3CF
100
AcDbEntity
  8
OBJECT1
100
AcDbCircle
 10
183.561418
 20
57.521814
 30
0.0
 40
0.439836
  0
CIRCLE
  5
3D0
100
AcDbEntity
  8
OBJECT1
100
AcDbCircle
 10
183.561418
 20
61.225223
 30
0.0
 40
0.439836
  0
CIRCLE
  5
3D1
100
AcDbEntity
  8
OBJECT1
100
AcDbCircle
 10
176.7737
 20
64.214448
 30
0.0
 40
0.329877
  0
CIRCLE
  5
3D2
100
AcDbEntity
  8
OBJECT1
100
AcDbCircle
 10
176.7737
 20
51.720277
 30
0.0
 40
0.329877
  0
CIRCLE
  5
3D3
100
AcDbEntity
  8
OBJECT1
100
AcDbCircle
 10
196.170359
 20
70.015985
 30
0.0
 40
0.329877
  0
CIRCLE
  5
3D4
100
AcDbEntity
  8
OBJECT1
100
AcDbCircle
 10
199.219722
 20
59.380999
 30
0.0
 40
0.329877
  0
CIRCLE
  5
3D5
100
AcDbEntity
  8
OBJECT1
100
AcDbCircle
 10
197.695041
 20
61.225223
 30
0.0
 40
0.329877
  0
CIRCLE
  5
3D6
100
AcDbEntity
  8
OBJECT1
100
AcDbCircle
 10
196.830113
 20
70.015985
 30
0.0
 40
0.329877
  0
CIRCLE
  5
3D7
100
AcDbEntity
  8
OBJECT1
100
AcDbCircle
 10
199.879477
 20
59.380999
 30
0.0
 40
0.329877
  0
CIRCLE
  5
3D8
100
AcDbEntity
  8
OBJECT1
100
AcDbCircle
 10
198.354795
 20
61.225223
 30
0.0
 40
0.329877
  0
CIRCLE
  5
3D9
100
AcDbEntity
  8
OBJECT1
100
AcDbCircle
 10
176.7737
 20
39.226107
 30
0.0
 40
0.329877
  0
CIRCLE
  5
3DA
100
AcDbEntity
  8
OBJECT1
100
AcDbCircle
 10
176.7737
 20
62.254056
 30
0.0
 40
0.329877
  0
CIRCLE
  5
3DB
100
AcDbEntity
  8
OBJECT1
100
AcDbCircle
 10
176.7737
 20
49.759885
 30
0.0
 40
0.329877
  0
CIRCLE
  5
3DC
100
AcDbEntity
  8
OBJECT1
100
AcDbCircle
 10
176.7737
 20
37.265715
 30
0.0
 40
0.329877
  0
CIRCLE
  5
3DD
100
AcDbEntity
  8
OBJECT1
100
AcDbCircle
 10
188.639578
 20
34.519825
 30
0.0
 40
0.329877
  0
CIRCLE
  5
3DE
100
AcDbEntity
  8
OBJECT1
100
AcDbCircle
 10
181.744804
 20
32.634663
 30
0.0
 40
0.329877
  0
LWPOLYLINE
  5
3DF
100
AcDbEntity
  8
OBJECT1
100
AcDbPolyline
 90
        4
 70
   129
 43
0.0
 10
184.319578
 20
35.059825
 10
189.719578
 20
35.059825
 10
189.719578
 20
33.979825
 10
184.319578
 20
33.979825
  0
CIRCLE
  5
3E0
100
AcDbEntity
  8
OBJECT1
100
AcDbCircle
 10
187.559578
 20
34.519825
 30
0.0
 40
0.329877
  0
CIRCLE
  5
3E1
100
AcDbEntity
  8
OBJECT1
100
AcDbCircle
 10
181.744804
 20
31.554663
 30
0.0
 40
0.329877
  0
CIRCLE
  5
3E2
100
AcDbEntity
  8
OBJECT1
100
AcDbCircle
 10
186.479578
 20
34.519825
 30
0.0
 40
0.329877
  0
CIRCLE
  5
3E3
100
AcDbEntity
  8
OBJECT1
100
AcDbCircle
 10
181.744804
 20
30.474663
 30
0.0
 40
0.329877
  0
CIRCLE
  5
3E4
100
AcDbEntity
  8
OBJECT1
100
AcDbCircle
 10
181.744804
 20
28.314663
 30
0.0
 40
0.329877
  0
CIRCLE
  5
3E5
100
AcDbEntity
  8
OBJECT1
100
AcDbCircle
 10
185.399578
 20
34.519825
 30
0.0
 40
0.329877
  0
CIRCLE
  5
3E6
100
AcDbEntity
  8
OBJECT1
100
AcDbCircle
 10
181.744804
 20
29.394663
 30
0.0
 40
0.329877
  0
CIRCLE
  5
3E7
100
AcDbEntity
  8
OBJECT1
100
AcDbCircle
 10
181.744804
 20
27.234663
 30
0.0
 40
0.329877
  0
LWPOLYLINE
  5
3E8
100
AcDbEntity
  8
OBJECT1
100
AcDbPolyline
 90
        4
 70
   128
 43
0.0
 10
186.162145
 20
70.015985
 10
183.561418
 20
70.015985
 10
183.561418
 20
45.027644
 10
186.162145
 20
45.027644
  0
LINE
  5
3E9
100
AcDbEntity
  8
OBJECT1
100
AcDbLine
 10
190.482145
 20
70.015985
 30
0.0
 11
195.840482
 21
70.015985
 31
0.0
  0
LINE
  5
3EA
100
AcDbEntity
  8
OBJECT1
100
AcDbLine
 10
197.159991
 20
70.015985
 30
0.0
 11
197.539604
 21
70.015985
 31
0.0
  0
LINE
  5
3EB
100
AcDbEntity
  8
OBJECT1
100
AcDbLine
 10
200.209354
 20
59.380999
 30
0.0
 11
200.714663
 21
59.380999
 31
0.0
  0
LWPOLYLINE
  5
3EC
100
AcDbEntity
  8
OBJECT1
100
AcDbPolyline
 90
        3
 70
   128
 43
0.0
 10
181.744804
 20
33.714663
 10
181.744804
 20
59.380999
 10
198.889845
 20
59.380999
  0
LINE
  5
3ED
100
AcDbEntity
  8
OBJECT1
100
AcDbLine
 10
183.561418
 20
61.225223
 30
0.0
 11
197.365164
 21
61.225223
 31
0.0
  0
LINE
  5
3EE
100
AcDbEntity
  8
OBJECT1
100
AcDbLine
 10
198.684672
 20
61.225223
 30
0.0
 11
199.083639
 21
61.225223
 31
0.0
  0
LINE
  5
3EF
100
AcDbEntity
  8
OBJECT1
100
AcDbLine
 10
179.02488
 20
65.63412
 30
0.0
 11
179.02488
 21
63.673728
 31
0.0
  0
LINE
  5
3F0
100
AcDbEntity
  8
OBJECT1
100
AcDbLine
 10
179.02488
 20
53.13995
 30
0.0
 11
179.02488
 21
51.179557
 31
0.0
  0
LINE
  5
3F1
100
AcDbEntity
  8
OBJECT1
100
AcDbLine
 10
179.02488
 20
40.645779
 30
0.0
 11
179.02488
 21
38.685387
 31
0.0
  0
LWPOLYLINE
  5
3F2
100
AcDbEntity
  8
OBJECT1
100
AcDbPolyline
 90
        3
 70
   128
 43
0.0
 10
190.482145
 20
45.027644
 10
193.082872
 20
45.027644
 10
193.082872
 20
70.015985
  0
LINE
  5
3F3
100
AcDbEntity
  8
OBJECT1
100
AcDbLine
 10
190.482145
 20
57.521814
 30
0.0
 11
193.082872
 21
57.521814
 31
0.0
  0
LINE
  5
3F4
100
AcDbEntity
  8
OBJECT1
100
AcDbLine
 10
186.162145
 20
57.521814
 30
0.0
 11
183.561418
 21
57.521814
 31
0.0
  0
LWPOLYLINE
  5
3F5
100
AcDbEntity
  8
OBJECT1
100
AcDbPolyline
 90
        4
 70
   129
 43
0.0
 10
181.204804
 20
33.714663
 10
182.284804
 20
33.714663
 10
182.284804
 20
26.154663
 10
181.204804
 20
26.154663
  0
HATCH
  5
3F6
100
AcDbEntity
  8
TEXT1
100
AcDbHatch
 10
0.0
 20
0.0
 30
0.0
210
0.0
220
0.0
230
1.0
  2
_U
 70
     0
 71
     0
 91
        1
 92
        0
 93
        4
 72
     1
 10
290.834742
 20
8.047448
 11
292.274742
 21
8.047448
 72
     1
 10
292.274742
 20
8.047448
 11
292.274742
 21
9.487448
 72
     1
 10
292.274742
 20
9.487448
 11
290.834742
 21
9.487448
 72
     1
 10
290.834742
 20
9.487448
 11
290.834742
 21
8.047448
 97
        0
 75
     0
 76
     0
 52
45.0
 41
0.00288
 77
     0
 78
     1
 53
45.0
 43
48.622467
 44
-40.116789
 45
-0.0020364675298174
 46
0.0020364675298172
 79
     0
 98
        1
 10
48.622467
 20
-40.116789
  0
LWPOLYLINE
  5
3F7
100
AcDbEntity
  8
0
100
AcDbPolyline
 90
        4
 70
   129
 43
0.0
 10
282.587466
 20
13.882101
 10
293.174436
 20
13.882101
 10
293.174436
 20
-16.724817
 10
282.587466
 20
-16.724817
  0
TEXT
  5
3F8
100
AcDbEntity
  8
TEXT1
100
AcDbText
 10
290.248851
 20
16.795347
 30
0.0
 40
1.32
  1
LOAD LUG WIRE
 41
0.899689
  7
M_STANDARD
 72
     1
 11
297.204728
 21
17.455347
 31
0.0
100
AcDbText
 73
     2
  0
TEXT
  5
3F9
100
AcDbEntity
  8
TEXT1
100
AcDbText
 10
287.145033
 20
14.705347
 30
0.0
 40
1.32
  1
 SIZES (AWG-KCMIL)
 41
0.917138
  7
M_STANDARD
 72
     1
 11
297.204728
 21
15.365347
 31
0.0
100
AcDbText
 73
     2
  0
TEXT
  5
3FA
100
AcDbEntity
  8
TEXT1
100
AcDbText
 10
283.869391
 20
8.162103
 30
0.0
 40
1.32
  1
PHASE  
 41
0.898877
  7
M_STANDARD
 72
     1
 11
287.880951
 21
8.822103
 31
0.0
100
AcDbText
 73
     2
  0
TEXT
  5
3FB
100
AcDbEntity
  8
TEXT1
100
AcDbText
 10
294.891618
 20
9.207103
 30
0.0
 40
1.32
  1
SERVICE GROUND
 41
0.899732
  7
M_STANDARD
 72
     1
 11
302.498213
 21
9.867103
 31
0.0
100
AcDbText
 73
     2
  0
TEXT
  5
3FC
100
AcDbEntity
  8
TEXT1
100
AcDbText
 10
298.175829
 20
11.297103
 30
0.0
 40
1.32
  1
NEUTRAL,
 41
0.961751
  7
M_STANDARD
 72
     1
 11
302.498213
 21
11.957103
 31
0.0
100
AcDbText
 73
     2
  0
TEXT
  5
3FD
100
AcDbEntity
  8
TEXT1
100
AcDbText
 10
296.39148
 20
7.117103
 30
0.0
 40
1.32
  1
& EQUIPMENT
 41
0.899561
  7
M_STANDARD
 72
     1
 11
302.498213
 21
7.777103
 31
0.0
100
AcDbText
 73
     2
  0
TEXT
  5
3FE
100
AcDbEntity
  8
TEXT1
100
AcDbText
 10
297.580135
 20
5.027103
 30
0.0
 40
1.32
  1
GROUNDING
 41
0.899335
  7
M_STANDARD
 72
     1
 11
302.498213
 21
5.687103
 31
0.0
100
AcDbText
 73
     2
  0
LWPOLYLINE
  5
3FF
100
AcDbEntity
  8
0
100
AcDbPolyline
 90
        4
 70
   129
 43
0.0
 10
311.821991
 20
13.882101
 10
293.174436
 20
13.882101
 10
293.174436
 20
-16.724817
 10
311.821991
 20
-16.724817
  0
TEXT
  5
400
100
AcDbEntity
  8
TEXT1
100
AcDbText
 10
286.02176
 20
-9.3526
 30
0.0
 40
1.32
  1
WIRE
 41
0.896304
  7
M_STANDARD
 72
     1
 11
287.880951
 21
-8.6926
 31
0.0
100
AcDbText
 73
     2
  0
TEXT
  5
401
100
AcDbEntity
  8
TEXT1
100
AcDbText
 10
286.162608
 20
-11.563843
 30
0.0
 40
1.32
  1
SIZE
 41
0.896304
  7
M_STANDARD
 72
     1
 11
287.880951
 21
-10.903843
 31
0.0
100
AcDbText
 73
     2
  0
TEXT
  5
402
100
AcDbEntity
  8
TEXT1
100
AcDbText
 10
284.010643
 20
-7.141356
 30
0.0
 40
1.32
  1
BREAKER
 41
0.898877
  7
M_STANDARD
 72
     1
 11
287.880951
 21
-6.481356
 31
0.0
100
AcDbText
 73
     2
  0
TEXT
  5
403
100
AcDbEntity
  8
TEXT1
100
AcDbText
 10
284.632152
 20
-4.930113
 30
0.0
 40
1.32
  1
CIRCUIT
 41
0.898877
  7
M_STANDARD
 72
     1
 11
287.880951
 21
-4.270113
 31
0.0
100
AcDbText
 73
     2
  0
TEXT
  5
404
100
AcDbEntity
  8
TEXT1
100
AcDbText
 10
286.421452
 20
-2.71887
 30
0.0
 40
1.32
  1
SEE
 41
0.89305
  7
M_STANDARD
 72
     1
 11
287.880951
 21
-2.05887
 31
0.0
100
AcDbText
 73
     2
  0
TEXT
  5
405
100
AcDbEntity
  8
TEXT1
100
AcDbText
 10
299.572894
 20
-7.141356
 30
0.0
 40
1.32
  1
6-300
 41
0.930783
  7
M_STANDARD
 72
     1
 11
302.498213
 21
-6.481356
 31
0.0
100
AcDbText
 73
     2
  0
LINE
  5
406
100
AcDbEntity
  8
0
100
AcDbLine
 10
187.558147
 20
3.762091
 30
0.0
 11
311.822467
 21
3.762091
 31
0.0
  0
LWPOLYLINE
  5
407
100
AcDbEntity
  8
TEXT1
100
AcDbPolyline
 90
        4
 70
   129
 43
0.0
 10
290.834742
 20
8.047448
 10
292.274742
 20
8.047448
 10
292.274742
 20
9.487448
 10
290.834742
 20
9.487448
  0
TEXT
  5
408
100
AcDbEntity
  8
TEXT1
100
AcDbText
 10
297.953945
 20
-7.077204
 30
0.0
 40
1.92
  1
#
 41
0.8
  7
M_STANDARD
 72
     1
 11
298.502516
 21
-6.117204
 31
0.0
100
AcDbText
 73
     2
  0
LWPOLYLINE
  5
409
100
AcDbEntity
  8
0
100
AcDbPolyline
 90
        4
 70
   129
 43
0.0
 10
311.821991
 20
13.882101
 10
282.587466
 20
13.882101
 10
282.587466
 20
18.9421
 10
311.821991
 20
18.9421
  0
LINE
  5
40A
100
AcDbEntity
  8
TEXT1
100
AcDbLine
 10
58.886423
 20
-28.528462
 30
0.0
 11
60.322425
 21
-28.528462
 31
0.0
  0
LINE
  5
40B
100
AcDbEntity
  8
TEXT1
100
AcDbLine
 10
58.886423
 20
-29.305171
 30
0.0
 11
60.322425
 21
-29.305171
 31
0.0
  0
LINE
  5
40C
100
AcDbEntity
  8
TEXT1
100
AcDbLine
 10
59.604424
 20
-27.730225
 30
0.0
 11
59.604424
 21
-30.103407
 31
0.0
  0
HATCH
  5
40D
100
AcDbEntity
  8
TEXT1
100
AcDbHatch
 10
0.0
 20
0.0
 30
0.0
210
0.0
220
0.0
230
1.0
  2
_U
 70
     0
 71
     0
 91
        1
 92
        0
 93
        3
 72
     1
 10
295.639033
 20
113.990674
 11
294.919033
 21
112.550674
 72
     1
 10
294.919033
 20
112.550674
 11
296.359033
 21
112.550674
 72
     1
 10
296.359033
 20
112.550674
 11
295.639033
 21
113.990674
 97
        0
 75
     0
 76
     0
 52
45.0
 41
0.00288
 77
     0
 78
     1
 53
45.0
 43
48.622467
 44
-40.116789
 45
-0.0020364675298174
 46
0.0020364675298172
 79
     0
 98
        1
 10
48.622467
 20
-40.116789
  0
TEXT
  5
40E
100
AcDbEntity
  8
TEXT1
100
AcDbText
 10
299.715294
 20
62.742543
 30
0.0
 40
1.32
  1
MMLK600
 41
0.921866
  7
M_STANDARD
 72
     1
 11
303.771503
 21
63.402543
 31
0.0
100
AcDbText
 73
     2
  0
TEXT
  5
40F
100
AcDbEntity
  8
TEXT1
100
AcDbText
 10
299.715294
 20
70.771517
 30
0.0
 40
1.32
  1
MMLK250
 41
0.921866
  7
M_STANDARD
 72
     1
 11
303.771503
 21
71.431517
 31
0.0
100
AcDbText
 73
     2
  0
TEXT
  5
410
100
AcDbEntity
  8
TEXT1
100
AcDbText
 10
299.715294
 20
66.15703
 30
0.0
 40
1.32
  1
MMLK500
 41
0.921866
  7
M_STANDARD
 72
     1
 11
303.771503
 21
66.81703
 31
0.0
100
AcDbText
 73
     2
  0
TEXT
  5
411
100
AcDbEntity
  8
TEXT1
100
AcDbText
 10
257.982009
 20
71.971517
 30
0.0
 40
1.32
  1
(1) 1/0-600 AWG/KCMIL OR
 41
0.899911
  7
M_STANDARD
 11
257.982009
 21
72.631517
 31
0.0
100
AcDbText
 73
     2
  0
TEXT
  5
412
100
AcDbEntity
  8
TEXT1
100
AcDbText
 10
257.982009
 20
69.571517
 30
0.0
 40
1.32
  1
(2) 1/0-250 PER PHASE
 41
0.899883
  7
M_STANDARD
 11
257.982009
 21
70.231517
 31
0.0
100
AcDbText
 73
     2
  0
TEXT
  5
413
100
AcDbEntity
  8
TEXT1
100
AcDbText
 10
257.982009
 20
66.15703
 30
0.0
 40
1.32
  1
(2) 3/0-500 AWG/KCMIL PER PHASE
 41
0.899947
  7
M_STANDARD
 11
257.982009
 21
66.81703
 31
0.0
100
AcDbText
 73
     2
  0
TEXT
  5
414
100
AcDbEntity
  8
TEXT1
100
AcDbText
 10
257.982009
 20
62.742543
 30
0.0
 40
1.32
  1
(2) 2-600 AWG/KCMIL PER PHASE
 41
0.899939
  7
M_STANDARD
 11
257.982009
 21
63.402543
 31
0.0
100
AcDbText
 73
     2
  0
TEXT
  5
415
100
AcDbEntity
  8
TEXT1
100
AcDbText
 10
297.038376
 20
75.577866
 30
0.0
 40
1.32
  1
CATALOG NO.
 41
0.959467
  7
M_STANDARD
 72
     1
 11
303.310549
 21
76.237866
 31
0.0
100
AcDbText
 73
     2
  0
TEXT
  5
416
100
AcDbEntity
  8
TEXT1
100
AcDbText
 10
272.030368
 20
75.577866
 30
0.0
 40
1.32
  1
WIRE SIZE
 41
0.899335
  7
M_STANDARD
 72
     1
 11
276.32662
 21
76.237866
 31
0.0
100
AcDbText
 73
     2
  0
TEXT
  5
417
100
AcDbEntity
  8
TEXT1
100
AcDbText
 10
270.362572
 20
124.126491
 30
0.0
 40
1.32
  1
TENANT SERVICE DISCONNECTS
 41
0.899924
  7
M_STANDARD
 72
     1
 11
284.36282
 21
124.786491
 31
0.0
100
AcDbText
 73
     2
  0
TEXT
  5
418
100
AcDbEntity
  8
TEXT1
100
AcDbText
 10
267.57766
 20
122.036491
 30
0.0
 40
1.32
  1
(ORDER ONE PER SOCKET POSITION)
 41
0.909835
  7
M_STANDARD
 72
     1
 11
284.36282
 21
122.696491
 31
0.0
100
AcDbText
 73
     2
  0
LWPOLYLINE
  5
419
100
AcDbEntity
  8
TEXT1
100
AcDbPolyline
 90
        3
 70
   129
 43
0.0
 10
295.639033
 20
113.990674
 10
294.919033
 20
112.550674
 10
296.359033
 20
112.550674
  0
TEXT
  5
41A
100
AcDbEntity
  8
TEXT1
100
AcDbText
 10
258.522404
 20
114.778246
 30
0.0
 40
1.32
  1
RATING
 41
0.898447
  7
M_STANDARD
 72
     1
 11
261.515516
 21
115.438246
 31
0.0
100
AcDbText
 73
     2
  0
TEXT
  5
41B
100
AcDbEntity
  8
TEXT1
100
AcDbText
 10
303.004313
 20
115.799724
 30
0.0
 40
1.32
  1
RANGE
 41
0.897713
  7
M_STANDARD
 72
     1
 11
305.797483
 21
116.459724
 31
0.0
100
AcDbText
 73
     2
  0
TEXT
  5
41C
100
AcDbEntity
  8
TEXT1
100
AcDbText
 10
303.938292
 20
117.889724
 30
0.0
 40
1.32
  1
WIRE
 41
0.896304
  7
M_STANDARD
 72
     1
 11
305.797483
 21
118.549724
 31
0.0
100
AcDbText
 73
     2
  0
TEXT
  5
41D
100
AcDbEntity
  8
TEXT1
100
AcDbText
 10
283.515942
 20
118.958246
 30
0.0
 40
1.32
  1
SHORT CIRCUIT
 41
0.899689
  7
M_STANDARD
 72
     1
 11
290.217336
 21
119.618246
 31
0.0
100
AcDbText
 73
     2
  0
TEXT
  5
41E
100
AcDbEntity
  8
TEXT1
100
AcDbText
 10
269.379426
 20
116.868246
 30
0.0
 40
1.32
  1
CATALOG
 41
0.898877
  7
M_STANDARD
 72
     1
 11
273.249734
 21
117.528246
 31
0.0
100
AcDbText
 73
     2
  0
TEXT
  5
41F
100
AcDbEntity
  8
TEXT1
100
AcDbText
 10
258.127088
 20
116.868246
 30
0.0
 40
1.32
  1
AMPERE
 41
0.898447
  7
M_STANDARD
 72
     1
 11
261.515516
 21
117.528246
 31
0.0
100
AcDbText
 73
     2
  0
TEXT
  5
420
100
AcDbEntity
  8
TEXT1
100
AcDbText
 10
303.124763
 20
113.709724
 30
0.0
 40
1.32
  1
(AWG)
 41
0.966376
  7
M_STANDARD
 72
     1
 11
305.797483
 21
114.369724
 31
0.0
100
AcDbText
 73
     2
  0
TEXT
  5
421
100
AcDbEntity
  8
TEXT1
100
AcDbText
 10
282.610741
 20
116.868246
 30
0.0
 40
1.32
  1
CURRENT RATING
 41
0.899732
  7
M_STANDARD
 72
     1
 11
290.217336
 21
117.528246
 31
0.0
100
AcDbText
 73
     2
  0
TEXT
  5
422
100
AcDbEntity
  8
TEXT1
100
AcDbText
 10
286.262277
 20
112.688246
 30
0.0
 40
1.32
  1
AMPERES
 41
0.898877
  7
M_STANDARD
 72
     1
 11
290.217336
 21
113.348246
 31
0.0
100
AcDbText
 73
     2
  0
TEXT
  5
423
100
AcDbEntity
  8
TEXT1
100
AcDbText
 10
281.931761
 20
114.778246
 30
0.0
 40
1.32
  1
RMS SYMMETRICAL
 41
0.899768
  7
M_STANDARD
 72
     1
 11
290.217336
 21
115.438246
 31
0.0
100
AcDbText
 73
     2
  0
TEXT
  5
424
100
AcDbEntity
  8
TEXT1
100
AcDbText
 10
269.804832
 20
114.778246
 30
0.0
 40
1.32
  1
NUMBER
 41
0.898447
  7
M_STANDARD
 72
     1
 11
273.249734
 21
115.438246
 31
0.0
100
AcDbText
 73
     2
  0
TEXT
  5
425
100
AcDbEntity
  8
TEXT1
100
AcDbText
 10
259.962486
 20
109.493247
 30
0.0
 40
1.32
  1
100
 41
0.951579
  7
M_STANDARD
 72
     1
 11
261.457824
 21
110.153247
 31
0.0
100
AcDbText
 73
     2
  0
TEXT
  5
426
100
AcDbEntity
  8
TEXT1
100
AcDbText
 10
259.962486
 20
96.693247
 30
0.0
 40
1.32
  1
100
 41
0.951579
  7
M_STANDARD
 72
     1
 11
261.457824
 21
97.353247
 31
0.0
100
AcDbText
 73
     2
  0
TEXT
  5
427
100
AcDbEntity
  8
TEXT1
100
AcDbText
 10
268.049008
 20
109.493247
 30
0.0
 40
1.32
  1
QOM2100MM
 41
0.899335
  7
M_STANDARD
 72
     1
 11
273.249734
 21
110.153247
 31
0.0
100
AcDbText
 73
     2
  0
TEXT
  5
428
100
AcDbEntity
  8
TEXT1
100
AcDbText
 10
267.539413
 20
96.693247
 30
0.0
 40
1.32
  1
QOM2100MVH
 41
0.899465
  7
M_STANDARD
 72
     1
 11
273.249734
 21
97.353247
 31
0.0
100
AcDbText
 73
     2
  0
TEXT
  5
429
100
AcDbEntity
  8
TEXT1
100
AcDbText
 10
259.842858
 20
99.893247
 30
0.0
 40
1.32
  1
200
 41
0.951579
  7
M_STANDARD
 72
     1
 11
261.457824
 21
100.553247
 31
0.0
100
AcDbText
 73
     2
  0
TEXT
  5
42A
100
AcDbEntity
  8
TEXT1
100
AcDbText
 10
259.842858
 20
87.093247
 30
0.0
 40
1.32
  1
200
 41
0.951579
  7
M_STANDARD
 72
     1
 11
261.457824
 21
87.753247
 31
0.0
100
AcDbText
 73
     2
  0
TEXT
  5
42B
100
AcDbEntity
  8
TEXT1
100
AcDbText
 10
267.935948
 20
99.893247
 30
0.0
 40
1.32
  1
QOM2200MM
 41
0.899335
  7
M_STANDARD
 72
     1
 11
273.249734
 21
100.553247
 31
0.0
100
AcDbText
 73
     2
  0
TEXT
  5
42C
100
AcDbEntity
  8
TEXT1
100
AcDbText
 10
267.426338
 20
87.093247
 30
0.0
 40
1.32
  1
QOM2200MVH
 41
0.899465
  7
M_STANDARD
 72
     1
 11
273.249734
 21
87.753247
 31
0.0
100
AcDbText
 73
     2
  0
TEXT
  5
42D
100
AcDbEntity
  8
TEXT1
100
AcDbText
 10
260.054459
 20
102.293247
 30
0.0
 40
1.32
  1
175
 41
0.89305
  7
M_STANDARD
 72
     1
 11
261.457824
 21
102.953247
 31
0.0
100
AcDbText
 73
     2
  0
TEXT
  5
42E
100
AcDbEntity
  8
TEXT1
100
AcDbText
 10
260.054459
 20
89.493247
 30
0.0
 40
1.32
  1
175
 41
0.89305
  7
M_STANDARD
 72
     1
 11
261.457824
 21
90.153247
 31
0.0
100
AcDbText
 73
     2
  0
TEXT
  5
42F
100
AcDbEntity
  8
TEXT1
100
AcDbText
 10
268.049008
 20
102.293247
 30
0.0
 40
1.32
  1
QOM2175MM
 41
0.899335
  7
M_STANDARD
 72
     1
 11
273.249734
 21
102.953247
 31
0.0
100
AcDbText
 73
     2
  0
TEXT
  5
430
100
AcDbEntity
  8
TEXT1
100
AcDbText
 10
267.539413
 20
89.493247
 30
0.0
 40
1.32
  1
QOM2175MVH
 41
0.899465
  7
M_STANDARD
 72
     1
 11
273.249734
 21
90.153247
 31
0.0
100
AcDbText
 73
     2
  0
TEXT
  5
431
100
AcDbEntity
  8
TEXT1
100
AcDbText
 10
259.962486
 20
104.693247
 30
0.0
 40
1.32
  1
150
 41
0.951579
  7
M_STANDARD
 72
     1
 11
261.457824
 21
105.353247
 31
0.0
100
AcDbText
 73
     2
  0
TEXT
  5
432
100
AcDbEntity
  8
TEXT1
100
AcDbText
 10
259.962486
 20
91.893247
 30
0.0
 40
1.32
  1
150
 41
0.951579
  7
M_STANDARD
 72
     1
 11
261.457824
 21
92.553247
 31
0.0
100
AcDbText
 73
     2
  0
TEXT
  5
433
100
AcDbEntity
  8
TEXT1
100
AcDbText
 10
302.958437
 20
90.848247
 30
0.0
 40
1.32
  1
AL/CU
 41
0.897713
  7
M_STANDARD
 72
     1
 11
305.666965
 21
91.508247
 31
0.0
100
AcDbText
 73
     2
  0
TEXT
  5
434
100
AcDbEntity
  8
TEXT1
100
AcDbText
 10
302.958437
 20
103.648247
 30
0.0
 40
1.32
  1
AL/CU
 41
0.897713
  7
M_STANDARD
 72
     1
 11
305.666965
 21
104.308247
 31
0.0
100
AcDbText
 73
     2
  0
TEXT
  5
435
100
AcDbEntity
  8
TEXT1
100
AcDbText
 10
301.652616
 20
92.938247
 30
0.0
 40
1.32
  1
 4-250
 41
0.925574
  7
M_STANDARD
 72
     1
 11
305.666965
 21
93.598247
 31
0.0
100
AcDbText
 73
     2
  0
TEXT
  5
436
100
AcDbEntity
  8
TEXT1
100
AcDbText
 10
301.652616
 20
105.738247
 30
0.0
 40
1.32
  1
 4-250
 41
0.925574
  7
M_STANDARD
 72
     1
 11
305.666965
 21
106.398247
 31
0.0
100
AcDbText
 73
     2
  0
TEXT
  5
437
100
AcDbEntity
  8
TEXT1
100
AcDbText
 10
287.308388
 20
104.693247
 30
0.0
 40
1.32
  1
10,000
 41
0.925574
  7
M_STANDARD
 72
     1
 11
290.217336
 21
105.353247
 31
0.0
100
AcDbText
 73
     2
  0
TEXT
  5
438
100
AcDbEntity
  8
TEXT1
100
AcDbText
 10
287.19203
 20
91.893247
 30
0.0
 40
1.32
  1
22,000
 41
0.925574
  7
M_STANDARD
 72
     1
 11
290.217336
 21
92.553247
 31
0.0
100
AcDbText
 73
     2
  0
TEXT
  5
439
100
AcDbEntity
  8
TEXT1
100
AcDbText
 10
268.049008
 20
104.693247
 30
0.0
 40
1.32
  1
QOM2150MM
 41
0.899335
  7
M_STANDARD
 72
     1
 11
273.249734
 21
105.353247
 31
0.0
100
AcDbText
 73
     2
  0
TEXT
  5
43A
100
AcDbEntity
  8
TEXT1
100
AcDbText
 10
267.539413
 20
91.893247
 30
0.0
 40
1.32
  1
QOM2150MVH
 41
0.899465
  7
M_STANDARD
 72
     1
 11
273.249734
 21
92.553247
 31
0.0
100
AcDbText
 73
     2
  0
TEXT
  5
43B
100
AcDbEntity
  8
TEXT1
100
AcDbText
 10
260.054459
 20
107.093247
 30
0.0
 40
1.32
  1
125
 41
0.89305
  7
M_STANDARD
 72
     1
 11
261.457824
 21
107.753247
 31
0.0
100
AcDbText
 73
     2
  0
TEXT
  5
43C
100
AcDbEntity
  8
TEXT1
100
AcDbText
 10
260.054459
 20
94.293247
 30
0.0
 40
1.32
  1
125
 41
0.89305
  7
M_STANDARD
 72
     1
 11
261.457824
 21
94.953247
 31
0.0
100
AcDbText
 73
     2
  0
TEXT
  5
43D
100
AcDbEntity
  8
TEXT1
100
AcDbText
 10
301.524517
 20
92.936257
 30
0.0
 40
1.92
  1
#
 41
0.8
  7
M_STANDARD
 72
     1
 11
302.073089
 21
93.896257
 31
0.0
100
AcDbText
 73
     2
  0
TEXT
  5
43E
100
AcDbEntity
  8
TEXT1
100
AcDbText
 10
301.524517
 20
105.736257
 30
0.0
 40
1.92
  1
#
 41
0.8
  7
M_STANDARD
 72
     1
 11
302.073089
 21
106.696257
 31
0.0
100
AcDbText
 73
     2
  0
TEXT
  5
43F
100
AcDbEntity
  8
TEXT1
100
AcDbText
 10
268.049008
 20
107.093247
 30
0.0
 40
1.32
  1
QOM2125MM
 41
0.899335
  7
M_STANDARD
 72
     1
 11
273.249734
 21
107.753247
 31
0.0
100
AcDbText
 73
     2
  0
TEXT
  5
440
100
AcDbEntity
  8
TEXT1
100
AcDbText
 10
267.539413
 20
94.293247
 30
0.0
 40
1.32
  1
QOM2125MVH
 41
0.899465
  7
M_STANDARD
 72
     1
 11
273.249734
 21
94.953247
 31
0.0
100
AcDbText
 73
     2
  0
LWPOLYLINE
  5
441
100
AcDbEntity
  8
0
100
AcDbPolyline
 90
        4
 70
   129
 43
0.0
 10
311.807703
 20
121.213246
 10
256.917938
 20
121.213246
 10
256.917938
 20
126.273244
 10
311.807703
 20
126.273244
  0
LINE
  5
442
100
AcDbEntity
  8
0
100
AcDbLine
 10
256.917938
 20
68.524273
 30
0.0
 11
311.807703
 21
68.524273
 31
0.0
  0
LINE
  5
443
100
AcDbEntity
  8
0
100
AcDbLine
 10
256.917938
 20
74.33876
 30
0.0
 11
295.735303
 21
74.33876
 31
0.0
  0
LINE
  5
444
100
AcDbEntity
  8
0
100
AcDbLine
 10
256.917938
 20
65.109786
 30
0.0
 11
311.807703
 21
65.109786
 31
0.0
  0
TEXT
  5
445
100
AcDbEntity
  8
TEXT1
100
AcDbText
 10
270.560651
 20
79.293247
 30
0.0
 40
1.32
  1
ALTERNATE MECHANICAL LUGS
 41
0.899918
  7
M_STANDARD
 72
     1
 11
284.36282
 21
79.953247
 31
0.0
100
AcDbText
 73
     2
  0
LINE
  5
446
100
AcDbEntity
  8
0
100
AcDbLine
 10
256.917938
 20
111.753247
 30
0.0
 11
311.807703
 21
111.753247
 31
0.0
  0
LINE
  5
447
100
AcDbEntity
  8
0
100
AcDbLine
 10
256.917938
 20
98.953247
 30
0.0
 11
311.807703
 21
98.953247
 31
0.0
  0
LWPOLYLINE
  5
448
100
AcDbEntity
  8
0
100
AcDbPolyline
 90
        4
 70
   129
 43
0.0
 10
256.917938
 20
86.153247
 10
265.852058
 20
86.153247
 10
265.852058
 20
121.213246
 10
256.917938
 20
121.213246
  0
LWPOLYLINE
  5
449
100
AcDbEntity
  8
0
100
AcDbPolyline
 90
        4
 70
   129
 43
0.0
 10
265.852058
 20
121.213246
 10
280.64741
 20
121.213246
 10
280.64741
 20
86.153247
 10
265.852058
 20
86.153247
  0
LWPOLYLINE
  5
44A
100
AcDbEntity
  8
0
100
AcDbPolyline
 90
        4
 70
   129
 43
0.0
 10
280.64741
 20
86.153247
 10
299.787263
 20
86.153247
 10
299.787263
 20
121.213246
 10
280.64741
 20
121.213246
  0
LWPOLYLINE
  5
44B
100
AcDbEntity
  8
0
100
AcDbPolyline
 90
        4
 70
   129
 43
0.0
 10
256.917938
 20
77.753247
 10
295.735303
 20
77.753247
 10
295.735303
 20
61.695299
 10
256.917938
 20
61.695299
  0
LWPOLYLINE
  5
44C
100
AcDbEntity
  8
0
100
AcDbPolyline
 90
        4
 70
   129
 43
0.0
 10
256.917938
 20
77.753247
 10
311.807703
 20
77.753247
 10
311.807703
 20
82.153247
 10
256.917938
 20
82.153247
  0
LWPOLYLINE
  5
44D
100
AcDbEntity
  8
0
100
AcDbPolyline
 90
        4
 70
   129
 43
0.0
 10
295.735303
 20
77.753247
 10
311.807703
 20
77.753247
 10
311.807703
 20
61.695299
 10
295.735303
 20
61.695299
  0
LWPOLYLINE
  5
44E
100
AcDbEntity
  8
0
100
AcDbPolyline
 90
        4
 70
   129
 43
0.0
 10
311.807703
 20
77.753247
 10
295.735303
 20
77.753247
 10
295.735303
 20
74.33876
 10
311.807703
 20
74.33876
  0
LINE
  5
44F
100
AcDbEntity
  8
TEXT1
100
AcDbLine
 10
253.864501
 20
80.109463
 30
0.0
 11
255.300503
 21
80.109463
 31
0.0
  0
LINE
  5
450
100
AcDbEntity
  8
TEXT1
100
AcDbLine
 10
253.864501
 20
79.332754
 30
0.0
 11
255.300503
 21
79.332754
 31
0.0
  0
LINE
  5
451
100
AcDbEntity
  8
TEXT1
100
AcDbLine
 10
254.582502
 20
80.9077
 30
0.0
 11
254.582502
 21
78.534518
 31
0.0
  0
LWPOLYLINE
  5
452
100
AcDbEntity
  8
0
100
AcDbPolyline
 90
        4
 70
   129
 43
0.0
 10
299.787263
 20
121.213246
 10
311.807703
 20
121.213246
 10
311.807703
 20
86.153247
 10
299.787263
 20
86.153247
  0
TEXT
  5
453
100
AcDbEntity
  8
DIM
100
AcDbText
 10
237.872193
 20
38.089263
 30
0.0
 40
1.6
  1
.10 X .40 SLOT
 41
0.899732
  7
M_STANDARD
 11
237.872193
 21
38.889263
 31
0.0
100
AcDbText
 73
     2
  0
TEXT
  5
454
100
AcDbEntity
  8
DIM
100
AcDbText
 10
228.159903
 20
62.069628
 30
0.0
 40
1.6
  1
.09 X .33 SLOT
 41
0.899732
  7
M_STANDARD
 11
228.159903
 21
62.869628
 31
0.0
100
AcDbText
 73
     2
  0
TEXT
  5
455
100
AcDbEntity
  8
DIM
100
AcDbText
 10
214.977688
 20
33.694166
 30
0.0
 40
1.28
  1
11
 41
1.09141
  7
M_STANDARD
 11
214.977688
 21
34.334166
 31
0.0
100
AcDbText
 73
     2
  0
TEXT
  5
456
100
AcDbEntity
  8
DIM
100
AcDbText
 10
208.251167
 20
68.395672
 30
0.0
 40
1.28
  1
2
 41
0.8
  7
M_STANDARD
 11
208.251167
 21
69.035672
 31
0.0
100
AcDbText
 73
     2
  0
TEXT
  5
457
100
AcDbEntity
  8
DIM
100
AcDbText
 10
213.029613
 20
40.512428
 30
0.0
 40
1.28
  1
3
 41
0.8
  7
M_STANDARD
 11
213.029613
 21
41.152428
 31
0.0
100
AcDbText
 73
     2
  0
TEXT
  5
458
100
AcDbEntity
  8
DIM
100
AcDbText
 10
228.416444
 20
76.737588
 30
0.0
 40
1.28
  1
11
 41
1.09141
  7
M_STANDARD
 11
228.416444
 21
77.377588
 31
0.0
100
AcDbText
 73
     2
  0
TEXT
  5
459
100
AcDbEntity
  8
DIM
100
AcDbText
 10
240.16541
 20
36.03419
 30
0.0
 40
1.28
  1
3
 41
0.8
  7
M_STANDARD
 11
240.16541
 21
36.67419
 31
0.0
100
AcDbText
 73
     2
  0
TEXT
  5
45A
100
AcDbEntity
  8
DIM
100
AcDbText
 10
230.45312
 20
60.014555
 30
0.0
 40
1.28
  1
3
 41
0.8
  7
M_STANDARD
 11
230.45312
 21
60.654555
 31
0.0
100
AcDbText
 73
     2
  0
TEXT
  5
45B
100
AcDbEntity
  8
DIM
100
AcDbText
 10
248.487145
 20
36.005937
 30
0.0
 40
1.28
  1
10
 41
0.976187
  7
M_STANDARD
 11
248.487145
 21
36.645937
 31
0.0
100
AcDbText
 73
     2
  0
TEXT
  5
45C
100
AcDbEntity
  8
DIM
100
AcDbText
 10
238.774855
 20
59.986302
 30
0.0
 40
1.28
  1
8
 41
0.8
  7
M_STANDARD
 11
238.774855
 21
60.626302
 31
0.0
100
AcDbText
 73
     2
  0
TEXT
  5
45D
100
AcDbEntity
  8
TEXT1
100
AcDbText
 10
216.391022
 20
56.437025
 30
0.0
 40
1.6
  1
RINGLESS COVER LATCH
 41
0.954988
  7
M_STANDARD
 72
     1
 11
230.251988
 21
57.237025
 31
0.0
100
AcDbText
 73
     2
  0
TEXT
  5
45E
100
AcDbEntity
  8
TEXT1
100
AcDbText
 10
275.089218
 20
31.124266
 30
0.0
 40
1.6
  1
MOUNTING FOOT
 41
0.954794
  7
M_STANDARD
 72
     1
 11
284.327991
 21
31.924266
 31
0.0
100
AcDbText
 73
     2
  0
TEXT
  5
45F
100
AcDbEntity
  8
TEXT1
100
AcDbText
 10
222.050224
 20
31.336996
 30
0.0
 40
1.6
  1
SEAL BRACKET
 41
0.954735
  7
M_STANDARD
 72
     1
 11
230.63375
 21
32.136996
 31
0.0
100
AcDbText
 73
     2
  0
LWPOLYLINE
  5
460
100
AcDbEntity
  8
DIM
100
AcDbPolyline
 90
        3
 70
   128
 43
0.0
 10
224.219601
 20
36.403491
 10
225.755601
 20
36.403491
 10
227.951392
 20
39.913216
  0
INSERT
  5
462
100
AcDbEntity
  8
DIM
100
AcDbBlockReference
  2
M_PFN_100
 10
227.951392
 20
39.913216
 30
0.0
 41
16.0
 42
16.0
 43
16.0
 50
57.96865
  0
LWPOLYLINE
  5
463
100
AcDbEntity
  8
DIM
100
AcDbPolyline
 90
        3
 70
   128
 43
0.0
 10
217.49308
 20
71.104997
 10
219.02908
 20
71.104997
 10
222.372416
 20
70.022936
  0
INSERT
  5
465
100
AcDbEntity
  8
DIM
100
AcDbBlockReference
  2
M_PFN_100
 10
222.372416
 20
70.022936
 30
0.0
 41
16.0
 42
16.0
 43
16.0
 50
342.06597
  0
LWPOLYLINE
  5
466
100
AcDbEntity
  8
DIM
100
AcDbPolyline
 90
        3
 70
   128
 43
0.0
 10
222.271526
 20
43.221753
 10
223.807526
 20
43.221753
 10
226.314079
 20
46.597782
  0
INSERT
  5
468
100
AcDbEntity
  8
DIM
100
AcDbBlockReference
  2
M_PFN_100
 10
226.314079
 20
46.597782
 30
0.0
 41
16.0
 42
16.0
 43
16.0
 50
53.407733
  0
LWPOLYLINE
  5
469
100
AcDbEntity
  8
DIM
100
AcDbPolyline
 90
        3
 70
   128
 43
0.0
 10
225.447929
 20
79.446913
 10
223.911929
 20
79.446913
 10
223.567122
 20
74.238691
  0
INSERT
  5
46B
100
AcDbEntity
  8
DIM
100
AcDbBlockReference
  2
M_PFN_100
 10
223.567122
 20
74.238691
 30
0.0
 41
16.0
 42
16.0
 43
16.0
 50
266.212296
  0
LWPOLYLINE
  5
46C
100
AcDbEntity
  8
DIM
100
AcDbPolyline
 90
        3
 70
   128
 43
0.0
 10
236.789442
 20
38.874556
 10
235.253442
 20
38.874556
 10
233.294837
 20
41.623468
  0
INSERT
  5
46E
100
AcDbEntity
  8
DIM
100
AcDbBlockReference
  2
M_PFN_100
 10
233.294837
 20
41.623468
 30
0.0
 41
16.0
 42
16.0
 43
16.0
 50
125.469943
  0
LWPOLYLINE
  5
46F
100
AcDbEntity
  8
DIM
100
AcDbPolyline
 90
        3
 70
   128
 43
0.0
 10
227.077151
 20
62.854921
 10
225.541151
 20
62.854921
 10
223.678121
 20
67.794921
  0
INSERT
  5
471
100
AcDbEntity
  8
DIM
100
AcDbBlockReference
  2
M_PFN_100
 10
223.678121
 20
67.794921
 30
0.0
 41
16.0
 42
16.0
 43
16.0
 50
110.663047
  0
LWPOLYLINE
  5
472
100
AcDbEntity
  8
OBJECT1
100
AcDbPolyline
 90
        6
 70
   129
 43
0.0
 10
225.325878
 20
40.488032
 42
0.414214
 10
226.992545
 20
38.821366
 10
233.155104
 20
38.821366
 42
0.414214
 10
234.82177
 20
40.488032
 10
234.82177
 20
48.821366
 10
225.325878
 20
48.821366
  0
CIRCLE
  5
473
100
AcDbEntity
  8
OBJECT1
100
AcDbCircle
 10
228.693928
 20
41.100077
 30
0.0
 40
1.4
  0
TEXT
  5
474
100
AcDbEntity
  8
DIM
100
AcDbText
 10
212.684471
 20
35.618197
 30
0.0
 40
1.6
  1
.42 DIA.
 41
0.984599
  7
M_STANDARD
 11
212.684471
 21
36.418197
 31
0.0
100
AcDbText
 73
     2
  0
TEXT
  5
475
100
AcDbEntity
  8
DIM
100
AcDbText
 10
205.95795
 20
70.319704
 30
0.0
 40
1.6
  1
.09 DIA.
 41
0.984599
  7
M_STANDARD
 11
205.95795
 21
71.119704
 31
0.0
100
AcDbText
 73
     2
  0
TEXT
  5
476
100
AcDbEntity
  8
DIM
100
AcDbText
 10
210.736396
 20
42.43646
 30
0.0
 40
1.6
  1
.10 DIA.
 41
0.984599
  7
M_STANDARD
 11
210.736396
 21
43.23646
 31
0.0
100
AcDbText
 73
     2
  0
TEXT
  5
477
100
AcDbEntity
  8
DIM
100
AcDbText
 10
226.496448
 20
78.66162
 30
0.0
 40
1.6
  1
.42 DIA
 41
0.898877
  7
M_STANDARD
 11
226.496448
 21
79.46162
 31
0.0
100
AcDbText
 73
     2
  0
LWPOLYLINE
  5
478
100
AcDbEntity
  8
OBJECT1
100
AcDbPolyline
 90
        4
 70
   129
 43
0.0
 10
232.16126
 20
41.623468
 10
233.76126
 20
41.623468
 10
233.76126
 20
48.023468
 10
232.16126
 20
48.023468
  0
CIRCLE
  5
479
100
AcDbEntity
  8
OBJECT1
100
AcDbCircle
 10
226.790972
 20
47.2401
 30
0.0
 40
0.8
  0
LWPOLYLINE
  5
47A
100
AcDbEntity
  8
OBJECT1
100
AcDbPolyline
 90
        4
 70
   129
 43
0.0
 10
223.650742
 20
49.555729
 10
236.496906
 20
49.555729
 10
236.496906
 20
48.821366
 10
223.650742
 20
48.821366
  0
LWPOLYLINE
  5
47B
100
AcDbEntity
  8
OBJECT1
100
AcDbPolyline
 90
        9
 70
   128
 43
0.0
 10
230.278487
 20
68.030277
 10
233.278487
 20
68.030277
 10
233.278487
 20
72.030277
 10
233.945154
 20
72.696944
 10
238.945154
 20
72.696944
 10
239.61182
 20
72.030277
 10
239.61182
 20
67.030277
 10
238.945154
 20
66.363611
 10
230.278487
 20
66.363611
  0
LWPOLYLINE
  5
47C
100
AcDbEntity
  8
OBJECT1
100
AcDbPolyline
 90
        4
 70
   129
 43
0.0
 10
229.278487
 20
75.030277
 10
230.278487
 20
75.030277
 10
230.278487
 20
66.363611
 10
229.278487
 20
66.363611
  0
CIRCLE
  5
47D
100
AcDbEntity
  8
OBJECT1
100
AcDbCircle
 10
236.445154
 20
69.530277
 30
0.0
 40
1.5
  0
LWPOLYLINE
  5
47E
100
AcDbEntity
  8
OBJECT1
100
AcDbPolyline
 90
        6
 70
   128
 43
0.0
 10
221.852424
 20
67.196944
 10
221.019091
 20
67.196944
 10
221.019091
 20
72.696944
 10
220.185757
 20
72.696944
 10
220.185757
 20
66.363611
 10
221.852424
 20
66.363611
  0
LWPOLYLINE
  5
47F
100
AcDbEntity
  8
OBJECT1
100
AcDbPolyline
 90
        6
 70
   129
 43
0.0
 10
221.852424
 20
66.363611
 10
225.852424
 20
66.363611
 10
225.852424
 20
74.363611
 10
225.185757
 20
75.030277
 10
222.519091
 20
75.030277
 10
221.852424
 20
74.363611
  0
CIRCLE
  5
480
100
AcDbEntity
  8
OBJECT1
100
AcDbCircle
 10
223.852424
 20
72.936239
 30
0.0
 40
1.333333
  0
CIRCLE
  5
481
100
AcDbEntity
  8
OBJECT1
100
AcDbCircle
 10
222.845864
 20
70.183706
 30
0.0
 40
0.5
  0
LWPOLYLINE
  5
482
100
AcDbEntity
  8
OBJECT1
100
AcDbPolyline
 90
        4
 70
   129
 43
0.0
 10
222.685757
 20
68.048347
 10
225.019091
 20
68.048347
 10
225.019091
 20
69.048347
 10
222.685757
 20
69.048347
  0
LWPOLYLINE
  5
483
100
AcDbEntity
  8
OBJECT1
100
AcDbPolyline
 90
        3
 70
   128
 43
0.0
 10
283.109903
 20
41.456502
 42
-0.414214
 10
284.309903
 20
42.656502
 42
-0.414214
 10
285.509903
 20
41.456502
  0
LINE
  5
484
100
AcDbEntity
  8
CENTER1
100
AcDbLine
 10
283.643239
 20
41.456502
 30
0.0
 11
284.976567
 21
41.456502
 31
0.0
  0
LINE
  5
485
100
AcDbEntity
  8
CENTER1
100
AcDbLine
 10
284.309903
 20
40.789838
 30
0.0
 11
284.309903
 21
42.123166
 31
0.0
  0
LWPOLYLINE
  5
486
100
AcDbEntity
  8
OBJECT1
100
AcDbPolyline
 90
       10
 70
   128
 43
0.0
 10
285.509903
 20
41.456502
 10
285.509903
 20
38.122321
 10
286.709903
 20
36.464502
 10
289.109903
 20
36.464502
 10
289.109903
 20
47.536502
 10
279.509903
 20
47.536502
 10
279.509903
 20
36.464502
 10
281.909903
 20
36.464502
 10
283.109903
 20
38.122321
 10
283.109903
 20
41.456502
  0
TEXT
  5
487
100
AcDbEntity
  8
DIM
100
AcDbText
 10
292.891947
 20
44.682286
 30
0.0
 40
1.6
  1
.38 DIA
 41
0.898877
  7
M_STANDARD
 11
292.891947
 21
45.482286
 31
0.0
100
AcDbText
 73
     2
  0
LWPOLYLINE
  5
488
100
AcDbEntity
  8
DIM
100
AcDbPolyline
 90
        3
 70
   128
 43
0.0
 10
292.417013
 20
45.467579
 10
290.881013
 20
45.467579
 10
285.33416
 20
42.081719
  0
INSERT
  5
48A
100
AcDbEntity
  8
DIM
100
AcDbBlockReference
  2
M_PFN_100
 10
285.33416
 20
42.081719
 30
0.0
 41
16.0
 42
16.0
 43
16.0
 50
211.40035
  0
TEXT
  5
4B9
100
AcDbEntity
  8
TEXT1
100
AcDbText
 10
223.037894
 20
124.04079
 30
0.0
 40
1.28
  1
KNOCKOUTS
 41
0.899335
  7
M_STANDARD
 72
     1
 11
228.053614
 21
124.68079
 31
0.0
100
AcDbText
 73
     2
  0
LINE
  5
4BA
100
AcDbEntity
  8
0
100
AcDbLine
 10
201.811169
 20
107.991861
 30
0.0
 11
254.180705
 21
107.991861
 31
0.0
  0
LINE
  5
4BB
100
AcDbEntity
  8
0
100
AcDbLine
 10
201.811169
 20
104.791861
 30
0.0
 11
254.180705
 21
104.791861
 31
0.0
  0
LINE
  5
4BC
100
AcDbEntity
  8
0
100
AcDbLine
 10
201.811169
 20
95.191861
 30
0.0
 11
254.180705
 21
95.191861
 31
0.0
  0
LINE
  5
4BD
100
AcDbEntity
  8
0
100
AcDbLine
 10
201.811169
 20
101.591861
 30
0.0
 11
254.180705
 21
101.591861
 31
0.0
  0
LINE
  5
4BE
100
AcDbEntity
  8
0
100
AcDbLine
 10
201.811169
 20
91.991861
 30
0.0
 11
254.180705
 21
91.991861
 31
0.0
  0
LINE
  5
4BF
100
AcDbEntity
  8
0
100
AcDbLine
 10
201.811169
 20
98.391861
 30
0.0
 11
254.180705
 21
98.391861
 31
0.0
  0
LINE
  5
4C0
100
AcDbEntity
  8
0
100
AcDbLine
 10
201.811169
 20
88.791861
 30
0.0
 11
254.180705
 21
88.791861
 31
0.0
  0
LINE
  5
4C1
100
AcDbEntity
  8
0
100
AcDbLine
 10
201.811169
 20
111.191861
 30
0.0
 11
254.180705
 21
111.191861
 31
0.0
  0
LINE
  5
4C2
100
AcDbEntity
  8
0
100
AcDbLine
 10
222.758601
 20
104.791861
 30
0.0
 11
254.180705
 21
104.791861
 31
0.0
  0
LINE
  5
4C3
100
AcDbEntity
  8
0
100
AcDbLine
 10
201.811169
 20
114.391861
 30
0.0
 11
254.180705
 21
114.391861
 31
0.0
  0
LINE
  5
4C4
100
AcDbEntity
  8
0
100
AcDbLine
 10
201.811169
 20
117.591861
 30
0.0
 11
254.180705
 21
117.591861
 31
0.0
  0
LINE
  5
4C5
100
AcDbEntity
  8
0
100
AcDbLine
 10
201.811169
 20
123.150302
 30
0.0
 11
254.180705
 21
123.150302
 31
0.0
  0
TEXT
  5
4C6
100
AcDbEntity
  8
TEXT1
100
AcDbText
 10
236.85269
 20
121.052119
 30
0.0
 40
1.28
  1
HOLE DIAMETER
 41
0.899689
  7
M_STANDARD
 72
     1
 11
243.542946
 21
121.692119
 31
0.0
100
AcDbText
 73
     2
  0
TEXT
  5
4C7
100
AcDbEntity
  8
TEXT1
100
AcDbText
 10
226.922012
 20
118.256769
 30
0.0
 40
1.28
  1
MM
 41
0.882523
  7
M_STANDARD
 72
     1
 11
227.997849
 21
118.896769
 31
0.0
100
AcDbText
 73
     2
  0
TEXT
  5
4C8
100
AcDbEntity
  8
TEXT1
100
AcDbText
 10
247.869444
 20
118.256769
 30
0.0
 40
1.28
  1
MM
 41
0.882523
  7
M_STANDARD
 72
     1
 11
248.945281
 21
118.896769
 31
0.0
100
AcDbText
 73
     2
  0
TEXT
  5
4C9
100
AcDbEntity
  8
TEXT1
100
AcDbText
 10
217.083106
 20
121.052119
 30
0.0
 40
1.28
  1
CONDUIT SIZE
 41
0.899633
  7
M_STANDARD
 72
     1
 11
222.950427
 21
121.692119
 31
0.0
100
AcDbText
 73
     2
  0
TEXT
  5
4CA
100
AcDbEntity
  8
TEXT1
100
AcDbText
 10
216.868667
 20
118.256769
 30
0.0
 40
1.28
  1
IN
 41
0.976187
  7
M_STANDARD
 72
     1
 11
217.523177
 21
118.896769
 31
0.0
100
AcDbText
 73
     2
  0
TEXT
  5
4CB
100
AcDbEntity
  8
TEXT1
100
AcDbText
 10
237.816099
 20
118.256769
 30
0.0
 40
1.28
  1
IN
 41
0.976187
  7
M_STANDARD
 72
     1
 11
238.470609
 21
118.896769
 31
0.0
100
AcDbText
 73
     2
  0
TEXT
  5
4CC
100
AcDbEntity
  8
TEXT1
100
AcDbText
 10
248.030819
 20
115.351861
 30
0.0
 40
1.28
  1
22
 41
0.882523
  7
M_STANDARD
 72
     1
 11
248.945281
 21
115.991861
 31
0.0
100
AcDbText
 73
     2
  0
TEXT
  5
4CD
100
AcDbEntity
  8
TEXT1
100
AcDbText
 10
237.273071
 20
115.351861
 30
0.0
 40
1.28
  1
.88
 41
0.89305
  7
M_STANDARD
 72
     1
 11
238.470609
 21
115.991861
 31
0.0
100
AcDbText
 73
     2
  0
TEXT
  5
4CE
100
AcDbEntity
  8
TEXT1
100
AcDbText
 10
227.190971
 20
115.351861
 30
0.0
 40
1.28
  1
13
 41
0.882523
  7
M_STANDARD
 72
     1
 11
227.997849
 21
115.991861
 31
0.0
100
AcDbText
 73
     2
  0
TEXT
  5
4CF
100
AcDbEntity
  8
TEXT1
100
AcDbText
 10
248.003923
 20
105.751861
 30
0.0
 40
1.28
  1
44
 41
0.882523
  7
M_STANDARD
 72
     1
 11
248.945281
 21
106.391861
 31
0.0
100
AcDbText
 73
     2
  0
TEXT
  5
4D0
100
AcDbEntity
  8
TEXT1
100
AcDbText
 10
236.831653
 20
105.751861
 30
0.0
 40
1.28
  1
1.75
 41
0.896304
  7
M_STANDARD
 72
     1
 11
238.470609
 21
106.391861
 31
0.0
100
AcDbText
 73
     2
  0
TEXT
  5
4D1
100
AcDbEntity
  8
TEXT1
100
AcDbText
 10
227.083387
 20
105.751861
 30
0.0
 40
1.28
  1
32
 41
0.882523
  7
M_STANDARD
 72
     1
 11
227.997849
 21
106.391861
 31
0.0
100
AcDbText
 73
     2
  0
TEXT
  5
4D2
100
AcDbEntity
  8
TEXT1
100
AcDbText
 10
248.030819
 20
108.951861
 30
0.0
 40
1.28
  1
35
 41
0.882523
  7
M_STANDARD
 72
     1
 11
248.945281
 21
109.591861
 31
0.0
100
AcDbText
 73
     2
  0
TEXT
  5
4D3
100
AcDbEntity
  8
TEXT1
100
AcDbText
 10
236.831653
 20
108.951861
 30
0.0
 40
1.28
  1
1.38
 41
0.896304
  7
M_STANDARD
 72
     1
 11
238.470609
 21
109.591861
 31
0.0
100
AcDbText
 73
     2
  0
TEXT
  5
4D4
100
AcDbEntity
  8
TEXT1
100
AcDbText
 10
227.083387
 20
108.951861
 30
0.0
 40
1.28
  1
25
 41
0.882523
  7
M_STANDARD
 72
     1
 11
227.997849
 21
109.591861
 31
0.0
100
AcDbText
 73
     2
  0
TEXT
  5
4D5
100
AcDbEntity
  8
TEXT1
100
AcDbText
 10
248.11373
 20
102.551861
 30
0.0
 40
1.28
  1
51
 41
1.09141
  7
M_STANDARD
 72
     1
 11
248.945281
 21
103.191861
 31
0.0
100
AcDbText
 73
     2
  0
TEXT
  5
4D6
100
AcDbEntity
  8
TEXT1
100
AcDbText
 10
248.030819
 20
92.951861
 30
0.0
 40
1.28
  1
92
 41
0.882523
  7
M_STANDARD
 72
     1
 11
248.945281
 21
93.591861
 31
0.0
100
AcDbText
 73
     2
  0
TEXT
  5
4D7
100
AcDbEntity
  8
TEXT1
100
AcDbText
 10
236.639872
 20
102.551861
 30
0.0
 40
1.28
  1
2.00
 41
0.93861
  7
M_STANDARD
 72
     1
 11
238.470609
 21
103.191861
 31
0.0
100
AcDbText
 73
     2
  0
TEXT
  5
4D8
100
AcDbEntity
  8
TEXT1
100
AcDbText
 10
236.722389
 20
92.951861
 30
0.0
 40
1.28
  1
3.63
 41
0.896304
  7
M_STANDARD
 72
     1
 11
238.470609
 21
93.591861
 31
0.0
100
AcDbText
 73
     2
  0
TEXT
  5
4D9
100
AcDbEntity
  8
TEXT1
100
AcDbText
 10
227.083387
 20
102.551861
 30
0.0
 40
1.28
  1
38
 41
0.882523
  7
M_STANDARD
 72
     1
 11
227.997849
 21
103.191861
 31
0.0
100
AcDbText
 73
     2
  0
TEXT
  5
4DA
100
AcDbEntity
  8
TEXT1
100
AcDbText
 10
227.110283
 20
92.951861
 30
0.0
 40
1.28
  1
76
 41
0.882523
  7
M_STANDARD
 72
     1
 11
227.997849
 21
93.591861
 31
0.0
100
AcDbText
 73
     2
  0
TEXT
  5
4DB
100
AcDbEntity
  8
TEXT1
100
AcDbText
 10
248.003923
 20
99.351861
 30
0.0
 40
1.28
  1
64
 41
0.882523
  7
M_STANDARD
 72
     1
 11
248.945281
 21
99.991861
 31
0.0
100
AcDbText
 73
     2
  0
TEXT
  5
4DC
100
AcDbEntity
  8
TEXT1
100
AcDbText
 10
247.584442
 20
89.751861
 30
0.0
 40
1.28
  1
105
 41
0.89305
  7
M_STANDARD
 72
     1
 11
248.945281
 21
90.391861
 31
0.0
100
AcDbText
 73
     2
  0
TEXT
  5
4DD
100
AcDbEntity
  8
TEXT1
100
AcDbText
 10
236.639872
 20
99.351861
 30
0.0
 40
1.28
  1
2.50
 41
0.93861
  7
M_STANDARD
 72
     1
 11
238.470609
 21
99.991861
 31
0.0
100
AcDbText
 73
     2
  0
TEXT
  5
4DE
100
AcDbEntity
  8
TEXT1
100
AcDbText
 10
236.831653
 20
89.751861
 30
0.0
 40
1.28
  1
4.13
 41
0.896304
  7
M_STANDARD
 72
     1
 11
238.470609
 21
90.391861
 31
0.0
100
AcDbText
 73
     2
  0
TEXT
  5
4DF
100
AcDbEntity
  8
TEXT1
100
AcDbText
 10
227.166298
 20
99.351861
 30
0.0
 40
1.28
  1
51
 41
1.09141
  7
M_STANDARD
 72
     1
 11
227.997849
 21
99.991861
 31
0.0
100
AcDbText
 73
     2
  0
TEXT
  5
4E0
100
AcDbEntity
  8
TEXT1
100
AcDbText
 10
227.110283
 20
89.751861
 30
0.0
 40
1.28
  1
89
 41
0.882523
  7
M_STANDARD
 72
     1
 11
227.997849
 21
90.391861
 31
0.0
100
AcDbText
 73
     2
  0
TEXT
  5
4E1
100
AcDbEntity
  8
TEXT1
100
AcDbText
 10
248.057715
 20
96.151861
 30
0.0
 40
1.28
  1
76
 41
0.882523
  7
M_STANDARD
 72
     1
 11
248.945281
 21
96.791861
 31
0.0
100
AcDbText
 73
     2
  0
TEXT
  5
4E2
100
AcDbEntity
  8
TEXT1
100
AcDbText
 10
247.69331
 20
86.551861
 30
0.0
 40
1.28
  1
118
 41
0.89305
  7
M_STANDARD
 72
     1
 11
248.945281
 21
87.191861
 31
0.0
100
AcDbText
 73
     2
  0
TEXT
  5
4E3
100
AcDbEntity
  8
TEXT1
100
AcDbText
 10
236.639872
 20
96.151861
 30
0.0
 40
1.28
  1
3.00
 41
0.93861
  7
M_STANDARD
 72
     1
 11
238.470609
 21
96.791861
 31
0.0
100
AcDbText
 73
     2
  0
TEXT
  5
4E4
100
AcDbEntity
  8
TEXT1
100
AcDbText
 10
236.722389
 20
86.551861
 30
0.0
 40
1.28
  1
4.63
 41
0.896304
  7
M_STANDARD
 72
     1
 11
238.470609
 21
87.191861
 31
0.0
100
AcDbText
 73
     2
  0
TEXT
  5
4E5
100
AcDbEntity
  8
TEXT1
100
AcDbText
 10
227.056491
 20
96.151861
 30
0.0
 40
1.28
  1
64
 41
0.882523
  7
M_STANDARD
 72
     1
 11
227.997849
 21
96.791861
 31
0.0
100
AcDbText
 73
     2
  0
TEXT
  5
4E6
100
AcDbEntity
  8
TEXT1
100
AcDbText
 10
226.637011
 20
86.551861
 30
0.0
 40
1.28
  1
102
 41
0.89305
  7
M_STANDARD
 72
     1
 11
227.997849
 21
87.191861
 31
0.0
100
AcDbText
 73
     2
  0
TEXT
  5
4E7
100
AcDbEntity
  8
TEXT1
100
AcDbText
 10
248.030819
 20
112.151861
 30
0.0
 40
1.28
  1
32
 41
0.882523
  7
M_STANDARD
 72
     1
 11
248.945281
 21
112.791861
 31
0.0
100
AcDbText
 73
     2
  0
TEXT
  5
4E8
100
AcDbEntity
  8
TEXT1
100
AcDbText
 10
236.831653
 20
112.151861
 30
0.0
 40
1.28
  1
1.25
 41
0.896304
  7
M_STANDARD
 72
     1
 11
238.470609
 21
112.791861
 31
0.0
100
AcDbText
 73
     2
  0
TEXT
  5
4E9
100
AcDbEntity
  8
TEXT1
100
AcDbText
 10
227.217867
 20
112.151861
 30
0.0
 40
1.28
  1
19
 41
0.882523
  7
M_STANDARD
 72
     1
 11
227.997849
 21
112.791861
 31
0.0
100
AcDbText
 73
     2
  0
TEXT
  5
4EA
100
AcDbEntity
  8
TEXT1
100
AcDbText
 10
216.247155
 20
115.351861
 30
0.0
 40
1.28
  1
.50
 41
0.951579
  7
M_STANDARD
 72
     1
 11
217.523177
 21
115.991861
 31
0.0
100
AcDbText
 73
     2
  0
TEXT
  5
4EB
100
AcDbEntity
  8
TEXT1
100
AcDbText
 10
215.884221
 20
105.751861
 30
0.0
 40
1.28
  1
1.25
 41
0.896304
  7
M_STANDARD
 72
     1
 11
217.523177
 21
106.391861
 31
0.0
100
AcDbText
 73
     2
  0
TEXT
  5
4EC
100
AcDbEntity
  8
TEXT1
100
AcDbText
 10
215.806861
 20
108.951861
 30
0.0
 40
1.28
  1
1.00
 41
0.93861
  7
M_STANDARD
 72
     1
 11
217.523177
 21
109.591861
 31
0.0
100
AcDbText
 73
     2
  0
TEXT
  5
4ED
100
AcDbEntity
  8
TEXT1
100
AcDbText
 10
215.806861
 20
102.551861
 30
0.0
 40
1.28
  1
1.50
 41
0.93861
  7
M_STANDARD
 72
     1
 11
217.523177
 21
103.191861
 31
0.0
100
AcDbText
 73
     2
  0
TEXT
  5
4EE
100
AcDbEntity
  8
TEXT1
100
AcDbText
 10
215.69244
 20
92.951861
 30
0.0
 40
1.28
  1
3.00
 41
0.93861
  7
M_STANDARD
 72
     1
 11
217.523177
 21
93.591861
 31
0.0
100
AcDbText
 73
     2
  0
TEXT
  5
4EF
100
AcDbEntity
  8
TEXT1
100
AcDbText
 10
215.69244
 20
99.351861
 30
0.0
 40
1.28
  1
2.00
 41
0.93861
  7
M_STANDARD
 72
     1
 11
217.523177
 21
99.991861
 31
0.0
100
AcDbText
 73
     2
  0
TEXT
  5
4F0
100
AcDbEntity
  8
TEXT1
100
AcDbText
 10
215.69244
 20
89.751861
 30
0.0
 40
1.28
  1
3.50
 41
0.93861
  7
M_STANDARD
 72
     1
 11
217.523177
 21
90.391861
 31
0.0
100
AcDbText
 73
     2
  0
TEXT
  5
4F1
100
AcDbEntity
  8
TEXT1
100
AcDbText
 10
215.69244
 20
96.151861
 30
0.0
 40
1.28
  1
2.50
 41
0.93861
  7
M_STANDARD
 72
     1
 11
217.523177
 21
96.791861
 31
0.0
100
AcDbText
 73
     2
  0
TEXT
  5
4F2
100
AcDbEntity
  8
TEXT1
100
AcDbText
 10
215.69244
 20
86.551861
 30
0.0
 40
1.28
  1
4.00
 41
0.93861
  7
M_STANDARD
 72
     1
 11
217.523177
 21
87.191861
 31
0.0
100
AcDbText
 73
     2
  0
TEXT
  5
4F3
100
AcDbEntity
  8
TEXT1
100
AcDbText
 10
216.325639
 20
112.151861
 30
0.0
 40
1.28
  1
.75
 41
0.89305
  7
M_STANDARD
 72
     1
 11
217.523177
 21
112.791861
 31
0.0
100
AcDbText
 73
     2
  0
TEXT
  5
4F4
100
AcDbEntity
  8
TEXT1
100
AcDbText
 10
206.65841
 20
115.351861
 30
0.0
 40
1.28
  1
A
 41
0.8
  7
M_STANDARD
 72
     1
 11
207.048505
 21
115.991861
 31
0.0
100
AcDbText
 73
     2
  0
TEXT
  5
4F5
100
AcDbEntity
  8
TEXT1
100
AcDbText
 10
206.707171
 20
105.751861
 30
0.0
 40
1.28
  1
D
 41
0.8
  7
M_STANDARD
 72
     1
 11
207.048505
 21
106.391861
 31
0.0
100
AcDbText
 73
     2
  0
TEXT
  5
4F6
100
AcDbEntity
  8
TEXT1
100
AcDbText
 10
206.682791
 20
108.951861
 30
0.0
 40
1.28
  1
C
 41
0.8
  7
M_STANDARD
 72
     1
 11
207.048505
 21
109.591861
 31
0.0
100
AcDbText
 73
     2
  0
TEXT
  5
4F7
100
AcDbEntity
  8
TEXT1
100
AcDbText
 10
206.731552
 20
102.551861
 30
0.0
 40
1.28
  1
E
 41
0.8
  7
M_STANDARD
 72
     1
 11
207.048505
 21
103.191861
 31
0.0
100
AcDbText
 73
     2
  0
TEXT
  5
4F8
100
AcDbEntity
  8
TEXT1
100
AcDbText
 10
206.707171
 20
92.951861
 30
0.0
 40
1.28
  1
H
 41
0.8
  7
M_STANDARD
 72
     1
 11
207.048505
 21
93.591861
 31
0.0
100
AcDbText
 73
     2
  0
TEXT
  5
4F9
100
AcDbEntity
  8
TEXT1
100
AcDbText
 10
206.731552
 20
99.351861
 30
0.0
 40
1.28
  1
F
 41
0.8
  7
M_STANDARD
 72
     1
 11
207.048505
 21
99.991861
 31
0.0
100
AcDbText
 73
     2
  0
TEXT
  5
4FA
100
AcDbEntity
  8
TEXT1
100
AcDbText
 10
207.048505
 20
89.751861
 30
0.0
 40
1.28
  1
I
 41
0.8
  7
M_STANDARD
 72
     1
 11
207.048505
 21
90.391861
 31
0.0
100
AcDbText
 73
     2
  0
TEXT
  5
4FB
100
AcDbEntity
  8
TEXT1
100
AcDbText
 10
206.682791
 20
96.151861
 30
0.0
 40
1.28
  1
G
 41
0.8
  7
M_STANDARD
 72
     1
 11
207.048505
 21
96.791861
 31
0.0
100
AcDbText
 73
     2
  0
TEXT
  5
4FC
100
AcDbEntity
  8
TEXT1
100
AcDbText
 10
206.804695
 20
86.551861
 30
0.0
 40
1.28
  1
J
 41
0.8
  7
M_STANDARD
 72
     1
 11
207.048505
 21
87.191861
 31
0.0
100
AcDbText
 73
     2
  0
TEXT
  5
4FD
100
AcDbEntity
  8
TEXT1
100
AcDbText
 10
206.707171
 20
112.151861
 30
0.0
 40
1.28
  1
B
 41
0.8
  7
M_STANDARD
 72
     1
 11
207.048505
 21
112.791861
 31
0.0
100
AcDbText
 73
     2
  0
TEXT
  5
4FE
100
AcDbEntity
  8
TEXT1
100
AcDbText
 10
203.790137
 20
119.419405
 30
0.0
 40
1.28
  1
SYMBOL
 41
0.898447
  7
M_STANDARD
 72
     1
 11
207.048505
 21
120.059405
 31
0.0
100
AcDbText
 73
     2
  0
LINE
  5
4FF
100
AcDbEntity
  8
0
100
AcDbLine
 10
233.233273
 20
123.150302
 30
0.0
 11
233.233273
 21
85.591861
 31
0.0
  0
LINE
  5
500
100
AcDbEntity
  8
0
100
AcDbLine
 10
222.758601
 20
120.274574
 30
0.0
 11
222.758601
 21
85.591861
 31
0.0
  0
LINE
  5
501
100
AcDbEntity
  8
0
100
AcDbLine
 10
243.707945
 20
120.274574
 30
0.0
 11
243.707945
 21
85.591861
 31
0.0
  0
LINE
  5
502
100
AcDbEntity
  8
0
100
AcDbLine
 10
212.285841
 20
123.150302
 30
0.0
 11
212.285841
 21
85.591861
 31
0.0
  0
LWPOLYLINE
  5
503
100
AcDbEntity
  8
0
100
AcDbPolyline
 90
        4
 70
   129
 43
0.0
 10
201.811169
 20
126.273244
 10
254.180705
 20
126.273244
 10
254.180705
 20
85.591861
 10
201.811169
 20
85.591861
  0
LINE
  5
504
100
AcDbEntity
  8
0
100
AcDbLine
 10
212.285841
 20
120.274574
 30
0.0
 11
254.180705
 21
120.274574
 31
0.0
  0
HATCH
  5
505
100
AcDbEntity
  8
TEXT1
100
AcDbHatch
 10
0.0
 20
0.0
 30
0.0
210
0.0
220
0.0
230
1.0
  2
_U
 70
     0
 71
     0
 91
        1
 92
        0
 93
        1
 72
     2
 10
309.817884
 20
114.467288
 40
0.8
 50
0.0
 51
359.999994
 73
     1
 97
        0
 75
     0
 76
     0
 52
45.0
 41
0.0032
 77
     0
 78
     1
 53
45.0
 43
48.622467
 44
-40.116789
 45
-0.0022627416997971
 46
0.0022627416997968
 79
     0
 98
        1
 10
48.622467
 20
-40.116789
  0
HATCH
  5
506
100
AcDbEntity
  8
TEXT1
100
AcDbHatch
 10
0.0
 20
0.0
 30
0.0
210
0.0
220
0.0
230
1.0
  2
_U
 70
     0
 71
     0
 91
        1
 92
        0
 93
        1
 72
     2
 10
59.597305
 20
-31.316816
 40
0.8
 50
0.0
 51
359.999994
 73
     1
 97
        0
 75
     0
 76
     0
 52
45.0
 41
0.0032
 77
     0
 78
     1
 53
45.0
 43
48.622467
 44
-40.116789
 45
-0.0022627416997971
 46
0.0022627416997968
 79
     0
 98
        1
 10
48.622467
 20
-40.116789
  0
CIRCLE
  5
507
100
AcDbEntity
  8
TEXT1
100
AcDbCircle
 10
309.817884
 20
114.467288
 30
0.0
 40
0.8
  0
CIRCLE
  5
508
100
AcDbEntity
  8
TEXT1
100
AcDbCircle
 10
59.597305
 20
-31.316816
 30
0.0
 40
0.8
  0
LWPOLYLINE
  5
509
100
AcDbEntity
  8
OBJECT1
100
AcDbPolyline
 90
        4
 70
   129
 43
0.0
 10
160.225249
 20
111.337721
 10
175.265387
 20
111.337721
 10
175.265387
 20
109.087721
 10
160.225249
 20
109.087721
  0
LWPOLYLINE
  5
50A
100
AcDbEntity
  8
OBJECT1
100
AcDbPolyline
 90
        4
 70
   128
 43
0.0
 10
175.265387
 20
90.479502
 10
175.265387
 20
109.087721
 10
162.049175
 20
109.087721
 10
162.049175
 20
90.479502
  0
TEXT
  5
50B
100
AcDbEntity
  8
TEXT1
100
AcDbText
 10
180.630369
 20
92.486609
 30
0.0
 40
1.6
  1
MOUNTING
 41
0.899151
  7
M_STANDARD
 11
180.630369
 21
93.286609
 31
0.0
100
AcDbText
 73
     2
  0
TEXT
  5
50C
100
AcDbEntity
  8
TEXT1
100
AcDbText
 10
180.630369
 20
89.849684
 30
0.0
 40
1.6
  1
CHANNEL
 41
0.898877
  7
M_STANDARD
 11
180.630369
 21
90.649684
 31
0.0
100
AcDbText
 73
     2
  0
TEXT
  5
50D
100
AcDbEntity
  8
TEXT1
100
AcDbText
 10
164.875504
 20
113.70902
 30
0.0
 40
1.6
  1
(NTS)
 41
0.966376
  7
M_STANDARD
 72
     1
 11
167.857464
 21
114.50902
 31
0.0
100
AcDbText
 73
     2
  0
TEXT
  5
50E
100
AcDbEntity
  8
TEXT1
100
AcDbText
 10
180.630369
 20
95.123534
 30
0.0
 40
1.6
  1
TO TOP OF
 41
0.899335
  7
M_STANDARD
 11
180.630369
 21
95.923534
 31
0.0
100
AcDbText
 73
     2
  0
LWPOLYLINE
  5
50F
100
AcDbEntity
  8
OBJECT1
100
AcDbPolyline
 90
        8
 70
   128
 43
0.0
 10
173.532642
 20
90.479502
 10
178.453392
 20
90.479502
 10
171.124526
 20
90.479502
 10
169.920583
 20
88.364944
 10
167.512468
 20
92.594059
 10
166.308524
 20
90.479502
 10
165.621433
 20
90.479502
 10
158.979887
 20
90.479502
  0
LWPOLYLINE
  5
510
100
AcDbEntity
  8
OBJECT1
100
AcDbPolyline
 90
        6
 70
   129
 43
0.0
 10
176.23717
 20
103.087721
 10
176.23717
 20
107.404543
 10
175.265387
 20
109.087721
 10
175.265387
 20
108.391405
 10
175.825163
 20
107.421844
 10
175.825163
 20
103.087721
  0
TEXT
  5
511
100
AcDbEntity
  8
TEXT1
100
AcDbText
 10
157.025454
 20
84.018112
 30
0.0
 40
1.6
  1
MOUNTING CHANNEL
 41
0.954909
  7
M_STANDARD
 72
     1
 11
168.593493
 21
84.818112
 31
0.0
100
AcDbText
 73
     2
  0
TEXT
  5
512
100
AcDbEntity
  8
TEXT1
100
AcDbText
 10
164.9612
 20
81.381187
 30
0.0
 40
1.6
  1
DETAIL
 41
0.953477
  7
M_STANDARD
 72
     1
 11
168.593493
 21
82.181187
 31
0.0
100
AcDbText
 73
     2
  0
LINE
  5
53A
100
AcDbEntity
  8
OBJECT1
100
AcDbLine
 10
104.303872
 20
89.902631
 30
0.0
 11
104.303872
 21
47.299253
 31
0.0
  0
CIRCLE
  5
53B
100
AcDbEntity
  8
OBJECT1
100
AcDbCircle
 10
107.928872
 20
59.519253
 30
0.0
 40
2.49999
  0
CIRCLE
  5
53C
100
AcDbEntity
  8
OBJECT1
100
AcDbCircle
 10
107.928872
 20
77.519253
 30
0.0
 40
2.49999
  0
CIRCLE
  5
53D
100
AcDbEntity
  8
OBJECT1
100
AcDbCircle
 10
107.928872
 20
68.519253
 30
0.0
 40
2.49999
  0
CIRCLE
  5
53E
100
AcDbEntity
  8
OBJECT1
100
AcDbCircle
 10
107.928872
 20
59.519253
 30
0.0
 40
2.249991
  0
CIRCLE
  5
53F
100
AcDbEntity
  8
OBJECT1
100
AcDbCircle
 10
107.928872
 20
77.519253
 30
0.0
 40
2.249991
  0
CIRCLE
  5
540
100
AcDbEntity
  8
OBJECT1
100
AcDbCircle
 10
107.928872
 20
68.519253
 30
0.0
 40
2.249991
  0
LINE
  5
541
100
AcDbEntity
  8
CENTER1
100
AcDbLine
 10
107.428874
 20
59.519253
 30
0.0
 11
108.42887
 21
59.519253
 31
0.0
  0
LINE
  5
542
100
AcDbEntity
  8
CENTER1
100
AcDbLine
 10
107.428874
 20
77.519253
 30
0.0
 11
108.42887
 21
77.519253
 31
0.0
  0
LINE
  5
543
100
AcDbEntity
  8
CENTER1
100
AcDbLine
 10
107.428874
 20
68.519253
 30
0.0
 11
108.42887
 21
68.519253
 31
0.0
  0
LINE
  5
544
100
AcDbEntity
  8
CENTER1
100
AcDbLine
 10
107.928872
 20
59.019255
 30
0.0
 11
107.928872
 21
60.019251
 31
0.0
  0
LINE
  5
545
100
AcDbEntity
  8
CENTER1
100
AcDbLine
 10
107.928872
 20
77.019255
 30
0.0
 11
107.928872
 21
78.019251
 31
0.0
  0
LINE
  5
546
100
AcDbEntity
  8
CENTER1
100
AcDbLine
 10
107.928872
 20
68.019255
 30
0.0
 11
107.928872
 21
69.019251
 31
0.0
  0
LWPOLYLINE
  5
547
100
AcDbEntity
  8
OBJECT1
100
AcDbPolyline
 90
        4
 70
   129
 43
0.0
 10
105.703875
 20
47.845398
 10
107.203869
 20
47.845398
 10
107.203869
 20
48.095397
 10
105.703875
 20
48.095397
  0
LWPOLYLINE
  5
548
100
AcDbEntity
  8
OBJECT1
100
AcDbPolyline
 90
        4
 70
   129
 43
0.0
 10
115.785261
 20
47.845398
 10
117.285255
 20
47.845398
 10
117.285255
 20
48.095397
 10
115.785261
 20
48.095397
  0
LWPOLYLINE
  5
54A
100
AcDbEntity
  8
HIDDEN1
100
AcDbPolyline
 90
        4
 70
   129
 43
0.0
 10
116.333877
 20
75.299253
 10
116.333877
 20
76.549248
 10
118.833867
 20
76.549248
 10
118.833867
 20
75.299253
  0
LWPOLYLINE
  5
54B
100
AcDbEntity
  8
HIDDEN1
100
AcDbPolyline
 90
        4
 70
   129
 43
0.0
 10
118.833867
 20
71.919253
 10
118.833867
 20
73.169248
 10
121.333857
 20
73.169248
 10
121.333857
 20
71.919253
  0
LWPOLYLINE
  5
54C
100
AcDbEntity
  8
HIDDEN1
100
AcDbPolyline
 90
        4
 70
   129
 43
0.0
 10
116.333877
 20
78.799253
 10
116.333877
 20
80.049248
 10
113.833887
 20
80.049248
 10
113.833887
 20
78.799253
  0
LWPOLYLINE
  5
54D
100
AcDbEntity
  8
OBJECT1
100
AcDbPolyline
 90
        4
 70
   129
 43
0.0
 10
94.238872
 20
90.709253
 10
123.678872
 20
90.709253
 10
123.678872
 20
89.902631
 10
94.238872
 20
89.902631
  0
LWPOLYLINE
  5
54E
100
AcDbEntity
  8
OBJECT1
100
AcDbPolyline
 90
        4
 70
   129
 43
0.0
 10
123.613872
 20
89.902631
 10
94.303872
 20
89.902631
 10
94.303872
 20
47.299253
 10
123.613872
 20
47.299253
  0
LINE
  5
54F
100
AcDbEntity
  8
OBJECT1
100
AcDbLine
 10
111.553872
 20
89.902631
 30
0.0
 11
111.553872
 21
47.299253
 31
0.0
  0
CIRCLE
  5
550
100
AcDbEntity
  8
OBJECT1
100
AcDbCircle
 10
97.003872
 20
49.549253
 30
0.0
 40
1.0
  0
CIRCLE
  5
551
100
AcDbEntity
  8
OBJECT1
100
AcDbCircle
 10
106.453872
 20
49.549253
 30
0.0
 40
1.0
  0
CIRCLE
  5
552
100
AcDbEntity
  8
OBJECT1
100
AcDbCircle
 10
100.403872
 20
49.549253
 30
0.0
 40
1.0
  0
CIRCLE
  5
553
100
AcDbEntity
  8
OBJECT1
100
AcDbCircle
 10
122.3175
 20
15.883307
 30
0.0
 40
2.0
  0
CIRCLE
  5
554
100
AcDbEntity
  8
OBJECT1
100
AcDbCircle
 10
119.978872
 20
108.753693
 30
0.0
 40
2.0
  0
CIRCLE
  5
555
100
AcDbEntity
  8
OBJECT1
100
AcDbCircle
 10
116.1175
 20
15.883307
 30
0.0
 40
2.0
  0
CIRCLE
  5
556
100
AcDbEntity
  8
OBJECT1
100
AcDbCircle
 10
113.978872
 20
108.753693
 30
0.0
 40
2.0
  0
LWPOLYLINE
  5
557
100
AcDbEntity
  8
OBJECT1
100
AcDbPolyline
 90
        4
 70
   129
 43
0.0
 10
96.0075
 20
12.843307
 10
125.3175
 20
12.843307
 10
125.3175
 20
20.373307
 10
96.0075
 20
20.373307
  0
CIRCLE
  5
558
100
AcDbEntity
  8
OBJECT1
100
AcDbCircle
 10
111.4875
 20
14.723307
 30
0.0
 40
0.375
  0
CIRCLE
  5
559
100
AcDbEntity
  8
OBJECT1
100
AcDbCircle
 10
114.9075
 20
18.961285
 30
0.0
 40
0.375
  0
CIRCLE
  5
55A
100
AcDbEntity
  8
OBJECT1
100
AcDbCircle
 10
98.6675
 20
14.783307
 30
0.0
 40
1.0
  0
CIRCLE
  5
55B
100
AcDbEntity
  8
OBJECT1
100
AcDbCircle
 10
108.6575
 20
14.783307
 30
0.0
 40
1.0
  0
CIRCLE
  5
55C
100
AcDbEntity
  8
OBJECT1
100
AcDbCircle
 10
105.3275
 20
14.783307
 30
0.0
 40
1.0
  0
CIRCLE
  5
55D
100
AcDbEntity
  8
OBJECT1
100
AcDbCircle
 10
101.9975
 20
14.783307
 30
0.0
 40
1.0
  0
CIRCLE
  5
55E
100
AcDbEntity
  8
OBJECT1
100
AcDbCircle
 10
114.1175
 20
17.883307
 30
0.0
 40
0.25
  0
CIRCLE
  5
55F
100
AcDbEntity
  8
OBJECT1
100
AcDbCircle
 10
111.978872
 20
106.753693
 30
0.0
 40
0.25
  0
CIRCLE
  5
560
100
AcDbEntity
  8
OBJECT1
100
AcDbCircle
 10
120.3175
 20
17.883307
 30
0.0
 40
0.25
  0
CIRCLE
  5
561
100
AcDbEntity
  8
OBJECT1
100
AcDbCircle
 10
117.978872
 20
106.753693
 30
0.0
 40
0.25
  0
CIRCLE
  5
562
100
AcDbEntity
  8
OBJECT1
100
AcDbCircle
 10
118.1175
 20
17.883307
 30
0.0
 40
0.25
  0
CIRCLE
  5
563
100
AcDbEntity
  8
OBJECT1
100
AcDbCircle
 10
115.978872
 20
106.753693
 30
0.0
 40
0.25
  0
CIRCLE
  5
564
100
AcDbEntity
  8
OBJECT1
100
AcDbCircle
 10
124.3175
 20
17.883307
 30
0.0
 40
0.25
  0
CIRCLE
  5
565
100
AcDbEntity
  8
OBJECT1
100
AcDbCircle
 10
121.978872
 20
106.753693
 30
0.0
 40
0.25
  0
CIRCLE
  5
566
100
AcDbEntity
  8
OBJECT1
100
AcDbCircle
 10
118.1175
 20
13.883307
 30
0.0
 40
0.25
  0
CIRCLE
  5
567
100
AcDbEntity
  8
OBJECT1
100
AcDbCircle
 10
115.978872
 20
110.753693
 30
0.0
 40
0.25
  0
CIRCLE
  5
568
100
AcDbEntity
  8
OBJECT1
100
AcDbCircle
 10
124.3175
 20
13.883307
 30
0.0
 40
0.25
  0
CIRCLE
  5
569
100
AcDbEntity
  8
OBJECT1
100
AcDbCircle
 10
121.978872
 20
110.753693
 30
0.0
 40
0.25
  0
CIRCLE
  5
56A
100
AcDbEntity
  8
OBJECT1
100
AcDbCircle
 10
114.1175
 20
13.883307
 30
0.0
 40
0.25
  0
CIRCLE
  5
56B
100
AcDbEntity
  8
OBJECT1
100
AcDbCircle
 10
111.978872
 20
110.753693
 30
0.0
 40
0.25
  0
CIRCLE
  5
56C
100
AcDbEntity
  8
OBJECT1
100
AcDbCircle
 10
120.3175
 20
13.883307
 30
0.0
 40
0.25
  0
CIRCLE
  5
56D
100
AcDbEntity
  8
OBJECT1
100
AcDbCircle
 10
117.978872
 20
110.753693
 30
0.0
 40
0.25
  0
LWPOLYLINE
  5
56E
100
AcDbEntity
  8
OBJECT1
100
AcDbPolyline
 90
        4
 70
   129
 43
0.0
 10
107.13251
 20
21.383307
 10
112.13249
 20
21.383307
 10
112.13249
 20
21.883307
 10
107.13251
 20
21.883307
  0
LWPOLYLINE
  5
56F
100
AcDbEntity
  8
OBJECT1
100
AcDbPolyline
 90
        4
 70
   129
 43
0.0
 10
105.428882
 20
102.243693
 10
110.428862
 20
102.243693
 10
110.428862
 20
101.743693
 10
105.428882
 20
101.743693
  0
LWPOLYLINE
  5
570
100
AcDbEntity
  8
OBJECT1
100
AcDbPolyline
 90
        4
 70
   129
 43
0.0
 10
94.238872
 20
111.333693
 10
123.678872
 20
111.333693
 10
123.678872
 20
103.243693
 10
94.238872
 20
103.243693
  0
TEXT
  5
571
100
AcDbEntity
  8
DIM
100
AcDbText
 10
105.687135
 20
5.449952
 30
0.0
 40
1.2
  1
TYP
 41
0.89305
  7
M_STANDARD
 11
105.687135
 21
6.049952
 31
0.0
100
AcDbText
 73
     2
  0
TEXT
  5
572
100
AcDbEntity
  8
DIM
100
AcDbText
 10
117.52351
 20
61.128562
 30
0.0
 40
1.2
  1
TYP
 41
0.89305
  7
M_STANDARD
 11
117.52351
 21
61.728562
 31
0.0
100
AcDbText
 73
     2
  0
LWPOLYLINE
  5
573
100
AcDbEntity
  8
OBJECT1
100
AcDbPolyline
 90
        9
 70
   129
 43
0.0
 10
108.15758
 20
73.101687
 10
108.72008
 20
73.101687
 10
108.72008
 20
73.851687
 10
108.84508
 20
73.976687
 10
109.78258
 20
73.976687
 10
109.90758
 20
73.851687
 10
109.90758
 20
72.914187
 10
109.78258
 20
72.789187
 10
108.15758
 20
72.789187
  0
LWPOLYLINE
  5
574
100
AcDbEntity
  8
OBJECT1
100
AcDbPolyline
 90
        9
 70
   129
 43
0.0
 10
108.15758
 20
55.101687
 10
108.72008
 20
55.101687
 10
108.72008
 20
55.851687
 10
108.84508
 20
55.976687
 10
109.78258
 20
55.976687
 10
109.90758
 20
55.851687
 10
109.90758
 20
54.914187
 10
109.78258
 20
54.789187
 10
108.15758
 20
54.789187
  0
LWPOLYLINE
  5
575
100
AcDbEntity
  8
OBJECT1
100
AcDbPolyline
 90
        9
 70
   129
 43
0.0
 10
108.15758
 20
64.101687
 10
108.72008
 20
64.101687
 10
108.72008
 20
64.851687
 10
108.84508
 20
64.976687
 10
109.78258
 20
64.976687
 10
109.90758
 20
64.851687
 10
109.90758
 20
63.914187
 10
109.78258
 20
63.789187
 10
108.15758
 20
63.789187
  0
CIRCLE
  5
576
100
AcDbEntity
  8
OBJECT1
100
AcDbCircle
 10
109.31383
 20
73.382937
 30
0.0
 40
0.28125
  0
CIRCLE
  5
577
100
AcDbEntity
  8
OBJECT1
100
AcDbCircle
 10
109.31383
 20
55.382937
 30
0.0
 40
0.28125
  0
CIRCLE
  5
578
100
AcDbEntity
  8
OBJECT1
100
AcDbCircle
 10
109.31383
 20
64.382937
 30
0.0
 40
0.28125
  0
CIRCLE
  5
579
100
AcDbEntity
  8
OBJECT1
100
AcDbCircle
 10
105.008187
 20
72.929712
 30
0.0
 40
0.28125
  0
CIRCLE
  5
57A
100
AcDbEntity
  8
OBJECT1
100
AcDbCircle
 10
105.008187
 20
54.929712
 30
0.0
 40
0.28125
  0
CIRCLE
  5
57B
100
AcDbEntity
  8
OBJECT1
100
AcDbCircle
 10
105.008187
 20
63.929712
 30
0.0
 40
0.28125
  0
LWPOLYLINE
  5
57C
100
AcDbEntity
  8
OBJECT1
100
AcDbPolyline
 90
        3
 70
   128
 43
0.0
 10
102.493872
 20
46.299253
 42
-0.414214
 10
102.683872
 20
46.489253
 42
-0.414214
 10
102.873872
 20
46.299253
  0
LWPOLYLINE
  5
57D
100
AcDbEntity
  8
OBJECT1
100
AcDbPolyline
 90
        3
 70
   128
 43
0.0
 10
115.423872
 20
46.299253
 42
0.414214
 10
115.233872
 20
46.489253
 42
0.414214
 10
115.043872
 20
46.299253
  0
LWPOLYLINE
  5
57E
100
AcDbEntity
  8
OBJECT1
100
AcDbPolyline
 90
        8
 70
   128
 43
0.0
 10
102.493872
 20
46.299253
 10
102.493872
 20
45.499253
 10
101.993872
 20
45.499253
 10
101.993872
 20
47.299253
 10
103.373872
 20
47.299253
 10
103.373872
 20
45.499253
 10
102.873872
 20
45.499253
 10
102.873872
 20
46.299253
  0
LWPOLYLINE
  5
57F
100
AcDbEntity
  8
OBJECT1
100
AcDbPolyline
 90
        8
 70
   128
 43
0.0
 10
115.423872
 20
46.299253
 10
115.423872
 20
45.499253
 10
115.923872
 20
45.499253
 10
115.923872
 20
47.299253
 10
114.543872
 20
47.299253
 10
114.543872
 20
45.499253
 10
115.043872
 20
45.499253
 10
115.043872
 20
46.299253
  0
LWPOLYLINE
  5
580
100
AcDbEntity
  8
OBJECT1
100
AcDbPolyline
 90
       10
 70
   129
 43
0.0
 10
100.393275
 20
78.854046
 10
100.393275
 20
77.854046
 10
100.643275
 20
77.854046
 10
100.643275
 20
75.354046
 10
100.893275
 20
75.104046
 10
101.893275
 20
75.104046
 10
102.143275
 20
75.354046
 10
102.143275
 20
77.854046
 10
102.393275
 20
77.854046
 10
102.393275
 20
78.854046
  0
LWPOLYLINE
  5
581
100
AcDbEntity
  8
OBJECT1
100
AcDbPolyline
 90
       10
 70
   129
 43
0.0
 10
100.393275
 20
60.854046
 10
100.393275
 20
59.854046
 10
100.643275
 20
59.854046
 10
100.643275
 20
57.354046
 10
100.893275
 20
57.104046
 10
101.893275
 20
57.104046
 10
102.143275
 20
57.354046
 10
102.143275
 20
59.854046
 10
102.393275
 20
59.854046
 10
102.393275
 20
60.854046
  0
LWPOLYLINE
  5
582
100
AcDbEntity
  8
OBJECT1
100
AcDbPolyline
 90
       10
 70
   129
 43
0.0
 10
100.393275
 20
69.854046
 10
100.393275
 20
68.854046
 10
100.643275
 20
68.854046
 10
100.643275
 20
66.354046
 10
100.893275
 20
66.104046
 10
101.893275
 20
66.104046
 10
102.143275
 20
66.354046
 10
102.143275
 20
68.854046
 10
102.393275
 20
68.854046
 10
102.393275
 20
69.854046
  0
LINE
  5
583
100
AcDbEntity
  8
OBJECT1
100
AcDbLine
 10
100.893275
 20
75.354046
 30
0.0
 11
101.893275
 21
75.354046
 31
0.0
  0
LINE
  5
584
100
AcDbEntity
  8
OBJECT1
100
AcDbLine
 10
100.893275
 20
57.354046
 30
0.0
 11
101.893275
 21
57.354046
 31
0.0
  0
LINE
  5
585
100
AcDbEntity
  8
OBJECT1
100
AcDbLine
 10
100.893275
 20
66.354046
 30
0.0
 11
101.893275
 21
66.354046
 31
0.0
  0
LWPOLYLINE
  5
586
100
AcDbEntity
  8
OBJECT1
100
AcDbPolyline
 90
        4
 70
   129
 43
0.0
 10
104.303872
 20
80.701276
 10
111.553872
 20
80.701276
 10
111.553872
 20
71.701276
 10
104.303872
 20
71.701276
  0
LWPOLYLINE
  5
587
100
AcDbEntity
  8
OBJECT1
100
AcDbPolyline
 90
        4
 70
   129
 43
0.0
 10
104.303872
 20
62.701276
 10
111.553872
 20
62.701276
 10
111.553872
 20
53.701276
 10
104.303872
 20
53.701276
  0
LWPOLYLINE
  5
588
100
AcDbEntity
  8
OBJECT1
100
AcDbPolyline
 90
        4
 70
   129
 43
0.0
 10
104.303872
 20
71.701276
 10
111.553872
 20
71.701276
 10
111.553872
 20
62.701276
 10
104.303872
 20
62.701276
  0
LWPOLYLINE
  5
589
100
AcDbEntity
  8
OBJECT1
100
AcDbPolyline
 90
        4
 70
   129
 43
0.0
 10
116.59461
 20
76.236749
 10
117.219608
 20
76.236749
 10
117.219608
 20
75.611752
 10
116.59461
 20
75.611752
  0
LWPOLYLINE
  5
58A
100
AcDbEntity
  8
OBJECT1
100
AcDbPolyline
 90
        4
 70
   129
 43
0.0
 10
119.0946
 20
72.856749
 10
119.719598
 20
72.856749
 10
119.719598
 20
72.231752
 10
119.0946
 20
72.231752
  0
LWPOLYLINE
  5
58B
100
AcDbEntity
  8
OBJECT1
100
AcDbPolyline
 90
        4
 70
   129
 43
0.0
 10
116.073144
 20
79.736749
 10
115.448147
 20
79.736749
 10
115.448147
 20
79.111752
 10
116.073144
 20
79.111752
  0
LWPOLYLINE
  5
58C
100
AcDbEntity
  8
OBJECT1
100
AcDbPolyline
 90
        4
 70
   129
 43
0.0
 10
118.573134
 20
76.236749
 10
117.948137
 20
76.236749
 10
117.948137
 20
75.611752
 10
118.573134
 20
75.611752
  0
LWPOLYLINE
  5
58D
100
AcDbEntity
  8
OBJECT1
100
AcDbPolyline
 90
        4
 70
   129
 43
0.0
 10
121.073124
 20
72.856749
 10
120.448127
 20
72.856749
 10
120.448127
 20
72.231752
 10
121.073124
 20
72.231752
  0
LWPOLYLINE
  5
58E
100
AcDbEntity
  8
OBJECT1
100
AcDbPolyline
 90
        4
 70
   129
 43
0.0
 10
114.09462
 20
79.736749
 10
114.719618
 20
79.736749
 10
114.719618
 20
79.111752
 10
114.09462
 20
79.111752
  0
LWPOLYLINE
  5
58F
100
AcDbEntity
  8
OBJECT1
100
AcDbPolyline
 90
        4
 70
   129
 43
0.0
 10
102.9375
 20
20.383307
 10
102.9375
 20
21.383307
 10
100.9375
 20
21.383307
 10
100.9375
 20
20.383307
  0
LWPOLYLINE
  5
590
100
AcDbEntity
  8
OBJECT1
100
AcDbPolyline
 90
        4
 70
   129
 43
0.0
 10
101.233872
 20
102.243693
 10
101.233872
 20
103.243693
 10
99.233872
 20
103.243693
 10
99.233872
 20
102.243693
  0
LWPOLYLINE
  5
591
100
AcDbEntity
  8
OBJECT1
100
AcDbPolyline
 90
        4
 70
   129
 43
0.0
 10
107.63251
 20
21.383307
 10
111.63249
 20
21.383307
 10
111.63249
 20
20.383307
 10
107.63251
 20
20.383307
  0
LWPOLYLINE
  5
592
100
AcDbEntity
  8
OBJECT1
100
AcDbPolyline
 90
        4
 70
   129
 43
0.0
 10
105.928882
 20
102.243693
 10
109.928862
 20
102.243693
 10
109.928862
 20
103.243693
 10
105.928882
 20
103.243693
  0
LWPOLYLINE
  5
593
100
AcDbEntity
  8
OBJECT1
100
AcDbPolyline
 90
        4
 70
   129
 43
0.0
 10
103.482646
 20
52.051009
 10
104.303872
 20
52.051009
 10
104.303872
 20
57.303274
 10
103.482646
 20
57.303274
  0
CIRCLE
  5
594
100
AcDbEntity
  8
OBJECT1
100
AcDbCircle
 10
103.900271
 20
52.602171
 30
0.0
 40
0.28125
  0
CIRCLE
  5
595
100
AcDbEntity
  8
OBJECT1
100
AcDbCircle
 10
103.900271
 20
53.432159
 30
0.0
 40
0.28125
  0
CIRCLE
  5
596
100
AcDbEntity
  8
OBJECT1
100
AcDbCircle
 10
103.900271
 20
54.262148
 30
0.0
 40
0.28125
  0
CIRCLE
  5
597
100
AcDbEntity
  8
OBJECT1
100
AcDbCircle
 10
103.900271
 20
55.092136
 30
0.0
 40
0.28125
  0
CIRCLE
  5
598
100
AcDbEntity
  8
OBJECT1
100
AcDbCircle
 10
103.900271
 20
55.922124
 30
0.0
 40
0.28125
  0
CIRCLE
  5
599
100
AcDbEntity
  8
OBJECT1
100
AcDbCircle
 10
103.900271
 20
56.752112
 30
0.0
 40
0.28125
  0
LWPOLYLINE
  5
59A
100
AcDbEntity
  8
OBJECT1
100
AcDbPolyline
 90
        4
 70
   129
 43
0.0
 10
106.134168
 20
53.701276
 10
106.134168
 20
52.904685
 10
109.648266
 20
52.904685
 10
109.648266
 20
53.701276
  0
CIRCLE
  5
59B
100
AcDbEntity
  8
OBJECT1
100
AcDbCircle
 10
106.646235
 20
53.31069
 30
0.0
 40
0.28125
  0
CIRCLE
  5
59C
100
AcDbEntity
  8
OBJECT1
100
AcDbCircle
 10
107.476223
 20
53.31069
 30
0.0
 40
0.28125
  0
CIRCLE
  5
59D
100
AcDbEntity
  8
OBJECT1
100
AcDbCircle
 10
108.306211
 20
53.31069
 30
0.0
 40
0.28125
  0
CIRCLE
  5
59E
100
AcDbEntity
  8
OBJECT1
100
AcDbCircle
 10
109.136199
 20
53.31069
 30
0.0
 40
0.28125
  0
LWPOLYLINE
  5
59F
100
AcDbEntity
  8
OBJECT1
100
AcDbPolyline
 90
        4
 70
   129
 43
0.0
 10
94.238872
 20
111.99564
 10
123.678872
 20
111.99564
 10
123.678872
 20
111.333693
 10
94.238872
 20
111.333693
  0
LWPOLYLINE
  5
805
100
AcDbEntity
  8
DIM
100
AcDbPolyline
 90
        3
 70
   128
 43
0.0
 10
124.308793
 20
111.333693
 10
125.630479
 20
111.333693
 10
126.2604
 20
111.333693
  0
INSERT
  5
806
100
AcDbEntity
  8
DIM
100
AcDbBlockReference
  2
M_PFN_2
 10
123.678872
 20
111.333693
 30
0.0
 41
16.0
 42
16.0
 43
16.0
  0
LWPOLYLINE
  5
807
100
AcDbEntity
  8
DIM
100
AcDbPolyline
 90
        3
 70
   128
 43
0.0
 10
122.608793
 20
108.753693
 10
125.630479
 20
108.753693
 10
126.2604
 20
108.753693
  0
INSERT
  5
808
100
AcDbEntity
  8
DIM
100
AcDbBlockReference
  2
M_PFN_2
 10
121.978872
 20
108.753693
 30
0.0
 41
16.0
 42
16.0
 43
16.0
  0
TEXT
  5
809
100
AcDbEntity
  8
DIM
100
AcDbText
 10
127.265641
 20
105.748968
 30
0.0
 40
1.6
  1
2.58
 41
0.896304
  7
M_STANDARD
 11
127.265641
 21
106.548968
 31
0.0
100
AcDbText
 73
     2
  0
TEXT
  5
80A
100
AcDbEntity
  8
DIM
100
AcDbText
 10
129.018075
 20
103.509928
 30
0.0
 40
1.28
  1
66
 41
0.882523
  7
M_STANDARD
 72
     1
 11
129.905641
 21
104.789928
 31
0.0
100
AcDbText
 73
     3
  0
LWPOLYLINE
  5
80B
100
AcDbEntity
  8
DIM
100
AcDbPolyline
 90
        3
 70
   128
 43
0.0
 10
126.732841
 20
106.548968
 10
125.630479
 20
106.548968
 10
125.630479
 20
108.753693
  0
LINE
  5
80C
100
AcDbEntity
  8
DIM
100
AcDbLine
 10
125.630479
 20
111.333693
 30
0.0
 11
125.630479
 21
113.538417
 31
0.0
  0
INSERT
  5
80D
100
AcDbEntity
  8
DIM
100
AcDbBlockReference
  2
M_PFN_100
 10
125.630479
 20
108.753693
 30
0.0
 41
16.0
 42
16.0
 43
16.0
 50
90.0
  0
INSERT
  5
80E
100
AcDbEntity
  8
DIM
100
AcDbBlockReference
  2
M_PFN_101
 10
125.630479
 20
111.333693
 30
0.0
 41
16.0
 42
16.0
 43
16.0
 50
90.0
  0
LWPOLYLINE
  5
80F
100
AcDbEntity
  8
DIM
100
AcDbPolyline
 90
        3
 70
   128
 43
0.0
 10
113.978872
 20
111.383614
 10
113.978872
 20
122.070523
 10
113.978872
 20
122.700444
  0
INSERT
  5
810
100
AcDbEntity
  8
DIM
100
AcDbBlockReference
  2
M_PFN_2
 10
113.978872
 20
110.753693
 30
0.0
 41
16.0
 42
16.0
 43
16.0
 50
90.0
  0
LWPOLYLINE
  5
811
100
AcDbEntity
  8
DIM
100
AcDbPolyline
 90
        3
 70
   128
 43
0.0
 10
123.678872
 20
112.625561
 10
123.678872
 20
122.070523
 10
123.678872
 20
122.700444
  0
INSERT
  5
812
100
AcDbEntity
  8
DIM
100
AcDbBlockReference
  2
M_PFN_2
 10
123.678872
 20
111.99564
 30
0.0
 41
16.0
 42
16.0
 43
16.0
 50
90.0
  0
TEXT
  5
813
100
AcDbEntity
  8
DIM
100
AcDbText
 10
116.473756
 20
121.270523
 30
0.0
 40
1.6
  1
9.70
 41
0.93861
  7
M_STANDARD
 11
116.473756
 21
122.070523
 31
0.0
100
AcDbText
 73
     2
  0
TEXT
  5
814
100
AcDbEntity
  8
DIM
100
AcDbText
 10
117.671267
 20
119.031483
 30
0.0
 40
1.28
  1
246
 41
0.89305
  7
M_STANDARD
 72
     1
 11
119.113756
 21
120.311483
 31
0.0
100
AcDbText
 73
     3
  0
LINE
  5
815
100
AcDbEntity
  8
DIM
100
AcDbLine
 10
122.081857
 20
122.070523
 30
0.0
 11
123.678872
 21
122.070523
 31
0.0
  0
LINE
  5
816
100
AcDbEntity
  8
DIM
100
AcDbLine
 10
113.978872
 20
122.070523
 30
0.0
 11
115.940956
 21
122.070523
 31
0.0
  0
INSERT
  5
817
100
AcDbEntity
  8
DIM
100
AcDbBlockReference
  2
M_PFN_100
 10
123.678872
 20
122.070523
 30
0.0
 41
16.0
 42
16.0
 43
16.0
  0
INSERT
  5
818
100
AcDbEntity
  8
DIM
100
AcDbBlockReference
  2
M_PFN_101
 10
113.978872
 20
122.070523
 30
0.0
 41
16.0
 42
16.0
 43
16.0
  0
LWPOLYLINE
  5
819
100
AcDbEntity
  8
DIM
100
AcDbPolyline
 90
        3
 70
   128
 43
0.0
 10
119.978872
 20
111.383614
 10
119.978872
 20
116.489791
 10
119.978872
 20
117.119712
  0
INSERT
  5
81A
100
AcDbEntity
  8
DIM
100
AcDbBlockReference
  2
M_PFN_2
 10
119.978872
 20
110.753693
 30
0.0
 41
16.0
 42
16.0
 43
16.0
 50
90.0
  0
LWPOLYLINE
  5
81B
100
AcDbEntity
  8
DIM
100
AcDbPolyline
 90
        3
 70
   128
 43
0.0
 10
123.678872
 20
112.625561
 10
123.678872
 20
116.489791
 10
123.678872
 20
117.119712
  0
INSERT
  5
81C
100
AcDbEntity
  8
DIM
100
AcDbBlockReference
  2
M_PFN_2
 10
123.678872
 20
111.99564
 30
0.0
 41
16.0
 42
16.0
 43
16.0
 50
90.0
  0
TEXT
  5
81D
100
AcDbEntity
  8
DIM
100
AcDbText
 10
126.416397
 20
115.689791
 30
0.0
 40
1.6
  1
3.70
 41
0.93861
  7
M_STANDARD
 11
126.416397
 21
116.489791
 31
0.0
100
AcDbText
 73
     2
  0
TEXT
  5
81E
100
AcDbEntity
  8
DIM
100
AcDbText
 10
128.115039
 20
113.450751
 30
0.0
 40
1.28
  1
94
 41
0.882523
  7
M_STANDARD
 72
     1
 11
129.056397
 21
114.730751
 31
0.0
100
AcDbText
 73
     3
  0
LINE
  5
81F
100
AcDbEntity
  8
DIM
100
AcDbLine
 10
125.883597
 20
116.489791
 30
0.0
 11
123.678872
 21
116.489791
 31
0.0
  0
LINE
  5
820
100
AcDbEntity
  8
DIM
100
AcDbLine
 10
119.978872
 20
116.489791
 30
0.0
 11
117.774148
 21
116.489791
 31
0.0
  0
INSERT
  5
821
100
AcDbEntity
  8
DIM
100
AcDbBlockReference
  2
M_PFN_100
 10
123.678872
 20
116.489791
 30
0.0
 41
16.0
 42
16.0
 43
16.0
 50
180.0
  0
INSERT
  5
822
100
AcDbEntity
  8
DIM
100
AcDbBlockReference
  2
M_PFN_101
 10
119.978872
 20
116.489791
 30
0.0
 41
16.0
 42
16.0
 43
16.0
 50
180.0
  0
LWPOLYLINE
  5
823
100
AcDbEntity
  8
DIM
100
AcDbPolyline
 90
        3
 70
   128
 43
0.0
 10
111.553872
 20
88.423468
 10
111.553872
 20
87.688606
 10
111.553872
 20
87.058685
  0
INSERT
  5
824
100
AcDbEntity
  8
DIM
100
AcDbBlockReference
  2
M_PFN_2
 10
111.553872
 20
89.05339
 30
0.0
 41
16.0
 42
16.0
 43
16.0
 50
270.0
  0
LWPOLYLINE
  5
825
100
AcDbEntity
  8
DIM
100
AcDbPolyline
 90
        3
 70
   128
 43
0.0
 10
104.303872
 20
88.423468
 10
104.303872
 20
87.688606
 10
104.303872
 20
87.058685
  0
INSERT
  5
826
100
AcDbEntity
  8
DIM
100
AcDbBlockReference
  2
M_PFN_2
 10
104.303872
 20
89.05339
 30
0.0
 41
16.0
 42
16.0
 43
16.0
 50
270.0
  0
TEXT
  5
827
100
AcDbEntity
  8
DIM
100
AcDbText
 10
105.260604
 20
86.888606
 30
0.0
 40
1.6
  1
7.25
 41
0.896304
  7
M_STANDARD
 11
105.260604
 21
87.688606
 31
0.0
100
AcDbText
 73
     2
  0
TEXT
  5
828
100
AcDbEntity
  8
DIM
100
AcDbText
 10
106.512549
 20
84.649566
 30
0.0
 40
1.28
  1
184
 41
0.89305
  7
M_STANDARD
 72
     1
 11
107.900604
 21
85.929566
 31
0.0
100
AcDbText
 73
     3
  0
LINE
  5
829
100
AcDbEntity
  8
DIM
100
AcDbLine
 10
102.099148
 20
87.688606
 30
0.0
 11
104.303872
 21
87.688606
 31
0.0
  0
LINE
  5
82A
100
AcDbEntity
  8
DIM
100
AcDbLine
 10
111.553872
 20
87.688606
 30
0.0
 11
113.758597
 21
87.688606
 31
0.0
  0
INSERT
  5
82B
100
AcDbEntity
  8
DIM
100
AcDbBlockReference
  2
M_PFN_100
 10
104.303872
 20
87.688606
 30
0.0
 41
16.0
 42
16.0
 43
16.0
  0
INSERT
  5
82C
100
AcDbEntity
  8
DIM
100
AcDbBlockReference
  2
M_PFN_101
 10
111.553872
 20
87.688606
 30
0.0
 41
16.0
 42
16.0
 43
16.0
  0
LWPOLYLINE
  5
82D
100
AcDbEntity
  8
DIM
100
AcDbPolyline
 90
        3
 70
   128
 43
0.0
 10
111.058783
 20
68.519253
 10
119.009201
 20
68.519253
 10
119.639123
 20
68.519253
  0
INSERT
  5
82E
100
AcDbEntity
  8
DIM
100
AcDbBlockReference
  2
M_PFN_2
 10
110.428862
 20
68.519253
 30
0.0
 41
16.0
 42
16.0
 43
16.0
  0
LWPOLYLINE
  5
82F
100
AcDbEntity
  8
DIM
100
AcDbPolyline
 90
        3
 70
   128
 43
0.0
 10
111.058783
 20
59.519253
 10
119.009201
 20
59.519253
 10
119.639123
 20
59.519253
  0
INSERT
  5
830
100
AcDbEntity
  8
DIM
100
AcDbBlockReference
  2
M_PFN_2
 10
110.428862
 20
59.519253
 30
0.0
 41
16.0
 42
16.0
 43
16.0
  0
TEXT
  5
831
100
AcDbEntity
  8
DIM
100
AcDbText
 10
116.369202
 20
65.673864
 30
0.0
 40
1.6
  1
9.00
 41
0.93861
  7
M_STANDARD
 11
116.369202
 21
66.473864
 31
0.0
100
AcDbText
 73
     2
  0
TEXT
  5
832
100
AcDbEntity
  8
DIM
100
AcDbText
 10
117.566713
 20
63.434824
 30
0.0
 40
1.28
  1
229
 41
0.89305
  7
M_STANDARD
 72
     1
 11
119.009201
 21
64.714824
 31
0.0
100
AcDbText
 73
     3
  0
LINE
  5
833
100
AcDbEntity
  8
DIM
100
AcDbLine
 10
119.009201
 20
57.314528
 30
0.0
 11
119.009201
 21
59.519253
 31
0.0
  0
LINE
  5
834
100
AcDbEntity
  8
DIM
100
AcDbLine
 10
119.009201
 20
68.519253
 30
0.0
 11
119.009201
 21
70.723977
 31
0.0
  0
INSERT
  5
835
100
AcDbEntity
  8
DIM
100
AcDbBlockReference
  2
M_PFN_100
 10
119.009201
 20
59.519253
 30
0.0
 41
16.0
 42
16.0
 43
16.0
 50
90.0
  0
INSERT
  5
836
100
AcDbEntity
  8
DIM
100
AcDbBlockReference
  2
M_PFN_101
 10
119.009201
 20
68.519253
 30
0.0
 41
16.0
 42
16.0
 43
16.0
 50
90.0
  0
LWPOLYLINE
  5
837
100
AcDbEntity
  8
DIM
100
AcDbPolyline
 90
        3
 70
   128
 43
0.0
 10
100.403872
 20
51.179174
 10
100.403872
 20
55.253466
 10
100.403872
 20
55.883388
  0
INSERT
  5
838
100
AcDbEntity
  8
DIM
100
AcDbBlockReference
  2
M_PFN_2
 10
100.403872
 20
50.549253
 30
0.0
 41
16.0
 42
16.0
 43
16.0
 50
90.0
  0
LINE
  5
839
100
AcDbEntity
  8
DIM
100
AcDbLine
 10
94.303872
 20
55.8667
 30
0.0
 11
94.303872
 21
55.253466
 31
0.0
  0
INSERT
  5
83A
100
AcDbEntity
  8
DIM
100
AcDbBlockReference
  2
M_PFN_2
 10
94.303872
 20
55.8667
 30
0.0
 41
16.0
 42
16.0
 43
16.0
 50
270.0
  0
TEXT
  5
83B
100
AcDbEntity
  8
DIM
100
AcDbText
 10
94.778763
 20
54.453466
 30
0.0
 40
1.6
  1
6.10
 41
0.93861
  7
M_STANDARD
 11
94.778763
 21
55.253466
 31
0.0
100
AcDbText
 73
     2
  0
TEXT
  5
83C
100
AcDbEntity
  8
DIM
100
AcDbText
 10
96.057925
 20
52.214426
 30
0.0
 40
1.28
  1
155
 41
0.89305
  7
M_STANDARD
 72
     1
 11
97.418763
 21
53.494426
 31
0.0
100
AcDbText
 73
     3
  0
LINE
  5
83D
100
AcDbEntity
  8
DIM
100
AcDbLine
 10
92.099148
 20
55.253466
 30
0.0
 11
94.303872
 21
55.253466
 31
0.0
  0
LINE
  5
83E
100
AcDbEntity
  8
DIM
100
AcDbLine
 10
100.403872
 20
55.253466
 30
0.0
 11
102.608597
 21
55.253466
 31
0.0
  0
INSERT
  5
83F
100
AcDbEntity
  8
DIM
100
AcDbBlockReference
  2
M_PFN_100
 10
94.303872
 20
55.253466
 30
0.0
 41
16.0
 42
16.0
 43
16.0
  0
INSERT
  5
840
100
AcDbEntity
  8
DIM
100
AcDbBlockReference
  2
M_PFN_101
 10
100.403872
 20
55.253466
 30
0.0
 41
16.0
 42
16.0
 43
16.0
  0
LWPOLYLINE
  5
841
100
AcDbEntity
  8
DIM
100
AcDbPolyline
 90
        3
 70
   128
 43
0.0
 10
123.678872
 20
91.339174
 10
123.678872
 20
95.592369
 10
123.678872
 20
96.222291
  0
INSERT
  5
842
100
AcDbEntity
  8
DIM
100
AcDbBlockReference
  2
M_PFN_2
 10
123.678872
 20
90.709253
 30
0.0
 41
16.0
 42
16.0
 43
16.0
 50
90.0
  0
LWPOLYLINE
  5
843
100
AcDbEntity
  8
DIM
100
AcDbPolyline
 90
        3
 70
   128
 43
0.0
 10
94.238872
 20
91.339174
 10
94.238872
 20
95.592369
 10
94.238872
 20
96.222291
  0
INSERT
  5
844
100
AcDbEntity
  8
DIM
100
AcDbBlockReference
  2
M_PFN_2
 10
94.238872
 20
90.709253
 30
0.0
 41
16.0
 42
16.0
 43
16.0
 50
90.0
  0
TEXT
  5
845
100
AcDbEntity
  8
DIM
100
AcDbText
 10
105.598872
 20
94.792369
 30
0.0
 40
1.6
  1
29.44
 41
0.897713
  7
M_STANDARD
 11
105.598872
 21
95.592369
 31
0.0
100
AcDbText
 73
     2
  0
TEXT
  5
846
100
AcDbEntity
  8
DIM
100
AcDbText
 10
107.489167
 20
92.553329
 30
0.0
 40
1.28
  1
748
 41
0.89305
  7
M_STANDARD
 72
     1
 11
108.958872
 21
93.833329
 31
0.0
100
AcDbText
 73
     3
  0
LINE
  5
847
100
AcDbEntity
  8
DIM
100
AcDbLine
 10
94.238872
 20
95.592369
 30
0.0
 11
105.066072
 21
95.592369
 31
0.0
  0
LINE
  5
848
100
AcDbEntity
  8
DIM
100
AcDbLine
 10
112.851672
 20
95.592369
 30
0.0
 11
123.678872
 21
95.592369
 31
0.0
  0
INSERT
  5
849
100
AcDbEntity
  8
DIM
100
AcDbBlockReference
  2
M_PFN_101
 10
94.238872
 20
95.592369
 30
0.0
 41
16.0
 42
16.0
 43
16.0
  0
INSERT
  5
84A
100
AcDbEntity
  8
DIM
100
AcDbBlockReference
  2
M_PFN_100
 10
123.678872
 20
95.592369
 30
0.0
 41
16.0
 42
16.0
 43
16.0
  0
LWPOLYLINE
  5
84B
100
AcDbEntity
  8
DIM
100
AcDbPolyline
 90
        3
 70
   128
 43
0.0
 10
115.233872
 20
45.669332
 10
115.233872
 20
39.906459
 10
115.233872
 20
39.276537
  0
INSERT
  5
84C
100
AcDbEntity
  8
DIM
100
AcDbBlockReference
  2
M_PFN_2
 10
115.233872
 20
46.299253
 30
0.0
 41
16.0
 42
16.0
 43
16.0
 50
270.0
  0
LWPOLYLINE
  5
84D
100
AcDbEntity
  8
DIM
100
AcDbPolyline
 90
        3
 70
   128
 43
0.0
 10
102.683872
 20
45.669332
 10
102.683872
 20
39.906459
 10
102.683872
 20
39.276537
  0
INSERT
  5
84E
100
AcDbEntity
  8
DIM
100
AcDbBlockReference
  2
M_PFN_2
 10
102.683872
 20
46.299253
 30
0.0
 41
16.0
 42
16.0
 43
16.0
 50
270.0
  0
TEXT
  5
84F
100
AcDbEntity
  8
DIM
100
AcDbText
 10
106.508125
 20
39.106459
 30
0.0
 40
1.6
  1
12.55
 50
0.0
 41
0.897713
  7
M_STANDARD
 11
106.508125
 21
39.906459
 31
0.0
100
AcDbText
 73
     2
  0
TEXT
  5
850
100
AcDbEntity
  8
DIM
100
AcDbText
 10
108.534503
 20
36.867419
 30
0.0
 40
1.28
  1
319
 50
0.0
 41
0.89305
  7
M_STANDARD
 72
     1
 11
109.868125
 21
38.147419
 31
0.0
100
AcDbText
 73
     3
  0
LINE
  5
851
100
AcDbEntity
  8
DIM
100
AcDbLine
 10
102.683872
 20
39.906459
 30
0.0
 11
106.453872
 21
39.906459
 31
0.0
  0
LINE
  5
852
100
AcDbEntity
  8
DIM
100
AcDbLine
 10
113.619797
 20
39.906459
 30
0.0
 11
115.233872
 21
39.906459
 31
0.0
  0
INSERT
  5
853
100
AcDbEntity
  8
DIM
100
AcDbBlockReference
  2
M_PFN_101
 10
102.683872
 20
39.906459
 30
0.0
 41
16.0
 42
16.0
 43
16.0
  0
INSERT
  5
854
100
AcDbEntity
  8
DIM
100
AcDbBlockReference
  2
M_PFN_100
 10
115.233872
 20
39.906459
 30
0.0
 41
16.0
 42
16.0
 43
16.0
  0
LWPOLYLINE
  5
855
100
AcDbEntity
  8
DIM
100
AcDbPolyline
 90
        3
 70
   128
 43
0.0
 10
123.613872
 20
46.669332
 10
123.613872
 20
39.906459
 10
123.613872
 20
39.276537
  0
INSERT
  5
856
100
AcDbEntity
  8
DIM
100
AcDbBlockReference
  2
M_PFN_2
 10
123.613872
 20
47.299253
 30
0.0
 41
16.0
 42
16.0
 43
16.0
 50
270.0
  0
LWPOLYLINE
  5
857
100
AcDbEntity
  8
DIM
100
AcDbPolyline
 90
        3
 70
   128
 43
0.0
 10
115.233872
 20
45.669332
 10
115.233872
 20
39.906459
 10
115.233872
 20
39.276537
  0
INSERT
  5
858
100
AcDbEntity
  8
DIM
100
AcDbBlockReference
  2
M_PFN_2
 10
115.233872
 20
46.299253
 30
0.0
 41
16.0
 42
16.0
 43
16.0
 50
270.0
  0
TEXT
  5
859
100
AcDbEntity
  8
DIM
100
AcDbText
 10
116.80955
 20
39.106459
 30
0.0
 40
1.6
  1
8.38
 41
0.896304
  7
M_STANDARD
 11
116.80955
 21
39.906459
 31
0.0
100
AcDbText
 73
     2
  0
TEXT
  5
85A
100
AcDbEntity
  8
DIM
100
AcDbText
 10
118.088712
 20
36.867419
 30
0.0
 40
1.28
  1
213
 41
0.89305
  7
M_STANDARD
 72
     1
 11
119.44955
 21
38.147419
 31
0.0
100
AcDbText
 73
     3
  0
LINE
  5
85B
100
AcDbEntity
  8
DIM
100
AcDbLine
 10
113.619797
 20
39.906459
 30
0.0
 11
115.233872
 21
39.906459
 31
0.0
  0
LINE
  5
85C
100
AcDbEntity
  8
DIM
100
AcDbLine
 10
123.613872
 20
39.906459
 30
0.0
 11
125.818597
 21
39.906459
 31
0.0
  0
INSERT
  5
85D
100
AcDbEntity
  8
DIM
100
AcDbBlockReference
  2
M_PFN_100
 10
115.233872
 20
39.906459
 30
0.0
 41
16.0
 42
16.0
 43
16.0
  0
INSERT
  5
85E
100
AcDbEntity
  8
DIM
100
AcDbBlockReference
  2
M_PFN_101
 10
123.613872
 20
39.906459
 30
0.0
 41
16.0
 42
16.0
 43
16.0
  0
LWPOLYLINE
  5
85F
100
AcDbEntity
  8
DIM
100
AcDbPolyline
 90
        3
 70
   128
 43
0.0
 10
114.9075
 20
17.956364
 10
114.9075
 20
-0.341576
 10
114.9075
 20
-0.971498
  0
INSERT
  5
860
100
AcDbEntity
  8
DIM
100
AcDbBlockReference
  2
M_PFN_2
 10
114.9075
 20
18.586285
 30
0.0
 41
16.0
 42
16.0
 43
16.0
 50
270.0
  0
LWPOLYLINE
  5
861
100
AcDbEntity
  8
DIM
100
AcDbPolyline
 90
        3
 70
   128
 43
0.0
 10
125.3175
 20
11.550985
 10
125.3175
 20
-0.341576
 10
125.3175
 20
-0.971498
  0
INSERT
  5
862
100
AcDbEntity
  8
DIM
100
AcDbBlockReference
  2
M_PFN_2
 10
125.3175
 20
12.180907
 30
0.0
 41
16.0
 42
16.0
 43
16.0
 50
270.0
  0
TEXT
  5
863
100
AcDbEntity
  8
DIM
100
AcDbText
 10
116.569601
 20
-1.141576
 30
0.0
 40
1.6
  1
10.41
 50
0.0
 41
0.966376
  7
M_STANDARD
 11
116.569601
 21
-0.341576
 31
0.0
100
AcDbText
 73
     2
  0
TEXT
  5
864
100
AcDbEntity
  8
DIM
100
AcDbText
 10
118.432678
 20
-3.380616
 30
0.0
 40
1.28
  1
264
 50
0.0
 41
0.89305
  7
M_STANDARD
 72
     1
 11
119.929601
 21
-2.100616
 31
0.0
100
AcDbText
 73
     3
  0
LINE
  5
865
100
AcDbEntity
  8
DIM
100
AcDbLine
 10
127.522224
 20
-0.341576
 30
0.0
 11
125.3175
 21
-0.341576
 31
0.0
  0
LINE
  5
866
100
AcDbEntity
  8
DIM
100
AcDbLine
 10
114.9075
 20
-0.341576
 30
0.0
 11
112.702775
 21
-0.341576
 31
0.0
  0
INSERT
  5
867
100
AcDbEntity
  8
DIM
100
AcDbBlockReference
  2
M_PFN_100
 10
125.3175
 20
-0.341576
 30
0.0
 41
16.0
 42
16.0
 43
16.0
 50
180.0
  0
INSERT
  5
868
100
AcDbEntity
  8
DIM
100
AcDbBlockReference
  2
M_PFN_101
 10
114.9075
 20
-0.341576
 30
0.0
 41
16.0
 42
16.0
 43
16.0
 50
180.0
  0
LWPOLYLINE
  5
869
100
AcDbEntity
  8
DIM
100
AcDbPolyline
 90
        3
 70
   128
 43
0.0
 10
116.1175
 20
13.253385
 10
116.1175
 20
4.875195
 10
116.1175
 20
4.245273
  0
INSERT
  5
86A
100
AcDbEntity
  8
DIM
100
AcDbBlockReference
  2
M_PFN_2
 10
116.1175
 20
13.883307
 30
0.0
 41
16.0
 42
16.0
 43
16.0
 50
270.0
  0
LWPOLYLINE
  5
86B
100
AcDbEntity
  8
DIM
100
AcDbPolyline
 90
        3
 70
   128
 43
0.0
 10
125.3175
 20
11.550985
 10
125.3175
 20
4.875195
 10
125.3175
 20
4.245273
  0
INSERT
  5
86C
100
AcDbEntity
  8
DIM
100
AcDbBlockReference
  2
M_PFN_2
 10
125.3175
 20
12.180907
 30
0.0
 41
16.0
 42
16.0
 43
16.0
 50
270.0
  0
TEXT
  5
86D
100
AcDbEntity
  8
DIM
100
AcDbText
 10
118.130305
 20
4.075195
 30
0.0
 40
1.6
  1
9.20
 41
0.93861
  7
M_STANDARD
 11
118.130305
 21
4.875195
 31
0.0
100
AcDbText
 73
     2
  0
TEXT
  5
86E
100
AcDbEntity
  8
DIM
100
AcDbText
 10
119.273383
 20
1.836155
 30
0.0
 40
1.28
  1
234
 41
0.89305
  7
M_STANDARD
 72
     1
 11
120.770305
 21
3.116155
 31
0.0
100
AcDbText
 73
     3
  0
LINE
  5
86F
100
AcDbEntity
  8
DIM
100
AcDbLine
 10
127.522224
 20
4.875195
 30
0.0
 11
125.3175
 21
4.875195
 31
0.0
  0
LINE
  5
870
100
AcDbEntity
  8
DIM
100
AcDbLine
 10
116.1175
 20
4.875195
 30
0.0
 11
113.912775
 21
4.875195
 31
0.0
  0
INSERT
  5
871
100
AcDbEntity
  8
DIM
100
AcDbBlockReference
  2
M_PFN_100
 10
125.3175
 20
4.875195
 30
0.0
 41
16.0
 42
16.0
 43
16.0
 50
180.0
  0
INSERT
  5
872
100
AcDbEntity
  8
DIM
100
AcDbBlockReference
  2
M_PFN_101
 10
116.1175
 20
4.875195
 30
0.0
 41
16.0
 42
16.0
 43
16.0
 50
180.0
  0
LWPOLYLINE
  5
873
100
AcDbEntity
  8
DIM
100
AcDbPolyline
 90
        3
 70
   128
 43
0.0
 10
122.3175
 20
13.253385
 10
122.3175
 20
8.636122
 10
122.3175
 20
8.006201
  0
INSERT
  5
874
100
AcDbEntity
  8
DIM
100
AcDbBlockReference
  2
M_PFN_2
 10
122.3175
 20
13.883307
 30
0.0
 41
16.0
 42
16.0
 43
16.0
 50
270.0
  0
LWPOLYLINE
  5
875
100
AcDbEntity
  8
DIM
100
AcDbPolyline
 90
        3
 70
   128
 43
0.0
 10
125.3175
 20
12.213385
 10
125.3175
 20
8.636122
 10
125.3175
 20
8.006201
  0
INSERT
  5
876
100
AcDbEntity
  8
DIM
100
AcDbBlockReference
  2
M_PFN_2
 10
125.3175
 20
12.843307
 30
0.0
 41
16.0
 42
16.0
 43
16.0
 50
270.0
  0
TEXT
  5
877
100
AcDbEntity
  8
DIM
100
AcDbText
 10
128.055024
 20
7.836122
 30
0.0
 40
1.6
  1
3.00
 41
0.93861
  7
M_STANDARD
 11
128.055024
 21
8.636122
 31
0.0
100
AcDbText
 73
     2
  0
TEXT
  5
878
100
AcDbEntity
  8
DIM
100
AcDbText
 10
129.807458
 20
5.597082
 30
0.0
 40
1.28
  1
76
 41
0.882523
  7
M_STANDARD
 72
     1
 11
130.695024
 21
6.877082
 31
0.0
100
AcDbText
 73
     3
  0
LINE
  5
879
100
AcDbEntity
  8
DIM
100
AcDbLine
 10
127.522224
 20
8.636122
 30
0.0
 11
125.3175
 21
8.636122
 31
0.0
  0
LINE
  5
87A
100
AcDbEntity
  8
DIM
100
AcDbLine
 10
122.3175
 20
8.636122
 30
0.0
 11
120.112775
 21
8.636122
 31
0.0
  0
INSERT
  5
87B
100
AcDbEntity
  8
DIM
100
AcDbBlockReference
  2
M_PFN_100
 10
125.3175
 20
8.636122
 30
0.0
 41
16.0
 42
16.0
 43
16.0
 50
180.0
  0
INSERT
  5
87C
100
AcDbEntity
  8
DIM
100
AcDbBlockReference
  2
M_PFN_101
 10
122.3175
 20
8.636122
 30
0.0
 41
16.0
 42
16.0
 43
16.0
 50
180.0
  0
LWPOLYLINE
  5
87D
100
AcDbEntity
  8
DIM
100
AcDbPolyline
 90
        3
 70
   128
 43
0.0
 10
125.947421
 20
12.843307
 10
129.6487
 20
12.843307
 10
130.278621
 20
12.843307
  0
INSERT
  5
87E
100
AcDbEntity
  8
DIM
100
AcDbBlockReference
  2
M_PFN_2
 10
125.3175
 20
12.843307
 30
0.0
 41
16.0
 42
16.0
 43
16.0
  0
LWPOLYLINE
  5
87F
100
AcDbEntity
  8
DIM
100
AcDbPolyline
 90
        3
 70
   128
 43
0.0
 10
124.947421
 20
15.883307
 10
129.6487
 20
15.883307
 10
130.278621
 20
15.883307
  0
INSERT
  5
880
100
AcDbEntity
  8
DIM
100
AcDbBlockReference
  2
M_PFN_2
 10
124.3175
 20
15.883307
 30
0.0
 41
16.0
 42
16.0
 43
16.0
  0
TEXT
  5
881
100
AcDbEntity
  8
DIM
100
AcDbText
 10
132.125023
 20
20.414507
 30
0.0
 40
1.6
  1
3.04
 41
0.896304
  7
M_STANDARD
 72
     2
 11
136.563862
 21
21.214507
 31
0.0
100
AcDbText
 73
     2
  0
TEXT
  5
882
100
AcDbEntity
  8
DIM
100
AcDbText
 10
133.0094
 20
18.175467
 30
0.0
 40
1.28
  1
77
 41
0.882523
  7
M_STANDARD
 72
     1
 11
133.923862
 21
19.455467
 31
0.0
100
AcDbText
 73
     3
  0
LWPOLYLINE
  5
883
100
AcDbEntity
  8
DIM
100
AcDbPolyline
 90
        3
 70
   128
 43
0.0
 10
130.751062
 20
21.214507
 10
129.6487
 20
21.214507
 10
129.6487
 20
15.883307
  0
LINE
  5
884
100
AcDbEntity
  8
DIM
100
AcDbLine
 10
129.6487
 20
12.843307
 30
0.0
 11
129.6487
 21
10.638582
 31
0.0
  0
INSERT
  5
885
100
AcDbEntity
  8
DIM
100
AcDbBlockReference
  2
M_PFN_100
 10
129.6487
 20
15.883307
 30
0.0
 41
16.0
 42
16.0
 43
16.0
 50
270.0
  0
INSERT
  5
886
100
AcDbEntity
  8
DIM
100
AcDbBlockReference
  2
M_PFN_101
 10
129.6487
 20
12.843307
 30
0.0
 41
16.0
 42
16.0
 43
16.0
 50
270.0
  0
LWPOLYLINE
  5
887
100
AcDbEntity
  8
DIM
100
AcDbPolyline
 90
        3
 70
   128
 43
0.0
 10
97.037578
 20
14.783307
 10
91.87311
 20
14.783307
 10
91.243189
 20
14.783307
  0
INSERT
  5
888
100
AcDbEntity
  8
DIM
100
AcDbBlockReference
  2
M_PFN_2
 10
97.6675
 20
14.783307
 30
0.0
 41
16.0
 42
16.0
 43
16.0
 50
180.0
  0
LWPOLYLINE
  5
889
100
AcDbEntity
  8
DIM
100
AcDbPolyline
 90
        3
 70
   128
 43
0.0
 10
95.377578
 20
12.843307
 10
91.87311
 20
12.843307
 10
91.243189
 20
12.843307
  0
INSERT
  5
88A
100
AcDbEntity
  8
DIM
100
AcDbBlockReference
  2
M_PFN_2
 10
96.0075
 20
12.843307
 30
0.0
 41
16.0
 42
16.0
 43
16.0
 50
180.0
  0
TEXT
  5
88B
100
AcDbEntity
  8
DIM
100
AcDbText
 10
84.957948
 20
9.838582
 30
0.0
 40
1.6
  1
1.94
 41
0.896304
  7
M_STANDARD
 11
84.957948
 21
10.638582
 31
0.0
100
AcDbText
 73
     2
  0
TEXT
  5
88C
100
AcDbEntity
  8
DIM
100
AcDbText
 10
86.710383
 20
7.599542
 30
0.0
 40
1.28
  1
49
 41
0.882523
  7
M_STANDARD
 72
     1
 11
87.597948
 21
8.879542
 31
0.0
100
AcDbText
 73
     3
  0
LWPOLYLINE
  5
88D
100
AcDbEntity
  8
DIM
100
AcDbPolyline
 90
        3
 70
   128
 43
0.0
 10
90.770748
 20
10.638582
 10
91.87311
 20
10.638582
 10
91.87311
 20
12.843307
  0
LINE
  5
88E
100
AcDbEntity
  8
DIM
100
AcDbLine
 10
91.87311
 20
14.783307
 30
0.0
 11
91.87311
 21
16.988031
 31
0.0
  0
INSERT
  5
88F
100
AcDbEntity
  8
DIM
100
AcDbBlockReference
  2
M_PFN_100
 10
91.87311
 20
12.843307
 30
0.0
 41
16.0
 42
16.0
 43
16.0
 50
90.0
  0
INSERT
  5
890
100
AcDbEntity
  8
DIM
100
AcDbBlockReference
  2
M_PFN_101
 10
91.87311
 20
14.783307
 30
0.0
 41
16.0
 42
16.0
 43
16.0
 50
90.0
  0
LWPOLYLINE
  5
891
100
AcDbEntity
  8
DIM
100
AcDbPolyline
 90
        3
 70
   128
 43
0.0
 10
95.377578
 20
12.843307
 10
81.92485
 20
12.843307
 10
81.294928
 20
12.843307
  0
INSERT
  5
892
100
AcDbEntity
  8
DIM
100
AcDbBlockReference
  2
M_PFN_2
 10
96.0075
 20
12.843307
 30
0.0
 41
16.0
 42
16.0
 43
16.0
 50
180.0
  0
LWPOLYLINE
  5
893
100
AcDbEntity
  8
DIM
100
AcDbPolyline
 90
        3
 70
   128
 43
0.0
 10
95.377578
 20
20.373307
 10
81.92485
 20
20.373307
 10
81.294928
 20
20.373307
  0
INSERT
  5
894
100
AcDbEntity
  8
DIM
100
AcDbBlockReference
  2
M_PFN_2
 10
96.0075
 20
20.373307
 30
0.0
 41
16.0
 42
16.0
 43
16.0
 50
180.0
  0
TEXT
  5
895
100
AcDbEntity
  8
DIM
100
AcDbText
 10
79.28485
 20
17.054739
 30
0.0
 40
1.6
  1
7.53
 41
0.896304
  7
M_STANDARD
 11
79.28485
 21
17.854739
 31
0.0
100
AcDbText
 73
     2
  0
TEXT
  5
896
100
AcDbEntity
  8
DIM
100
AcDbText
 10
80.652542
 20
14.815699
 30
0.0
 40
1.28
  1
191
 41
1.018234
  7
M_STANDARD
 72
     1
 11
81.92485
 21
16.095699
 31
0.0
100
AcDbText
 73
     3
  0
LINE
  5
897
100
AcDbEntity
  8
DIM
100
AcDbLine
 10
81.92485
 20
23.073232
 30
0.0
 11
81.92485
 21
20.373307
 31
0.0
  0
LINE
  5
898
100
AcDbEntity
  8
DIM
100
AcDbLine
 10
81.92485
 20
12.843307
 30
0.0
 11
81.92485
 21
10.638582
 31
0.0
  0
INSERT
  5
899
100
AcDbEntity
  8
DIM
100
AcDbBlockReference
  2
M_PFN_100
 10
81.92485
 20
20.373307
 30
0.0
 41
16.0
 42
16.0
 43
16.0
 50
270.0
  0
INSERT
  5
89A
100
AcDbEntity
  8
DIM
100
AcDbBlockReference
  2
M_PFN_101
 10
81.92485
 20
12.843307
 30
0.0
 41
16.0
 42
16.0
 43
16.0
 50
270.0
  0
LWPOLYLINE
  5
89B
100
AcDbEntity
  8
DIM
100
AcDbPolyline
 90
        3
 70
   128
 43
0.0
 10
125.3175
 20
21.003228
 10
125.3175
 20
27.562082
 10
125.3175
 20
28.192003
  0
INSERT
  5
89C
100
AcDbEntity
  8
DIM
100
AcDbBlockReference
  2
M_PFN_2
 10
125.3175
 20
20.373307
 30
0.0
 41
16.0
 42
16.0
 43
16.0
 50
90.0
  0
LWPOLYLINE
  5
89D
100
AcDbEntity
  8
DIM
100
AcDbPolyline
 90
        3
 70
   128
 43
0.0
 10
96.0075
 20
21.003228
 10
96.0075
 20
27.562082
 10
96.0075
 20
28.192003
  0
INSERT
  5
89E
100
AcDbEntity
  8
DIM
100
AcDbBlockReference
  2
M_PFN_2
 10
96.0075
 20
20.373307
 30
0.0
 41
16.0
 42
16.0
 43
16.0
 50
90.0
  0
TEXT
  5
89F
100
AcDbEntity
  8
DIM
100
AcDbText
 10
107.3025
 20
26.762082
 30
0.0
 40
1.6
  1
29.31
 41
0.966376
  7
M_STANDARD
 11
107.3025
 21
27.562082
 31
0.0
100
AcDbText
 73
     2
  0
TEXT
  5
8A0
100
AcDbEntity
  8
DIM
100
AcDbText
 10
109.165577
 20
24.523042
 30
0.0
 40
1.28
  1
744
 41
0.89305
  7
M_STANDARD
 72
     1
 11
110.6625
 21
25.803042
 31
0.0
100
AcDbText
 73
     3
  0
LINE
  5
8A1
100
AcDbEntity
  8
DIM
100
AcDbLine
 10
96.0075
 20
27.562082
 30
0.0
 11
106.7697
 21
27.562082
 31
0.0
  0
LINE
  5
8A2
100
AcDbEntity
  8
DIM
100
AcDbLine
 10
114.5553
 20
27.562082
 30
0.0
 11
125.3175
 21
27.562082
 31
0.0
  0
INSERT
  5
8A3
100
AcDbEntity
  8
DIM
100
AcDbBlockReference
  2
M_PFN_101
 10
96.0075
 20
27.562082
 30
0.0
 41
16.0
 42
16.0
 43
16.0
  0
INSERT
  5
8A4
100
AcDbEntity
  8
DIM
100
AcDbBlockReference
  2
M_PFN_100
 10
125.3175
 20
27.562082
 30
0.0
 41
16.0
 42
16.0
 43
16.0
  0
LWPOLYLINE
  5
8A5
100
AcDbEntity
  8
DIM
100
AcDbPolyline
 90
        3
 70
   128
 43
0.0
 10
106.453872
 20
46.669332
 10
106.453872
 20
35.447886
 10
106.453872
 20
34.817965
  0
INSERT
  5
8A6
100
AcDbEntity
  8
DIM
100
AcDbBlockReference
  2
M_PFN_2
 10
106.453872
 20
47.299253
 30
0.0
 41
16.0
 42
16.0
 43
16.0
 50
270.0
  0
LWPOLYLINE
  5
8A7
100
AcDbEntity
  8
DIM
100
AcDbPolyline
 90
        3
 70
   128
 43
0.0
 10
94.303872
 20
46.669332
 10
94.303872
 20
35.447886
 10
94.303872
 20
34.817965
  0
INSERT
  5
8A8
100
AcDbEntity
  8
DIM
100
AcDbBlockReference
  2
M_PFN_2
 10
94.303872
 20
47.299253
 30
0.0
 41
16.0
 42
16.0
 43
16.0
 50
270.0
  0
TEXT
  5
8A9
100
AcDbEntity
  8
DIM
100
AcDbText
 10
96.996348
 20
34.647886
 30
0.0
 40
1.6
  1
12.15
 41
0.897713
  7
M_STANDARD
 11
96.996348
 21
35.447886
 31
0.0
100
AcDbText
 73
     2
  0
TEXT
  5
8AA
100
AcDbEntity
  8
DIM
100
AcDbText
 10
98.913859
 20
32.408846
 30
0.0
 40
1.28
  1
309
 41
0.89305
  7
M_STANDARD
 72
     1
 11
100.356348
 21
33.688846
 31
0.0
100
AcDbText
 73
     3
  0
LINE
  5
8AB
100
AcDbEntity
  8
DIM
100
AcDbLine
 10
96.463548
 20
35.447886
 30
0.0
 11
94.303872
 21
35.447886
 31
0.0
  0
LINE
  5
8AC
100
AcDbEntity
  8
DIM
100
AcDbLine
 10
106.453872
 20
35.447886
 30
0.0
 11
104.611732
 21
35.447886
 31
0.0
  0
INSERT
  5
8AD
100
AcDbEntity
  8
DIM
100
AcDbBlockReference
  2
M_PFN_100
 10
94.303872
 20
35.447886
 30
0.0
 41
16.0
 42
16.0
 43
16.0
 50
180.0
  0
INSERT
  5
8AE
100
AcDbEntity
  8
DIM
100
AcDbBlockReference
  2
M_PFN_101
 10
106.453872
 20
35.447886
 30
0.0
 41
16.0
 42
16.0
 43
16.0
 50
180.0
  0
LWPOLYLINE
  5
8AF
100
AcDbEntity
  8
DIM
100
AcDbPolyline
 90
        3
 70
   128
 43
0.0
 10
111.4875
 20
13.718385
 10
111.4875
 20
-0.341576
 10
111.4875
 20
-0.971498
  0
INSERT
  5
8B0
100
AcDbEntity
  8
DIM
100
AcDbBlockReference
  2
M_PFN_2
 10
111.4875
 20
14.348307
 30
0.0
 41
16.0
 42
16.0
 43
16.0
 50
270.0
  0
LWPOLYLINE
  5
8B1
100
AcDbEntity
  8
DIM
100
AcDbPolyline
 90
        3
 70
   128
 43
0.0
 10
96.0075
 20
11.550985
 10
96.0075
 20
-0.341576
 10
96.0075
 20
-0.971498
  0
INSERT
  5
8B2
100
AcDbEntity
  8
DIM
100
AcDbBlockReference
  2
M_PFN_2
 10
96.0075
 20
12.180907
 30
0.0
 41
16.0
 42
16.0
 43
16.0
 50
270.0
  0
TEXT
  5
8B3
100
AcDbEntity
  8
DIM
100
AcDbText
 10
100.3875
 20
-1.141576
 30
0.0
 40
1.6
  1
15.48
 50
360.0
 41
0.897713
  7
M_STANDARD
 11
100.3875
 21
-0.341576
 31
0.0
100
AcDbText
 73
     2
  0
TEXT
  5
8B4
100
AcDbEntity
  8
DIM
100
AcDbText
 10
102.277794
 20
-3.380616
 30
0.0
 40
1.28
  1
393
 50
360.0
 41
0.89305
  7
M_STANDARD
 72
     1
 11
103.7475
 21
-2.100616
 31
0.0
100
AcDbText
 73
     3
  0
LINE
  5
8B5
100
AcDbEntity
  8
DIM
100
AcDbLine
 10
96.0075
 20
-0.341576
 30
0.0
 11
99.8547
 21
-0.341576
 31
0.0
  0
LINE
  5
8B6
100
AcDbEntity
  8
DIM
100
AcDbLine
 10
107.6403
 20
-0.341576
 30
0.0
 11
111.4875
 21
-0.341576
 31
0.0
  0
INSERT
  5
8B7
100
AcDbEntity
  8
DIM
100
AcDbBlockReference
  2
M_PFN_101
 10
96.0075
 20
-0.341576
 30
0.0
 41
16.0
 42
16.0
 43
16.0
  0
INSERT
  5
8B8
100
AcDbEntity
  8
DIM
100
AcDbBlockReference
  2
M_PFN_100
 10
111.4875
 20
-0.341576
 30
0.0
 41
16.0
 42
16.0
 43
16.0
  0
LWPOLYLINE
  5
8B9
100
AcDbEntity
  8
DIM
100
AcDbPolyline
 90
        3
 70
   128
 43
0.0
 10
98.6675
 20
12.430985
 10
98.6675
 20
10.638582
 10
98.6675
 20
10.008661
  0
INSERT
  5
8BA
100
AcDbEntity
  8
DIM
100
AcDbBlockReference
  2
M_PFN_2
 10
98.6675
 20
13.060907
 30
0.0
 41
16.0
 42
16.0
 43
16.0
 50
270.0
  0
LWPOLYLINE
  5
8BB
100
AcDbEntity
  8
DIM
100
AcDbPolyline
 90
        3
 70
   128
 43
0.0
 10
101.9975
 20
13.153385
 10
101.9975
 20
10.638582
 10
101.9975
 20
10.008661
  0
INSERT
  5
8BC
100
AcDbEntity
  8
DIM
100
AcDbBlockReference
  2
M_PFN_2
 10
101.9975
 20
13.783307
 30
0.0
 41
16.0
 42
16.0
 43
16.0
 50
270.0
  0
TEXT
  5
8BD
100
AcDbEntity
  8
DIM
100
AcDbText
 10
104.735024
 20
9.838582
 30
0.0
 40
1.6
  1
3.33
 41
0.896304
  7
M_STANDARD
 11
104.735024
 21
10.638582
 31
0.0
100
AcDbText
 73
     2
  0
TEXT
  5
8BE
100
AcDbEntity
  8
DIM
100
AcDbText
 10
106.460562
 20
7.599542
 30
0.0
 40
1.28
  1
85
 41
0.882523
  7
M_STANDARD
 72
     1
 11
107.375024
 21
8.879542
 31
0.0
100
AcDbText
 73
     3
  0
LINE
  5
8BF
100
AcDbEntity
  8
DIM
100
AcDbLine
 10
104.202224
 20
10.638582
 30
0.0
 11
101.9975
 21
10.638582
 31
0.0
  0
LINE
  5
8C0
100
AcDbEntity
  8
DIM
100
AcDbLine
 10
98.6675
 20
10.638582
 30
0.0
 11
96.462775
 21
10.638582
 31
0.0
  0
INSERT
  5
8C1
100
AcDbEntity
  8
DIM
100
AcDbBlockReference
  2
M_PFN_100
 10
101.9975
 20
10.638582
 30
0.0
 41
16.0
 42
16.0
 43
16.0
 50
180.0
  0
INSERT
  5
8C2
100
AcDbEntity
  8
DIM
100
AcDbBlockReference
  2
M_PFN_101
 10
98.6675
 20
10.638582
 30
0.0
 41
16.0
 42
16.0
 43
16.0
 50
180.0
  0
LWPOLYLINE
  5
8C3
100
AcDbEntity
  8
DIM
100
AcDbPolyline
 90
        3
 70
   128
 43
0.0
 10
98.6675
 20
13.153385
 10
98.6675
 20
4.875195
 10
98.6675
 20
4.245273
  0
INSERT
  5
8C4
100
AcDbEntity
  8
DIM
100
AcDbBlockReference
  2
M_PFN_2
 10
98.6675
 20
13.783307
 30
0.0
 41
16.0
 42
16.0
 43
16.0
 50
270.0
  0
LWPOLYLINE
  5
8C5
100
AcDbEntity
  8
DIM
100
AcDbPolyline
 90
        3
 70
   128
 43
0.0
 10
96.0075
 20
12.213385
 10
96.0075
 20
4.875195
 10
96.0075
 20
4.245273
  0
INSERT
  5
8C6
100
AcDbEntity
  8
DIM
100
AcDbBlockReference
  2
M_PFN_2
 10
96.0075
 20
12.843307
 30
0.0
 41
16.0
 42
16.0
 43
16.0
 50
270.0
  0
TEXT
  5
8C7
100
AcDbEntity
  8
DIM
100
AcDbText
 10
87.989975
 20
4.075195
 30
0.0
 40
1.6
  1
2.66
 41
0.896304
  7
M_STANDARD
 11
87.989975
 21
4.875195
 31
0.0
100
AcDbText
 73
     2
  0
TEXT
  5
8C8
100
AcDbEntity
  8
DIM
100
AcDbText
 10
89.715514
 20
1.836155
 30
0.0
 40
1.28
  1
68
 41
0.882523
  7
M_STANDARD
 72
     1
 11
90.629975
 21
3.116155
 31
0.0
100
AcDbText
 73
     3
  0
LINE
  5
8C9
100
AcDbEntity
  8
DIM
100
AcDbLine
 10
93.802775
 20
4.875195
 30
0.0
 11
96.0075
 21
4.875195
 31
0.0
  0
LINE
  5
8CA
100
AcDbEntity
  8
DIM
100
AcDbLine
 10
98.6675
 20
4.875195
 30
0.0
 11
100.872224
 21
4.875195
 31
0.0
  0
INSERT
  5
8CB
100
AcDbEntity
  8
DIM
100
AcDbBlockReference
  2
M_PFN_100
 10
96.0075
 20
4.875195
 30
0.0
 41
16.0
 42
16.0
 43
16.0
  0
INSERT
  5
8CC
100
AcDbEntity
  8
DIM
100
AcDbBlockReference
  2
M_PFN_101
 10
98.6675
 20
4.875195
 30
0.0
 41
16.0
 42
16.0
 43
16.0
  0
LWPOLYLINE
  5
8CD
100
AcDbEntity
  8
DIM
100
AcDbPolyline
 90
        3
 70
   128
 43
0.0
 10
124.243793
 20
47.299253
 10
128.420823
 20
47.299253
 10
129.050744
 20
47.299253
  0
INSERT
  5
8CE
100
AcDbEntity
  8
DIM
100
AcDbBlockReference
  2
M_PFN_2
 10
123.613872
 20
47.299253
 30
0.0
 41
16.0
 42
16.0
 43
16.0
  0
LWPOLYLINE
  5
8CF
100
AcDbEntity
  8
DIM
100
AcDbPolyline
 90
        3
 70
   128
 43
0.0
 10
121.963778
 20
71.919253
 10
128.420823
 20
71.919253
 10
129.050744
 20
71.919253
  0
INSERT
  5
8D0
100
AcDbEntity
  8
DIM
100
AcDbBlockReference
  2
M_PFN_2
 10
121.333857
 20
71.919253
 30
0.0
 41
16.0
 42
16.0
 43
16.0
  0
TEXT
  5
8D1
100
AcDbEntity
  8
DIM
100
AcDbText
 10
125.060823
 20
55.545352
 30
0.0
 40
1.6
  1
24.62
 41
0.897713
  7
M_STANDARD
 11
125.060823
 21
56.345352
 31
0.0
100
AcDbText
 73
     2
  0
TEXT
  5
8D2
100
AcDbEntity
  8
DIM
100
AcDbText
 10
126.951117
 20
53.306312
 30
0.0
 40
1.28
  1
625
 41
0.89305
  7
M_STANDARD
 72
     1
 11
128.420823
 21
54.586312
 31
0.0
100
AcDbText
 73
     3
  0
LINE
  5
8D3
100
AcDbEntity
  8
DIM
100
AcDbLine
 10
128.420823
 20
71.919253
 30
0.0
 11
128.420823
 21
57.678152
 31
0.0
  0
LINE
  5
8D4
100
AcDbEntity
  8
DIM
100
AcDbLine
 10
128.420823
 20
52.346952
 30
0.0
 11
128.420823
 21
47.299253
 31
0.0
  0
INSERT
  5
8D5
100
AcDbEntity
  8
DIM
100
AcDbBlockReference
  2
M_PFN_101
 10
128.420823
 20
71.919253
 30
0.0
 41
16.0
 42
16.0
 43
16.0
 50
270.0
  0
INSERT
  5
8D6
100
AcDbEntity
  8
DIM
100
AcDbBlockReference
  2
M_PFN_100
 10
128.420823
 20
47.299253
 30
0.0
 41
16.0
 42
16.0
 43
16.0
 50
270.0
  0
LWPOLYLINE
  5
8D7
100
AcDbEntity
  8
DIM
100
AcDbPolyline
 90
        3
 70
   128
 43
0.0
 10
97.003872
 20
47.919332
 10
97.003872
 20
39.906459
 10
97.003872
 20
39.276537
  0
INSERT
  5
8D8
100
AcDbEntity
  8
DIM
100
AcDbBlockReference
  2
M_PFN_2
 10
97.003872
 20
48.549253
 30
0.0
 41
16.0
 42
16.0
 43
16.0
 50
270.0
  0
LWPOLYLINE
  5
8D9
100
AcDbEntity
  8
DIM
100
AcDbPolyline
 90
        3
 70
   128
 43
0.0
 10
94.303872
 20
46.669332
 10
94.303872
 20
39.906459
 10
94.303872
 20
39.276537
  0
INSERT
  5
8DA
100
AcDbEntity
  8
DIM
100
AcDbBlockReference
  2
M_PFN_2
 10
94.303872
 20
47.299253
 30
0.0
 41
16.0
 42
16.0
 43
16.0
 50
270.0
  0
TEXT
  5
8DB
100
AcDbEntity
  8
DIM
100
AcDbText
 10
86.286348
 20
39.106459
 30
0.0
 40
1.6
  1
2.70
 41
0.93861
  7
M_STANDARD
 11
86.286348
 21
39.906459
 31
0.0
100
AcDbText
 73
     2
  0
TEXT
  5
8DC
100
AcDbEntity
  8
DIM
100
AcDbText
 10
88.038782
 20
36.867419
 30
0.0
 40
1.28
  1
69
 41
0.882523
  7
M_STANDARD
 72
     1
 11
88.926348
 21
38.147419
 31
0.0
100
AcDbText
 73
     3
  0
LINE
  5
8DD
100
AcDbEntity
  8
DIM
100
AcDbLine
 10
92.099148
 20
39.906459
 30
0.0
 11
94.303872
 21
39.906459
 31
0.0
  0
LINE
  5
8DE
100
AcDbEntity
  8
DIM
100
AcDbLine
 10
97.003872
 20
39.906459
 30
0.0
 11
99.208597
 21
39.906459
 31
0.0
  0
INSERT
  5
8DF
100
AcDbEntity
  8
DIM
100
AcDbBlockReference
  2
M_PFN_100
 10
94.303872
 20
39.906459
 30
0.0
 41
16.0
 42
16.0
 43
16.0
  0
INSERT
  5
8E0
100
AcDbEntity
  8
DIM
100
AcDbBlockReference
  2
M_PFN_101
 10
97.003872
 20
39.906459
 30
0.0
 41
16.0
 42
16.0
 43
16.0
  0
LWPOLYLINE
  5
8E1
100
AcDbEntity
  8
DIM
100
AcDbPolyline
 90
        3
 70
   128
 43
0.0
 10
95.373951
 20
49.549253
 10
92.099148
 20
49.549253
 10
91.469227
 20
49.549253
  0
INSERT
  5
8E2
100
AcDbEntity
  8
DIM
100
AcDbBlockReference
  2
M_PFN_2
 10
96.003872
 20
49.549253
 30
0.0
 41
16.0
 42
16.0
 43
16.0
 50
180.0
  0
LWPOLYLINE
  5
8E3
100
AcDbEntity
  8
DIM
100
AcDbPolyline
 90
        3
 70
   128
 43
0.0
 10
93.673951
 20
47.299253
 10
92.099148
 20
47.299253
 10
91.469227
 20
47.299253
  0
INSERT
  5
8E4
100
AcDbEntity
  8
DIM
100
AcDbBlockReference
  2
M_PFN_2
 10
94.303872
 20
47.299253
 30
0.0
 41
16.0
 42
16.0
 43
16.0
 50
180.0
  0
TEXT
  5
8E5
100
AcDbEntity
  8
DIM
100
AcDbText
 10
85.183986
 20
44.294528
 30
0.0
 40
1.6
  1
2.25
 41
0.896304
  7
M_STANDARD
 11
85.183986
 21
45.094528
 31
0.0
100
AcDbText
 73
     2
  0
TEXT
  5
8E6
100
AcDbEntity
  8
DIM
100
AcDbText
 10
86.909524
 20
42.055488
 30
0.0
 40
1.28
  1
57
 41
0.882523
  7
M_STANDARD
 72
     1
 11
87.823986
 21
43.335488
 31
0.0
100
AcDbText
 73
     3
  0
LWPOLYLINE
  5
8E7
100
AcDbEntity
  8
DIM
100
AcDbPolyline
 90
        3
 70
   128
 43
0.0
 10
90.996786
 20
45.094528
 10
92.099148
 20
45.094528
 10
92.099148
 20
47.299253
  0
LINE
  5
8E8
100
AcDbEntity
  8
DIM
100
AcDbLine
 10
92.099148
 20
49.549253
 30
0.0
 11
92.099148
 21
51.753977
 31
0.0
  0
INSERT
  5
8E9
100
AcDbEntity
  8
DIM
100
AcDbBlockReference
  2
M_PFN_100
 10
92.099148
 20
47.299253
 30
0.0
 41
16.0
 42
16.0
 43
16.0
 50
90.0
  0
INSERT
  5
8EA
100
AcDbEntity
  8
DIM
100
AcDbBlockReference
  2
M_PFN_101
 10
92.099148
 20
49.549253
 30
0.0
 41
16.0
 42
16.0
 43
16.0
 50
90.0
  0
LWPOLYLINE
  5
8EB
100
AcDbEntity
  8
DIM
100
AcDbPolyline
 90
        3
 70
   128
 43
0.0
 10
124.243793
 20
47.299253
 10
144.799052
 20
47.299253
 10
145.428974
 20
47.299253
  0
INSERT
  5
8EC
100
AcDbEntity
  8
DIM
100
AcDbBlockReference
  2
M_PFN_2
 10
123.613872
 20
47.299253
 30
0.0
 41
16.0
 42
16.0
 43
16.0
  0
LWPOLYLINE
  5
8ED
100
AcDbEntity
  8
DIM
100
AcDbPolyline
 90
        3
 70
   128
 43
0.0
 10
124.243793
 20
90.709253
 10
144.799052
 20
90.709253
 10
145.428974
 20
90.709253
  0
INSERT
  5
8EE
100
AcDbEntity
  8
DIM
100
AcDbBlockReference
  2
M_PFN_2
 10
123.613872
 20
90.709253
 30
0.0
 41
16.0
 42
16.0
 43
16.0
  0
TEXT
  5
8EF
100
AcDbEntity
  8
DIM
100
AcDbText
 10
141.439052
 20
71.07434
 30
0.0
 40
1.6
  1
43.41
 41
0.966376
  7
M_STANDARD
 11
141.439052
 21
71.87434
 31
0.0
100
AcDbText
 73
     2
  0
TEXT
  5
8F0
100
AcDbEntity
  8
DIM
100
AcDbText
 10
142.996201
 20
68.8353
 30
0.0
 40
1.28
  1
1103
 41
0.896304
  7
M_STANDARD
 72
     1
 11
144.799052
 21
70.1153
 31
0.0
100
AcDbText
 73
     3
  0
LINE
  5
8F1
100
AcDbEntity
  8
DIM
100
AcDbLine
 10
144.799052
 20
90.709253
 30
0.0
 11
144.799052
 21
73.20714
 31
0.0
  0
LINE
  5
8F2
100
AcDbEntity
  8
DIM
100
AcDbLine
 10
144.799052
 20
67.87594
 30
0.0
 11
144.799052
 21
47.299253
 31
0.0
  0
INSERT
  5
8F3
100
AcDbEntity
  8
DIM
100
AcDbBlockReference
  2
M_PFN_101
 10
144.799052
 20
90.709253
 30
0.0
 41
16.0
 42
16.0
 43
16.0
 50
270.0
  0
INSERT
  5
8F4
100
AcDbEntity
  8
DIM
100
AcDbBlockReference
  2
M_PFN_100
 10
144.799052
 20
47.299253
 30
0.0
 41
16.0
 42
16.0
 43
16.0
 50
270.0
  0
LWPOLYLINE
  5
8F5
100
AcDbEntity
  8
DIM
100
AcDbPolyline
 90
        3
 70
   128
 43
0.0
 10
116.963798
 20
78.799253
 10
139.097002
 20
78.799253
 10
139.726923
 20
78.799253
  0
INSERT
  5
8F6
100
AcDbEntity
  8
DIM
100
AcDbBlockReference
  2
M_PFN_2
 10
116.333877
 20
78.799253
 30
0.0
 41
16.0
 42
16.0
 43
16.0
  0
LWPOLYLINE
  5
8F7
100
AcDbEntity
  8
DIM
100
AcDbPolyline
 90
        3
 70
   128
 43
0.0
 10
124.243793
 20
47.299253
 10
139.097002
 20
47.299253
 10
139.726923
 20
47.299253
  0
INSERT
  5
8F8
100
AcDbEntity
  8
DIM
100
AcDbBlockReference
  2
M_PFN_2
 10
123.613872
 20
47.299253
 30
0.0
 41
16.0
 42
16.0
 43
16.0
  0
TEXT
  5
8F9
100
AcDbEntity
  8
DIM
100
AcDbText
 10
135.737002
 20
65.857571
 30
0.0
 40
1.6
  1
31.50
 50
0.0
 41
0.930783
  7
M_STANDARD
 11
135.737002
 21
66.657571
 31
0.0
100
AcDbText
 73
     2
  0
TEXT
  5
8FA
100
AcDbEntity
  8
DIM
100
AcDbText
 10
137.530975
 20
63.618531
 30
0.0
 40
1.28
  1
800
 50
0.0
 41
0.951579
  7
M_STANDARD
 72
     1
 11
139.097002
 21
64.898531
 31
0.0
100
AcDbText
 73
     3
  0
LINE
  5
8FB
100
AcDbEntity
  8
DIM
100
AcDbLine
 10
139.097002
 20
47.299253
 30
0.0
 11
139.097002
 21
62.659171
 31
0.0
  0
LINE
  5
8FC
100
AcDbEntity
  8
DIM
100
AcDbLine
 10
139.097002
 20
67.990371
 30
0.0
 11
139.097002
 21
78.799253
 31
0.0
  0
INSERT
  5
8FD
100
AcDbEntity
  8
DIM
100
AcDbBlockReference
  2
M_PFN_101
 10
139.097002
 20
47.299253
 30
0.0
 41
16.0
 42
16.0
 43
16.0
 50
90.0
  0
INSERT
  5
8FE
100
AcDbEntity
  8
DIM
100
AcDbBlockReference
  2
M_PFN_100
 10
139.097002
 20
78.799253
 30
0.0
 41
16.0
 42
16.0
 43
16.0
 50
90.0
  0
LWPOLYLINE
  5
8FF
100
AcDbEntity
  8
DIM
100
AcDbPolyline
 90
        3
 70
   128
 43
0.0
 10
119.463788
 20
75.299253
 10
133.819573
 20
75.299253
 10
134.449494
 20
75.299253
  0
INSERT
  5
900
100
AcDbEntity
  8
DIM
100
AcDbBlockReference
  2
M_PFN_2
 10
118.833867
 20
75.299253
 30
0.0
 41
16.0
 42
16.0
 43
16.0
  0
LWPOLYLINE
  5
901
100
AcDbEntity
  8
DIM
100
AcDbPolyline
 90
        3
 70
   128
 43
0.0
 10
124.243793
 20
47.299253
 10
133.819573
 20
47.299253
 10
134.449494
 20
47.299253
  0
INSERT
  5
902
100
AcDbEntity
  8
DIM
100
AcDbBlockReference
  2
M_PFN_2
 10
123.613872
 20
47.299253
 30
0.0
 41
16.0
 42
16.0
 43
16.0
  0
TEXT
  5
903
100
AcDbEntity
  8
DIM
100
AcDbText
 10
130.459573
 20
60.701462
 30
0.0
 40
1.6
  1
28.00
 50
0.0
 41
0.930783
  7
M_STANDARD
 11
130.459573
 21
61.501462
 31
0.0
100
AcDbText
 73
     2
  0
TEXT
  5
904
100
AcDbEntity
  8
DIM
100
AcDbText
 10
132.547265
 20
58.462422
 30
0.0
 40
1.28
  1
711
 50
0.0
 41
1.018234
  7
M_STANDARD
 72
     1
 11
133.819573
 21
59.742422
 31
0.0
100
AcDbText
 73
     3
  0
LINE
  5
905
100
AcDbEntity
  8
DIM
100
AcDbLine
 10
133.819573
 20
47.299253
 30
0.0
 11
133.819573
 21
57.503062
 31
0.0
  0
LINE
  5
906
100
AcDbEntity
  8
DIM
100
AcDbLine
 10
133.819573
 20
62.834262
 30
0.0
 11
133.819573
 21
75.299253
 31
0.0
  0
INSERT
  5
907
100
AcDbEntity
  8
DIM
100
AcDbBlockReference
  2
M_PFN_101
 10
133.819573
 20
47.299253
 30
0.0
 41
16.0
 42
16.0
 43
16.0
 50
90.0
  0
INSERT
  5
908
100
AcDbEntity
  8
DIM
100
AcDbBlockReference
  2
M_PFN_100
 10
133.819573
 20
75.299253
 30
0.0
 41
16.0
 42
16.0
 43
16.0
 50
90.0
  0
INSERT
  5
909
100
AcDbEntity
  8
DIM
100
AcDbBlockReference
  2
M_PFN_2
 10
119.009201
 20
47.299253
 30
0.0
 41
16.0
 42
16.0
 43
16.0
  0
LWPOLYLINE
  5
90A
100
AcDbEntity
  8
DIM
100
AcDbPolyline
 90
        3
 70
   128
 43
0.0
 10
111.058783
 20
59.519253
 10
119.009201
 20
59.519253
 10
119.639123
 20
59.519253
  0
INSERT
  5
90B
100
AcDbEntity
  8
DIM
100
AcDbBlockReference
  2
M_PFN_2
 10
110.428862
 20
59.519253
 30
0.0
 41
16.0
 42
16.0
 43
16.0
  0
TEXT
  5
90C
100
AcDbEntity
  8
DIM
100
AcDbText
 10
115.649202
 20
53.723823
 30
0.0
 40
1.6
  1
12.22
 41
0.897713
  7
M_STANDARD
 11
115.649202
 21
54.523823
 31
0.0
100
AcDbText
 73
     2
  0
TEXT
  5
90D
100
AcDbEntity
  8
DIM
100
AcDbText
 10
117.559177
 20
51.484783
 30
0.0
 40
1.28
  1
310
 41
0.951579
  7
M_STANDARD
 72
     1
 11
119.009201
 21
52.764783
 31
0.0
100
AcDbText
 73
     3
  0
LINE
  5
90E
100
AcDbEntity
  8
DIM
100
AcDbLine
 10
119.009201
 20
55.981388
 30
0.0
 11
119.009201
 21
59.519253
 31
0.0
  0
LINE
  5
90F
100
AcDbEntity
  8
DIM
100
AcDbLine
 10
119.009201
 20
47.299253
 30
0.0
 11
119.009201
 21
50.885938
 31
0.0
  0
INSERT
  5
910
100
AcDbEntity
  8
DIM
100
AcDbBlockReference
  2
M_PFN_100
 10
119.009201
 20
59.519253
 30
0.0
 41
16.0
 42
16.0
 43
16.0
 50
90.0
  0
INSERT
  5
911
100
AcDbEntity
  8
DIM
100
AcDbBlockReference
  2
M_PFN_101
 10
119.009201
 20
47.299253
 30
0.0
 41
16.0
 42
16.0
 43
16.0
 50
90.0
  0
LWPOLYLINE
  5
912
100
AcDbEntity
  8
DIM
100
AcDbPolyline
 90
        3
 70
   128
 43
0.0
 10
176.23717
 20
108.034464
 10
176.23717
 20
119.238369
 10
176.23717
 20
119.868291
  0
INSERT
  5
913
100
AcDbEntity
  8
DIM
100
AcDbBlockReference
  2
M_PFN_2
 10
176.23717
 20
107.404543
 30
0.0
 41
16.0
 42
16.0
 43
16.0
 50
90.0
  0
LWPOLYLINE
  5
914
100
AcDbEntity
  8
DIM
100
AcDbPolyline
 90
        3
 70
   128
 43
0.0
 10
160.225249
 20
111.967642
 10
160.225249
 20
119.238369
 10
160.225249
 20
119.868291
  0
INSERT
  5
915
100
AcDbEntity
  8
DIM
100
AcDbBlockReference
  2
M_PFN_2
 10
160.225249
 20
111.337721
 30
0.0
 41
16.0
 42
16.0
 43
16.0
 50
90.0
  0
TEXT
  5
916
100
AcDbEntity
  8
DIM
100
AcDbText
 10
164.87121
 20
118.438369
 30
0.0
 40
1.6
  1
8.28
 41
0.896304
  7
M_STANDARD
 11
164.87121
 21
119.238369
 31
0.0
100
AcDbText
 73
     2
  0
TEXT
  5
917
100
AcDbEntity
  8
DIM
100
AcDbText
 10
166.781185
 20
116.199329
 30
0.0
 40
1.28
  1
210
 41
0.951579
  7
M_STANDARD
 72
     1
 11
168.23121
 21
117.479329
 31
0.0
100
AcDbText
 73
     3
  0
LINE
  5
918
100
AcDbEntity
  8
DIM
100
AcDbLine
 10
160.225249
 20
119.238369
 30
0.0
 11
164.33841
 21
119.238369
 31
0.0
  0
LINE
  5
919
100
AcDbEntity
  8
DIM
100
AcDbLine
 10
172.12401
 20
119.238369
 30
0.0
 11
176.23717
 21
119.238369
 31
0.0
  0
INSERT
  5
91A
100
AcDbEntity
  8
DIM
100
AcDbBlockReference
  2
M_PFN_101
 10
160.225249
 20
119.238369
 30
0.0
 41
16.0
 42
16.0
 43
16.0
  0
INSERT
  5
91B
100
AcDbEntity
  8
DIM
100
AcDbBlockReference
  2
M_PFN_100
 10
176.23717
 20
119.238369
 30
0.0
 41
16.0
 42
16.0
 43
16.0
  0
LWPOLYLINE
  5
91C
100
AcDbEntity
  8
DIM
100
AcDbPolyline
 90
        3
 70
   128
 43
0.0
 10
175.895308
 20
109.087721
 10
178.581566
 20
109.087721
 10
179.211487
 20
109.087721
  0
INSERT
  5
91D
100
AcDbEntity
  8
DIM
100
AcDbBlockReference
  2
M_PFN_2
 10
175.265387
 20
109.087721
 30
0.0
 41
16.0
 42
16.0
 43
16.0
  0
LWPOLYLINE
  5
91E
100
AcDbEntity
  8
DIM
100
AcDbPolyline
 90
        3
 70
   128
 43
0.0
 10
176.867092
 20
103.087721
 10
178.581566
 20
103.087721
 10
179.211487
 20
103.087721
  0
INSERT
  5
91F
100
AcDbEntity
  8
DIM
100
AcDbBlockReference
  2
M_PFN_2
 10
176.23717
 20
103.087721
 30
0.0
 41
16.0
 42
16.0
 43
16.0
  0
TEXT
  5
920
100
AcDbEntity
  8
DIM
100
AcDbText
 10
180.216728
 20
100.082996
 30
0.0
 40
1.6
  1
.75
 41
0.89305
  7
M_STANDARD
 11
180.216728
 21
100.882996
 31
0.0
100
AcDbText
 73
     2
  0
TEXT
  5
921
100
AcDbEntity
  8
DIM
100
AcDbText
 10
181.166272
 20
97.843956
 30
0.0
 40
1.28
  1
19
 41
0.882523
  7
M_STANDARD
 72
     1
 11
181.946254
 21
99.123956
 31
0.0
100
AcDbText
 73
     3
  0
LWPOLYLINE
  5
922
100
AcDbEntity
  8
DIM
100
AcDbPolyline
 90
        3
 70
   128
 43
0.0
 10
179.683928
 20
100.882996
 10
178.581566
 20
100.882996
 10
178.581566
 20
103.087721
  0
LINE
  5
923
100
AcDbEntity
  8
DIM
100
AcDbLine
 10
178.581566
 20
109.087721
 30
0.0
 11
178.581566
 21
111.292445
 31
0.0
  0
INSERT
  5
924
100
AcDbEntity
  8
DIM
100
AcDbBlockReference
  2
M_PFN_100
 10
178.581566
 20
103.087721
 30
0.0
 41
16.0
 42
16.0
 43
16.0
 50
90.0
  0
INSERT
  5
925
100
AcDbEntity
  8
DIM
100
AcDbBlockReference
  2
M_PFN_101
 10
178.581566
 20
109.087721
 30
0.0
 41
16.0
 42
16.0
 43
16.0
 50
90.0
  0
LWPOLYLINE
  5
926
100
AcDbEntity
  8
DIM
100
AcDbPolyline
 90
        3
 70
   128
 43
0.0
 10
278.879982
 20
36.464502
 10
269.86271
 20
36.464502
 10
269.232789
 20
36.464502
  0
INSERT
  5
927
100
AcDbEntity
  8
DIM
100
AcDbBlockReference
  2
M_PFN_2
 10
279.509903
 20
36.464502
 30
0.0
 41
16.0
 42
16.0
 43
16.0
 50
180.0
  0
LWPOLYLINE
  5
928
100
AcDbEntity
  8
DIM
100
AcDbPolyline
 90
        3
 70
   128
 43
0.0
 10
278.879982
 20
47.536502
 10
269.86271
 20
47.536502
 10
269.232789
 20
47.536502
  0
INSERT
  5
929
100
AcDbEntity
  8
DIM
100
AcDbBlockReference
  2
M_PFN_2
 10
279.509903
 20
47.536502
 30
0.0
 41
16.0
 42
16.0
 43
16.0
 50
180.0
  0
TEXT
  5
92A
100
AcDbEntity
  8
DIM
100
AcDbText
 10
267.22271
 20
42.533302
 30
0.0
 40
1.6
  1
1.73
 41
0.896304
  7
M_STANDARD
 11
267.22271
 21
43.333302
 31
0.0
100
AcDbText
 73
     2
  0
TEXT
  5
92B
100
AcDbEntity
  8
DIM
100
AcDbText
 10
268.921353
 20
40.294262
 30
0.0
 40
1.28
  1
44
 41
0.882523
  7
M_STANDARD
 72
     1
 11
269.86271
 21
41.574262
 31
0.0
100
AcDbText
 73
     3
  0
LINE
  5
92C
100
AcDbEntity
  8
DIM
100
AcDbLine
 10
269.86271
 20
47.536502
 30
0.0
 11
269.86271
 21
44.666102
 31
0.0
  0
LINE
  5
92D
100
AcDbEntity
  8
DIM
100
AcDbLine
 10
269.86271
 20
39.334902
 30
0.0
 11
269.86271
 21
36.464502
 31
0.0
  0
INSERT
  5
92E
100
AcDbEntity
  8
DIM
100
AcDbBlockReference
  2
M_PFN_101
 10
269.86271
 20
47.536502
 30
0.0
 41
16.0
 42
16.0
 43
16.0
 50
270.0
  0
INSERT
  5
92F
100
AcDbEntity
  8
DIM
100
AcDbBlockReference
  2
M_PFN_100
 10
269.86271
 20
36.464502
 30
0.0
 41
16.0
 42
16.0
 43
16.0
 50
270.0
  0
LWPOLYLINE
  5
930
100
AcDbEntity
  8
DIM
100
AcDbPolyline
 90
        3
 70
   128
 43
0.0
 10
282.479982
 20
41.456502
 10
275.146167
 20
41.456502
 10
274.516245
 20
41.456502
  0
INSERT
  5
931
100
AcDbEntity
  8
DIM
100
AcDbBlockReference
  2
M_PFN_2
 10
283.109903
 20
41.456502
 30
0.0
 41
16.0
 42
16.0
 43
16.0
 50
180.0
  0
LWPOLYLINE
  5
932
100
AcDbEntity
  8
DIM
100
AcDbPolyline
 90
        3
 70
   128
 43
0.0
 10
278.879982
 20
47.536502
 10
275.146167
 20
47.536502
 10
274.516245
 20
47.536502
  0
INSERT
  5
933
100
AcDbEntity
  8
DIM
100
AcDbBlockReference
  2
M_PFN_2
 10
279.509903
 20
47.536502
 30
0.0
 41
16.0
 42
16.0
 43
16.0
 50
180.0
  0
TEXT
  5
934
100
AcDbEntity
  8
DIM
100
AcDbText
 10
269.76861
 20
52.067702
 30
0.0
 40
1.6
  1
.95
 41
0.89305
  7
M_STANDARD
 11
269.76861
 21
52.867702
 31
0.0
100
AcDbText
 73
     2
  0
TEXT
  5
935
100
AcDbEntity
  8
DIM
100
AcDbText
 10
270.954717
 20
49.828662
 30
0.0
 40
1.28
  1
24
 41
0.882523
  7
M_STANDARD
 72
     1
 11
271.896075
 21
51.108662
 31
0.0
100
AcDbText
 73
     3
  0
LWPOLYLINE
  5
936
100
AcDbEntity
  8
DIM
100
AcDbPolyline
 90
        3
 70
   128
 43
0.0
 10
274.043804
 20
52.867702
 10
275.146167
 20
52.867702
 10
275.146167
 20
47.536502
  0
LINE
  5
937
100
AcDbEntity
  8
DIM
100
AcDbLine
 10
275.146167
 20
41.456502
 30
0.0
 11
275.146167
 21
39.251777
 31
0.0
  0
INSERT
  5
938
100
AcDbEntity
  8
DIM
100
AcDbBlockReference
  2
M_PFN_100
 10
275.146167
 20
47.536502
 30
0.0
 41
16.0
 42
16.0
 43
16.0
 50
270.0
  0
INSERT
  5
939
100
AcDbEntity
  8
DIM
100
AcDbBlockReference
  2
M_PFN_101
 10
275.146167
 20
41.456502
 30
0.0
 41
16.0
 42
16.0
 43
16.0
 50
270.0
  0
LWPOLYLINE
  5
96C
102
{ACAD_REACTORS
330
96D
102
}
100
AcDbEntity
  8
0
 62
     0
100
AcDbPolyline
 90
        6
 70
     1
 43
0.0
 10
53.422438
 20
131.073611
 10
315.822454
 20
131.073611
 10
315.821978
 20
-20.724817
 10
181.46181
 20
-20.724817
 10
181.46181
 20
-35.316816
 10
53.422438
 20
-35.316816
  0
VIEWPORT
  5
96D
102
{ACAD_XDICTIONARY
360
9D5
102
}
100
AcDbEntity
  8
0
 62
     0
100
AcDbViewport
 10
184.622446
 20
47.878397
 30
0.0
 40
262.400016
 41
166.390427
 69
     0
1001
ACAD
1000
MVIEW
1002
{
1070
    16
1010
0.0
1020
0.0
1030
0.0
1010
0.0
1020
0.0
1030
1.0
1040
0.0
1040
2662.246839
1040
-1170.156163
1040
372.796387
1040
50.0
1040
0.0
1040
0.0
1070
     0
1070
   100
1070
     1
1070
     0
1070
     0
1070
     0
1070
     0
1070
     0
1040
0.0
1040
0.0
1040
0.0
1040
0.19685
1040
0.19685
1040
0.19685
1040
0.19685
1070
     0
1002
{
1002
}
1002
}
  0
VIEWPORT
  5
93E
102
{ACAD_XDICTIONARY
360
9D1
102
}
100
AcDbEntity
 67
     1
  8
0
 62
     0
100
AcDbViewport
 10
8.99446
 20
5.291763
 30
0.0
 40
18.132075
 41
10.664193
 68
     1
 69
     1
1001
ACAD
1000
MVIEW
1002
{
1070
    16
1010
0.0
1020
0.0
1030
0.0
1010
0.0
1020
0.0
1030
1.0
1040
0.0
1040
10.664193
1040
8.99446
1040
5.291763
1040
50.0
1040
0.0
1040
0.0
1070
     0
1070
   100
1070
     1
1070
     1
1070
     0
1070
     0
1070
     0
1070
     0
1040
0.0
1040
0.0
1040
0.0
1040
0.5
1040
0.5
1040
0.5
1040
0.5
1070
     0
1002
{
1002
}
1002
}
  0
LWPOLYLINE
  5
953
100
AcDbEntity
 67
     1
  8
BORDER
100
AcDbPolyline
 90
        4
 70
   129
 43
0.0
 10
0.004144
 20
0.177386
 10
16.404145
 20
0.177386
 10
16.404145
 20
10.576788
 10
0.004144
 20
10.576788
  0
LWPOLYLINE
  5
954
100
AcDbEntity
 67
     1
  8
BORDER
100
AcDbPolyline
 90
        3
 70
   128
 43
0.0
 10
8.006604
 20
0.177386
 10
8.006604
 20
1.089386
 10
16.404115
 20
1.089386
  0
INSERT
  5
955
100
AcDbEntity
 67
     1
  8
BORDER
100
AcDbBlockReference
  2
M_PIC_H94
 10
14.384676
 20
0.917239
 30
0.0
 41
0.21
 42
0.21
 43
0.21
1001
MED_PRIMTYPE
1000
SUP
  0
LINE
  5
956
100
AcDbEntity
 67
     1
  8
BORDER
100
AcDbLine
 10
12.20536
 20
0.472959
 30
0.0
 11
16.404115
 21
0.472959
 31
0.0
  0
TEXT
  5
957
100
AcDbEntity
 67
     1
  8
BORDER
100
AcDbText
 10
8.78606
 20
0.718663
 30
0.0
 40
0.1
  1
MP METER-PAK METERING EQUIPMENT
 41
0.899947
  7
M_STANDARD
 72
     1
 11
10.105982
 21
0.768663
 31
0.0
100
AcDbText
 73
     2
  0
TEXT
  5
958
100
AcDbEntity
 67
     1
  8
BORDER
100
AcDbText
 10
8.906034
 20
0.457663
 30
0.0
 40
0.08
  1
200A MAXIMUM TENANT CIRCUIT BREAKERS
 41
0.899961
  7
M_STANDARD
 72
     1
 11
10.105982
 21
0.497663
 31
0.0
100
AcDbText
 73
     2
  0
TEXT
  5
959
100
AcDbEntity
 67
     1
  8
BORDER
100
AcDbText
 10
9.351786
 20
0.593386
 30
0.0
 40
0.08
  1
NEMA TYPE 3R ENCLOSURE
 41
0.899894
  7
M_STANDARD
 72
     1
 11
10.105982
 21
0.633386
 31
0.0
100
AcDbText
 73
     2
  0
LINE
  5
95A
100
AcDbEntity
 67
     1
  8
BORDER
100
AcDbLine
 10
12.20536
 20
1.089386
 30
0.0
 11
12.20536
 21
0.177386
 31
0.0
  0
TEXT
  5
95B
100
AcDbEntity
 67
     1
  8
BORDER
100
AcDbText
 10
12.751867
 20
0.273927
 30
0.0
 40
0.12
  1
2527
 41
0.951202
  7
M_STANDARD
 11
12.751867
 21
0.333927
 31
0.0
100
AcDbText
 73
     2
  0
TEXT
  5
95C
100
AcDbEntity
 67
     1
  8
BORDER
100
AcDbText
 10
12.373121
 20
0.343543
 30
0.0
 40
0.07
  1
DWG.
 41
1.093272
  7
M_STANDARD
 11
12.373121
 21
0.378543
 31
0.0
100
AcDbText
 73
     2
  0
TEXT
  5
95D
100
AcDbEntity
 67
     1
  8
BORDER
100
AcDbText
 10
12.373121
 20
0.238543
 30
0.0
 40
0.07
  1
NO.
 41
1.183673
  7
M_STANDARD
 11
12.373121
 21
0.273543
 31
0.0
100
AcDbText
 73
     2
  0
TEXT
  5
95E
100
AcDbEntity
 67
     1
  8
BORDER
100
AcDbText
 10
15.503521
 20
0.026667
 30
0.0
 40
0.08
  1
REF DWG #2527
 41
0.899689
  7
M_STANDARD
 72
     2
 11
16.377504
 21
0.066667
 31
0.0
100
AcDbText
 73
     2
  0
TEXT
  5
95F
100
AcDbEntity
 67
     1
  8
BORDER
100
AcDbText
 10
16.36665
 20
0.174796
 30
0.0
 40
0.001
  1
2527
 41
1.375826
  7
M_STANDARD
 11
16.36665
 21
0.175296
 31
0.0
100
AcDbText
 73
     2
  0
TEXT
  5
960
100
AcDbEntity
 67
     1
  8
BORDER
100
AcDbText
 10
0.030784
 20
0.026667
 30
0.0
 40
0.08
  1
APRIL 1999
 41
0.899465
  7
M_STANDARD
 11
0.030784
 21
0.066667
 31
0.0
100
AcDbText
 73
     2
  0
TEXT
  5
961
100
AcDbEntity
 67
     1
  8
BORDER
100
AcDbText
 10
0.0
 20
10.582649
 30
0.0
 40
0.001
  1
SCALE 1:12
 41
0.899465
  7
M_STANDARD
 72
     1
 11
0.003833
 21
10.583149
 31
0.0
100
AcDbText
 73
     2
  0
TEXT
  5
962
100
AcDbEntity
 67
     1
  8
BORDER
100
AcDbText
 10
16.384162
 20
10.574265
 30
0.0
 40
0.005
  1
SCALE 1:16
 41
0.899465
  7
M_STANDARD
 72
     1
 11
16.403222
 21
10.576765
 31
0.0
100
AcDbText
 73
     2
  0
LWPOLYLINE
  5
963
102
{ACAD_REACTORS
330
965
102
}
100
AcDbEntity
 67
     1
  8
0
 62
     0
100
AcDbPolyline
 90
        6
 70
     1
 43
0.0
 10
0.004144
 20
10.576788
 10
16.404145
 20
10.576788
 10
16.404115
 20
1.089386
 10
8.006604
 20
1.089386
 10
8.006604
 20
0.177386
 10
0.004144
 20
0.177386
  0
VIEWPORT
  5
965
102
{ACAD_XDICTIONARY
360
9D3
102
}
100
AcDbEntity
 67
     1
  8
0
 62
     0
100
AcDbViewport
 10
8.204144
 20
5.377087
 30
0.0
 40
16.400001
 41
10.399402
 68
     2
 69
     2
1001
ACAD
1000
MVIEW
1002
{
1070
    16
1010
0.0
1020
0.0
1030
0.0
1010
0.0
1020
0.0
1030
1.0
1040
0.0
1040
166.390427
1040
184.622446
1040
47.878397
1040
50.0
1040
0.0
1040
0.0
1070
     0
1070
   100
1070
     1
1070
     0
1070
     0
1070
     0
1070
     0
1070
     0
1040
0.0
1040
0.0
1040
0.0
1040
0.19685
1040
0.19685
1040
0.19685
1040
0.19685
1070
     0
1002
{
1002
}
1002
}
  0
ENDSEC
  0
SECTION
  2
OBJECTS
  0
DICTIONARY
  5
19
100
AcDbDictionary
  3
ACAD_GROUP
350
1A
  3
ACAD_LAYOUT
350
7EB
  3
ACAD_MLINESTYLE
350
1B
  3
ACAD_PLOTSETTINGS
350
7EC
  3
ACAD_PLOTSTYLENAME
350
7E9
  3
ACDBHEADERROUNDTRIPXREC
350
9A9
  0
DICTIONARY
  5
9CD
100
AcDbDictionary
280
     1
  3
ACAD_XREC_ROUNDTRIP
360
9CE
  0
DICTIONARY
  5
9A7
100
AcDbDictionary
280
     1
  3
ACAD_XREC_ROUNDTRIP
360
9A8
  0
DICTIONARY
  5
9CB
100
AcDbDictionary
280
     1
  3
ACAD_XREC_ROUNDTRIP
360
9CC
  0
DICTIONARY
  5
992
100
AcDbDictionary
280
     1
  3
ACAD_LAYOUTSELFREF
360
9C9
  0
DICTIONARY
  5
994
100
AcDbDictionary
280
     1
  3
ACAD_LAYOUTSELFREF
360
9CA
  0
DICTIONARY
  5
9D5
100
AcDbDictionary
280
     1
  3
ACAD_XREC_ROUNDTRIP
360
9D6
  0
DICTIONARY
  5
9D1
100
AcDbDictionary
280
     1
  3
ACAD_XREC_ROUNDTRIP
360
9D2
  0
DICTIONARY
  5
9D3
100
AcDbDictionary
280
     1
  3
ACAD_XREC_ROUNDTRIP
360
9D4
  0
DICTIONARY
  5
1A
102
{ACAD_REACTORS
330
19
102
}
100
AcDbDictionary
  0
DICTIONARY
  5
7EB
102
{ACAD_XDICTIONARY
360
9CF
102
}
102
{ACAD_REACTORS
330
19
102
}
100
AcDbDictionary
  3
LAYOUT1
350
7EE
  3
MODEL
350
7ED
  0
DICTIONARY
  5
1B
102
{ACAD_REACTORS
330
19
102
}
100
AcDbDictionary
  3
STANDARD
350
1C
  0
DICTIONARY
  5
7EC
102
{ACAD_REACTORS
330
19
102
}
100
AcDbDictionary
  0
ACAD_PROXY_OBJECT
  5
7E9
102
{ACAD_REACTORS
330
19
102
}
100
AcDbProxyObject
 90
      499
 91
      515
 93
       86
310
405010041939BDC9B585B0
350
7EA
340
7EA
 94
        0
  0
DICTIONARY
  5
9A9
102
{ACAD_REACTORS
330
19
102
}
100
AcDbDictionary
  3
CEPSNTYPE
350
9B3
  3
FINGERPRINTGUID
350
9B4
  3
HYPERLINKBASE
350
9AC
  3
INSUNITS
350
9B2
  3
LAYOUTDICT
350
9AE
  3
LWETCUNION
350
9B1
  3
PLOTSETDICT
350
9AF
  3
PLOTSTYLNAMDICT
350
9B0
  3
PSVPSCALE
350
9B6
  3
PUCSBASE
350
9B9
  3
PUCSORGBACK
350
9BF
  3
PUCSORGBOTTOM
350
9BB
  3
PUCSORGFRONT
350
9BE
  3
PUCSORGLEFT
350
9BC
  3
PUCSORGRIGHT
350
9BD
  3
PUCSORGTOP
350
9BA
  3
PUCSORTHOREF
350
9B7
  3
PUCSORTHOVIEW
350
9B8
  3
STYLESHEET
350
9AD
  3
TSTACKALIGN
350
9AA
  3
TSTACKSIZE
350
9AB
  3
UCSBASE
350
9C2
  3
UCSORGBACK
350
9C8
  3
UCSORGBOTTOM
350
9C4
  3
UCSORGFRONT
350
9C7
  3
UCSORGLEFT
350
9C5
  3
UCSORGRIGHT
350
9C6
  3
UCSORGTOP
350
9C3
  3
UCSORTHOREF
350
9C0
  3
UCSORTHOVIEW
350
9C1
  3
VERSIONGUID
350
9B5
  0
XRECORD
  5
9CE
102
{ACAD_REACTORS
330
9CD
102
}
100
AcDbXrecord
102
UCS
 74
     0
 71
     1
 10
0.0
 20
0.0
 30
0.0
 10
1.0
 20
0.0
 30
0.0
 10
0.0
 20
1.0
 30
0.0
146
0.0
 79
     0
102
VIEW
281
     0
  0
XRECORD
  5
9A8
102
{ACAD_REACTORS
330
9A7
102
}
100
AcDbXrecord
102
EXTNAMES
  1
*ACTIVE
  2
*Active
102
UCS
 74
     0
 71
     1
 10
0.0
 20
0.0
 30
0.0
 10
1.0
 20
0.0
 30
0.0
 10
0.0
 20
1.0
 30
0.0
146
0.0
 79
     0
102
VIEW
281
     0
  0
XRECORD
  5
9CC
102
{ACAD_REACTORS
330
9CB
102
}
100
AcDbXrecord
102
ACADR14ROUNDTRIP
1000
DSTYLE
1002
{
1070
   289
 70
     0
1002
}
  0
XRECORD
  5
9C9
102
{ACAD_REACTORS
330
992
102
}
100
AcDbXrecord
340
A
  0
XRECORD
  5
9CA
102
{ACAD_REACTORS
330
994
102
}
100
AcDbXrecord
340
B
  0
XRECORD
  5
9D6
102
{ACAD_REACTORS
330
9D5
102
}
100
AcDbXrecord
102
UCS
 74
     0
 71
     1
 10
0.0
 20
0.0
 30
0.0
 10
1.0
 20
0.0
 30
0.0
 10
0.0
 20
1.0
 30
0.0
146
0.0
 79
     0
102
VIEW
281
     0
102
NONRECTVIEWCLIP
330
96C
102
NEWVIEWCONTROL
280
     4
  0
XRECORD
  5
9D2
102
{ACAD_REACTORS
330
9D1
102
}
100
AcDbXrecord
102
UCS
 74
     0
 71
     1
 10
0.0
 20
0.0
 30
0.0
 10
1.0
 20
0.0
 30
0.0
 10
0.0
 20
1.0
 30
0.0
146
0.0
 79
     0
102
VIEW
281
     0
102
NEWVIEWCONTROL
280
     4
  0
XRECORD
  5
9D4
102
{ACAD_REACTORS
330
9D3
102
}
100
AcDbXrecord
102
UCS
 74
     0
 71
     1
 10
0.0
 20
0.0
 30
0.0
 10
1.0
 20
0.0
 30
0.0
 10
0.0
 20
1.0
 30
0.0
146
0.0
 79
     0
102
VIEW
281
     0
102
NONRECTVIEWCLIP
330
963
102
NEWVIEWCONTROL
280
     4
  0
DICTIONARY
  5
9CF
100
AcDbDictionary
280
     1
  3
ACAD_XREC_ROUNDTRIP
360
9D0
  0
ACAD_PROXY_OBJECT
  5
7EE
102
{ACAD_REACTORS
330
7EB
102
}
100
AcDbProxyObject
 90
      499
 91
      517
 93
     1444
310
9124850204C617365724A657420355369204D582C0080000002033931C40000000380D24C71000000000038931C40000000000C24C7100000000606676714000000030333F1E90106557365723432A901416AA5439B5BDB9BD8DA1C9BDB594B98DD1891069074C61796F75743140501AB83BFDFEFF7FF46FE7F3F9FCFFFFF4
310
6FC0000000002E0C1010A8543E3FDBC9502A6A6A00000028352354EF800000034CF2A25BE8CF6015AE1A6C304007E9EB45350A895020
330
B
330
93E
340
0
340
0
 94
        0
  0
ACAD_PROXY_OBJECT
  5
7ED
102
{ACAD_REACTORS
330
7EB
102
}
100
AcDbProxyObject
 90
      499
 91
      517
 93
      700
310
9124850204C617365724A657420355369204D582C01AAAAAAAAA5439B5BDB9BD8DA1C9BDB594B98DD18A69054D6F64656C901A800000000000000000000000000000000000000000000A1000000000000008902A6A6AAAAF
330
A
330
0
340
0
340
0
 94
        0
  0
MLINESTYLE
  5
1C
102
{ACAD_REACTORS
330
1B
102
}
100
AcDbMlineStyle
  2
STANDARD
 70
     0
  3

 62
     0
 51
90.0
 52
90.0
 71
     2
 49
0.5
 62
   256
  6
BYLAYER
 49
-0.5
 62
   256
  6
BYLAYER
  0
ACAD_PROXY_OBJECT
  5
7EA
102
{ACAD_REACTORS
330
7E9
102
}
100
AcDbProxyObject
 90
      499
 91
      516
 93
        0
 94
        0
  0
XRECORD
  5
9B3
102
{ACAD_REACTORS
330
9A9
102
}
100
AcDbXrecord
 90
        0
  0
XRECORD
  5
9B4
102
{ACAD_REACTORS
330
9A9
102
}
100
AcDbXrecord
  1
{1162E509-5BF8-11D4-8248-08002BE72CB0}
  0
XRECORD
  5
9AC
102
{ACAD_REACTORS
330
9A9
102
}
100
AcDbXrecord
  1

  0
XRECORD
  5
9B2
102
{ACAD_REACTORS
330
9A9
102
}
100
AcDbXrecord
 90
        0
  0
XRECORD
  5
9AE
102
{ACAD_REACTORS
330
9A9
102
}
100
AcDbXrecord
340
7EB
  0
XRECORD
  5
9B1
102
{ACAD_REACTORS
330
9A9
102
}
100
AcDbXrecord
 90
    14877
  0
XRECORD
  5
9AF
102
{ACAD_REACTORS
330
9A9
102
}
100
AcDbXrecord
340
7EC
  0
XRECORD
  5
9B0
102
{ACAD_REACTORS
330
9A9
102
}
100
AcDbXrecord
340
7E9
  0
XRECORD
  5
9B6
102
{ACAD_REACTORS
330
9A9
102
}
100
AcDbXrecord
 40
0.0625
  0
XRECORD
  5
9B9
102
{ACAD_REACTORS
330
9A9
102
}
100
AcDbXrecord
340
0
  0
XRECORD
  5
9BF
102
{ACAD_REACTORS
330
9A9
102
}
100
AcDbXrecord
 10
0.0
 20
0.0
 30
0.0
  0
XRECORD
  5
9BB
102
{ACAD_REACTORS
330
9A9
102
}
100
AcDbXrecord
 10
0.0
 20
0.0
 30
0.0
  0
XRECORD
  5
9BE
102
{ACAD_REACTORS
330
9A9
102
}
100
AcDbXrecord
 10
0.0
 20
0.0
 30
0.0
  0
XRECORD
  5
9BC
102
{ACAD_REACTORS
330
9A9
102
}
100
AcDbXrecord
 10
0.0
 20
0.0
 30
0.0
  0
XRECORD
  5
9BD
102
{ACAD_REACTORS
330
9A9
102
}
100
AcDbXrecord
 10
0.0
 20
0.0
 30
0.0
  0
XRECORD
  5
9BA
102
{ACAD_REACTORS
330
9A9
102
}
100
AcDbXrecord
 10
0.0
 20
0.0
 30
0.0
  0
XRECORD
  5
9B7
102
{ACAD_REACTORS
330
9A9
102
}
100
AcDbXrecord
340
0
  0
XRECORD
  5
9B8
102
{ACAD_REACTORS
330
9A9
102
}
100
AcDbXrecord
 70
     0
  0
XRECORD
  5
9AD
102
{ACAD_REACTORS
330
9A9
102
}
100
AcDbXrecord
  1

  0
XRECORD
  5
9AA
102
{ACAD_REACTORS
330
9A9
102
}
100
AcDbXrecord
 90
        1
  0
XRECORD
  5
9AB
102
{ACAD_REACTORS
330
9A9
102
}
100
AcDbXrecord
 90
       70
  0
XRECORD
  5
9C2
102
{ACAD_REACTORS
330
9A9
102
}
100
AcDbXrecord
340
0
  0
XRECORD
  5
9C8
102
{ACAD_REACTORS
330
9A9
102
}
100
AcDbXrecord
 10
0.0
 20
0.0
 30
0.0
  0
XRECORD
  5
9C4
102
{ACAD_REACTORS
330
9A9
102
}
100
AcDbXrecord
 10
0.0
 20
0.0
 30
0.0
  0
XRECORD
  5
9C7
102
{ACAD_REACTORS
330
9A9
102
}
100
AcDbXrecord
 10
0.0
 20
0.0
 30
0.0
  0
XRECORD
  5
9C5
102
{ACAD_REACTORS
330
9A9
102
}
100
AcDbXrecord
 10
0.0
 20
0.0
 30
0.0
  0
XRECORD
  5
9C6
102
{ACAD_REACTORS
330
9A9
102
}
100
AcDbXrecord
 10
0.0
 20
0.0
 30
0.0
  0
XRECORD
  5
9C3
102
{ACAD_REACTORS
330
9A9
102
}
100
AcDbXrecord
 10
0.0
 20
0.0
 30
0.0
  0
XRECORD
  5
9C0
102
{ACAD_REACTORS
330
9A9
102
}
100
AcDbXrecord
340
0
  0
XRECORD
  5
9C1
102
{ACAD_REACTORS
330
9A9
102
}
100
AcDbXrecord
 70
     0
  0
XRECORD
  5
9B5
102
{ACAD_REACTORS
330
9A9
102
}
100
AcDbXrecord
  1
{1162E515-5BF8-11D4-8248-08002BE72CB0}
  0
XRECORD
  5
9D0
102
{ACAD_REACTORS
330
9CF
102
}
100
AcDbXrecord
102
EXTNAMES
  1
LAYOUT1
  2
Layout1
  1
MODEL
  2
Model
  0
ENDSEC
  0
EOF
