999
DXF file: C:\Users\sesa63760\Dev\_Creo\CAD\MCADID0003032_3D-CAD\drw0001_1.dxf
999
Pro/ENGINEER 2019471 by Parametric Technology Corporation
  0
SECTION
  2
HEADER
  9
$ACADVER
  1
AC1024
  9
$DWGCODEPAGE
  3
ANSI_1252
  9
$EXTMAX
 10
75.8756735314
 20
107.3098811373
 30
0.0
  9
$EXTMIN
 10
0.0
 20
0.0
 30
0.0
  9
$LIMMIN
 10
0.0
 20
0.0
  9
$LIMMAX
 10
75.8756735314
 20
107.3098811373
  9
$VIEWCTR
 10
37.9378367657
 20
53.6549405686
  9
$VIEWSIZE
 40
107.3098811373
  9
$CLAYER
  8
0
  9
$LTSCALE
 40
6.9950144741
  9
$CELTYPE
  6
BYLAYER
  9
$DIMSCALE
 40
1.0
  9
$DIMASZ
 40
0.9032818278
  9
$DIMEXO
 40
1.0
  9
$DIMDLI
 40
4.8329190912
  9
$DIMEXE
 40
1.0
  9
$DIMCEN
 40
1.1446387321
  9
$DIMLFAC
 40
1.0
  9
$DIMBLK
  1
_FILLED
  9
$DIMALT
 70
0
  9
$DIMALTF
 40
0.0393700787
  9
$DIMTXT
 40
1.2645945589
  9
$DIMTOL
 70
1
  9
$DIMLIM
 70
0
  9
$DIMTFAC
 40
1.0
  9
$DIMTP
 40
0.01
  9
$DIMTM
 40
0.01
  9
$DIMGAP
 40
0.625
  9
$DIMDSEP
 70
46
  9
$AUNITS
 70
0
  9
$PDMODE
 70
3
  9
$PDSIZE
 40
0.3125
  9
$HANDSEED
  5
244
  9
$TILEMODE
 70
1
  9
$MEASUREMENT
 70
1
  9
$INSUNITS
 70
4
  0
ENDSEC
  0
SECTION
  2
CLASSES
  0
CLASS
  1
ACDBDICTIONARYWDFLT
  2
AcDbDictionaryWithDefault
  3
AutoCAD 2000
 90
0
 91
1
280
0
281
0
  0
CLASS
  1
ACDBPLACEHOLDER
  2
AcDbPlaceHolder
  3
AutoCAD 2000
 90
0
 91
1
280
0
281
0
  0
CLASS
  1
LAYOUT
  2
AcDbLayout
  3
AutoCAD 2000
 90
0
 91
0
280
0
281
0
  0
ENDSEC
  0
SECTION
  2
TABLES
  0
TABLE
  2
VPORT
  5
8
100
AcDbSymbolTable
 70
2
  0
VPORT
  5
1F4
100
AcDbSymbolTableRecord
100
AcDbViewportTableRecord
  2
*ACTIVE
 70
0
 10
0.0
 20
0.0
 11
1.0
 21
1.0
 12
37.9378367657
 22
53.6549405686
 13
0.0
 23
0.0
 14
1.0
 24
1.0
 15
0.0
 25
0.0
 16
0.0
 26
0.0
 36
1.0
 17
0.0
 27
0.0
 37
0.0
 40
107.3098811373
 41
0.7070707071
 42
50.0
 43
0.0
 44
0.0
 50
0.0
 51
0.0
 71
0
 72
100
 73
1
 74
1
 75
0
 76
0
 77
0
 78
0
  0
ENDTAB
  0
TABLE
  2
LTYPE
  5
5
100
AcDbSymbolTable
 70
6
  0
LTYPE
  5
14
100
AcDbSymbolTableRecord
100
AcDbLinetypeTableRecord
  2
BYBLOCK
 70
0
  3

 72
65
 73
0
 40
0.0
  0
LTYPE
  5
15
100
AcDbSymbolTableRecord
100
AcDbLinetypeTableRecord
  2
BYLAYER
 70
0
  3

 72
65
 73
0
 40
0.0
  0
LTYPE
  5
16
100
AcDbSymbolTableRecord
100
AcDbLinetypeTableRecord
  2
CONTINUOUS
 70
64
  3
Solid line
 72
65
 73
0
 40
0.0
  0
LTYPE
  5
1F5
100
AcDbSymbolTableRecord
100
AcDbLinetypeTableRecord
  2
CENTER
 70
64
  3
____ _ ____ _ ____ _ ____ _ ____ _ ____ _ ____
 72
65
 73
4
 40
0.6
 49
0.375
 74
0
 49
-0.075
 74
0
 49
0.075
 74
0
 49
-0.075
 74
0
  0
LTYPE
  5
1F6
100
AcDbSymbolTableRecord
100
AcDbLinetypeTableRecord
  2
HIDDEN
 70
64
  3
- - - - - - - - - - - - - - - - - - - -
 72
65
 73
2
 40
0.2
 49
0.1
 74
0
 49
-0.1
 74
0
  0
LTYPE
  5
1F7
100
AcDbSymbolTableRecord
100
AcDbLinetypeTableRecord
  2
PHANTOM
 70
64
  3
_____ _ _ _____ _ _ _____ _ _ _____
 72
65
 73
6
 40
0.8
 49
0.45
 74
0
 49
-0.05
 74
0
 49
0.1
 74
0
 49
-0.05
 74
0
 49
0.1
 74
0
 49
-0.05
 74
0
  0
LTYPE
  5
1F8
100
AcDbSymbolTableRecord
100
AcDbLinetypeTableRecord
  2
DOT
 70
64
  3
. . . . . . . . . . . . . . . . . . . .
 72
65
 73
2
 40
0.2
 49
0.1
 74
0
 49
-0.1
 74
0
  0
LTYPE
  5
1F9
100
AcDbSymbolTableRecord
100
AcDbLinetypeTableRecord
  2
DASHED
 70
64
  3
- - - - - - - - - - - - - - - - - - - -
 72
65
 73
2
 40
0.2
 49
0.1
 74
0
 49
-0.1
 74
0
  0
ENDTAB
  0
TABLE
  2
LAYER
  5
2
100
AcDbSymbolTable
 70
36
  0
LAYER
  5
10
100
AcDbSymbolTableRecord
100
AcDbLayerTableRecord
  2
0
 70
0
 62
7
  6
CONTINUOUS
370
-3
390
F
  0
LAYER
  5
1FA
100
AcDbSymbolTableRecord
100
AcDbLayerTableRecord
  2
DEFAULT_1
 70
0
 62
7
  6
CENTER
370
-3
390
F
  0
LAYER
  5
1FB
100
AcDbSymbolTableRecord
100
AcDbLayerTableRecord
  2
DEFAULT_2
 70
0
 62
7
  6
HIDDEN
370
-3
390
F
  0
LAYER
  5
1FC
100
AcDbSymbolTableRecord
100
AcDbLayerTableRecord
  2
DEFAULT_3
 70
0
 62
7
  6
PHANTOM
370
-3
390
F
  0
LAYER
  5
1FD
100
AcDbSymbolTableRecord
100
AcDbLayerTableRecord
  2
00_COMPONENTS
 70
0
 62
7
  6
CONTINUOUS
370
-3
390
F
  0
LAYER
  5
1FE
100
AcDbSymbolTableRecord
100
AcDbLayerTableRecord
  2
01_1_DEFAULT_DATUMS
 70
0
 62
7
  6
CONTINUOUS
370
-3
390
F
  0
LAYER
  5
1FF
100
AcDbSymbolTableRecord
100
AcDbLayerTableRecord
  2
01_PLANES
 70
0
 62
7
  6
CONTINUOUS
370
-3
390
F
  0
LAYER
  5
200
100
AcDbSymbolTableRecord
100
AcDbLayerTableRecord
  2
02_COORD_SYS
 70
0
 62
7
  6
CONTINUOUS
370
-3
390
F
  0
LAYER
  5
201
100
AcDbSymbolTableRecord
100
AcDbLayerTableRecord
  2
03_AXES
 70
0
 62
7
  6
CONTINUOUS
370
-3
390
F
  0
LAYER
  5
202
100
AcDbSymbolTableRecord
100
AcDbLayerTableRecord
  2
04_POINTS
 70
0
 62
7
  6
CONTINUOUS
370
-3
390
F
  0
LAYER
  5
203
100
AcDbSymbolTableRecord
100
AcDbLayerTableRecord
  2
05_CURVES
 70
0
 62
7
  6
CONTINUOUS
370
-3
390
F
  0
LAYER
  5
204
100
AcDbSymbolTableRecord
100
AcDbLayerTableRecord
  2
06_SURFS
 70
0
 62
7
  6
CONTINUOUS
370
-3
390
F
  0
LAYER
  5
205
100
AcDbSymbolTableRecord
100
AcDbLayerTableRecord
  2
07_COSMETICS
 70
0
 62
7
  6
CONTINUOUS
370
-3
390
F
  0
LAYER
  5
206
100
AcDbSymbolTableRecord
100
AcDbLayerTableRecord
  2
10_NOTES
 70
0
 62
7
  6
CONTINUOUS
370
-3
390
F
  0
LAYER
  5
207
100
AcDbSymbolTableRecord
100
AcDbLayerTableRecord
  2
11_NOTES_PUB
 70
0
 62
7
  6
CONTINUOUS
370
-3
390
F
  0
LAYER
  5
208
100
AcDbSymbolTableRecord
100
AcDbLayerTableRecord
  2
13_REF_GTOL
 70
0
 62
7
  6
CONTINUOUS
370
-3
390
F
  0
LAYER
  5
209
100
AcDbSymbolTableRecord
100
AcDbLayerTableRecord
  2
16_MISC
 70
0
 62
7
  6
CONTINUOUS
370
-3
390
F
  0
LAYER
  5
20A
100
AcDbSymbolTableRecord
100
AcDbLayerTableRecord
  2
17_NO_PRINT
 70
0
 62
7
  6
CONTINUOUS
370
-3
390
F
  0
LAYER
  5
20B
100
AcDbSymbolTableRecord
100
AcDbLayerTableRecord
  2
18_DATUM_CAMS_JOINTS
 70
0
 62
7
  6
CONTINUOUS
370
-3
390
F
  0
LAYER
  5
20C
100
AcDbSymbolTableRecord
100
AcDbLayerTableRecord
  2
19_DATUM_FUNCTIONAL
 70
0
 62
7
  6
CONTINUOUS
370
-3
390
F
  0
LAYER
  5
20D
100
AcDbSymbolTableRecord
100
AcDbLayerTableRecord
  2
20_DATUM_KINEMATIC_SCHEME
 70
0
 62
7
  6
CONTINUOUS
370
-3
390
F
  0
ENDTAB
  0
TABLE
  2
STYLE
  5
3
100
AcDbSymbolTable
 70
1
  0
STYLE
  5
11
100
AcDbSymbolTableRecord
100
AcDbTextStyleTableRecord
  2
STANDARD
 70
0
 40
0.0
 41
1.0
 50
0.0
 71
0
 42
0.2
  3
ARIAL.TTF
  4

  0
STYLE
  5
20E
100
AcDbSymbolTableRecord
100
AcDbTextStyleTableRecord
  2
TEXTSTYLE_1
 70
0
 40
0.0
 41
0.8
 50
0.0
 71
0
 42
0.2
  3
gdt
  4

  0
ENDTAB
  0
TABLE
  2
VIEW
  5
6
100
AcDbSymbolTable
 70
0
  0
ENDTAB
  0
TABLE
  2
UCS
  5
7
100
AcDbSymbolTable
 70
0
  0
ENDTAB
  0
TABLE
  2
APPID
  5
9
100
AcDbSymbolTable
 70
1
  0
APPID
  5
20F
100
AcDbSymbolTableRecord
100
AcDbRegAppTableRecord
  2
ACAD
 70
0
  0
ENDTAB
  0
TABLE
  2
BLOCK_RECORD
  5
1
100
AcDbSymbolTable
 70
0
  0
BLOCK_RECORD
  5
210
100
AcDbSymbolTableRecord
100
AcDbBlockTableRecord
  2
*Model_Space
  0
BLOCK_RECORD
  5
211
100
AcDbSymbolTableRecord
100
AcDbBlockTableRecord
  2
*Paper_Space
  0
BLOCK_RECORD
  5
212
100
AcDbSymbolTableRecord
100
AcDbBlockTableRecord
  2
_FILLED
  0
ENDTAB
  0
TABLE
  2
DIMSTYLE
  5
A
100
AcDbSymbolTable
 70
1
100
AcDbDimStyleTable
 71
0
  0
DIMSTYLE
105
213
100
AcDbSymbolTableRecord
100
AcDbDimStyleTableRecord
  2
STANDARD
 70
0
  3

  4

 40
1.0
 41
0.9032818278
 42
1.0
 43
0.38
 44
1.0
 45
0.0
 46
0.0
 47
0.01
 48
0.01
140
1.2645945589
141
0.09
142
0.0
143
25.4
144
1.0
145
0.0
146
1.0
147
0.625
 71
1
 72
0
 73
0
 74
0
 75
0
 76
0
 77
1
 78
8
 79
2
170
0
171
1
172
0
173
0
174
0
175
0
176
0
177
0
178
0
270
2
179
2
271
2
272
2
273
2
274
2
275
0
280
0
281
0
282
0
283
1
284
8
285
0
286
0
287
3
288
0
340
11
278
46
341
212
342
212
343
212
344
212
  0
ENDTAB
  0
ENDSEC
  0
SECTION
  2
BLOCKS
  0
BLOCK
  5
20
100
AcDbEntity
  8
0
100
AcDbBlockBegin
  2
*Model_Space
 70
0
 10
0.0
 20
0.0
 30
0.0
  3
*Model_Space
  1

  0
ENDBLK
  5
21
100
AcDbEntity
  8
0
100
AcDbBlockEnd
  0
BLOCK
  5
1C
100
AcDbEntity
  8
0
100
AcDbBlockBegin
  2
*Paper_Space
 70
0
 10
0.0
 20
0.0
 30
0.0
  3
*Paper_Space
  1

  0
ENDBLK
  5
1D
100
AcDbEntity
  8
0
100
AcDbBlockEnd
  0
BLOCK
  5
214
100
AcDbEntity
  8
0
100
AcDbBlockBegin
  2
_FILLED
 70
64
 10
0.0
 20
0.0
  3
_FILLED
  1

  0
SOLID
  5
215
100
AcDbEntity
  8
0
  6
BYBLOCK
 62
0
100
AcDbTrace
 10
0.0
 20
0.0
 11
-1.0
 21
0.25
 12
-1.0
 22
-0.25
 13
-1.0
 23
-0.25
  0
ENDBLK
  5
216
100
AcDbEntity
  8
0
  6
BYBLOCK
 62
0
100
AcDbBlockEnd
  0
ENDSEC
  0
SECTION
  2
ENTITIES
  0
LINE
  5
217
100
AcDbEntity
  8
0
100
AcDbLine
 62
7
  6
BYLAYER
 10
8.8024511
 20
46.3715855985
 11
8.8024511
 21
59.2298656634
  0
LINE
  5
218
100
AcDbEntity
  8
0
100
AcDbLine
 62
7
  6
BYLAYER
 10
15.1784828664
 20
45.8782174427
 11
15.1784811769
 21
46.1125048298
  0
LINE
  5
219
100
AcDbEntity
  8
0
100
AcDbLine
 62
7
  6
BYLAYER
 10
20.0044612608
 20
37.5193277714
 11
20.2073167635
 21
37.4022057437
  0
LINE
  5
21A
100
AcDbEntity
  8
0
100
AcDbLine
 62
7
  6
BYLAYER
 10
36.8209668492
 20
30.1954539414
 11
24.3559218447
 21
37.3919882228
  0
LINE
  5
21B
100
AcDbEntity
  8
0
100
AcDbLine
 62
7
  6
BYLAYER
 10
13.1666738907
 20
43.8519573971
 11
8.8024511
 21
46.3715855985
  0
LINE
  5
21C
100
AcDbEntity
  8
0
100
AcDbLine
 62
7
  6
BYLAYER
 10
40.2332166642
 20
77.376318303
 11
8.8024511
 21
59.2298656634
  0
LINE
  5
21D
100
AcDbEntity
  8
0
100
AcDbLine
 62
7
  6
BYLAYER
 10
8.8024511
 20
59.2298656634
 11
36.8209668492
 21
43.0537340063
  0
LINE
  5
21E
100
AcDbEntity
  8
0
100
AcDbLine
 62
7
  6
BYLAYER
 10
19.2557248944
 20
50.8718416654
 11
16.6514614619
 21
49.3682784467
  0
LINE
  5
21F
100
AcDbEntity
  8
0
100
AcDbLine
 62
7
  6
BYLAYER
 10
16.8964344716
 20
46.8700713439
 11
14.067786926
 21
45.2369606703
  0
LINE
  5
220
100
AcDbEntity
  8
0
100
AcDbLine
 62
7
  6
BYLAYER
 10
59.4581583376
 20
70.416420148
 11
55.8733023206
 21
68.3467149161
  0
LINE
  5
221
100
AcDbEntity
  8
0
100
AcDbLine
 62
7
  6
BYLAYER
 10
36.8209668492
 20
43.0537340063
 11
36.8209668492
 21
30.1954539414
  0
LINE
  5
222
100
AcDbEntity
  8
0
100
AcDbLine
 62
7
  6
BYLAYER
 10
21.7224128662
 20
38.5111816727
 11
18.8937653206
 21
36.8780709991
  0
LINE
  5
223
100
AcDbEntity
  8
0
100
AcDbLine
 62
7
  6
BYLAYER
 10
26.3676930548
 20
38.5534779394
 11
23.7634296224
 21
37.0499147207
  0
LINE
  5
224
100
AcDbEntity
  8
0
100
AcDbLine
 62
7
  6
BYLAYER
 10
68.2517324134
 20
61.2001866459
 11
36.8209668492
 21
43.0537340063
  0
LINE
  5
225
100
AcDbEntity
  8
0
100
AcDbLine
 62
7
  6
BYLAYER
 10
68.2517324134
 20
48.3419065809
 11
36.8209668492
 21
30.1954539414
  0
LINE
  5
226
100
AcDbEntity
  8
0
100
AcDbLine
 62
7
  6
BYLAYER
 10
68.2517324134
 20
61.2001866459
 11
40.2332166642
 21
77.376318303
  0
LINE
  5
227
100
AcDbEntity
  8
0
100
AcDbLine
 62
7
  6
BYLAYER
 10
68.2517324134
 20
48.3419065809
 11
68.2517324134
 21
61.2001866459
  0
ARC
  5
228
100
AcDbEntity
  8
0
100
AcDbCircle
 62
7
  6
BYLAYER
 10
21.3678426987
 20
41.1414344409
 40
3.8063785629
100
AcDbArc
 50
252.0198488241
 51
253.5336933696
  0
ARC
  5
229
100
AcDbEntity
  8
0
100
AcDbCircle
 62
7
  6
BYLAYER
 10
18.9665876735
 20
45.2550387889
 40
3.7751475945
100
AcDbArc
 50
166.4511904967
 51
167.9500737115
  0
SPLINE
  5
22A
100
AcDbEntity
  8
0
100
AcDbSpline
 62
7
  6
BYLAYER
 70
0
 71
3
 72
11
 73
7
 74
0
 42
0.0000001
 43
0.0000001
 44
0.0000000001
 40
0.0
 40
0.0
 40
0.0
 40
0.0
 40
0.2829508511
 40
0.5425109663
 40
0.7799882312
 40
1.0
 40
1.0
 40
1.0
 40
1.0
 10
64.2105405128
 20
65.3996291948
 30
0.0
 10
64.2105405128
 20
65.240126602
 30
0.0
 10
64.1909193455
 20
64.933715006
 30
0.0
 10
64.0940892425
 20
64.5026267129
 30
0.0
 10
63.9321621183
 20
64.1293409205
 30
0.0
 10
63.77743783
 20
63.9192851504
 30
0.0
 10
63.6913975213
 20
63.8299610228
 30
0.0
  0
SPLINE
  5
22B
100
AcDbEntity
  8
0
100
AcDbSpline
 62
7
  6
BYLAYER
 70
0
 71
3
 72
13
 73
9
 74
0
 42
0.0000001
 43
0.0000001
 44
0.0000000001
 40
0.0
 40
0.0
 40
0.0
 40
0.0
 40
0.1080956991
 40
0.2182376439
 40
0.3322520596
 40
0.4516794393
 40
0.7106580761
 40
1.0
 40
1.0
 40
1.0
 40
1.0
 10
22.118741799
 20
59.4372787362
 30
0.0
 10
22.1187502963
 20
59.3891939711
 30
0.0
 10
22.1103898531
 20
59.291916322
 30
0.0
 10
22.0730813778
 20
59.1482594747
 30
0.0
 10
22.0116177502
 20
59.0076633987
 30
0.0
 10
21.8951904796
 20
58.8213282851
 30
0.0
 10
21.6884396267
 20
58.6038384941
 30
0.0
 10
21.4862814768
 20
58.4647016568
 30
0.0
 10
21.3748156515
 20
58.4003472167
 30
0.0
  0
SPLINE
  5
22C
100
AcDbEntity
  8
0
100
AcDbSpline
 62
7
  6
BYLAYER
 70
0
 71
3
 72
13
 73
9
 74
0
 42
0.0000001
 43
0.0000001
 44
0.0000000001
 40
0.0
 40
0.0
 40
0.0
 40
0.0
 40
0.1080956991
 40
0.2182376439
 40
0.3322520596
 40
0.4516794393
 40
0.7106580761
 40
1.0
 40
1.0
 40
1.0
 40
1.0
 10
39.7201170774
 20
49.2753498747
 30
0.0
 10
39.7201255747
 20
49.2272651096
 30
0.0
 10
39.7117651314
 20
49.1299874605
 30
0.0
 10
39.6744566562
 20
48.9863306132
 30
0.0
 10
39.6129930285
 20
48.8457345372
 30
0.0
 10
39.496565758
 20
48.6593994236
 30
0.0
 10
39.289814905
 20
48.4419096326
 30
0.0
 10
39.0876567551
 20
48.3027727953
 30
0.0
 10
38.9761909299
 20
48.2384183552
 30
0.0
  0
SPLINE
  5
22D
100
AcDbEntity
  8
0
100
AcDbSpline
 62
7
  6
BYLAYER
 70
0
 71
3
 72
14
 73
10
 74
0
 42
0.0000001
 43
0.0000001
 44
0.0000000001
 40
0.0
 40
0.0
 40
0.0
 40
0.0
 40
0.1080478072
 40
0.2181343416
 40
0.3321142811
 40
0.4514964914
 40
0.5774408518
 40
0.7107392346
 40
1.0
 40
1.0
 40
1.0
 40
1.0
 10
14.0677927393
 20
45.2369506023
 30
0.0
 10
13.9886726993
 20
45.1912591899
 30
0.0
 10
13.8365370956
 20
45.0851153545
 30
0.0
 10
13.6355192901
 20
44.8872845618
 30
0.0
 10
13.4626786329
 20
44.6524748193
 30
0.0
 10
13.3194994277
 20
44.3834078966
 30
0.0
 10
13.2072097196
 20
44.0826650867
 30
0.0
 10
13.0968345144
 20
43.6313590078
 30
0.0
 10
13.0682645898
 20
43.2722858121
 30
0.0
 10
13.0682645898
 20
43.0276857161
 30
0.0
  0
SPLINE
  5
22E
100
AcDbEntity
  8
0
100
AcDbSpline
 62
7
  6
BYLAYER
 70
0
 71
3
 72
20
 73
16
 74
0
 42
0.0000001
 43
0.0000001
 44
0.0000000001
 40
0.0
 40
0.0
 40
0.0
 40
0.0
 40
0.0623914642
 40
0.1288092529
 40
0.2703030134
 40
0.4173653942
 40
0.5616181257
 40
0.6302547827
 40
0.695381641
 40
0.756364037
 40
0.812833198
 40
0.8647656982
 40
0.9125671398
 40
0.9571679183
 40
1.0
 40
1.0
 40
1.0
 40
1.0
 10
38.9761909299
 20
48.2384183552
 30
0.0
 10
38.8849754557
 20
48.185755391
 30
0.0
 10
38.6893630612
 20
48.0893602492
 30
0.0
 10
38.2597215343
 20
47.9336299458
 30
0.0
 10
37.6683586417
 20
47.8153767659
 30
0.0
 10
36.9349580448
 20
47.795128988
 30
0.0
 10
36.3296856249
 20
47.8799995846
 30
0.0
 10
35.878075706
 20
48.0101368602
 30
0.0
 10
35.5725129565
 20
48.1332147163
 30
0.0
 10
35.301074956
 20
48.2808644757
 30
0.0
 10
35.0694115521
 20
48.4501558687
 30
0.0
 10
34.8824199635
 20
48.6378796521
 30
0.0
 10
34.7445210564
 20
48.8408017647
 30
0.0
 10
34.6594636136
 20
49.054810084
 30
0.0
 10
34.6401601564
 20
49.2030427198
 30
0.0
 10
34.6401473786
 20
49.2753498687
 30
0.0
  0
SPLINE
  5
22F
100
AcDbEntity
  8
0
100
AcDbSpline
 62
7
  6
BYLAYER
 70
0
 71
3
 72
20
 73
16
 74
0
 42
0.0000001
 43
0.0000001
 44
0.0000000001
 40
0.0
 40
0.0
 40
0.0
 40
0.0
 40
0.0623914642
 40
0.1288092529
 40
0.2703030134
 40
0.4173653942
 40
0.5616181257
 40
0.6302547827
 40
0.695381641
 40
0.756364037
 40
0.812833198
 40
0.8647656982
 40
0.9125671398
 40
0.9571679183
 40
1.0
 40
1.0
 40
1.0
 40
1.0
 10
21.3748156515
 20
58.4003472167
 30
0.0
 10
21.2836001774
 20
58.3476842525
 30
0.0
 10
21.0879877829
 20
58.2512891107
 30
0.0
 10
20.6583462559
 20
58.0955588073
 30
0.0
 10
20.0669833634
 20
57.9773056274
 30
0.0
 10
19.3335827665
 20
57.9570578495
 30
0.0
 10
18.7283103465
 20
58.0419284461
 30
0.0
 10
18.2767004276
 20
58.1720657217
 30
0.0
 10
17.9711376781
 20
58.2951435778
 30
0.0
 10
17.6996996777
 20
58.4427933373
 30
0.0
 10
17.4680362737
 20
58.6120847302
 30
0.0
 10
17.2810446852
 20
58.7998085136
 30
0.0
 10
17.143145778
 20
59.0027306262
 30
0.0
 10
17.0580883352
 20
59.2167389455
 30
0.0
 10
17.038784878
 20
59.3649715813
 30
0.0
 10
17.0387721003
 20
59.4372787302
 30
0.0
  0
SPLINE
  5
230
100
AcDbEntity
  8
0
100
AcDbSpline
 62
7
  6
BYLAYER
 70
0
 71
3
 72
23
 73
19
 74
0
 42
0.0000001
 43
0.0000001
 44
0.0000000001
 40
0.0
 40
0.0
 40
0.0
 40
0.0
 40
0.0623788002
 40
0.1287503477
 40
0.1983457761
 40
0.2703345382
 40
0.3437243134
 40
0.4174668573
 40
0.4905033045
 40
0.5618008101
 40
0.6304087171
 40
0.6955076318
 40
0.7564648179
 40
0.8129108578
 40
0.8648208718
 40
0.9126040628
 40
0.9571856744
 40
1.0
 40
1.0
 40
1.0
 40
1.0
 10
13.0682645898
 20
43.0276857161
 30
0.0
 10
13.0682645898
 20
42.82752011
 30
0.0
 10
13.095437898
 20
42.4141056946
 30
0.0
 10
13.206974803
 20
41.7864119787
 30
0.0
 10
13.3884775022
 20
41.1431997879
 30
0.0
 10
13.6358889995
 20
40.4983101454
 30
0.0
 10
13.9440228408
 20
39.8653375775
 30
0.0
 10
14.3062699037
 20
39.2578012546
 30
0.0
 10
14.7149104182
 20
38.6886613176
 30
0.0
 10
15.1612721587
 20
38.1700688817
 30
0.0
 10
15.6358431389
 20
37.7130163643
 30
0.0
 10
16.1286394005
 20
37.3271859707
 30
0.0
 10
16.629463433
 20
37.0208045865
 30
0.0
 10
17.1281141331
 20
36.8004387631
 30
0.0
 10
17.6146608721
 20
36.6711431093
 30
0.0
 10
18.0795739367
 20
36.6369145187
 30
0.0
 10
18.5124975899
 20
36.7004106729
 30
0.0
 10
18.774787444
 20
36.809375318
 30
0.0
 10
18.8937595074
 20
36.8780810672
 30
0.0
  0
SPLINE
  5
231
100
AcDbEntity
  8
0
100
AcDbSpline
 62
7
  6
BYLAYER
 70
0
 71
3
 72
14
 73
10
 74
0
 42
0.0000001
 43
0.0000001
 44
0.0000000001
 40
0.0
 40
0.0
 40
0.0
 40
0.0
 40
0.2892707578
 40
0.4225382071
 40
0.5484970853
 40
0.6678942786
 40
0.7818682184
 40
0.8919523671
 40
1.0
 40
1.0
 40
1.0
 40
1.0
 10
20.2073167639
 20
37.4022235441
 30
0.0
 10
20.5195006049
 20
37.2219789793
 30
0.0
 10
20.9987976567
 20
36.9938661324
 30
0.0
 10
21.6561009122
 20
36.8021514854
 30
0.0
 10
22.1226721005
 20
36.7239099764
 30
0.0
 10
22.5716030722
 20
36.7082555821
 30
0.0
 10
22.9986439648
 20
36.7559088704
 30
0.0
 10
23.3992431107
 20
36.866656648
 30
0.0
 10
23.6468099276
 20
36.982613865
 30
0.0
 10
23.7634229788
 20
37.0499262286
 30
0.0
  0
SPLINE
  5
232
100
AcDbEntity
  8
0
100
AcDbSpline
 62
7
  6
BYLAYER
 70
0
 71
3
 72
15
 73
11
 74
0
 42
0.0000001
 43
0.0000001
 44
0.0000000001
 40
0.0
 40
0.0
 40
0.0
 40
0.0
 40
0.1080120437
 40
0.2180613192
 40
0.3320032662
 40
0.4513603399
 40
0.5772651893
 40
0.7104948808
 40
0.8514586687
 40
1.0
 40
1.0
 40
1.0
 40
1.0
 10
16.6514681055
 20
49.3682669388
 30
0.0
 10
16.5348577393
 20
49.300956125
 30
0.0
 10
16.3106797073
 20
49.1445028619
 30
0.0
 10
16.0144327618
 20
48.8529868788
 30
0.0
 10
15.7596988841
 20
48.5069494648
 30
0.0
 10
15.5487338727
 20
48.1103797871
 30
0.0
 10
15.3832611188
 20
47.6672432205
 30
0.0
 10
15.2644721504
 20
47.1817914673
 30
0.0
 10
15.19346222
 20
46.6587987647
 30
0.0
 10
15.1784811769
 20
46.2976697605
 30
0.0
 10
15.1784811769
 20
46.1125048298
 30
0.0
  0
SPLINE
  5
233
100
AcDbEntity
  8
0
100
AcDbSpline
 62
7
  6
BYLAYER
 70
0
 71
3
 72
22
 73
18
 74
0
 42
0.0000001
 43
0.0000001
 44
0.0000000001
 40
0.0
 40
0.0
 40
0.0
 40
0.0
 40
0.0428190773
 40
0.0874064701
 40
0.1351961344
 40
0.1871132551
 40
0.2435668217
 40
0.3045318605
 40
0.3696390373
 40
0.4382555789
 40
0.509561992
 40
0.5826073816
 40
0.7296231701
 40
0.8016228785
 40
0.8712292879
 40
0.9376119607
 40
1.0
 40
1.0
 40
1.0
 40
1.0
 10
59.458164958
 20
70.4164086881
 30
0.0
 10
59.555219364
 20
70.4724557619
 30
0.0
 10
59.769189881
 20
70.5613453318
 30
0.0
 10
60.1223608976
 20
70.613145112
 30
0.0
 10
60.5016320228
 20
70.5852243202
 30
0.0
 10
60.8985518307
 20
70.4797460882
 30
0.0
 10
61.3053451513
 20
70.299974663
 30
0.0
 10
61.7139101274
 20
70.050035205
 30
0.0
 10
62.1159283076
 20
69.7352803839
 30
0.0
 10
62.5030660687
 20
69.3624346591
 30
0.0
 10
62.8672382903
 20
68.9393439385
 30
0.0
 10
63.3123894852
 20
68.319266635
 30
0.0
 10
63.6783715517
 20
67.6430360882
 30
0.0
 10
63.9492981352
 20
66.9370422375
 30
0.0
 10
64.0973784556
 20
66.4122597409
 30
0.0
 10
64.1883696253
 20
65.9001934877
 30
0.0
 10
64.2105405128
 20
65.5629243272
 30
0.0
 10
64.2105405128
 20
65.3996291948
 30
0.0
  0
SPLINE
  5
234
100
AcDbEntity
  8
0
100
AcDbSpline
 62
7
  6
BYLAYER
 70
0
 71
3
 72
28
 73
24
 74
0
 42
0.0000001
 43
0.0000001
 44
0.0000000001
 40
0.0
 40
0.0
 40
0.0
 40
0.0
 40
0.0660754962
 40
0.1370847126
 40
0.2117972352
 40
0.2887214
 40
0.3662044538
 40
0.4425589229
 40
0.5161701197
 40
0.5856197773
 40
0.6498181441
 40
0.7081662254
 40
0.7351812963
 40
0.7608415732
 40
0.7853034059
 40
0.8087902382
 40
0.8315863345
 40
0.8540268014
 40
0.8764737319
 40
0.8992894941
 40
0.9228089871
 40
0.9473119264
 40
1.0
 40
1.0
 40
1.0
 40
1.0
 10
23.4403586832
 20
40.3056840204
 30
0.0
 10
23.4403586832
 20
40.60637077
 30
0.0
 10
23.3896697809
 20
41.2307311276
 30
0.0
 10
23.1856791341
 20
42.1749933298
 30
0.0
 10
22.8572474728
 20
43.1357544721
 30
0.0
 10
22.4150026216
 20
44.0820768642
 30
0.0
 10
21.8730454845
 20
44.9837486628
 30
0.0
 10
21.2487940215
 20
45.8118288214
 30
0.0
 10
20.5622185963
 20
46.5397972114
 30
0.0
 10
19.8349484064
 20
47.1445083657
 30
0.0
 10
19.0898620901
 20
47.6066450092
 30
0.0
 10
18.4563218735
 20
47.8670705691
 30
0.0
 10
17.9639281318
 20
47.9842281622
 30
0.0
 10
17.6145864287
 20
48.0263647034
 30
0.0
 10
17.2786592241
 20
48.0244032767
 30
0.0
 10
16.9589344099
 20
47.9782441094
 30
0.0
 10
16.6582790607
 20
47.8878625887
 30
0.0
 10
16.3794185049
 20
47.754108676
 30
0.0
 10
16.1251004364
 20
47.5779499125
 30
0.0
 10
15.8975316296
 20
47.3613034086
 30
0.0
 10
15.6987911011
 20
47.1060518963
 30
0.0
 10
15.4686727795
 20
46.7084499247
 30
0.0
 10
15.3526804425
 20
46.3725466246
 30
0.0
 10
15.2964997992
 20
46.1394563117
 30
0.0
  0
SPLINE
  5
235
100
AcDbEntity
  8
0
100
AcDbSpline
 62
7
  6
BYLAYER
 70
0
 71
3
 72
14
 73
10
 74
0
 42
0.0000001
 43
0.0000001
 44
0.0000000001
 40
0.0
 40
0.0
 40
0.0
 40
0.0
 40
0.2892615708
 40
0.4225608414
 40
0.5485062053
 40
0.6678891588
 40
0.7818692036
 40
0.8919544309
 40
1.0
 40
1.0
 40
1.0
 40
1.0
 10
22.7219352024
 20
40.7204566269
 30
0.0
 10
22.7219352024
 20
40.4758561394
 30
0.0
 10
22.6933649344
 20
40.1167818875
 30
0.0
 10
22.5829880588
 20
39.6654744122
 30
0.0
 10
22.4706965505
 20
39.3647302784
 30
0.0
 10
22.327514598
 20
39.0956633036
 30
0.0
 10
22.1546714495
 20
38.8608564683
 30
0.0
 10
21.9536567079
 20
38.6630273658
 30
0.0
 10
21.801523137
 20
38.556886004
 30
0.0
 10
21.7224043975
 20
38.5111963404
 30
0.0
  0
SPLINE
  5
236
100
AcDbEntity
  8
0
100
AcDbSpline
 62
7
  6
BYLAYER
 70
0
 71
3
 72
14
 73
10
 74
0
 42
0.0000001
 43
0.0000001
 44
0.0000000001
 40
0.0
 40
0.0
 40
0.0
 40
0.0
 40
0.1080478072
 40
0.2181343416
 40
0.3321142811
 40
0.4514964914
 40
0.5774408518
 40
0.7107392346
 40
1.0
 40
1.0
 40
1.0
 40
1.0
 10
18.8937595074
 20
36.8780810672
 30
0.0
 10
18.9728795473
 20
36.9237724796
 30
0.0
 10
19.125015151
 20
37.0299163149
 30
0.0
 10
19.3260329566
 20
37.2277471077
 30
0.0
 10
19.4988736137
 20
37.4625568502
 30
0.0
 10
19.6420528189
 20
37.7316237729
 30
0.0
 10
19.754342527
 20
38.0323665828
 30
0.0
 10
19.8647177322
 20
38.4836726616
 30
0.0
 10
19.8932876569
 20
38.8427458573
 30
0.0
 10
19.8932876569
 20
39.0873459534
 30
0.0
  0
SPLINE
  5
237
100
AcDbEntity
  8
0
100
AcDbSpline
 62
7
  6
BYLAYER
 70
0
 71
3
 72
23
 73
19
 74
0
 42
0.0000001
 43
0.0000001
 44
0.0000000001
 40
0.0
 40
0.0
 40
0.0
 40
0.0
 40
0.0623788002
 40
0.1287503477
 40
0.1983457761
 40
0.2703345382
 40
0.3437243134
 40
0.4174668573
 40
0.4905033045
 40
0.5618008101
 40
0.6304087171
 40
0.6955076318
 40
0.7564648179
 40
0.8129108578
 40
0.8648208718
 40
0.9126040628
 40
0.9571856744
 40
1.0
 40
1.0
 40
1.0
 40
1.0
 10
19.8932876569
 20
39.0873459534
 30
0.0
 10
19.8932876569
 20
39.2875115594
 30
0.0
 10
19.8661143486
 20
39.7009259749
 30
0.0
 10
19.7545774436
 20
40.3286196908
 30
0.0
 10
19.5730747444
 20
40.9718318816
 30
0.0
 10
19.3256632471
 20
41.6167215241
 30
0.0
 10
19.0175294059
 20
42.2496940919
 30
0.0
 10
18.6552823429
 20
42.8572304149
 30
0.0
 10
18.2466418284
 20
43.4263703519
 30
0.0
 10
17.8002800879
 20
43.9449627877
 30
0.0
 10
17.3257091077
 20
44.4020153052
 30
0.0
 10
16.8329128461
 20
44.7878456988
 30
0.0
 10
16.3320888136
 20
45.0942270829
 30
0.0
 10
15.8334381135
 20
45.3145929064
 30
0.0
 10
15.3468913745
 20
45.4438885602
 30
0.0
 10
14.8819783099
 20
45.4781171507
 30
0.0
 10
14.4490546567
 20
45.4146209965
 30
0.0
 10
14.1867648027
 20
45.3056563515
 30
0.0
 10
14.0677927393
 20
45.2369506023
 30
0.0
  0
SPLINE
  5
238
100
AcDbEntity
  8
0
100
AcDbSpline
 62
7
  6
BYLAYER
 70
0
 71
3
 72
13
 73
9
 74
0
 42
0.0000001
 43
0.0000001
 44
0.0000000001
 40
0.0
 40
0.0
 40
0.0
 40
0.0
 40
0.1080956991
 40
0.2182376439
 40
0.3322520596
 40
0.4516794393
 40
0.7106580761
 40
1.0
 40
1.0
 40
1.0
 40
1.0
 10
17.0387721003
 20
59.4372787302
 30
0.0
 10
17.038763603
 20
59.4853634953
 30
0.0
 10
17.0471240462
 20
59.5826411444
 30
0.0
 10
17.0844325215
 20
59.7262979918
 30
0.0
 10
17.1458961491
 20
59.8668940677
 30
0.0
 10
17.2623234197
 20
60.0532291813
 30
0.0
 10
17.4690742727
 20
60.2707189723
 30
0.0
 10
17.6712324226
 20
60.4098558096
 30
0.0
 10
17.7826982478
 20
60.4742102497
 30
0.0
  0
SPLINE
  5
239
100
AcDbEntity
  8
0
100
AcDbSpline
 62
7
  6
BYLAYER
 70
0
 71
3
 72
19
 73
15
 74
0
 42
0.0000001
 43
0.0000001
 44
0.0000000001
 40
0.0
 40
0.0
 40
0.0
 40
0.0
 40
0.1307972522
 40
0.2504574726
 40
0.3073940878
 40
0.3631709914
 40
0.4185187909
 40
0.4742011965
 40
0.5309579012
 40
0.5894630998
 40
0.7136322588
 40
0.7802744825
 40
0.8502202352
 40
1.0
 40
1.0
 40
1.0
 40
1.0
 10
20.2889191687
 20
37.4911684533
 30
0.0
 10
20.5008900906
 20
37.4285457389
 30
0.0
 10
20.9189458282
 20
37.3440380097
 30
0.0
 10
21.4439680464
 20
37.3585238049
 30
0.0
 10
21.8273690953
 20
37.4484985631
 30
0.0
 10
22.0930327829
 20
37.5516152687
 30
0.0
 10
22.3392593838
 20
37.690849756
 30
0.0
 10
22.5641314314
 20
37.8651232417
 30
0.0
 10
22.7660512576
 20
38.0730063842
 30
0.0
 10
23.0072692878
 20
38.3990918242
 30
0.0
 10
23.1911958764
 20
38.783017772
 30
0.0
 10
23.3189456864
 20
39.2051605172
 30
0.0
 10
23.4149133996
 20
39.6801066543
 30
0.0
 10
23.4403586832
 20
40.0525786439
 30
0.0
 10
23.4403586832
 20
40.3056840204
 30
0.0
  0
SPLINE
  5
23A
100
AcDbEntity
  8
0
100
AcDbSpline
 62
7
  6
BYLAYER
 70
0
 71
3
 72
20
 73
16
 74
0
 42
0.0000001
 43
0.0000001
 44
0.0000000001
 40
0.0
 40
0.0
 40
0.0
 40
0.0
 40
0.0623914642
 40
0.1288092529
 40
0.2703030134
 40
0.4173653942
 40
0.5616181257
 40
0.6302547827
 40
0.695381641
 40
0.756364037
 40
0.812833198
 40
0.8647656982
 40
0.9125671398
 40
0.9571679183
 40
1.0
 40
1.0
 40
1.0
 40
1.0
 10
35.3840735261
 20
50.3122813882
 30
0.0
 10
35.4752890003
 20
50.3649443524
 30
0.0
 10
35.6709013948
 20
50.4613394942
 30
0.0
 10
36.1005429217
 20
50.6170697976
 30
0.0
 10
36.6919058143
 20
50.7353229775
 30
0.0
 10
37.4253064112
 20
50.7555707554
 30
0.0
 10
38.0305788312
 20
50.6707001588
 30
0.0
 10
38.48218875
 20
50.5405628832
 30
0.0
 10
38.7877514996
 20
50.4174850271
 30
0.0
 10
39.0591895
 20
50.2698352676
 30
0.0
 10
39.2908529039
 20
50.1005438747
 30
0.0
 10
39.4778444925
 20
49.9128200913
 30
0.0
 10
39.6157433997
 20
49.7098979787
 30
0.0
 10
39.7008008424
 20
49.4958896594
 30
0.0
 10
39.7201042996
 20
49.3476570236
 30
0.0
 10
39.7201170774
 20
49.2753498747
 30
0.0
  0
SPLINE
  5
23B
100
AcDbEntity
  8
0
100
AcDbSpline
 62
7
  6
BYLAYER
 70
0
 71
3
 72
20
 73
16
 74
0
 42
0.0000001
 43
0.0000001
 44
0.0000000001
 40
0.0
 40
0.0
 40
0.0
 40
0.0
 40
0.0623914642
 40
0.1288092529
 40
0.2703030134
 40
0.4173653942
 40
0.5616181257
 40
0.6302547827
 40
0.695381641
 40
0.756364037
 40
0.812833198
 40
0.8647656982
 40
0.9125671398
 40
0.9571679183
 40
1.0
 40
1.0
 40
1.0
 40
1.0
 10
17.7826982478
 20
60.4742102497
 30
0.0
 10
17.8739137219
 20
60.5268732139
 30
0.0
 10
18.0695261164
 20
60.6232683557
 30
0.0
 10
18.4991676434
 20
60.7789986591
 30
0.0
 10
19.090530536
 20
60.897251839
 30
0.0
 10
19.8239311328
 20
60.9174996169
 30
0.0
 10
20.4292035528
 20
60.8326290203
 30
0.0
 10
20.8808134717
 20
60.7024917447
 30
0.0
 10
21.1863762212
 20
60.5794138886
 30
0.0
 10
21.4578142216
 20
60.4317641292
 30
0.0
 10
21.6894776256
 20
60.2624727362
 30
0.0
 10
21.8764692142
 20
60.0747489528
 30
0.0
 10
22.0143681213
 20
59.8718268402
 30
0.0
 10
22.0994255641
 20
59.6578185209
 30
0.0
 10
22.1187290213
 20
59.5095858851
 30
0.0
 10
22.118741799
 20
59.4372787362
 30
0.0
  0
SPLINE
  5
23C
100
AcDbEntity
  8
0
100
AcDbSpline
 62
7
  6
BYLAYER
 70
0
 71
3
 72
24
 73
20
 74
0
 42
0.0000001
 43
0.0000001
 44
0.0000000001
 40
0.0
 40
0.0
 40
0.0
 40
0.0
 40
0.0213340311
 40
0.0428963174
 40
0.0874752881
 40
0.1352549512
 40
0.1871600615
 40
0.2436015792
 40
0.3045535265
 40
0.3696459656
 40
0.4382480227
 40
0.5095391195
 40
0.5825684103
 40
0.6563049939
 40
0.7296859508
 40
0.8016689387
 40
0.8712622093
 40
0.9376180134
 40
1.0
 40
1.0
 40
1.0
 40
1.0
 10
19.2557348638
 20
50.8718242224
 30
0.0
 10
19.3431167504
 20
50.9222630694
 30
0.0
 10
19.5255393777
 20
51.012527447
 30
0.0
 10
19.9173577154
 20
51.1480955119
 30
0.0
 10
20.4557998721
 20
51.2273316529
 30
0.0
 10
21.1406802953
 20
51.1767251059
 30
0.0
 10
21.8577835959
 20
50.9862591256
 30
0.0
 10
22.5926091172
 20
50.6614817444
 30
0.0
 10
23.3306596573
 20
50.2099644326
 30
0.0
 10
24.05689506
 20
49.6413933593
 30
0.0
 10
24.7562535873
 20
48.9678383947
 30
0.0
 10
25.4140226497
 20
48.2035824805
 30
0.0
 10
26.0162471069
 20
47.3648689544
 30
0.0
 10
26.5500925861
 20
46.4695731688
 30
0.0
 10
27.004174352
 20
45.5367755255
 30
0.0
 10
27.3687607082
 20
44.5863958201
 30
0.0
 10
27.6362360673
 20
43.638535223
 30
0.0
 10
27.8006676821
 20
42.7135112735
 30
0.0
 10
27.8406733399
 20
42.1042727104
 30
0.0
 10
27.8406733399
 20
41.8092515562
 30
0.0
  0
SPLINE
  5
23D
100
AcDbEntity
  8
0
100
AcDbSpline
 62
7
  6
BYLAYER
 70
0
 71
3
 72
15
 73
11
 74
0
 42
0.0000001
 43
0.0000001
 44
0.0000000001
 40
0.0
 40
0.0
 40
0.0
 40
0.0
 40
0.1485418316
 40
0.2895057792
 40
0.4227359409
 40
0.5486415628
 40
0.6679992511
 40
0.7819406535
 40
0.8919883482
 40
1.0
 40
1.0
 40
1.0
 40
1.0
 10
27.8406733399
 20
41.8092515562
 30
0.0
 10
27.8406733399
 20
41.6240861294
 30
0.0
 10
27.8256924546
 20
41.2629565263
 30
0.0
 10
27.754681545
 20
40.7399628891
 30
0.0
 10
27.6358917014
 20
40.2545098947
 30
0.0
 10
27.4704166885
 20
39.8113719634
 30
0.0
 10
27.259448834
 20
39.4148029418
 30
0.0
 10
27.0047157427
 20
39.0687679222
 30
0.0
 10
26.7084716305
 20
38.7772535697
 30
0.0
 10
26.4842932132
 20
38.6208054464
 30
0.0
 10
26.3676830854
 20
38.5534953824
 30
0.0
  0
SPLINE
  5
23E
100
AcDbEntity
  8
0
100
AcDbSpline
 62
7
  6
BYLAYER
 70
0
 71
3
 72
23
 73
19
 74
0
 42
0.0000001
 43
0.0000001
 44
0.0000000001
 40
0.0
 40
0.0
 40
0.0
 40
0.0
 40
0.0428140383
 40
0.0873959828
 40
0.1351793765
 40
0.1870892564
 40
0.243534719
 40
0.304490905
 40
0.3695886705
 40
0.4381955268
 40
0.5094923324
 40
0.5825285131
 40
0.6562699812
 40
0.7296592787
 40
0.8016494328
 40
0.8712468102
 40
0.9376205158
 40
1.0
 40
1.0
 40
1.0
 40
1.0
 10
16.8964429403
 20
46.8700566761
 30
0.0
 10
17.01541469
 20
46.9387607437
 30
0.0
 10
17.2777052902
 20
47.0477222306
 30
0.0
 10
17.7106288355
 20
47.1112196156
 30
0.0
 10
18.1755425917
 20
47.0769890858
 30
0.0
 10
18.6620867712
 20
46.9476934468
 30
0.0
 10
19.1607317361
 20
46.7273301544
 30
0.0
 10
19.6615480364
 20
46.420954664
 30
0.0
 10
20.1543373806
 20
46.0351335666
 30
0.0
 10
20.6289026422
 20
45.5780898345
 30
0.0
 10
21.0752618581
 20
45.0595050861
 30
0.0
 10
21.4839021065
 20
44.4903743446
 30
0.0
 10
21.8461513111
 20
43.8828470771
 30
0.0
 10
22.1542847708
 20
43.2498761133
 30
0.0
 10
22.4017087875
 20
42.6049825312
 30
0.0
 10
22.583218842
 20
41.9617547634
 30
0.0
 10
22.6947594036
 20
41.3340470298
 30
0.0
 10
22.7219352024
 20
40.9206241498
 30
0.0
 10
22.7219352024
 20
40.7204566269
 30
0.0
  0
SPLINE
  5
23F
100
AcDbEntity
  8
0
100
AcDbSpline
 62
7
  6
BYLAYER
 70
0
 71
3
 72
15
 73
11
 74
0
 42
0.0000001
 43
0.0000001
 44
0.0000000001
 40
0.0
 40
0.0
 40
0.0
 40
0.0
 40
0.1080120437
 40
0.2180613192
 40
0.3320032662
 40
0.4513603399
 40
0.5772651893
 40
0.7104948808
 40
0.8514586687
 40
1.0
 40
1.0
 40
1.0
 40
1.0
 10
23.7634229788
 20
37.0499262286
 30
0.0
 10
23.880033345
 20
37.1172370424
 30
0.0
 10
24.104211377
 20
37.2736903054
 30
0.0
 10
24.4004583225
 20
37.5652062886
 30
0.0
 10
24.6551922002
 20
37.9112437025
 30
0.0
 10
24.8661572116
 20
38.3078133803
 30
0.0
 10
25.0316299655
 20
38.7509499469
 30
0.0
 10
25.1504189339
 20
39.2364017001
 30
0.0
 10
25.2214288643
 20
39.7593944027
 30
0.0
 10
25.2364099074
 20
40.1205234069
 30
0.0
 10
25.2364099074
 20
40.3056883375
 30
0.0
  0
SPLINE
  5
240
100
AcDbEntity
  8
0
100
AcDbSpline
 62
7
  6
BYLAYER
 70
0
 71
3
 72
24
 73
20
 74
0
 42
0.0000001
 43
0.0000001
 44
0.0000000001
 40
0.0
 40
0.0
 40
0.0
 40
0.0
 40
0.0623814928
 40
0.1287361412
 40
0.1983287096
 40
0.2703118308
 40
0.3436942346
 40
0.4174312855
 40
0.4904608305
 40
0.5617523959
 40
0.6303549506
 40
0.6954477988
 40
0.7563999576
 40
0.8128414507
 40
0.8647462928
 40
0.9125255031
 40
0.9571039987
 40
0.9786660706
 40
1.0
 40
1.0
 40
1.0
 40
1.0
 10
25.2364099074
 20
40.3056883375
 30
0.0
 10
25.2364099074
 20
40.6007074054
 30
0.0
 10
25.196406612
 20
41.2099388045
 30
0.0
 10
25.0319770491
 20
42.1349525644
 30
0.0
 10
24.7645086053
 20
43.0828074578
 30
0.0
 10
24.3999214846
 20
44.0331923008
 30
0.0
 10
23.9458384556
 20
44.9660010539
 30
0.0
 10
23.4119885587
 20
45.8613072844
 30
0.0
 10
22.8097601883
 20
46.7000260124
 30
0.0
 10
22.1519870466
 20
47.4642871729
 30
0.0
 10
21.4526227675
 20
48.1378467875
 30
0.0
 10
20.7263816651
 20
48.7064205062
 30
0.0
 10
19.9883266245
 20
49.1579373913
 30
0.0
 10
19.253499523
 20
49.4827119079
 30
0.0
 10
18.5363981194
 20
49.6731740481
 30
0.0
 10
17.8515224633
 20
49.7237755536
 30
0.0
 10
17.3130856721
 20
49.6445376494
 30
0.0
 10
16.921271159
 20
49.5089692131
 30
0.0
 10
16.7388494511
 20
49.418705932
 30
0.0
 10
16.6514681055
 20
49.3682669388
 30
0.0
  0
SPLINE
  5
241
100
AcDbEntity
  8
0
100
AcDbSpline
 62
7
  6
BYLAYER
 70
0
 71
3
 72
13
 73
9
 74
0
 42
0.0000001
 43
0.0000001
 44
0.0000000001
 40
0.0
 40
0.0
 40
0.0
 40
0.0
 40
0.1080956991
 40
0.2182376439
 40
0.3322520596
 40
0.4516794393
 40
0.7106580761
 40
1.0
 40
1.0
 40
1.0
 40
1.0
 10
34.6401473786
 20
49.2753498687
 30
0.0
 10
34.6401388813
 20
49.3234346338
 30
0.0
 10
34.6484993246
 20
49.4207122829
 30
0.0
 10
34.6858077999
 20
49.5643691302
 30
0.0
 10
34.7472714275
 20
49.7049652062
 30
0.0
 10
34.863698698
 20
49.8913003198
 30
0.0
 10
35.070449551
 20
50.1087901108
 30
0.0
 10
35.2726077009
 20
50.2479269481
 30
0.0
 10
35.3840735261
 20
50.3122813882
 30
0.0
  0
ENDSEC
  0
SECTION
  2
OBJECTS
  0
DICTIONARY
  5
C
100
AcDbDictionary
280
0
281
1
  3
ACAD_GROUP
350
D
  3
ACAD_MLINESTYLE
350
17
  3
ACAD_LAYOUT
350
1A
  3
ACAD_PLOTSETTINGS
350
19
  3
ACAD_PLOTSTYLENAME
350
E
  0
DICTIONARY
  5
D
102
{ACAD_REACTORS
330
C
102
}
100
AcDbDictionary
280
0
281
1
  0
ACDBDICTIONARYWDFLT
  5
E
102
{ACAD_REACTORS
330
C
102
}
100
AcDbDictionary
281
1
  3
Normal
350
F
100
AcDbDictionaryWithDefault
340
F
  0
DICTIONARY
  5
17
102
{ACAD_REACTORS
330
C
102
}
100
AcDbDictionary
280
0
281
1
  3
Standard
350
18
  0
DICTIONARY
  5
19
102
{ACAD_REACTORS
330
C
102
}
100
AcDbDictionary
281
1
  0
DICTIONARY
  5
1A
102
{ACAD_REACTORS
330
C
102
}
100
AcDbDictionary
281
1
  3
Model
350
242
  3
Layout1
350
243
  0
ACDBPLACEHOLDER
  5
F
102
{ACAD_REACTORS
330
E
102
}
  0
MLINESTYLE
  5
18
102
{ACAD_REACTORS
330
17
102
}
100
AcDbMlineStyle
  2
STANDARD
 70
0
  3

 62
256
 51
90.0
 52
90.0
 71
2
 49
0.5
 62
256
  6
BYLAYER
 49
-0.5
 62
256
  6
BYLAYER
  0
LAYOUT
  5
242
102
{ACAD_REACTORS
330
1A
102
}
100
AcDbPlotSettings
  1

  2
none_device
  4

  6

 40
0.0
 41
0.0
 42
0.0
 43
0.0
 44
210.0
 45
297.0
 46
0.0
 47
0.0
 48
0.0
 49
0.0
140
0.0
141
0.0
142
1.0
143
1.0
 70
1024
 72
1
 73
0
 74
0
  7

 75
0
147
1.0
148
0.0
149
0.0
100
AcDbLayout
  1
Model
 70
0
 71
0
 10
0.0
 20
0.0
 11
210.0
 21
297.0
 12
0.0
 22
0.0
 32
0.0
 14
0.0
 24
0.0
 34
0.0
 15
0.0
 25
0.0
 35
0.0
146
0.0
 13
0.0
 23
0.0
 33
0.0
 16
1.0
 26
0.0
 36
0.0
 17
0.0
 27
1.0
 37
0.0
 76
0
330
210
345
0
346
0
  0
LAYOUT
  5
243
102
{ACAD_REACTORS
330
1A
102
}
100
AcDbPlotSettings
  1

  2
none_device
  4

  6

 40
0.0
 41
0.0
 42
0.0
 43
0.0
 44
210.0
 45
297.0
 46
0.0
 47
0.0
 48
0.0
 49
0.0
140
0.0
141
0.0
142
1.0
143
1.0
 70
0
 72
1
 73
0
 74
0
  7

 75
0
147
1.0
148
0.0
149
0.0
100
AcDbLayout
  1
Layout1
 70
0
 71
1
 10
0.0
 20
0.0
 11
210.0
 21
297.0
 12
0.0
 22
0.0
 32
0.0
 14
0.0
 24
0.0
 34
0.0
 15
0.0
 25
0.0
 35
0.0
146
0.0
 13
0.0
 23
0.0
 33
0.0
 16
1.0
 26
0.0
 36
0.0
 17
0.0
 27
1.0
 37
0.0
 76
0
330
211
345
0
346
0
  0
ENDSEC
  0
EOF
