999
DXF file: C:\Users\sesa63760\Dev\_Creo\CAD\MCADID0003015_3D-CAD\drw0001_1.dxf
999
Pro/ENGINEER 2019471 by Parametric Technology Corporation
  0
SECTION
  2
HEADER
  9
$ACADVER
  1
AC1024
  9
$DWGCODEPAGE
  3
ANSI_1252
  9
$EXTMAX
 10
56.6615790107
 20
80.1356617437
 30
0.0
  9
$EXTMIN
 10
0.0
 20
0.0
 30
0.0
  9
$LIMMIN
 10
0.0
 20
0.0
  9
$LIMMAX
 10
56.6615790107
 20
80.1356617437
  9
$VIEWCTR
 10
28.3307895053
 20
40.0678308719
  9
$VIEWSIZE
 40
80.1356617437
  9
$CLAYER
  8
0
  9
$LTSCALE
 40
5.2236579507
  9
$CELTYPE
  6
BYLAYER
  9
$DIMSCALE
 40
1.0
  9
$DIMASZ
 40
0.6745426073
  9
$DIMEXO
 40
1.0
  9
$DIMDLI
 40
3.6090727659
  9
$DIMEXE
 40
1.0
  9
$DIMCEN
 40
0.8547803919
  9
$DIMLFAC
 40
1.0
  9
$DIMBLK
  1
_FILLED
  9
$DIMALT
 70
0
  9
$DIMALTF
 40
0.0393700787
  9
$DIMTXT
 40
0.9443596502
  9
$DIMTOL
 70
1
  9
$DIMLIM
 70
0
  9
$DIMTFAC
 40
1.0
  9
$DIMTP
 40
0.01
  9
$DIMTM
 40
0.01
  9
$DIMGAP
 40
0.625
  9
$DIMDSEP
 70
46
  9
$AUNITS
 70
0
  9
$PDMODE
 70
3
  9
$PDSIZE
 40
0.3125
  9
$HANDSEED
  5
261
  9
$TILEMODE
 70
1
  9
$MEASUREMENT
 70
1
  9
$INSUNITS
 70
4
  0
ENDSEC
  0
SECTION
  2
CLASSES
  0
CLASS
  1
ACDBDICTIONARYWDFLT
  2
AcDbDictionaryWithDefault
  3
AutoCAD 2000
 90
0
 91
1
280
0
281
0
  0
CLASS
  1
ACDBPLACEHOLDER
  2
AcDbPlaceHolder
  3
AutoCAD 2000
 90
0
 91
1
280
0
281
0
  0
CLASS
  1
LAYOUT
  2
AcDbLayout
  3
AutoCAD 2000
 90
0
 91
0
280
0
281
0
  0
ENDSEC
  0
SECTION
  2
TABLES
  0
TABLE
  2
VPORT
  5
8
100
AcDbSymbolTable
 70
2
  0
VPORT
  5
1F4
100
AcDbSymbolTableRecord
100
AcDbViewportTableRecord
  2
*ACTIVE
 70
0
 10
0.0
 20
0.0
 11
1.0
 21
1.0
 12
28.3307895053
 22
40.0678308719
 13
0.0
 23
0.0
 14
1.0
 24
1.0
 15
0.0
 25
0.0
 16
0.0
 26
0.0
 36
1.0
 17
0.0
 27
0.0
 37
0.0
 40
80.1356617437
 41
0.7070707071
 42
50.0
 43
0.0
 44
0.0
 50
0.0
 51
0.0
 71
0
 72
100
 73
1
 74
1
 75
0
 76
0
 77
0
 78
0
  0
ENDTAB
  0
TABLE
  2
LTYPE
  5
5
100
AcDbSymbolTable
 70
6
  0
LTYPE
  5
14
100
AcDbSymbolTableRecord
100
AcDbLinetypeTableRecord
  2
BYBLOCK
 70
0
  3

 72
65
 73
0
 40
0.0
  0
LTYPE
  5
15
100
AcDbSymbolTableRecord
100
AcDbLinetypeTableRecord
  2
BYLAYER
 70
0
  3

 72
65
 73
0
 40
0.0
  0
LTYPE
  5
16
100
AcDbSymbolTableRecord
100
AcDbLinetypeTableRecord
  2
CONTINUOUS
 70
64
  3
Solid line
 72
65
 73
0
 40
0.0
  0
LTYPE
  5
1F5
100
AcDbSymbolTableRecord
100
AcDbLinetypeTableRecord
  2
CENTER
 70
64
  3
____ _ ____ _ ____ _ ____ _ ____ _ ____ _ ____
 72
65
 73
4
 40
0.6
 49
0.375
 74
0
 49
-0.075
 74
0
 49
0.075
 74
0
 49
-0.075
 74
0
  0
LTYPE
  5
1F6
100
AcDbSymbolTableRecord
100
AcDbLinetypeTableRecord
  2
HIDDEN
 70
64
  3
- - - - - - - - - - - - - - - - - - - -
 72
65
 73
2
 40
0.2
 49
0.1
 74
0
 49
-0.1
 74
0
  0
LTYPE
  5
1F7
100
AcDbSymbolTableRecord
100
AcDbLinetypeTableRecord
  2
PHANTOM
 70
64
  3
_____ _ _ _____ _ _ _____ _ _ _____
 72
65
 73
6
 40
0.8
 49
0.45
 74
0
 49
-0.05
 74
0
 49
0.1
 74
0
 49
-0.05
 74
0
 49
0.1
 74
0
 49
-0.05
 74
0
  0
LTYPE
  5
1F8
100
AcDbSymbolTableRecord
100
AcDbLinetypeTableRecord
  2
DOT
 70
64
  3
. . . . . . . . . . . . . . . . . . . .
 72
65
 73
2
 40
0.2
 49
0.1
 74
0
 49
-0.1
 74
0
  0
LTYPE
  5
1F9
100
AcDbSymbolTableRecord
100
AcDbLinetypeTableRecord
  2
DASHED
 70
64
  3
- - - - - - - - - - - - - - - - - - - -
 72
65
 73
2
 40
0.2
 49
0.1
 74
0
 49
-0.1
 74
0
  0
ENDTAB
  0
TABLE
  2
LAYER
  5
2
100
AcDbSymbolTable
 70
36
  0
LAYER
  5
10
100
AcDbSymbolTableRecord
100
AcDbLayerTableRecord
  2
0
 70
0
 62
7
  6
CONTINUOUS
370
-3
390
F
  0
LAYER
  5
1FA
100
AcDbSymbolTableRecord
100
AcDbLayerTableRecord
  2
DEFAULT_1
 70
0
 62
7
  6
CENTER
370
-3
390
F
  0
LAYER
  5
1FB
100
AcDbSymbolTableRecord
100
AcDbLayerTableRecord
  2
DEFAULT_2
 70
0
 62
7
  6
HIDDEN
370
-3
390
F
  0
LAYER
  5
1FC
100
AcDbSymbolTableRecord
100
AcDbLayerTableRecord
  2
DEFAULT_3
 70
0
 62
7
  6
PHANTOM
370
-3
390
F
  0
LAYER
  5
1FD
100
AcDbSymbolTableRecord
100
AcDbLayerTableRecord
  2
00_COMPONENTS
 70
0
 62
7
  6
CONTINUOUS
370
-3
390
F
  0
LAYER
  5
1FE
100
AcDbSymbolTableRecord
100
AcDbLayerTableRecord
  2
01_1_DEFAULT_DATUMS
 70
0
 62
7
  6
CONTINUOUS
370
-3
390
F
  0
LAYER
  5
1FF
100
AcDbSymbolTableRecord
100
AcDbLayerTableRecord
  2
01_PLANES
 70
0
 62
7
  6
CONTINUOUS
370
-3
390
F
  0
LAYER
  5
200
100
AcDbSymbolTableRecord
100
AcDbLayerTableRecord
  2
02_COORD_SYS
 70
0
 62
7
  6
CONTINUOUS
370
-3
390
F
  0
LAYER
  5
201
100
AcDbSymbolTableRecord
100
AcDbLayerTableRecord
  2
03_AXES
 70
0
 62
7
  6
CONTINUOUS
370
-3
390
F
  0
LAYER
  5
202
100
AcDbSymbolTableRecord
100
AcDbLayerTableRecord
  2
04_POINTS
 70
0
 62
7
  6
CONTINUOUS
370
-3
390
F
  0
LAYER
  5
203
100
AcDbSymbolTableRecord
100
AcDbLayerTableRecord
  2
05_CURVES
 70
0
 62
7
  6
CONTINUOUS
370
-3
390
F
  0
LAYER
  5
204
100
AcDbSymbolTableRecord
100
AcDbLayerTableRecord
  2
06_SURFS
 70
0
 62
7
  6
CONTINUOUS
370
-3
390
F
  0
LAYER
  5
205
100
AcDbSymbolTableRecord
100
AcDbLayerTableRecord
  2
07_COSMETICS
 70
0
 62
7
  6
CONTINUOUS
370
-3
390
F
  0
LAYER
  5
206
100
AcDbSymbolTableRecord
100
AcDbLayerTableRecord
  2
10_NOTES
 70
0
 62
7
  6
CONTINUOUS
370
-3
390
F
  0
LAYER
  5
207
100
AcDbSymbolTableRecord
100
AcDbLayerTableRecord
  2
11_NOTES_PUB
 70
0
 62
7
  6
CONTINUOUS
370
-3
390
F
  0
LAYER
  5
208
100
AcDbSymbolTableRecord
100
AcDbLayerTableRecord
  2
13_REF_GTOL
 70
0
 62
7
  6
CONTINUOUS
370
-3
390
F
  0
LAYER
  5
209
100
AcDbSymbolTableRecord
100
AcDbLayerTableRecord
  2
16_MISC
 70
0
 62
7
  6
CONTINUOUS
370
-3
390
F
  0
LAYER
  5
20A
100
AcDbSymbolTableRecord
100
AcDbLayerTableRecord
  2
17_NO_PRINT
 70
0
 62
7
  6
CONTINUOUS
370
-3
390
F
  0
LAYER
  5
20B
100
AcDbSymbolTableRecord
100
AcDbLayerTableRecord
  2
18_DATUM_CAMS_JOINTS
 70
0
 62
7
  6
CONTINUOUS
370
-3
390
F
  0
LAYER
  5
20C
100
AcDbSymbolTableRecord
100
AcDbLayerTableRecord
  2
19_DATUM_FUNCTIONAL
 70
0
 62
7
  6
CONTINUOUS
370
-3
390
F
  0
LAYER
  5
20D
100
AcDbSymbolTableRecord
100
AcDbLayerTableRecord
  2
20_DATUM_KINEMATIC_SCHEME
 70
0
 62
7
  6
CONTINUOUS
370
-3
390
F
  0
ENDTAB
  0
TABLE
  2
STYLE
  5
3
100
AcDbSymbolTable
 70
1
  0
STYLE
  5
11
100
AcDbSymbolTableRecord
100
AcDbTextStyleTableRecord
  2
STANDARD
 70
0
 40
0.0
 41
1.0
 50
0.0
 71
0
 42
0.2
  3
ARIAL.TTF
  4

  0
STYLE
  5
20E
100
AcDbSymbolTableRecord
100
AcDbTextStyleTableRecord
  2
TEXTSTYLE_1
 70
0
 40
0.0
 41
0.8
 50
0.0
 71
0
 42
0.2
  3
gdt
  4

  0
ENDTAB
  0
TABLE
  2
VIEW
  5
6
100
AcDbSymbolTable
 70
0
  0
ENDTAB
  0
TABLE
  2
UCS
  5
7
100
AcDbSymbolTable
 70
0
  0
ENDTAB
  0
TABLE
  2
APPID
  5
9
100
AcDbSymbolTable
 70
1
  0
APPID
  5
20F
100
AcDbSymbolTableRecord
100
AcDbRegAppTableRecord
  2
ACAD
 70
0
  0
ENDTAB
  0
TABLE
  2
BLOCK_RECORD
  5
1
100
AcDbSymbolTable
 70
0
  0
BLOCK_RECORD
  5
210
100
AcDbSymbolTableRecord
100
AcDbBlockTableRecord
  2
*Model_Space
  0
BLOCK_RECORD
  5
211
100
AcDbSymbolTableRecord
100
AcDbBlockTableRecord
  2
*Paper_Space
  0
BLOCK_RECORD
  5
212
100
AcDbSymbolTableRecord
100
AcDbBlockTableRecord
  2
_FILLED
  0
ENDTAB
  0
TABLE
  2
DIMSTYLE
  5
A
100
AcDbSymbolTable
 70
1
100
AcDbDimStyleTable
 71
0
  0
DIMSTYLE
105
213
100
AcDbSymbolTableRecord
100
AcDbDimStyleTableRecord
  2
STANDARD
 70
0
  3

  4

 40
1.0
 41
0.6745426073
 42
1.0
 43
0.38
 44
1.0
 45
0.0
 46
0.0
 47
0.01
 48
0.01
140
0.9443596502
141
0.09
142
0.0
143
25.4
144
1.0
145
0.0
146
1.0
147
0.625
 71
1
 72
0
 73
0
 74
0
 75
0
 76
0
 77
1
 78
8
 79
2
170
0
171
1
172
0
173
0
174
0
175
0
176
0
177
0
178
0
270
2
179
2
271
2
272
2
273
2
274
2
275
0
280
0
281
0
282
0
283
1
284
8
285
0
286
0
287
3
288
0
340
11
278
46
341
212
342
212
343
212
344
212
  0
ENDTAB
  0
ENDSEC
  0
SECTION
  2
BLOCKS
  0
BLOCK
  5
20
100
AcDbEntity
  8
0
100
AcDbBlockBegin
  2
*Model_Space
 70
0
 10
0.0
 20
0.0
 30
0.0
  3
*Model_Space
  1

  0
ENDBLK
  5
21
100
AcDbEntity
  8
0
100
AcDbBlockEnd
  0
BLOCK
  5
1C
100
AcDbEntity
  8
0
100
AcDbBlockBegin
  2
*Paper_Space
 70
0
 10
0.0
 20
0.0
 30
0.0
  3
*Paper_Space
  1

  0
ENDBLK
  5
1D
100
AcDbEntity
  8
0
100
AcDbBlockEnd
  0
BLOCK
  5
214
100
AcDbEntity
  8
0
100
AcDbBlockBegin
  2
_FILLED
 70
64
 10
0.0
 20
0.0
  3
_FILLED
  1

  0
SOLID
  5
215
100
AcDbEntity
  8
0
  6
BYBLOCK
 62
0
100
AcDbTrace
 10
0.0
 20
0.0
 11
-1.0
 21
0.25
 12
-1.0
 22
-0.25
 13
-1.0
 23
-0.25
  0
ENDBLK
  5
216
100
AcDbEntity
  8
0
  6
BYBLOCK
 62
0
100
AcDbBlockEnd
  0
ENDSEC
  0
SECTION
  2
ENTITIES
  0
LINE
  5
217
100
AcDbEntity
  8
0
100
AcDbLine
 62
7
  6
BYLAYER
 10
6.5651292744
 20
32.2519764646
 11
6.5651292744
 21
27.0671861159
  0
LINE
  5
218
100
AcDbEntity
  8
0
100
AcDbLine
 62
7
  6
BYLAYER
 10
11.3276292744
 20
32.2519764646
 11
11.3276292744
 21
36.2701889849
  0
LINE
  5
219
100
AcDbEntity
  8
0
100
AcDbLine
 62
7
  6
BYLAYER
 10
13.9470042744
 20
36.7886680198
 11
13.9470042744
 21
36.2701889849
  0
LINE
  5
21A
100
AcDbEntity
  8
0
100
AcDbLine
 62
7
  6
BYLAYER
 10
18.2332542744
 20
36.7886680198
 11
18.2332542744
 21
36.2701889849
  0
LINE
  5
21B
100
AcDbEntity
  8
0
100
AcDbLine
 62
7
  6
BYLAYER
 10
19.1653940432
 20
30.4765199868
 11
19.1653940432
 21
33.7170139548
  0
LINE
  5
21C
100
AcDbEntity
  8
0
100
AcDbLine
 62
7
  6
BYLAYER
 10
20.8526292744
 20
35.8165198294
 11
20.8526292744
 21
36.2701889849
  0
LINE
  5
21D
100
AcDbEntity
  8
0
100
AcDbLine
 62
7
  6
BYLAYER
 10
33.1725658366
 20
53.3574575595
 11
29.426426615
 21
50.7998975699
  0
LINE
  5
21E
100
AcDbEntity
  8
0
100
AcDbLine
 62
7
  6
BYLAYER
 10
28.1406064801
 20
48.3017968981
 11
14.098982054
 21
38.715314737
  0
LINE
  5
21F
100
AcDbEntity
  8
0
100
AcDbLine
 62
7
  6
BYLAYER
 10
29.426426615
 20
50.7998975699
 11
28.1406064801
 21
48.3017968981
  0
LINE
  5
220
100
AcDbEntity
  8
0
100
AcDbLine
 62
7
  6
BYLAYER
 10
33.068347137
 20
48.049190848
 11
28.3116375271
 21
45.3029196673
  0
LWPOLYLINE
  5
221
100
AcDbEntity
  8
0
100
AcDbPolyline
 62
7
  6
BYLAYER
 90
3
 70
0
 10
25.6149294526
 20
32.2519765461
 10
25.6068543494
 20
32.4810721407
 10
25.2533973856
 20
33.4489157174
  0
LINE
  5
222
100
AcDbEntity
  8
0
100
AcDbLine
 62
7
  6
BYLAYER
 10
25.6151292744
 20
32.2519764646
 11
25.6151292744
 21
27.0671861159
  0
LINE
  5
223
100
AcDbEntity
  8
0
100
AcDbLine
 62
7
  6
BYLAYER
 10
27.1891101855
 20
43.3586344858
 11
28.3116375271
 21
45.3029196673
  0
LINE
  5
224
100
AcDbEntity
  8
0
100
AcDbLine
 62
7
  6
BYLAYER
 10
35.0327863422
 20
46.9150470019
 11
30.2760767323
 21
44.1687758211
  0
LINE
  5
225
100
AcDbEntity
  8
0
100
AcDbLine
 62
7
  6
BYLAYER
 10
30.2760767323
 20
44.1687758211
 11
29.1535493907
 21
42.2244906397
  0
LINE
  5
226
100
AcDbEntity
  8
0
100
AcDbLine
 62
7
  6
BYLAYER
 10
29.1535493907
 20
42.2244906397
 11
33.9102590006
 21
44.9707618204
  0
LINE
  5
227
100
AcDbEntity
  8
0
100
AcDbLine
 62
7
  6
BYLAYER
 10
39.235970535
 20
45.1364828707
 11
48.1562267536
 21
49.4916926182
  0
LINE
  5
228
100
AcDbEntity
  8
0
100
AcDbLine
 62
7
  6
BYLAYER
 10
29.9339004052
 20
51.1463595097
 11
29.9338774254
 21
54.3329767944
  0
LINE
  5
229
100
AcDbEntity
  8
0
100
AcDbLine
 62
7
  6
BYLAYER
 10
33.9102590006
 20
44.9707618204
 11
35.0327863422
 21
46.9150470019
  0
LINE
  5
22A
100
AcDbEntity
  8
0
100
AcDbLine
 62
7
  6
BYLAYER
 10
19.1653940432
 20
33.7170139548
 11
37.7154723159
 21
42.7738705888
  0
LWPOLYLINE
  5
22B
100
AcDbEntity
  8
0
100
AcDbPolyline
 62
7
  6
BYLAYER
 90
3
 70
0
 10
11.6046634184
 20
37.0235758329
 10
10.5613939856
 20
36.7299589451
 10
9.3549091424
 20
36.1404696514
  0
LINE
  5
22C
100
AcDbEntity
  8
0
100
AcDbLine
 62
7
  6
BYLAYER
 10
27.1891101855
 20
43.3586344858
 11
29.1535493907
 21
42.2244906397
  0
LINE
  5
22D
100
AcDbEntity
  8
0
100
AcDbLine
 62
7
  6
BYLAYER
 10
39.235970535
 20
38.6554949347
 11
37.7154723159
 21
39.5333766208
  0
LINE
  5
22E
100
AcDbEntity
  8
0
100
AcDbLine
 62
7
  6
BYLAYER
 10
33.9026274253
 20
57.5734993823
 11
33.902652541
 21
54.090683674
  0
LINE
  5
22F
100
AcDbEntity
  8
0
100
AcDbLine
 62
7
  6
BYLAYER
 10
37.7154723159
 20
39.5333766208
 11
19.1653940432
 21
30.4765199868
  0
LINE
  5
230
100
AcDbEntity
  8
0
100
AcDbLine
 62
7
  6
BYLAYER
 10
48.1562267536
 20
43.0107046822
 11
39.235970535
 21
38.6554949347
  0
LINE
  5
231
100
AcDbEntity
  8
0
100
AcDbLine
 62
7
  6
BYLAYER
 10
30.2760767323
 20
44.1687758211
 11
28.3116375271
 21
45.3029196673
  0
LINE
  5
232
100
AcDbEntity
  8
0
100
AcDbLine
 62
7
  6
BYLAYER
 10
37.4747203349
 20
52.9908690165
 11
37.5109378069
 21
53.3574679877
  0
LINE
  5
233
100
AcDbEntity
  8
0
100
AcDbLine
 62
7
  6
BYLAYER
 10
37.7154723159
 20
42.7738705888
 11
39.235970535
 21
45.1364828707
  0
LINE
  5
234
100
AcDbEntity
  8
0
100
AcDbLine
 62
7
  6
BYLAYER
 10
37.7154723159
 20
42.7738705888
 11
33.9102590006
 21
44.9707618204
  0
LINE
  5
235
100
AcDbEntity
  8
0
100
AcDbLine
 62
7
  6
BYLAYER
 10
30.8232637087
 20
46.7529990636
 11
28.1406064801
 21
48.3017968981
  0
LINE
  5
236
100
AcDbEntity
  8
0
100
AcDbLine
 62
7
  6
BYLAYER
 10
37.5109378069
 20
52.8344209424
 11
37.5109378069
 21
53.3574679877
  0
LINE
  5
237
100
AcDbEntity
  8
0
100
AcDbLine
 62
7
  6
BYLAYER
 10
37.8113054353
 20
54.0906930693
 11
37.8113054353
 21
51.9811239527
  0
LINE
  5
238
100
AcDbEntity
  8
0
100
AcDbLine
 62
7
  6
BYLAYER
 10
35.0327863422
 20
46.9150470019
 11
33.068347137
 21
48.049190848
  0
LINE
  5
239
100
AcDbEntity
  8
0
100
AcDbLine
 62
7
  6
BYLAYER
 10
39.235970535
 20
45.1364828707
 11
29.426426615
 21
50.7998975699
  0
LINE
  5
23A
100
AcDbEntity
  8
0
100
AcDbLine
 62
7
  6
BYLAYER
 10
37.5109378069
 20
53.3574679877
 11
33.1725658366
 21
53.3574575595
  0
LINE
  5
23B
100
AcDbEntity
  8
0
100
AcDbLine
 62
7
  6
BYLAYER
 10
33.902652541
 20
54.090683674
 11
37.8113054353
 21
54.0906930693
  0
LINE
  5
23C
100
AcDbEntity
  8
0
100
AcDbLine
 62
7
  6
BYLAYER
 10
43.0307524253
 20
57.5735213236
 11
33.9026274253
 21
57.5734993823
  0
LINE
  5
23D
100
AcDbEntity
  8
0
100
AcDbLine
 62
7
  6
BYLAYER
 10
48.1562267536
 20
49.4916926182
 11
48.1562267536
 21
43.0107046822
  0
LINE
  5
23E
100
AcDbEntity
  8
0
100
AcDbLine
 62
7
  6
BYLAYER
 10
50.9682854722
 20
46.5098811399
 11
50.9682854722
 21
52.9908690759
  0
SPLINE
  5
23F
100
AcDbEntity
  8
0
100
AcDbSpline
 62
7
  6
BYLAYER
 70
0
 71
3
 72
26
 73
22
 74
0
 42
0.0000001
 43
0.0000001
 44
0.0000000001
 40
0.0
 40
0.0
 40
0.0
 40
0.0
 40
0.0623768604
 40
0.1287154355
 40
0.1983021468
 40
0.2702745773
 40
0.343647178
 40
0.4173756852
 40
0.4903966684
 40
0.561679735
 40
0.630273317
 40
0.6953570082
 40
0.7563006299
 40
0.8127340495
 40
0.8646309395
 40
0.8890163105
 40
0.9124637466
 40
0.9351070215
 40
0.9571105351
 40
0.978669502
 40
1.0
 40
1.0
 40
1.0
 40
1.0
 10
22.8253494064
 20
23.1786929291
 30
0.0
 10
22.4831481779
 20
22.981124137
 30
0.0
 10
21.7497682034
 20
22.619540092
 30
0.0
 10
20.5667577404
 20
22.1908697246
 30
0.0
 10
19.2883094294
 20
21.8663470304
 30
0.0
 10
17.9418325851
 20
21.6528235195
 30
0.0
 10
16.555831374
 20
21.5548530348
 30
0.0
 10
15.1598970414
 20
21.5744870804
 30
0.0
 10
13.7837987826
 20
21.7113318577
 30
0.0
 10
12.4568734429
 20
21.9624649651
 30
0.0
 10
11.2073069649
 20
22.3225922729
 30
0.0
 10
10.0615349326
 20
22.78417538
 30
0.0
 10
9.0435677121
 20
23.3378828656
 30
0.0
 10
8.1749203682
 20
23.9725217998
 30
0.0
 10
7.5785153517
 20
24.5716277433
 30
0.0
 10
7.2003050519
 20
25.0788121229
 30
0.0
 10
6.9706232803
 20
25.4626223487
 30
0.0
 10
6.7903455756
 20
25.8555036553
 30
0.0
 10
6.6607474273
 20
26.2554446257
 30
0.0
 10
6.5825787243
 20
26.6600568533
 30
0.0
 10
6.5651376304
 20
26.9320635147
 30
0.0
 10
6.5651463141
 20
27.067186044
 30
0.0
  0
SPLINE
  5
240
100
AcDbEntity
  8
0
100
AcDbSpline
 62
7
  6
BYLAYER
 70
0
 71
3
 72
22
 73
18
 74
0
 42
0.0000001
 43
0.0000001
 44
0.0000000001
 40
0.0
 40
0.0
 40
0.0
 40
0.0
 40
0.0428177078
 40
0.0874045791
 40
0.1351913837
 40
0.1871081104
 40
0.2435603486
 40
0.3045235352
 40
0.3696299266
 40
0.4382449236
 40
0.5095527819
 40
0.5825964534
 40
0.7296200443
 40
0.8016151196
 40
0.8712273304
 40
0.9376271111
 40
1.0
 40
1.0
 40
1.0
 40
1.0
 10
18.2332417916
 20
36.7886680197
 30
0.0
 10
18.2332313614
 20
36.8496745123
 30
0.0
 10
18.2169489206
 20
36.9747424496
 30
0.0
 10
18.1451817546
 20
37.1553071543
 30
0.0
 10
18.0288334325
 20
37.3265207958
 30
0.0
 10
17.8710651757
 20
37.4849158064
 30
0.0
 10
17.6756011813
 20
37.6277508513
 30
0.0
 10
17.4465807151
 20
37.7523368692
 30
0.0
 10
17.1887778492
 20
37.8561713221
 30
0.0
 10
16.9076476065
 20
37.937220152
 30
0.0
 10
16.609071854
 20
37.9937238522
 30
0.0
 10
16.1955841515
 20
38.0348252461
 30
0.0
 10
15.7771801236
 20
38.0232799782
 30
0.0
 10
15.3706013381
 20
37.9588783372
 30
0.0
 10
15.0828734204
 20
37.8858531267
 30
0.0
 10
14.8167115025
 20
37.7893361347
 30
0.0
 10
14.651667355
 20
37.7080131054
 30
0.0
 10
14.5747047447
 20
37.6635789868
 30
0.0
  0
SPLINE
  5
241
100
AcDbEntity
  8
0
100
AcDbSpline
 62
7
  6
BYLAYER
 70
0
 71
3
 72
16
 73
12
 74
0
 42
0.0000001
 43
0.0000001
 44
0.0000000001
 40
0.0
 40
0.0
 40
0.0
 40
0.0
 40
0.1485557742
 40
0.2894916761
 40
0.4227027974
 40
0.4865578448
 40
0.5486672636
 40
0.6680222111
 40
0.7819515971
 40
0.8919926564
 40
1.0
 40
1.0
 40
1.0
 40
1.0
 10
9.3549091424
 20
36.1404696514
 30
0.0
 10
9.1401178246
 20
36.0164605665
 30
0.0
 10
8.7312741159
 20
35.757282045
 30
0.0
 10
8.1723189087
 20
35.3247207152
 30
0.0
 10
7.7637409851
 20
34.9336013058
 30
0.0
 10
7.478941893
 20
34.6075020885
 30
0.0
 10
7.2291329626
 20
34.2826686508
 30
0.0
 10
6.9669041485
 20
33.8630154649
 30
0.0
 10
6.7362486303
 20
33.3358476531
 30
0.0
 10
6.5964445216
 20
32.7970710085
 30
0.0
 10
6.5651581281
 20
32.432298584
 30
0.0
 10
6.5651463864
 20
32.2519763871
 30
0.0
  0
SPLINE
  5
242
100
AcDbEntity
  8
0
100
AcDbSpline
 62
7
  6
BYLAYER
 70
0
 71
3
 72
24
 73
20
 74
0
 42
0.0000001
 43
0.0000001
 44
0.0000000001
 40
0.0
 40
0.0
 40
0.0
 40
0.0
 40
0.0213182267
 40
0.0428488583
 40
0.0872671028
 40
0.1346900079
 40
0.1860206724
 40
0.2416976403
 40
0.3017560825
 40
0.365905558
 40
0.433608714
 40
0.5041449951
 40
0.5766606596
 40
0.6502139936
 40
0.7238263825
 40
0.7965142673
 40
0.8673211913
 40
0.9354161902
 40
1.0
 40
1.0
 40
1.0
 40
1.0
 10
20.8526039776
 20
36.27018897
 30
0.0
 10
20.8526012385
 20
36.335353506
 30
0.0
 10
20.8445019589
 20
36.4664825422
 30
0.0
 10
20.7956259374
 20
36.7292777645
 30
0.0
 10
20.67092103
 20
37.0561607307
 30
0.0
 10
20.4300332775
 20
37.4248435843
 30
0.0
 10
20.102822622
 20
37.7681919201
 30
0.0
 10
19.69636218
 20
38.0801869906
 30
0.0
 10
19.2187501775
 20
38.3554100202
 30
0.0
 10
18.6793412534
 20
38.5888347502
 30
0.0
 10
18.0886924959
 20
38.7760591496
 30
0.0
 10
17.45841352
 20
38.9134374946
 30
0.0
 10
16.8009682899
 20
38.9982466086
 30
0.0
 10
16.1294033213
 20
39.0288551752
 30
0.0
 10
15.4570490752
 20
39.0046378717
 30
0.0
 10
14.7972976407
 20
38.9260533944
 30
0.0
 10
14.1631202447
 20
38.7946946747
 30
0.0
 10
13.5673025829
 20
38.6130871164
 30
0.0
 10
13.1922661071
 20
38.4563090964
 30
0.0
 10
13.0148645056
 20
38.3696948596
 30
0.0
  0
SPLINE
  5
243
100
AcDbEntity
  8
0
100
AcDbSpline
 62
7
  6
BYLAYER
 70
0
 71
3
 72
11
 73
7
 74
0
 42
0.0000001
 43
0.0000001
 44
0.0000000001
 40
0.0
 40
0.0
 40
0.0
 40
0.0
 40
0.2434707096
 40
0.4897578715
 40
0.7413238245
 40
1.0
 40
1.0
 40
1.0
 40
1.0
 10
29.9339068682
 20
54.3329767879
 30
0.0
 10
29.9339053852
 20
54.4996812521
 30
0.0
 10
29.9658701128
 20
54.8358564431
 30
0.0
 10
30.1081686906
 20
55.3259850841
 30
0.0
 10
30.3409876775
 20
55.7916570485
 30
0.0
 10
30.5495665776
 20
56.0742855767
 30
0.0
 10
30.6657352332
 20
56.2079822383
 30
0.0
  0
SPLINE
  5
244
100
AcDbEntity
  8
0
100
AcDbSpline
 62
7
  6
BYLAYER
 70
0
 71
3
 72
12
 73
8
 74
0
 42
0.0000001
 43
0.0000001
 44
0.0000000001
 40
0.0
 40
0.0
 40
0.0
 40
0.0
 40
0.1168245074
 40
0.2365043019
 40
0.4836058143
 40
0.7394025783
 40
1.0
 40
1.0
 40
1.0
 40
1.0
 10
30.6657352332
 20
56.2079822383
 30
0.0
 10
30.7580513412
 20
56.3142273814
 30
0.0
 10
30.9587472426
 20
56.5177130892
 30
0.0
 10
31.4151596699
 20
56.8816044751
 30
0.0
 10
32.0786954847
 20
57.2453825373
 30
0.0
 10
32.9647227761
 20
57.5131037707
 30
0.0
 10
33.5886621489
 20
57.5734986276
 30
0.0
 10
33.9026274253
 20
57.5734993823
 30
0.0
  0
SPLINE
  5
245
100
AcDbEntity
  8
0
100
AcDbSpline
 62
7
  6
BYLAYER
 70
0
 71
3
 72
15
 73
11
 74
0
 42
0.0000001
 43
0.0000001
 44
0.0000000001
 40
0.0
 40
0.0
 40
0.0
 40
0.0
 40
0.108009541
 40
0.2180557205
 40
0.3319964506
 40
0.4513533805
 40
0.5772590333
 40
0.7104908277
 40
0.8514573785
 40
1.0
 40
1.0
 40
1.0
 40
1.0
 10
48.5870200119
 20
52.9908690266
 30
0.0
 10
48.5870297901
 20
52.8856855312
 30
0.0
 10
48.568747335
 20
52.6729094369
 30
0.0
 10
48.4872409395
 20
52.3586178203
 30
0.0
 10
48.3526267905
 20
52.0511154212
 30
0.0
 10
48.1667342321
 20
51.7534791729
 30
0.0
 10
47.9315592386
 20
51.4684322303
 30
0.0
 10
47.6495194328
 20
51.1984383454
 30
0.0
 10
47.3234158377
 20
50.94610771
 30
0.0
 10
47.0849398728
 20
50.7949090786
 30
0.0
 10
46.9596638826
 20
50.7225813836
 30
0.0
  0
SPLINE
  5
246
100
AcDbEntity
  8
0
100
AcDbSpline
 62
7
  6
BYLAYER
 70
0
 71
3
 72
13
 73
9
 74
0
 42
0.0000001
 43
0.0000001
 44
0.0000000001
 40
0.0
 40
0.0
 40
0.0
 40
0.0
 40
0.1159366048
 40
0.2344799597
 40
0.355814197
 40
0.4799725187
 40
0.7357738968
 40
1.0
 40
1.0
 40
1.0
 40
1.0
 10
30.2926526605
 20
51.4632553663
 30
0.0
 10
30.3561525421
 20
51.5767519625
 30
0.0
 10
30.4996824184
 20
51.7981635497
 30
0.0
 10
30.7570678046
 20
52.1044189953
 30
0.0
 10
31.0554412393
 20
52.3846012416
 30
0.0
 10
31.5068874499
 20
52.7215719495
 30
0.0
 10
32.1531076861
 20
53.0570515656
 30
0.0
 10
32.7177571793
 20
53.2192320741
 30
0.0
 10
33.0090082616
 20
53.274225852
 30
0.0
  0
SPLINE
  5
247
100
AcDbEntity
  8
0
100
AcDbSpline
 62
7
  6
BYLAYER
 70
0
 71
3
 72
20
 73
16
 74
0
 42
0.0000001
 43
0.0000001
 44
0.0000000001
 40
0.0
 40
0.0
 40
0.0
 40
0.0
 40
0.045060101
 40
0.0909694395
 40
0.1385017637
 40
0.1882947971
 40
0.2408254864
 40
0.2964031683
 40
0.3551803691
 40
0.4171760394
 40
0.4822863348
 40
0.5503157402
 40
0.6938674343
 40
0.8449613039
 40
1.0
 40
1.0
 40
1.0
 40
1.0
 10
50.9682784919
 20
52.9908690747
 30
0.0
 10
50.9682753051
 20
53.1411370206
 30
0.0
 10
50.9421455592
 20
53.4451105113
 30
0.0
 10
50.8257084213
 20
53.8941068095
 30
0.0
 10
50.6334197032
 20
54.3334124553
 30
0.0
 10
50.3678110108
 20
54.7586047351
 30
0.0
 10
50.0318391429
 20
55.1658336589
 30
0.0
 10
49.6289538035
 20
55.5514263886
 30
0.0
 10
49.1631617484
 20
55.9120250059
 30
0.0
 10
48.638863123
 20
56.2442646919
 30
0.0
 10
48.061098125
 20
56.5452558409
 30
0.0
 10
47.2115933144
 20
56.9073923444
 30
0.0
 10
46.0505679473
 20
57.2602719794
 30
0.0
 10
44.5697054245
 20
57.5161835687
 30
0.0
 10
43.5477807029
 20
57.5735225664
 30
0.0
 10
43.0307524253
 20
57.5735213236
 30
0.0
  0
SPLINE
  5
248
100
AcDbEntity
  8
0
100
AcDbSpline
 62
7
  6
BYLAYER
 70
0
 71
3
 72
15
 73
11
 74
0
 42
0.0000001
 43
0.0000001
 44
0.0000000001
 40
0.0
 40
0.0
 40
0.0
 40
0.0
 40
0.1104919307
 40
0.2226557369
 40
0.3380452753
 40
0.4579766424
 40
0.5835072679
 40
0.7154327194
 40
0.8542502621
 40
1.0
 40
1.0
 40
1.0
 40
1.0
 10
50.9682785554
 20
46.5098811388
 30
0.0
 10
50.9682815508
 20
46.3756322481
 30
0.0
 10
50.9474949571
 20
46.1046694944
 30
0.0
 10
50.8547547371
 20
45.7030900859
 30
0.0
 10
50.7011596083
 20
45.3083359477
 30
0.0
 10
50.4884738798
 20
44.9235663368
 30
0.0
 10
50.218421399
 20
44.5516993439
 30
0.0
 10
49.8933111991
 20
44.1953305325
 30
0.0
 10
49.5157496844
 20
43.8572770518
 30
0.0
 10
49.2379194049
 20
43.650627499
 30
0.0
 10
49.0916662049
 20
43.5507776774
 30
0.0
  0
SPLINE
  5
249
100
AcDbEntity
  8
0
100
AcDbSpline
 62
7
  6
BYLAYER
 70
0
 71
3
 72
9
 73
5
 74
0
 42
0.0000001
 43
0.0000001
 44
0.0000000001
 40
0.0
 40
0.0
 40
0.0
 40
0.0
 40
0.2422122328
 40
1.0
 40
1.0
 40
1.0
 40
1.0
 10
49.0916662049
 20
43.5507776774
 30
0.0
 10
49.0196062564
 20
43.5015809898
 30
0.0
 10
48.718064036
 20
43.3044030625
 30
0.0
 10
48.4015290743
 20
43.1304706432
 30
0.0
 10
48.1562267536
 20
43.0107046822
 30
0.0
  0
SPLINE
  5
24A
100
AcDbEntity
  8
0
100
AcDbSpline
 62
7
  6
BYLAYER
 70
0
 71
3
 72
16
 73
12
 74
0
 42
0.0000001
 43
0.0000001
 44
0.0000000001
 40
0.0
 40
0.0
 40
0.0
 40
0.0
 40
0.1080059114
 40
0.2180458324
 40
0.3319744401
 40
0.4513288531
 40
0.5134380188
 40
0.577292984
 40
0.7105049361
 40
0.8514432824
 40
1.0
 40
1.0
 40
1.0
 40
1.0
 10
25.6151122346
 20
27.0671861877
 30
0.0
 10
25.6151006463
 20
26.8868663902
 30
0.0
 10
25.5838150374
 20
26.5220982774
 30
0.0
 10
25.4440135835
 20
25.9833267816
 30
0.0
 10
25.2133610645
 20
25.4561622234
 30
0.0
 10
24.9511360814
 20
25.0365098463
 30
0.0
 10
24.7013299357
 20
24.7116760743
 30
0.0
 10
24.4165306793
 20
24.3855759473
 30
0.0
 10
24.0079512846
 20
23.9944503274
 30
0.0
 10
23.4489893661
 20
23.5618860929
 30
0.0
 10
23.0401420783
 20
23.3027027958
 30
0.0
 10
22.8253494064
 20
23.1786929291
 30
0.0
  0
SPLINE
  5
24B
100
AcDbEntity
  8
0
100
AcDbSpline
 62
7
  6
BYLAYER
 70
0
 71
3
 72
25
 73
21
 74
0
 42
0.0000001
 43
0.0000001
 44
0.0000000001
 40
0.0
 40
0.0
 40
0.0
 40
0.0
 40
0.0623742075
 40
0.1287251346
 40
0.1983104425
 40
0.270287038
 40
0.3436630631
 40
0.4173936678
 40
0.490417292
 40
0.5617034122
 40
0.6303006566
 40
0.6953877722
 40
0.7563349241
 40
0.812772162
 40
0.8646732245
 40
0.9124483335
 40
0.9350905882
 40
0.9570938399
 40
0.978657861
 40
1.0
 40
1.0
 40
1.0
 40
1.0
 10
46.9596638826
 20
50.7225813836
 30
0.0
 10
46.7600673294
 20
50.6073449478
 30
0.0
 10
46.3322473784
 20
50.3964386586
 30
0.0
 10
45.6421841617
 20
50.1463520836
 30
0.0
 10
44.8964086622
 20
49.9570658975
 30
0.0
 10
44.11099463
 20
49.8324904554
 30
0.0
 10
43.3025073899
 20
49.7753381268
 30
0.0
 10
42.4882328314
 20
49.7868000243
 30
0.0
 10
41.685529665
 20
49.866617025
 30
0.0
 10
40.9115007383
 20
50.0130959108
 30
0.0
 10
40.1825928131
 20
50.2231462346
 30
0.0
 10
39.5142208619
 20
50.4924085144
 30
0.0
 10
38.9204292749
 20
50.8153523907
 30
0.0
 10
38.4136174597
 20
51.1856816066
 30
0.0
 10
38.0046446125
 20
51.5962400388
 30
0.0
 10
37.7486558705
 20
51.9729353064
 30
0.0
 10
37.6059673638
 20
52.2839223766
 30
0.0
 10
37.5303312149
 20
52.5172174695
 30
0.0
 10
37.4847037856
 20
52.7532835086
 30
0.0
 10
37.4745725885
 20
52.9120094033
 30
0.0
 10
37.4745779011
 20
52.9908690196
 30
0.0
  0
SPLINE
  5
24C
100
AcDbEntity
  8
0
100
AcDbSpline
 62
7
  6
BYLAYER
 70
0
 71
3
 72
13
 73
9
 74
0
 42
0.0000001
 43
0.0000001
 44
0.0000000001
 40
0.0
 40
0.0
 40
0.0
 40
0.0
 40
0.2893483578
 40
0.54832394
 40
0.6677499254
 40
0.7817640683
 40
0.8919051354
 40
1.0
 40
1.0
 40
1.0
 40
1.0
 10
14.5747047447
 20
37.6635789868
 30
0.0
 10
14.4806532772
 20
37.6092786709
 30
0.0
 10
14.3100811189
 20
37.4918812276
 30
0.0
 10
14.1356342977
 20
37.3083732895
 30
0.0
 10
14.0374019314
 20
37.1511529447
 30
0.0
 10
13.9855414984
 20
37.0325264963
 30
0.0
 10
13.9540589906
 20
36.9113171439
 30
0.0
 10
13.9470098208
 20
36.8292392644
 30
0.0
 10
13.9470167572
 20
36.7886680199
 30
0.0
  0
SPLINE
  5
24D
100
AcDbEntity
  8
0
100
AcDbSpline
 62
7
  6
BYLAYER
 70
0
 71
3
 72
15
 73
11
 74
0
 42
0.0000001
 43
0.0000001
 44
0.0000000001
 40
0.0
 40
0.0
 40
0.0
 40
0.0
 40
0.1509874965
 40
0.2939552073
 40
0.4284931014
 40
0.5548626815
 40
0.6737694097
 40
0.7863790281
 40
0.8944014842
 40
1.0
 40
1.0
 40
1.0
 40
1.0
 10
13.0148645056
 20
38.3696948596
 30
0.0
 10
12.8866602083
 20
38.3071006256
 30
0.0
 10
12.6420466983
 20
38.1745761831
 30
0.0
 10
12.3055366863
 20
37.9482225373
 30
0.0
 10
12.0130753998
 20
37.7017525217
 30
0.0
 10
11.7681904001
 20
37.4380149085
 30
0.0
 10
11.5738341078
 20
37.1597917272
 30
0.0
 10
11.4326668004
 20
36.8700452363
 30
0.0
 10
11.3468882372
 20
36.5723158083
 30
0.0
 10
11.3276503769
 20
36.3699695212
 30
0.0
 10
11.3276545711
 20
36.2701889999
 30
0.0
  0
SPLINE
  5
24E
100
AcDbEntity
  8
0
100
AcDbSpline
 62
7
  6
BYLAYER
 70
0
 71
3
 72
22
 73
18
 74
0
 42
0.0000001
 43
0.0000001
 44
0.0000000001
 40
0.0
 40
0.0
 40
0.0
 40
0.0
 40
0.055123538
 40
0.1109944507
 40
0.1681361989
 40
0.2269969164
 40
0.2877807347
 40
0.3504996232
 40
0.4149819049
 40
0.4808951245
 40
0.5477883909
 40
0.6151364536
 40
0.7486729591
 40
0.8140946914
 40
0.8779465698
 40
0.9399494684
 40
1.0
 40
1.0
 40
1.0
 40
1.0
 10
30.7278553113
 20
56.1978839651
 30
0.0
 10
30.7299359249
 20
56.3352529487
 30
0.0
 10
30.7613262374
 20
56.6121666221
 30
0.0
 10
30.8880618611
 20
57.0140988585
 30
0.0
 10
31.0911548235
 20
57.3939391198
 30
0.0
 10
31.3647875848
 20
57.741969539
 30
0.0
 10
31.7018641128
 20
58.0497165061
 30
0.0
 10
32.0936762864
 20
58.3097596576
 30
0.0
 10
32.5303816247
 20
58.5158880053
 30
0.0
 10
33.0010823655
 20
58.6630798805
 30
0.0
 10
33.4942313291
 20
58.7478293766
 30
0.0
 10
34.1624038677
 20
58.7749285149
 30
0.0
 10
34.8275305989
 20
58.6729418113
 30
0.0
 10
35.4433747669
 20
58.4451566302
 30
0.0
 10
35.8645617667
 20
58.2181264982
 30
0.0
 10
36.2368117805
 20
57.9394363405
 30
0.0
 10
36.4497480495
 20
57.7199407221
 30
0.0
 10
36.5443915785
 20
57.6040010397
 30
0.0
  0
SPLINE
  5
24F
100
AcDbEntity
  8
0
100
AcDbSpline
 62
7
  6
BYLAYER
 70
0
 71
3
 72
24
 73
20
 74
0
 42
0.0000001
 43
0.0000001
 44
0.0000000001
 40
0.0
 40
0.0
 40
0.0
 40
0.0
 40
0.0645853514
 40
0.1326766902
 40
0.2034834547
 40
0.2761710198
 40
0.34978299
 40
0.4233369677
 40
0.4958530933
 40
0.5663908496
 40
0.6340952942
 40
0.6982449517
 40
0.7583035596
 40
0.8139814653
 40
0.8653117631
 40
0.9127335569
 40
0.9571515129
 40
0.9786820169
 40
1.0
 40
1.0
 40
1.0
 40
1.0
 10
19.1653940432
 20
30.15247059
 30
0.0
 10
18.9879881867
 20
30.0658542758
 30
0.0
 10
18.6129599754
 20
29.9090729089
 30
0.0
 10
18.0171464448
 20
29.7274744181
 30
0.0
 10
17.3829816586
 20
29.5961192763
 30
0.0
 10
16.7232341407
 20
29.5175242408
 30
0.0
 10
16.0508799248
 20
29.4933063263
 30
0.0
 10
15.3793126743
 20
29.5239165784
 30
0.0
 10
14.7218606126
 20
29.6087318746
 30
0.0
 10
14.091568678
 20
29.7460968848
 30
0.0
 10
13.500911135
 20
29.9333259091
 30
0.0
 10
12.9615024204
 20
30.1667642516
 30
0.0
 10
12.4838896017
 20
30.4419918921
 30
0.0
 10
12.0774150864
 20
30.7539716349
 30
0.0
 10
11.7502087359
 20
31.0973272112
 30
0.0
 10
11.5093558282
 20
31.4660203934
 30
0.0
 10
11.3846169563
 20
31.7928890222
 30
0.0
 10
11.3357780619
 20
32.0556877296
 30
0.0
 10
11.3276426987
 20
32.1868126798
 30
0.0
 10
11.3276372597
 20
32.2519764785
 30
0.0
  0
SPLINE
  5
250
100
AcDbEntity
  8
0
100
AcDbSpline
 62
7
  6
BYLAYER
 70
0
 71
3
 72
15
 73
11
 74
0
 42
0.0000001
 43
0.0000001
 44
0.0000000001
 40
0.0
 40
0.0
 40
0.0
 40
0.0
 40
0.1055969447
 40
0.2136184476
 40
0.3262279105
 40
0.4451342128
 40
0.5715039039
 40
0.7060431642
 40
0.8490128739
 40
1.0
 40
1.0
 40
1.0
 40
1.0
 10
20.8526038168
 20
35.8165197958
 30
0.0
 10
20.852608657
 20
35.7167407838
 30
0.0
 10
20.8333680086
 20
35.5143973277
 30
0.0
 10
20.7475950477
 20
35.2166691067
 30
0.0
 10
20.606425587
 20
34.9269252542
 30
0.0
 10
20.412074228
 20
34.6486995125
 30
0.0
 10
20.1671876591
 20
34.3849618221
 30
0.0
 10
19.8747252964
 20
34.1384882445
 30
0.0
 10
19.5382121678
 20
33.9121342175
 30
0.0
 10
19.2935979942
 20
33.7796080197
 30
0.0
 10
19.1653940432
 20
33.7170139548
 30
0.0
  0
SPLINE
  5
251
100
AcDbEntity
  8
0
100
AcDbSpline
 62
7
  6
BYLAYER
 70
0
 71
3
 72
24
 73
20
 74
0
 42
0.0000001
 43
0.0000001
 44
0.0000000001
 40
0.0
 40
0.0
 40
0.0
 40
0.0
 40
0.0213182267
 40
0.0428488583
 40
0.0872671028
 40
0.1346900079
 40
0.1860206724
 40
0.2416976403
 40
0.3017560825
 40
0.365905558
 40
0.433608714
 40
0.5041449951
 40
0.5766606596
 40
0.6502139936
 40
0.7238263825
 40
0.7965142673
 40
0.8673211913
 40
0.9354161902
 40
1.0
 40
1.0
 40
1.0
 40
1.0
 10
11.3276545711
 20
36.2701889999
 30
0.0
 10
11.3276573103
 20
36.2050244638
 30
0.0
 10
11.3357565899
 20
36.0738954277
 30
0.0
 10
11.3846326114
 20
35.8111002054
 30
0.0
 10
11.5093375187
 20
35.4842172391
 30
0.0
 10
11.7502252713
 20
35.1155343855
 30
0.0
 10
12.0774359267
 20
34.7721860497
 30
0.0
 10
12.4838963687
 20
34.4601909793
 30
0.0
 10
12.9615083713
 20
34.1849679497
 30
0.0
 10
13.5009172954
 20
33.9515432197
 30
0.0
 10
14.0915660529
 20
33.7643188202
 30
0.0
 10
14.7218450288
 20
33.6269404753
 30
0.0
 10
15.3792902589
 20
33.5421313613
 30
0.0
 10
16.0508552274
 20
33.5115227947
 30
0.0
 10
16.7232094735
 20
33.5357400982
 30
0.0
 10
17.3829609081
 20
33.6143245755
 30
0.0
 10
18.0171383041
 20
33.7456832952
 30
0.0
 10
18.6129559658
 20
33.9272908535
 30
0.0
 10
18.9879924416
 20
34.0840688735
 30
0.0
 10
19.1653940432
 20
34.1706831103
 30
0.0
  0
SPLINE
  5
252
100
AcDbEntity
  8
0
100
AcDbSpline
 62
7
  6
BYLAYER
 70
0
 71
3
 72
25
 73
21
 74
0
 42
0.0000001
 43
0.0000001
 44
0.0000000001
 40
0.0
 40
0.0
 40
0.0
 40
0.0
 40
0.0623764481
 40
0.1287259861
 40
0.1983136699
 40
0.2702912204
 40
0.3436671563
 40
0.417399297
 40
0.490424652
 40
0.5617120469
 40
0.6303103026
 40
0.6953986533
 40
0.7563462268
 40
0.8127831702
 40
0.8646835578
 40
0.9124584542
 40
0.9351027175
 40
0.9571081257
 40
0.9786681641
 40
1.0
 40
1.0
 40
1.0
 40
1.0
 10
39.1019070619
 20
55.2591567682
 30
0.0
 10
39.3015107053
 20
55.3743972976
 30
0.0
 10
39.7293308239
 20
55.5853104387
 30
0.0
 10
40.4194086392
 20
55.8353914371
 30
0.0
 10
41.1651905066
 20
56.0246798588
 30
0.0
 10
41.950617219
 20
56.1492505321
 30
0.0
 10
42.7591126414
 20
56.2064046688
 30
0.0
 10
43.573398914
 20
56.194943339
 30
0.0
 10
44.3761176358
 20
56.1151135212
 30
0.0
 10
45.1501581169
 20
55.9686171625
 30
0.0
 10
45.8790749548
 20
55.7585536396
 30
0.0
 10
46.5474569462
 20
55.4892900007
 30
0.0
 10
47.1412466131
 20
55.1663321476
 30
0.0
 10
47.6480410399
 20
54.7959779197
 30
0.0
 10
48.0569749493
 20
54.3853961664
 30
0.0
 10
48.312998597
 20
54.0087117665
 30
0.0
 10
48.4556197336
 20
53.6976795202
 30
0.0
 10
48.5312819542
 20
53.4643912145
 30
0.0
 10
48.5768349933
 20
53.2283575212
 30
0.0
 10
48.5870126843
 20
53.0696905413
 30
0.0
 10
48.5870200119
 20
52.9908690266
 30
0.0
  0
SPLINE
  5
253
100
AcDbEntity
  8
0
100
AcDbSpline
 62
7
  6
BYLAYER
 70
0
 71
3
 72
10
 73
6
 74
0
 42
0.0000001
 43
0.0000001
 44
0.0000000001
 40
0.0
 40
0.0
 40
0.0
 40
0.0
 40
0.4687024933
 40
0.7264785578
 40
1.0
 40
1.0
 40
1.0
 40
1.0
 10
37.8113054353
 20
54.0906930693
 30
0.0
 10
37.9578012981
 20
54.3224302606
 30
0.0
 10
38.2437419545
 20
54.6459042308
 30
0.0
 10
38.7009781749
 20
55.0112123278
 30
0.0
 10
38.963350238
 20
55.1791614261
 30
0.0
 10
39.1019070619
 20
55.2591567682
 30
0.0
  0
SPLINE
  5
254
100
AcDbEntity
  8
0
100
AcDbSpline
 62
7
  6
BYLAYER
 70
0
 71
3
 72
15
 73
11
 74
0
 42
0.0000001
 43
0.0000001
 44
0.0000000001
 40
0.0
 40
0.0
 40
0.0
 40
0.0
 40
0.1457495038
 40
0.2845667649
 40
0.4164920848
 40
0.5420227353
 40
0.6619541797
 40
0.7773438568
 40
0.889507843
 40
1.0
 40
1.0
 40
1.0
 40
1.0
 10
49.0916662049
 20
50.0317656134
 30
0.0
 10
49.2379191684
 20
50.1316152735
 30
0.0
 10
49.5157490139
 20
50.3382643484
 30
0.0
 10
49.8933099864
 20
50.6763172525
 30
0.0
 10
50.2184199466
 20
51.0326856202
 30
0.0
 10
50.4884727183
 20
51.4045523572
 30
0.0
 10
50.7011586786
 20
51.7893221671
 30
0.0
 10
50.8547543343
 20
52.1840766132
 30
0.0
 10
50.9474947072
 20
52.5856566846
 30
0.0
 10
50.968281339
 20
52.8566199105
 30
0.0
 10
50.9682784919
 20
52.9908690747
 30
0.0
  0
SPLINE
  5
255
100
AcDbEntity
  8
0
100
AcDbSpline
 62
7
  6
BYLAYER
 70
0
 71
3
 72
9
 73
5
 74
0
 42
0.0000001
 43
0.0000001
 44
0.0000000001
 40
0.0
 40
0.0
 40
0.0
 40
0.0
 40
0.2578365858
 40
1.0
 40
1.0
 40
1.0
 40
1.0
 10
48.1562267536
 20
49.4916926182
 30
0.0
 10
48.2396889345
 20
49.5324420423
 30
0.0
 10
48.5607369964
 20
49.6958122806
 30
0.0
 10
48.8708715597
 20
49.8810249396
 30
0.0
 10
49.0916662049
 20
50.0317656134
 30
0.0
  0
SPLINE
  5
256
100
AcDbEntity
  8
0
100
AcDbSpline
 62
7
  6
BYLAYER
 70
0
 71
3
 72
10
 73
6
 74
0
 42
0.0000001
 43
0.0000001
 44
0.0000000001
 40
0.0
 40
0.0
 40
0.0
 40
0.0
 40
0.4710337727
 40
0.7286145082
 40
1.0
 40
1.0
 40
1.0
 40
1.0
 10
20.3766223073
 20
31.0537604489
 30
0.0
 10
20.2234137689
 20
30.8710299263
 30
0.0
 10
19.9467519225
 20
30.6205078142
 30
0.0
 10
19.524932771
 20
30.3401977346
 30
0.0
 10
19.2888534693
 20
30.2127481967
 30
0.0
 10
19.1653940432
 20
30.15247059
 30
0.0
  0
SPLINE
  5
257
100
AcDbEntity
  8
0
100
AcDbSpline
 62
7
  6
BYLAYER
 70
0
 71
3
 72
13
 73
9
 74
0
 42
0.0000001
 43
0.0000001
 44
0.0000000001
 40
0.0
 40
0.0
 40
0.0
 40
0.0
 40
0.2893483578
 40
0.54832394
 40
0.6677499254
 40
0.7817640683
 40
0.8919051354
 40
1.0
 40
1.0
 40
1.0
 40
1.0
 10
17.6055538041
 20
35.9137570528
 30
0.0
 10
17.6996052715
 20
35.9680573687
 30
0.0
 10
17.8701774299
 20
36.0854548121
 30
0.0
 10
18.044624251
 20
36.2689627501
 30
0.0
 10
18.1428566173
 20
36.426183095
 30
0.0
 10
18.1947170504
 20
36.5448095433
 30
0.0
 10
18.2261995582
 20
36.6660188958
 30
0.0
 10
18.233248728
 20
36.7480967752
 30
0.0
 10
18.2332417916
 20
36.7886680197
 30
0.0
  0
SPLINE
  5
258
100
AcDbEntity
  8
0
100
AcDbSpline
 62
7
  6
BYLAYER
 70
0
 71
3
 72
16
 73
12
 74
0
 42
0.0000001
 43
0.0000001
 44
0.0000000001
 40
0.0
 40
0.0
 40
0.0
 40
0.0
 40
0.1485557742
 40
0.2894916761
 40
0.4227027974
 40
0.4865578448
 40
0.5486672636
 40
0.6680222111
 40
0.7819515971
 40
0.8919926564
 40
1.0
 40
1.0
 40
1.0
 40
1.0
 10
22.8253494064
 20
28.3634832778
 30
0.0
 10
23.0401407242
 20
28.4874923627
 30
0.0
 10
23.4489844328
 20
28.7466708842
 30
0.0
 10
24.00793964
 20
29.1792322141
 30
0.0
 10
24.4165175636
 20
29.5703516235
 30
0.0
 10
24.7013166558
 20
29.8964508408
 30
0.0
 10
24.9511255862
 20
30.2212842785
 30
0.0
 10
25.2133544003
 20
30.6409374644
 30
0.0
 10
25.4440099184
 20
31.1681052762
 30
0.0
 10
25.5838140272
 20
31.7068819207
 30
0.0
 10
25.6151004206
 20
32.0716543452
 30
0.0
 10
25.6151121623
 20
32.2519765421
 30
0.0
  0
SPLINE
  5
259
100
AcDbEntity
  8
0
100
AcDbSpline
 62
7
  6
BYLAYER
 70
0
 71
3
 72
15
 73
11
 74
0
 42
0.0000001
 43
0.0000001
 44
0.0000000001
 40
0.0
 40
0.0
 40
0.0
 40
0.0
 40
0.1361595793
 40
0.2708339938
 40
0.4026159859
 40
0.5304939002
 40
0.6538669547
 40
0.772726458
 40
0.8876922551
 40
1.0
 40
1.0
 40
1.0
 40
1.0
 10
33.902652541
 20
54.090683674
 30
0.0
 10
33.6594488608
 20
54.0906830895
 30
0.0
 10
33.1748945369
 20
54.0543175921
 30
0.0
 10
32.4714739764
 20
53.8922570752
 30
0.0
 10
31.8153616417
 20
53.6277887679
 30
0.0
 10
31.2286326358
 20
53.2694913827
 30
0.0
 10
30.7310526019
 20
52.8286368059
 30
0.0
 10
30.3398391313
 20
52.3192744667
 30
0.0
 10
30.0692714807
 20
51.75845053
 30
0.0
 10
29.9755520162
 20
51.3593787159
 30
0.0
 10
29.9521117082
 20
51.1601525998
 30
0.0
  0
SPLINE
  5
25A
100
AcDbEntity
  8
0
100
AcDbSpline
 62
7
  6
BYLAYER
 70
0
 71
3
 72
22
 73
18
 74
0
 42
0.0000001
 43
0.0000001
 44
0.0000000001
 40
0.0
 40
0.0
 40
0.0
 40
0.0
 40
0.0623731227
 40
0.1287713531
 40
0.1983809853
 40
0.2703739602
 40
0.4173935156
 40
0.4904369272
 40
0.561746029
 40
0.630362687
 40
0.6954705438
 40
0.756435151
 40
0.8128878371
 40
0.8648051576
 40
0.912592642
 40
0.9571804198
 40
1.0
 40
1.0
 40
1.0
 40
1.0
 10
17.6055538041
 20
35.3952780179
 30
0.0
 10
17.5285909126
 20
35.350843737
 30
0.0
 10
17.363548704
 20
35.2695210377
 30
0.0
 10
17.097391953
 20
35.1730062239
 30
0.0
 10
16.8096731166
 20
35.099981621
 30
0.0
 10
16.4031071476
 20
35.0355794588
 30
0.0
 10
15.9847122995
 20
35.024027586
 30
0.0
 10
15.5712291018
 20
35.0651287924
 30
0.0
 10
15.272648209
 20
35.1216251854
 30
0.0
 10
14.9915115454
 20
35.2026749933
 30
0.0
 10
14.7337023029
 20
35.3065101128
 30
0.0
 10
14.5046742544
 20
35.4310926042
 30
0.0
 10
14.3092087168
 20
35.5739313815
 30
0.0
 10
14.1514345354
 20
35.7323235482
 30
0.0
 10
14.035082376
 20
35.9035389949
 30
0.0
 10
13.9633149984
 20
36.0841085024
 30
0.0
 10
13.9470279026
 20
36.2091798288
 30
0.0
 10
13.9470170949
 20
36.2701889833
 30
0.0
  0
SPLINE
  5
25B
100
AcDbEntity
  8
0
100
AcDbSpline
 62
7
  6
BYLAYER
 70
0
 71
3
 72
15
 73
11
 74
0
 42
0.0000001
 43
0.0000001
 44
0.0000000001
 40
0.0
 40
0.0
 40
0.0
 40
0.0
 40
0.1509874965
 40
0.2939552073
 40
0.4284931014
 40
0.5548626815
 40
0.6737694097
 40
0.7863790281
 40
0.8944014842
 40
1.0
 40
1.0
 40
1.0
 40
1.0
 10
19.1653940432
 20
34.1706831103
 30
0.0
 10
19.2935983405
 20
34.2332773443
 30
0.0
 10
19.5382118505
 20
34.3658017867
 30
0.0
 10
19.8747218624
 20
34.5921554326
 30
0.0
 10
20.1671831489
 20
34.8386254482
 30
0.0
 10
20.4120681486
 20
35.1023630613
 30
0.0
 10
20.606424441
 20
35.3805862427
 30
0.0
 10
20.7475917484
 20
35.6703327336
 30
0.0
 10
20.8333703115
 20
35.9680621616
 30
0.0
 10
20.8526081719
 20
36.1704084487
 30
0.0
 10
20.8526039776
 20
36.27018897
 30
0.0
  0
SPLINE
  5
25C
100
AcDbEntity
  8
0
100
AcDbSpline
 62
7
  6
BYLAYER
 70
0
 71
3
 72
22
 73
18
 74
0
 42
0.0000001
 43
0.0000001
 44
0.0000000001
 40
0.0
 40
0.0
 40
0.0
 40
0.0
 40
0.0428177078
 40
0.0874045791
 40
0.1351913837
 40
0.1871081104
 40
0.2435603486
 40
0.3045235352
 40
0.3696299266
 40
0.4382449236
 40
0.5095527819
 40
0.5825964534
 40
0.7296200443
 40
0.8016151196
 40
0.8712273304
 40
0.9376271111
 40
1.0
 40
1.0
 40
1.0
 40
1.0
 10
13.9470167572
 20
36.7886680199
 30
0.0
 10
13.9470271873
 20
36.7276615273
 30
0.0
 10
13.9633096282
 20
36.60259359
 30
0.0
 10
14.0350767941
 20
36.4220288853
 30
0.0
 10
14.1514251162
 20
36.2508152439
 30
0.0
 10
14.3091933731
 20
36.0924202333
 30
0.0
 10
14.5046573674
 20
35.9495851883
 30
0.0
 10
14.7336778337
 20
35.8249991704
 30
0.0
 10
14.9914806996
 20
35.7211647175
 30
0.0
 10
15.2726109422
 20
35.6401158877
 30
0.0
 10
15.5711866948
 20
35.5836121874
 30
0.0
 10
15.9846743972
 20
35.5425107936
 30
0.0
 10
16.4030784252
 20
35.5540560614
 30
0.0
 10
16.8096572106
 20
35.6184577024
 30
0.0
 10
17.0973851284
 20
35.6914829129
 30
0.0
 10
17.3635470462
 20
35.7879999049
 30
0.0
 10
17.5285911937
 20
35.8693229342
 30
0.0
 10
17.6055538041
 20
35.9137570528
 30
0.0
  0
SPLINE
  5
25D
100
AcDbEntity
  8
0
100
AcDbSpline
 62
7
  6
BYLAYER
 70
0
 71
3
 72
13
 73
9
 74
0
 42
0.0000001
 43
0.0000001
 44
0.0000000001
 40
0.0
 40
0.0
 40
0.0
 40
0.0
 40
0.1080957322
 40
0.2182376096
 40
0.3322520224
 40
0.4516794859
 40
0.7106580434
 40
1.0
 40
1.0
 40
1.0
 40
1.0
 10
18.2332414539
 20
36.2701889865
 30
0.0
 10
18.2332486411
 20
36.2296174516
 30
0.0
 10
18.2261947902
 20
36.1475394183
 30
0.0
 10
18.1947156223
 20
36.0263289748
 30
0.0
 10
18.142855583
 20
35.9077010785
 30
0.0
 10
18.0446200343
 20
35.7504808478
 30
0.0
 10
17.8701741514
 20
35.5669736551
 30
0.0
 10
17.6996031094
 20
35.4495770855
 30
0.0
 10
17.6055538041
 20
35.3952780179
 30
0.0
  0
SPLINE
  5
25E
100
AcDbEntity
  8
0
100
AcDbSpline
 62
7
  6
BYLAYER
 70
0
 71
3
 72
26
 73
22
 74
0
 42
0.0000001
 43
0.0000001
 44
0.0000000001
 40
0.0
 40
0.0
 40
0.0
 40
0.0
 40
0.0213307983
 40
0.0428901056
 40
0.0648939752
 40
0.087537645
 40
0.1109854749
 40
0.1353712261
 40
0.1872687987
 40
0.2437026979
 40
0.3046465119
 40
0.3697300133
 40
0.4383229468
 40
0.5096050067
 40
0.5826248398
 40
0.6563522983
 40
0.7297241478
 40
0.8016962853
 40
0.8712830013
 40
0.9376224109
 40
1.0
 40
1.0
 40
1.0
 40
1.0
 10
6.5651463864
 20
32.2519763871
 30
0.0
 10
6.5651375878
 20
32.1168519568
 30
0.0
 10
6.5825792406
 20
31.8448411629
 30
0.0
 10
6.6607515824
 20
31.4402232551
 30
0.0
 10
6.790351875
 20
31.0402756466
 30
0.0
 10
6.9706368535
 20
30.6473896126
 30
0.0
 10
7.200324278
 20
30.2635742052
 30
0.0
 10
7.5785442213
 20
29.756385422
 30
0.0
 10
8.1749604202
 20
29.1572768332
 30
0.0
 10
9.0436195652
 20
28.52263944
 30
0.0
 10
10.0615932916
 20
27.968937624
 30
0.0
 10
11.2073643625
 20
27.5073632779
 30
0.0
 10
12.4569210785
 20
27.1472447554
 30
0.0
 10
13.7838294862
 20
26.8961183343
 30
0.0
 10
15.1599076034
 20
26.7592770983
 30
0.0
 10
16.5558231653
 20
26.7396434534
 30
0.0
 10
17.9418112059
 20
26.8376117492
 30
0.0
 10
19.2882816611
 20
27.0511328713
 30
0.0
 10
20.5667343597
 20
27.3756524248
 30
0.0
 10
21.7497543949
 20
27.8043255608
 30
0.0
 10
22.4831441844
 20
28.1659121801
 30
0.0
 10
22.8253494064
 20
28.3634832778
 30
0.0
  0
ENDSEC
  0
SECTION
  2
OBJECTS
  0
DICTIONARY
  5
C
100
AcDbDictionary
280
0
281
1
  3
ACAD_GROUP
350
D
  3
ACAD_MLINESTYLE
350
17
  3
ACAD_LAYOUT
350
1A
  3
ACAD_PLOTSETTINGS
350
19
  3
ACAD_PLOTSTYLENAME
350
E
  0
DICTIONARY
  5
D
102
{ACAD_REACTORS
330
C
102
}
100
AcDbDictionary
280
0
281
1
  0
ACDBDICTIONARYWDFLT
  5
E
102
{ACAD_REACTORS
330
C
102
}
100
AcDbDictionary
281
1
  3
Normal
350
F
100
AcDbDictionaryWithDefault
340
F
  0
DICTIONARY
  5
17
102
{ACAD_REACTORS
330
C
102
}
100
AcDbDictionary
280
0
281
1
  3
Standard
350
18
  0
DICTIONARY
  5
19
102
{ACAD_REACTORS
330
C
102
}
100
AcDbDictionary
281
1
  0
DICTIONARY
  5
1A
102
{ACAD_REACTORS
330
C
102
}
100
AcDbDictionary
281
1
  3
Model
350
25F
  3
Layout1
350
260
  0
ACDBPLACEHOLDER
  5
F
102
{ACAD_REACTORS
330
E
102
}
  0
MLINESTYLE
  5
18
102
{ACAD_REACTORS
330
17
102
}
100
AcDbMlineStyle
  2
STANDARD
 70
0
  3

 62
256
 51
90.0
 52
90.0
 71
2
 49
0.5
 62
256
  6
BYLAYER
 49
-0.5
 62
256
  6
BYLAYER
  0
LAYOUT
  5
25F
102
{ACAD_REACTORS
330
1A
102
}
100
AcDbPlotSettings
  1

  2
none_device
  4

  6

 40
0.0
 41
0.0
 42
0.0
 43
0.0
 44
210.0
 45
297.0
 46
0.0
 47
0.0
 48
0.0
 49
0.0
140
0.0
141
0.0
142
1.0
143
1.0
 70
1024
 72
1
 73
0
 74
0
  7

 75
0
147
1.0
148
0.0
149
0.0
100
AcDbLayout
  1
Model
 70
0
 71
0
 10
0.0
 20
0.0
 11
210.0
 21
297.0
 12
0.0
 22
0.0
 32
0.0
 14
0.0
 24
0.0
 34
0.0
 15
0.0
 25
0.0
 35
0.0
146
0.0
 13
0.0
 23
0.0
 33
0.0
 16
1.0
 26
0.0
 36
0.0
 17
0.0
 27
1.0
 37
0.0
 76
0
330
210
345
0
346
0
  0
LAYOUT
  5
260
102
{ACAD_REACTORS
330
1A
102
}
100
AcDbPlotSettings
  1

  2
none_device
  4

  6

 40
0.0
 41
0.0
 42
0.0
 43
0.0
 44
210.0
 45
297.0
 46
0.0
 47
0.0
 48
0.0
 49
0.0
140
0.0
141
0.0
142
1.0
143
1.0
 70
0
 72
1
 73
0
 74
0
  7

 75
0
147
1.0
148
0.0
149
0.0
100
AcDbLayout
  1
Layout1
 70
0
 71
1
 10
0.0
 20
0.0
 11
210.0
 21
297.0
 12
0.0
 22
0.0
 32
0.0
 14
0.0
 24
0.0
 34
0.0
 15
0.0
 25
0.0
 35
0.0
146
0.0
 13
0.0
 23
0.0
 33
0.0
 16
1.0
 26
0.0
 36
0.0
 17
0.0
 27
1.0
 37
0.0
 76
0
330
211
345
0
346
0
  0
ENDSEC
  0
EOF
