999
DXF file: C:\Users\sesa63760\Dev\_Creo\CAD\MCADID0002974_3D-CAD\drw0001_1.dxf
999
Pro/ENGINEER 2019471 by Parametric Technology Corporation
  0
SECTION
  2
HEADER
  9
$ACADVER
  1
AC1024
  9
$DWGCODEPAGE
  3
ANSI_1252
  9
$EXTMAX
 10
116.2505460188
 20
164.4114865123
 30
0.0
  9
$EXTMIN
 10
0.0
 20
0.0
 30
0.0
  9
$LIMMIN
 10
0.0
 20
0.0
  9
$LIMMAX
 10
116.2505460188
 20
164.4114865123
  9
$VIEWCTR
 10
58.1252730094
 20
82.2057432562
  9
$VIEWSIZE
 40
164.4114865123
  9
$CLAYER
  8
0
  9
$LTSCALE
 40
10.7171931949
  9
$CELTYPE
  6
BYLAYER
  9
$DIMSCALE
 40
1.0
  9
$DIMASZ
 40
1.3839350717
  9
$DIMEXO
 40
1.0
  9
$DIMDLI
 40
7.4046062074
  9
$DIMEXE
 40
1.0
  9
$DIMCEN
 40
1.7537225228
  9
$DIMLFAC
 40
1.0
  9
$DIMBLK
  1
_FILLED
  9
$DIMALT
 70
0
  9
$DIMALTF
 40
0.0393700787
  9
$DIMTXT
 40
1.9375091003
  9
$DIMTOL
 70
1
  9
$DIMLIM
 70
0
  9
$DIMTFAC
 40
1.0
  9
$DIMTP
 40
0.01
  9
$DIMTM
 40
0.01
  9
$DIMGAP
 40
0.625
  9
$DIMDSEP
 70
46
  9
$AUNITS
 70
0
  9
$PDMODE
 70
3
  9
$PDSIZE
 40
0.3125
  9
$HANDSEED
  5
27E
  9
$TILEMODE
 70
1
  9
$MEASUREMENT
 70
1
  9
$INSUNITS
 70
4
  0
ENDSEC
  0
SECTION
  2
CLASSES
  0
CLASS
  1
ACDBDICTIONARYWDFLT
  2
AcDbDictionaryWithDefault
  3
AutoCAD 2000
 90
0
 91
1
280
0
281
0
  0
CLASS
  1
ACDBPLACEHOLDER
  2
AcDbPlaceHolder
  3
AutoCAD 2000
 90
0
 91
1
280
0
281
0
  0
CLASS
  1
LAYOUT
  2
AcDbLayout
  3
AutoCAD 2000
 90
0
 91
0
280
0
281
0
  0
ENDSEC
  0
SECTION
  2
TABLES
  0
TABLE
  2
VPORT
  5
8
100
AcDbSymbolTable
 70
2
  0
VPORT
  5
1F4
100
AcDbSymbolTableRecord
100
AcDbViewportTableRecord
  2
*ACTIVE
 70
0
 10
0.0
 20
0.0
 11
1.0
 21
1.0
 12
58.1252730094
 22
82.2057432562
 13
0.0
 23
0.0
 14
1.0
 24
1.0
 15
0.0
 25
0.0
 16
0.0
 26
0.0
 36
1.0
 17
0.0
 27
0.0
 37
0.0
 40
164.4114865123
 41
0.7070707071
 42
50.0
 43
0.0
 44
0.0
 50
0.0
 51
0.0
 71
0
 72
100
 73
1
 74
1
 75
0
 76
0
 77
0
 78
0
  0
ENDTAB
  0
TABLE
  2
LTYPE
  5
5
100
AcDbSymbolTable
 70
6
  0
LTYPE
  5
14
100
AcDbSymbolTableRecord
100
AcDbLinetypeTableRecord
  2
BYBLOCK
 70
0
  3

 72
65
 73
0
 40
0.0
  0
LTYPE
  5
15
100
AcDbSymbolTableRecord
100
AcDbLinetypeTableRecord
  2
BYLAYER
 70
0
  3

 72
65
 73
0
 40
0.0
  0
LTYPE
  5
16
100
AcDbSymbolTableRecord
100
AcDbLinetypeTableRecord
  2
CONTINUOUS
 70
64
  3
Solid line
 72
65
 73
0
 40
0.0
  0
LTYPE
  5
1F5
100
AcDbSymbolTableRecord
100
AcDbLinetypeTableRecord
  2
CENTER
 70
64
  3
____ _ ____ _ ____ _ ____ _ ____ _ ____ _ ____
 72
65
 73
4
 40
0.6
 49
0.375
 74
0
 49
-0.075
 74
0
 49
0.075
 74
0
 49
-0.075
 74
0
  0
LTYPE
  5
1F6
100
AcDbSymbolTableRecord
100
AcDbLinetypeTableRecord
  2
HIDDEN
 70
64
  3
- - - - - - - - - - - - - - - - - - - -
 72
65
 73
2
 40
0.2
 49
0.1
 74
0
 49
-0.1
 74
0
  0
LTYPE
  5
1F7
100
AcDbSymbolTableRecord
100
AcDbLinetypeTableRecord
  2
PHANTOM
 70
64
  3
_____ _ _ _____ _ _ _____ _ _ _____
 72
65
 73
6
 40
0.8
 49
0.45
 74
0
 49
-0.05
 74
0
 49
0.1
 74
0
 49
-0.05
 74
0
 49
0.1
 74
0
 49
-0.05
 74
0
  0
LTYPE
  5
1F8
100
AcDbSymbolTableRecord
100
AcDbLinetypeTableRecord
  2
DOT
 70
64
  3
. . . . . . . . . . . . . . . . . . . .
 72
65
 73
2
 40
0.2
 49
0.1
 74
0
 49
-0.1
 74
0
  0
LTYPE
  5
1F9
100
AcDbSymbolTableRecord
100
AcDbLinetypeTableRecord
  2
DASHED
 70
64
  3
- - - - - - - - - - - - - - - - - - - -
 72
65
 73
2
 40
0.2
 49
0.1
 74
0
 49
-0.1
 74
0
  0
ENDTAB
  0
TABLE
  2
LAYER
  5
2
100
AcDbSymbolTable
 70
36
  0
LAYER
  5
10
100
AcDbSymbolTableRecord
100
AcDbLayerTableRecord
  2
0
 70
0
 62
7
  6
CONTINUOUS
370
-3
390
F
  0
LAYER
  5
1FA
100
AcDbSymbolTableRecord
100
AcDbLayerTableRecord
  2
DEFAULT_1
 70
0
 62
7
  6
CENTER
370
-3
390
F
  0
LAYER
  5
1FB
100
AcDbSymbolTableRecord
100
AcDbLayerTableRecord
  2
DEFAULT_2
 70
0
 62
7
  6
HIDDEN
370
-3
390
F
  0
LAYER
  5
1FC
100
AcDbSymbolTableRecord
100
AcDbLayerTableRecord
  2
DEFAULT_3
 70
0
 62
7
  6
PHANTOM
370
-3
390
F
  0
LAYER
  5
1FD
100
AcDbSymbolTableRecord
100
AcDbLayerTableRecord
  2
00_COMPONENTS
 70
0
 62
7
  6
CONTINUOUS
370
-3
390
F
  0
LAYER
  5
1FE
100
AcDbSymbolTableRecord
100
AcDbLayerTableRecord
  2
01_1_DEFAULT_DATUMS
 70
0
 62
7
  6
CONTINUOUS
370
-3
390
F
  0
LAYER
  5
1FF
100
AcDbSymbolTableRecord
100
AcDbLayerTableRecord
  2
01_PLANES
 70
0
 62
7
  6
CONTINUOUS
370
-3
390
F
  0
LAYER
  5
200
100
AcDbSymbolTableRecord
100
AcDbLayerTableRecord
  2
02_COORD_SYS
 70
0
 62
7
  6
CONTINUOUS
370
-3
390
F
  0
LAYER
  5
201
100
AcDbSymbolTableRecord
100
AcDbLayerTableRecord
  2
03_AXES
 70
0
 62
7
  6
CONTINUOUS
370
-3
390
F
  0
LAYER
  5
202
100
AcDbSymbolTableRecord
100
AcDbLayerTableRecord
  2
04_POINTS
 70
0
 62
7
  6
CONTINUOUS
370
-3
390
F
  0
LAYER
  5
203
100
AcDbSymbolTableRecord
100
AcDbLayerTableRecord
  2
05_CURVES
 70
0
 62
7
  6
CONTINUOUS
370
-3
390
F
  0
LAYER
  5
204
100
AcDbSymbolTableRecord
100
AcDbLayerTableRecord
  2
06_SURFS
 70
0
 62
7
  6
CONTINUOUS
370
-3
390
F
  0
LAYER
  5
205
100
AcDbSymbolTableRecord
100
AcDbLayerTableRecord
  2
07_COSMETICS
 70
0
 62
7
  6
CONTINUOUS
370
-3
390
F
  0
LAYER
  5
206
100
AcDbSymbolTableRecord
100
AcDbLayerTableRecord
  2
10_NOTES
 70
0
 62
7
  6
CONTINUOUS
370
-3
390
F
  0
LAYER
  5
207
100
AcDbSymbolTableRecord
100
AcDbLayerTableRecord
  2
11_NOTES_PUB
 70
0
 62
7
  6
CONTINUOUS
370
-3
390
F
  0
LAYER
  5
208
100
AcDbSymbolTableRecord
100
AcDbLayerTableRecord
  2
13_REF_GTOL
 70
0
 62
7
  6
CONTINUOUS
370
-3
390
F
  0
LAYER
  5
209
100
AcDbSymbolTableRecord
100
AcDbLayerTableRecord
  2
16_MISC
 70
0
 62
7
  6
CONTINUOUS
370
-3
390
F
  0
LAYER
  5
20A
100
AcDbSymbolTableRecord
100
AcDbLayerTableRecord
  2
17_NO_PRINT
 70
0
 62
7
  6
CONTINUOUS
370
-3
390
F
  0
LAYER
  5
20B
100
AcDbSymbolTableRecord
100
AcDbLayerTableRecord
  2
18_DATUM_CAMS_JOINTS
 70
0
 62
7
  6
CONTINUOUS
370
-3
390
F
  0
LAYER
  5
20C
100
AcDbSymbolTableRecord
100
AcDbLayerTableRecord
  2
19_DATUM_FUNCTIONAL
 70
0
 62
7
  6
CONTINUOUS
370
-3
390
F
  0
LAYER
  5
20D
100
AcDbSymbolTableRecord
100
AcDbLayerTableRecord
  2
20_DATUM_KINEMATIC_SCHEME
 70
0
 62
7
  6
CONTINUOUS
370
-3
390
F
  0
ENDTAB
  0
TABLE
  2
STYLE
  5
3
100
AcDbSymbolTable
 70
1
  0
STYLE
  5
11
100
AcDbSymbolTableRecord
100
AcDbTextStyleTableRecord
  2
STANDARD
 70
0
 40
0.0
 41
1.0
 50
0.0
 71
0
 42
0.2
  3
ARIAL.TTF
  4

  0
STYLE
  5
20E
100
AcDbSymbolTableRecord
100
AcDbTextStyleTableRecord
  2
TEXTSTYLE_1
 70
0
 40
0.0
 41
0.8
 50
0.0
 71
0
 42
0.2
  3
gdt
  4

  0
ENDTAB
  0
TABLE
  2
VIEW
  5
6
100
AcDbSymbolTable
 70
0
  0
ENDTAB
  0
TABLE
  2
UCS
  5
7
100
AcDbSymbolTable
 70
0
  0
ENDTAB
  0
TABLE
  2
APPID
  5
9
100
AcDbSymbolTable
 70
1
  0
APPID
  5
20F
100
AcDbSymbolTableRecord
100
AcDbRegAppTableRecord
  2
ACAD
 70
0
  0
ENDTAB
  0
TABLE
  2
BLOCK_RECORD
  5
1
100
AcDbSymbolTable
 70
0
  0
BLOCK_RECORD
  5
210
100
AcDbSymbolTableRecord
100
AcDbBlockTableRecord
  2
*Model_Space
  0
BLOCK_RECORD
  5
211
100
AcDbSymbolTableRecord
100
AcDbBlockTableRecord
  2
*Paper_Space
  0
BLOCK_RECORD
  5
212
100
AcDbSymbolTableRecord
100
AcDbBlockTableRecord
  2
_FILLED
  0
ENDTAB
  0
TABLE
  2
DIMSTYLE
  5
A
100
AcDbSymbolTable
 70
1
100
AcDbDimStyleTable
 71
0
  0
DIMSTYLE
105
213
100
AcDbSymbolTableRecord
100
AcDbDimStyleTableRecord
  2
STANDARD
 70
0
  3

  4

 40
1.0
 41
1.3839350717
 42
1.0
 43
0.38
 44
1.0
 45
0.0
 46
0.0
 47
0.01
 48
0.01
140
1.9375091003
141
0.09
142
0.0
143
25.4
144
1.0
145
0.0
146
1.0
147
0.625
 71
1
 72
0
 73
0
 74
0
 75
0
 76
0
 77
1
 78
8
 79
2
170
0
171
1
172
0
173
0
174
0
175
0
176
0
177
0
178
0
270
2
179
2
271
2
272
2
273
2
274
2
275
0
280
0
281
0
282
0
283
1
284
8
285
0
286
0
287
3
288
0
340
11
278
46
341
212
342
212
343
212
344
212
  0
ENDTAB
  0
ENDSEC
  0
SECTION
  2
BLOCKS
  0
BLOCK
  5
20
100
AcDbEntity
  8
0
100
AcDbBlockBegin
  2
*Model_Space
 70
0
 10
0.0
 20
0.0
 30
0.0
  3
*Model_Space
  1

  0
ENDBLK
  5
21
100
AcDbEntity
  8
0
100
AcDbBlockEnd
  0
BLOCK
  5
1C
100
AcDbEntity
  8
0
100
AcDbBlockBegin
  2
*Paper_Space
 70
0
 10
0.0
 20
0.0
 30
0.0
  3
*Paper_Space
  1

  0
ENDBLK
  5
1D
100
AcDbEntity
  8
0
100
AcDbBlockEnd
  0
BLOCK
  5
214
100
AcDbEntity
  8
0
100
AcDbBlockBegin
  2
_FILLED
 70
64
 10
0.0
 20
0.0
  3
_FILLED
  1

  0
SOLID
  5
215
100
AcDbEntity
  8
0
  6
BYBLOCK
 62
0
100
AcDbTrace
 10
0.0
 20
0.0
 11
-1.0
 21
0.25
 12
-1.0
 22
-0.25
 13
-1.0
 23
-0.25
  0
ENDBLK
  5
216
100
AcDbEntity
  8
0
  6
BYBLOCK
 62
0
100
AcDbBlockEnd
  0
ENDSEC
  0
SECTION
  2
ENTITIES
  0
LINE
  5
217
100
AcDbEntity
  8
0
100
AcDbLine
 62
7
  6
BYLAYER
 10
13.4528262581
 20
50.4231629987
 11
13.4528262581
 21
49.9046839638
  0
LINE
  5
218
100
AcDbEntity
  8
0
100
AcDbLine
 62
7
  6
BYLAYER
 10
14.4053262581
 20
63.6962262915
 11
14.4053262581
 21
64.5257927473
  0
LINE
  5
219
100
AcDbEntity
  8
0
100
AcDbLine
 62
7
  6
BYLAYER
 10
15.9928262581
 20
61.6831033962
 11
15.9928262581
 21
50.4231629987
  0
LINE
  5
21A
100
AcDbEntity
  8
0
100
AcDbLine
 62
7
  6
BYLAYER
 10
21.8665530045
 20
61.4306991316
 11
21.8665530045
 21
62.2602655874
  0
LINE
  5
21B
100
AcDbEntity
  8
0
100
AcDbLine
 62
7
  6
BYLAYER
 10
22.3428262581
 20
61.6198081156
 11
22.3428262581
 21
50.4231629987
  0
LINE
  5
21C
100
AcDbEntity
  8
0
100
AcDbLine
 62
7
  6
BYLAYER
 10
24.8828262581
 20
50.4231629987
 11
24.8828262581
 21
49.9046839638
  0
LINE
  5
21D
100
AcDbEntity
  8
0
100
AcDbLine
 62
7
  6
BYLAYER
 10
26.441747349
 20
75.6728526548
 11
26.441747349
 21
76.5024191107
  0
LINE
  5
21E
100
AcDbEntity
  8
0
100
AcDbLine
 62
7
  6
BYLAYER
 10
32.7279378502
 20
74.1174640145
 11
32.7279378502
 21
74.9470304703
  0
LINE
  5
21F
100
AcDbEntity
  8
0
100
AcDbLine
 62
7
  6
BYLAYER
 10
39.1937641323
 20
68.3106388878
 11
39.1937641323
 21
69.1402053436
  0
LINE
  5
220
100
AcDbEntity
  8
0
100
AcDbLine
 62
7
  6
BYLAYER
 10
39.912187613
 20
68.725432737
 11
39.912187613
 21
67.8958662812
  0
LINE
  5
221
100
AcDbEntity
  8
0
100
AcDbLine
 62
7
  6
BYLAYER
 10
26.441747349
 20
76.5024191107
 11
36.8043855886
 21
86.8404792681
  0
LINE
  5
222
100
AcDbEntity
  8
0
100
AcDbLine
 62
7
  6
BYLAYER
 10
39.912187613
 20
67.8958662812
 11
39.1937641323
 21
68.3106388878
  0
LINE
  5
223
100
AcDbEntity
  8
0
100
AcDbLine
 62
7
  6
BYLAYER
 10
26.5746629192
 20
75.5961155506
 11
26.441747349
 21
75.6728526548
  0
LINE
  5
224
100
AcDbEntity
  8
0
100
AcDbLine
 62
7
  6
BYLAYER
 10
26.441747349
 20
76.5024191107
 11
27.1601708297
 21
76.0876465041
  0
LINE
  5
225
100
AcDbEntity
  8
0
100
AcDbLine
 62
7
  6
BYLAYER
 10
39.1937641323
 20
69.1402053436
 11
39.912187613
 21
68.725432737
  0
LINE
  5
226
100
AcDbEntity
  8
0
100
AcDbLine
 62
7
  6
BYLAYER
 10
37.5228090694
 20
86.4257066615
 11
27.1601708297
 21
76.0876465041
  0
LINE
  5
227
100
AcDbEntity
  8
0
100
AcDbLine
 62
7
  6
BYLAYER
 10
27.1601708297
 20
76.0876465041
 11
15.2437395416
 21
66.0838622217
  0
LINE
  5
228
100
AcDbEntity
  8
0
100
AcDbLine
 62
7
  6
BYLAYER
 10
71.5673558275
 20
108.3106854826
 11
49.1168089959
 21
95.3489335972
  0
LINE
  5
229
100
AcDbEntity
  8
0
100
AcDbLine
 62
7
  6
BYLAYER
 10
91.0993222238
 20
118.1874884336
 11
72.7797357992
 21
107.6107334146
  0
LINE
  5
22A
100
AcDbEntity
  8
0
100
AcDbLine
 62
7
  6
BYLAYER
 10
49.1168089959
 20
93.9490178044
 11
36.8043855886
 21
86.8404792681
  0
LINE
  5
22B
100
AcDbEntity
  8
0
100
AcDbLine
 62
7
  6
BYLAYER
 10
91.8177457046
 20
117.772715827
 11
73.4981592799
 21
107.195960808
  0
LINE
  5
22C
100
AcDbEntity
  8
0
100
AcDbLine
 62
7
  6
BYLAYER
 10
49.1168089959
 20
93.1194656837
 11
37.5228090694
 21
86.4257066615
  0
LINE
  5
22D
100
AcDbEntity
  8
0
100
AcDbLine
 62
7
  6
BYLAYER
 10
39.912187613
 20
67.8958662812
 11
50.2748258527
 21
69.5234786527
  0
LINE
  5
22E
100
AcDbEntity
  8
0
100
AcDbLine
 62
7
  6
BYLAYER
 10
49.1168089959
 20
88.2976187229
 11
49.1168089959
 21
95.3489335972
  0
LINE
  5
22F
100
AcDbEntity
  8
0
100
AcDbLine
 62
7
  6
BYLAYER
 10
27.1601708297
 20
76.0876465041
 11
49.1168089959
 21
88.7642417907
  0
LINE
  5
230
100
AcDbEntity
  8
0
100
AcDbLine
 62
7
  6
BYLAYER
 10
77.2699477312
 20
105.0183669941
 11
91.8177457046
 21
113.4174919341
  0
LINE
  5
231
100
AcDbEntity
  8
0
100
AcDbLine
 62
7
  6
BYLAYER
 10
60.6842862366
 20
94.9243397975
 11
55.2683100498
 21
91.7974431532
  0
LINE
  5
232
100
AcDbEntity
  8
0
100
AcDbLine
 62
7
  6
BYLAYER
 10
56.8847628815
 20
90.8642047884
 11
62.9017400136
 21
94.338087419
  0
LINE
  5
233
100
AcDbEntity
  8
0
100
AcDbLine
 62
7
  6
BYLAYER
 10
37.5228090694
 20
86.4257066615
 11
36.8043855886
 21
86.8404792681
  0
LINE
  5
234
100
AcDbEntity
  8
0
100
AcDbLine
 62
7
  6
BYLAYER
 10
55.2683100498
 20
91.7974431532
 11
55.2683100498
 21
84.7461282789
  0
LINE
  5
235
100
AcDbEntity
  8
0
100
AcDbLine
 62
7
  6
BYLAYER
 10
90.2013377389
 20
108.129115297
 11
81.0416710052
 21
102.8408108095
  0
LINE
  5
236
100
AcDbEntity
  8
0
100
AcDbLine
 62
7
  6
BYLAYER
 10
52.4844190619
 20
86.3533721294
 11
32.7279378502
 21
74.9470304703
  0
LINE
  5
237
100
AcDbEntity
  8
0
100
AcDbLine
 62
7
  6
BYLAYER
 10
32.7279378502
 20
74.1174640145
 11
53.2028549574
 21
85.9385923554
  0
LINE
  5
238
100
AcDbEntity
  8
0
100
AcDbLine
 62
7
  6
BYLAYER
 10
81.7601069007
 20
102.4260310354
 11
90.2013377389
 21
107.2995488412
  0
LINE
  5
239
100
AcDbEntity
  8
0
100
AcDbLine
 62
7
  6
BYLAYER
 10
82.7927227142
 20
101.8298635046
 11
60.3421758826
 21
88.8681116192
  0
LINE
  5
23A
100
AcDbEntity
  8
0
100
AcDbLine
 62
7
  6
BYLAYER
 10
55.2683100498
 20
84.7461282789
 11
56.8847628815
 21
85.6793821856
  0
LINE
  5
23B
100
AcDbEntity
  8
0
100
AcDbLine
 62
7
  6
BYLAYER
 10
56.8847628815
 20
83.8128899141
 11
56.8847628815
 21
90.8642047884
  0
LINE
  5
23C
100
AcDbEntity
  8
0
100
AcDbLine
 62
7
  6
BYLAYER
 10
37.2180846049
 20
72.3547016791
 11
56.9745658166
 21
83.7610433382
  0
LINE
  5
23D
100
AcDbEntity
  8
0
100
AcDbLine
 62
7
  6
BYLAYER
 10
82.7927227142
 20
98.667074196
 11
94.6914844936
 21
105.5367865058
  0
LINE
  5
23E
100
AcDbEntity
  8
0
100
AcDbLine
 62
7
  6
BYLAYER
 10
49.1168089959
 20
88.2976187229
 11
55.2683100498
 21
84.7461282789
  0
LINE
  5
23F
100
AcDbEntity
  8
0
100
AcDbLine
 62
7
  6
BYLAYER
 10
56.8847628815
 20
83.8128899141
 11
60.3421758826
 21
81.8167967448
  0
LINE
  5
240
100
AcDbEntity
  8
0
100
AcDbLine
 62
7
  6
BYLAYER
 10
60.3421758826
 20
88.8681116192
 11
60.3421758826
 21
81.8167967448
  0
LINE
  5
241
100
AcDbEntity
  8
0
100
AcDbLine
 62
7
  6
BYLAYER
 10
60.6842862366
 20
94.9243397975
 11
60.6842862366
 21
93.057847526
  0
LINE
  5
242
100
AcDbEntity
  8
0
100
AcDbLine
 62
7
  6
BYLAYER
 10
60.3421758826
 20
81.8167967448
 11
62.9100765157
 21
83.2993660169
  0
LINE
  5
243
100
AcDbEntity
  8
0
100
AcDbLine
 62
7
  6
BYLAYER
 10
68.0163499995
 20
86.2474567896
 11
82.7927227142
 21
94.7785486303
  0
LINE
  5
244
100
AcDbEntity
  8
0
100
AcDbLine
 62
7
  6
BYLAYER
 10
104.5697624879
 20
106.055278167
 11
67.5364772237
 21
84.6742285784
  0
LINE
  5
245
100
AcDbEntity
  8
0
100
AcDbLine
 62
7
  6
BYLAYER
 10
64.0326132044
 20
82.651283819
 11
39.912187613
 21
68.725432737
  0
LINE
  5
246
100
AcDbEntity
  8
0
100
AcDbLine
 62
7
  6
BYLAYER
 10
64.2506200499
 20
82.5254203555
 11
61.4442783282
 21
84.14562585
  0
LINE
  5
247
100
AcDbEntity
  8
0
100
AcDbLine
 62
7
  6
BYLAYER
 10
104.5697624879
 20
100.8704878183
 11
50.2748258527
 21
69.5234786527
  0
LINE
  5
248
100
AcDbEntity
  8
0
100
AcDbLine
 62
7
  6
BYLAYER
 10
21.8665530045
 20
62.2602655874
 11
39.1937641323
 21
69.1402053436
  0
LINE
  5
249
100
AcDbEntity
  8
0
100
AcDbLine
 62
7
  6
BYLAYER
 10
39.1937641323
 20
68.3106388878
 11
21.8665530045
 21
61.4306991316
  0
LINE
  5
24A
100
AcDbEntity
  8
0
100
AcDbLine
 62
7
  6
BYLAYER
 10
49.1168089959
 20
95.3489335972
 11
55.2683100498
 21
91.7974431532
  0
LINE
  5
24B
100
AcDbEntity
  8
0
100
AcDbLine
 62
7
  6
BYLAYER
 10
56.8847628815
 20
90.8642047884
 11
60.3421758826
 21
88.8681116192
  0
LINE
  5
24C
100
AcDbEntity
  8
0
100
AcDbLine
 62
7
  6
BYLAYER
 10
67.4255661796
 20
88.0247127712
 11
64.6192244579
 21
89.6449182657
  0
LINE
  5
24D
100
AcDbEntity
  8
0
100
AcDbLine
 62
7
  6
BYLAYER
 10
82.7927227142
 20
94.7785486303
 11
82.7927227142
 21
101.8298635046
  0
LINE
  5
24E
100
AcDbEntity
  8
0
100
AcDbLine
 62
7
  6
BYLAYER
 10
90.2013377389
 20
108.129115297
 11
90.2013377389
 21
107.2995488412
  0
LINE
  5
24F
100
AcDbEntity
  8
0
100
AcDbLine
 62
7
  6
BYLAYER
 10
82.7927227142
 20
101.8298635046
 11
71.5673558275
 21
108.3106854826
  0
LINE
  5
250
100
AcDbEntity
  8
0
100
AcDbLine
 62
7
  6
BYLAYER
 10
91.8177457046
 20
113.4174919341
 11
91.8177457046
 21
117.772715827
  0
LINE
  5
251
100
AcDbEntity
  8
0
100
AcDbLine
 62
7
  6
BYLAYER
 10
104.5697624879
 20
100.8704878183
 11
104.5697624879
 21
106.055278167
  0
LINE
  5
252
100
AcDbEntity
  8
0
100
AcDbLine
 62
7
  6
BYLAYER
 10
104.5697624879
 20
106.055278167
 11
91.8177457046
 21
113.4174919341
  0
LINE
  5
253
100
AcDbEntity
  8
0
100
AcDbLine
 62
7
  6
BYLAYER
 10
91.8177457046
 20
117.772715827
 11
91.0993222238
 21
118.1874884336
  0
ARC
  5
254
100
AcDbEntity
  8
0
100
AcDbCircle
 62
7
  6
BYLAYER
 10
20.7183609997
 20
51.896756564
 40
4.9910076897
100
AcDbArc
 50
299.9349819339
 51
304.3597546462
  0
ARC
  5
255
100
AcDbEntity
  8
0
100
AcDbCircle
 62
7
  6
BYLAYER
 10
16.406834809
 20
64.6711991179
 40
2.0291448395
100
AcDbArc
 50
206.8975240073
 51
210.1734037575
  0
SPLINE
  5
256
100
AcDbEntity
  8
0
100
AcDbSpline
 62
7
  6
BYLAYER
 70
0
 71
3
 72
11
 73
7
 74
0
 42
0.0000001
 43
0.0000001
 44
0.0000000001
 40
0.0
 40
0.0
 40
0.0
 40
0.0
 40
0.2897026209
 40
0.5490908265
 40
0.782219764
 40
1.0
 40
1.0
 40
1.0
 40
1.0
 10
68.0831477979
 20
86.5712417519
 30
0.0
 10
68.0831477979
 20
86.73211327
 30
0.0
 10
68.0587576162
 20
87.0380580505
 30
0.0
 10
67.934860441
 20
87.4584128138
 30
0.0
 10
67.7262434271
 20
87.7995056377
 30
0.0
 10
67.5302879296
 20
87.9642299673
 30
0.0
 10
67.4255607637
 20
88.0247034026
 30
0.0
  0
SPLINE
  5
257
100
AcDbEntity
  8
0
100
AcDbSpline
 62
7
  6
BYLAYER
 70
0
 71
3
 72
11
 73
7
 74
0
 42
0.0000001
 43
0.0000001
 44
0.0000000001
 40
0.0
 40
0.0
 40
0.0
 40
0.0
 40
0.2782327754
 40
0.5340329936
 40
0.7719214159
 40
1.0
 40
1.0
 40
1.0
 40
1.0
 10
15.2437395416
 20
66.0838622217
 30
0.0
 10
15.1141697111
 20
65.975088999
 30
0.0
 10
14.8806381287
 20
65.7468384004
 30
0.0
 10
14.6102120503
 20
65.3592711804
 30
0.0
 10
14.4432989256
 20
64.9490505181
 30
0.0
 10
14.4053975661
 20
64.6644716898
 30
0.0
 10
14.405381212
 20
64.5257926934
 30
0.0
  0
SPLINE
  5
258
100
AcDbEntity
  8
0
100
AcDbSpline
 62
7
  6
BYLAYER
 70
0
 71
3
 72
17
 73
13
 74
0
 42
0.0000001
 43
0.0000001
 44
0.0000000001
 40
0.0
 40
0.0
 40
0.0
 40
0.0
 40
0.1286926208
 40
0.2702795078
 40
0.4174383051
 40
0.5617803148
 40
0.6954501289
 40
0.8127134773
 40
0.8646759206
 40
0.9125113962
 40
0.9571388332
 40
1.0
 40
1.0
 40
1.0
 40
1.0
 10
37.2180846049
 20
72.3547016791
 30
0.0
 10
36.983052758
 20
72.219006789
 30
0.0
 10
36.4509179034
 20
71.999439017
 30
0.0
 10
35.5836309073
 20
71.8259535017
 30
0.0
 10
34.6663343704
 20
71.8005484538
 30
0.0
 10
33.7738727928
 20
71.9259683383
 30
0.0
 10
32.978615737
 20
72.191600061
 30
0.0
 10
32.425496515
 20
72.5282604725
 30
0.0
 10
32.1009212523
 20
72.8540403309
 30
0.0
 10
31.9284476442
 20
73.1076496781
 30
0.0
 10
31.8222549074
 20
73.375203774
 30
0.0
 10
31.7980134757
 20
73.5604790797
 30
0.0
 10
31.7980258257
 20
73.6508660384
 30
0.0
  0
SPLINE
  5
259
100
AcDbEntity
  8
0
100
AcDbSpline
 62
7
  6
BYLAYER
 70
0
 71
3
 72
12
 73
8
 74
0
 42
0.0000001
 43
0.0000001
 44
0.0000000001
 40
0.0
 40
0.0
 40
0.0
 40
0.0
 40
0.1081594473
 40
0.2183667249
 40
0.4513484462
 40
0.7104480492
 40
1.0
 40
1.0
 40
1.0
 40
1.0
 10
69.669578551
 20
97.500611387
 30
0.0
 10
69.6695810158
 20
97.3945869311
 30
0.0
 10
69.6511998161
 20
97.1800784608
 30
0.0
 10
69.5396619792
 20
96.7501045223
 30
0.0
 10
69.2537513726
 20
96.2227459491
 30
0.0
 10
68.7209326432
 20
95.6632494047
 30
0.0
 10
68.2750392578
 20
95.3560949629
 30
0.0
 10
68.0292293588
 20
95.2141773987
 30
0.0
  0
SPLINE
  5
25A
100
AcDbEntity
  8
0
100
AcDbSpline
 62
7
  6
BYLAYER
 70
0
 71
3
 72
18
 73
14
 74
0
 42
0.0000001
 43
0.0000001
 44
0.0000000001
 40
0.0
 40
0.0
 40
0.0
 40
0.0
 40
0.137066435
 40
0.2825581305
 40
0.4296291814
 40
0.5711453406
 40
0.7008630215
 40
0.7599915832
 40
0.8149035334
 40
0.8656904839
 40
0.9128198346
 40
0.9571672958
 40
1.0
 40
1.0
 40
1.0
 40
1.0
 10
21.8665530045
 20
61.4306991316
 30
0.0
 10
21.4948766449
 20
61.283121374
 30
0.0
 10
20.696394509
 20
61.0573084865
 30
0.0
 10
19.4458983581
 20
60.9184085108
 30
0.0
 10
18.1753247799
 20
60.9733672115
 30
0.0
 10
16.974528204
 20
61.2185918087
 30
0.0
 10
16.0724405477
 20
61.5786611225
 30
0.0
 10
15.4658888446
 20
61.9530960213
 30
0.0
 10
15.091792693
 20
62.2578347723
 30
0.0
 10
14.7915780731
 20
62.5902170759
 30
0.0
 10
14.571135956
 20
62.944973979
 30
0.0
 10
14.4359423445
 20
63.3159585855
 30
0.0
 10
14.4053665013
 20
63.5712581358
 30
0.0
 10
14.4053812303
 20
63.6962262377
 30
0.0
  0
SPLINE
  5
25B
100
AcDbEntity
  8
0
100
AcDbSpline
 62
7
  6
BYLAYER
 70
0
 71
3
 72
11
 73
7
 74
0
 42
0.0000001
 43
0.0000001
 44
0.0000000001
 40
0.0
 40
0.0
 40
0.0
 40
0.0
 40
0.2177827477
 40
0.4509152641
 40
0.7103063952
 40
1.0
 40
1.0
 40
1.0
 40
1.0
 10
95.6213965181
 20
106.8329509376
 30
0.0
 10
95.6213799949
 20
106.7120210339
 30
0.0
 10
95.5767168119
 20
106.4599619455
 30
0.0
 10
95.3856209357
 20
106.1087610317
 30
0.0
 10
95.0835435075
 20
105.7913016416
 30
0.0
 10
94.8307938949
 20
105.617216346
 30
0.0
 10
94.6914844936
 20
105.5367865058
 30
0.0
  0
SPLINE
  5
25C
100
AcDbEntity
  8
0
100
AcDbSpline
 62
7
  6
BYLAYER
 70
0
 71
3
 72
9
 73
5
 74
0
 42
0.0000001
 43
0.0000001
 44
0.0000000001
 40
0.0
 40
0.0
 40
0.0
 40
0.0
 40
0.245389201
 40
1.0
 40
1.0
 40
1.0
 40
1.0
 10
95.5394556114
 20
106.4171337018
 30
0.0
 10
95.5327928741
 20
106.4337433131
 30
0.0
 10
95.5041574912
 20
106.5008298345
 30
0.0
 10
95.4696974301
 20
106.5653944839
 30
0.0
 10
95.4410259891
 20
106.612369227
 30
0.0
  0
SPLINE
  5
25D
100
AcDbEntity
  8
0
100
AcDbSpline
 62
7
  6
BYLAYER
 70
0
 71
3
 72
15
 73
11
 74
0
 42
0.0000001
 43
0.0000001
 44
0.0000000001
 40
0.0
 40
0.0
 40
0.0
 40
0.0
 40
0.0960054499
 40
0.2066983786
 40
0.3312477944
 40
0.4660970785
 40
0.606109221
 40
0.7454487628
 40
0.8783758239
 40
1.0
 40
1.0
 40
1.0
 40
1.0
 10
95.4410259891
 20
106.612369227
 30
0.0
 10
95.3462317967
 20
106.767678228
 30
0.0
 10
95.0779147878
 20
107.0635004329
 30
0.0
 10
94.5448973789
 20
107.4040776706
 30
0.0
 10
93.8869093465
 20
107.6582330537
 30
0.0
 10
93.1425067637
 20
107.8112725076
 30
0.0
 10
92.3559884975
 20
107.8546913896
 30
0.0
 10
91.5748081145
 20
107.7857417729
 30
0.0
 10
90.8466751762
 20
107.6087473862
 30
0.0
 10
90.4009623432
 20
107.4148014722
 30
0.0
 10
90.2013377389
 20
107.2995488412
 30
0.0
  0
SPLINE
  5
25E
100
AcDbEntity
  8
0
100
AcDbSpline
 62
7
  6
BYLAYER
 70
0
 71
3
 72
9
 73
5
 74
0
 42
0.0000001
 43
0.0000001
 44
0.0000000001
 40
0.0
 40
0.0
 40
0.0
 40
0.0
 40
0.2747197706
 40
1.0
 40
1.0
 40
1.0
 40
1.0
 10
32.7279378502
 20
74.1174640145
 30
0.0
 10
32.646791993
 20
74.0706147117
 30
0.0
 10
32.3602117921
 20
73.8868166597
 30
0.0
 10
32.1066260568
 20
73.6408018912
 30
0.0
 10
31.9779091005
 20
73.4295556368
 30
0.0
  0
SPLINE
  5
25F
100
AcDbEntity
  8
0
100
AcDbSpline
 62
7
  6
BYLAYER
 70
0
 71
3
 72
9
 73
5
 74
0
 42
0.0000001
 43
0.0000001
 44
0.0000000001
 40
0.0
 40
0.0
 40
0.0
 40
0.0
 40
0.2548250701
 40
1.0
 40
1.0
 40
1.0
 40
1.0
 10
31.9779091005
 20
73.4295556368
 30
0.0
 10
31.9686836686
 20
73.4144151457
 30
0.0
 10
31.9335899134
 20
73.3543345876
 30
0.0
 10
31.9030811139
 20
73.291548608
 30
0.0
 10
31.8834260255
 20
73.2435723693
 30
0.0
  0
SPLINE
  5
260
100
AcDbEntity
  8
0
100
AcDbSpline
 62
7
  6
BYLAYER
 70
0
 71
3
 72
11
 73
7
 74
0
 42
0.0000001
 43
0.0000001
 44
0.0000000001
 40
0.0
 40
0.0
 40
0.0
 40
0.0
 40
0.2224720411
 40
0.4576848299
 40
0.7151414429
 40
1.0
 40
1.0
 40
1.0
 40
1.0
 10
24.8827840424
 20
49.904683958
 30
0.0
 10
24.8827885217
 20
49.7107449393
 30
0.0
 10
24.8198939683
 20
49.3094949764
 30
0.0
 10
24.5471792799
 20
48.7408753439
 30
0.0
 10
24.1108292155
 20
48.2150449634
 30
0.0
 10
23.7401601466
 20
47.9168624687
 30
0.0
 10
23.5352223184
 20
47.7766291304
 30
0.0
  0
SPLINE
  5
261
100
AcDbEntity
  8
0
100
AcDbSpline
 62
7
  6
BYLAYER
 70
0
 71
3
 72
13
 73
9
 74
0
 42
0.0000001
 43
0.0000001
 44
0.0000000001
 40
0.0
 40
0.0
 40
0.0
 40
0.0
 40
0.1027012277
 40
0.2083719603
 40
0.3195650807
 40
0.4381956177
 40
0.7012267398
 40
1.0
 40
1.0
 40
1.0
 40
1.0
 10
24.8827867158
 20
50.4231629986
 30
0.0
 10
24.882785643
 20
50.5579574194
 30
0.0
 10
24.8533680846
 20
50.8322853749
 30
0.0
 10
24.7225235025
 20
51.2335733479
 30
0.0
 10
24.5082887804
 20
51.6210373553
 30
0.0
 10
24.1029393359
 20
52.128445986
 30
0.0
 10
23.3956576542
 20
52.6912913081
 30
0.0
 10
22.7285335868
 20
53.0164598486
 30
0.0
 10
22.3631238335
 20
53.1587527531
 30
0.0
  0
SPLINE
  5
262
100
AcDbEntity
  8
0
100
AcDbSpline
 62
7
  6
BYLAYER
 70
0
 71
3
 72
9
 73
5
 74
0
 42
0.0000001
 43
0.0000001
 44
0.0000000001
 40
0.0
 40
0.0
 40
0.0
 40
0.0
 40
0.2577897551
 40
1.0
 40
1.0
 40
1.0
 40
1.0
 10
15.9136522076
 20
53.1355036172
 30
0.0
 10
15.8439244934
 20
53.1076070708
 30
0.0
 10
15.5752522143
 20
52.9949709035
 30
0.0
 10
15.3139514642
 20
52.8643713095
 30
0.0
 10
15.1266941789
 20
52.7562589108
 30
0.0
  0
SPLINE
  5
263
100
AcDbEntity
  8
0
100
AcDbSpline
 62
7
  6
BYLAYER
 70
0
 71
3
 72
12
 73
8
 74
0
 42
0.0000001
 43
0.0000001
 44
0.0000000001
 40
0.0
 40
0.0
 40
0.0
 40
0.0
 40
0.2895549375
 40
0.5486516888
 40
0.7816333809
 40
0.891840153
 40
1.0
 40
1.0
 40
1.0
 40
1.0
 10
15.1266941789
 20
52.7562589108
 30
0.0
 10
14.8758649891
 20
52.6114434749
 30
0.0
 10
14.4208697948
 20
52.2980215453
 30
0.0
 10
13.8771808019
 20
51.727103764
 30
0.0
 10
13.5854299799
 20
51.1889883717
 30
0.0
 10
13.4716214625
 20
50.7502375335
 30
0.0
 10
13.4528649395
 20
50.5313516944
 30
0.0
 10
13.4528658005
 20
50.4231629988
 30
0.0
  0
SPLINE
  5
264
100
AcDbEntity
  8
0
100
AcDbSpline
 62
7
  6
BYLAYER
 70
0
 71
3
 72
20
 73
16
 74
0
 42
0.0000001
 43
0.0000001
 44
0.0000000001
 40
0.0
 40
0.0
 40
0.0
 40
0.0
 40
0.0623992345
 40
0.1288070271
 40
0.2703006541
 40
0.4173608616
 40
0.5616154861
 40
0.6302547797
 40
0.6953800278
 40
0.7563638996
 40
0.8128351953
 40
0.8647649927
 40
0.912568242
 40
0.9571691171
 40
1.0
 40
1.0
 40
1.0
 40
1.0
 10
23.2089583373
 20
47.5715880517
 30
0.0
 10
23.0036975834
 20
47.4530814075
 30
0.0
 10
22.5635931666
 20
47.2361590426
 30
0.0
 10
21.5968760955
 20
46.885847284
 30
0.0
 10
20.2663771331
 20
46.6197218892
 30
0.0
 10
18.6162099126
 20
46.5741429069
 30
0.0
 10
17.2543600707
 20
46.7651892815
 30
0.0
 10
16.2381888033
 20
47.0578877749
 30
0.0
 10
15.5507018245
 20
47.3349188484
 30
0.0
 10
14.9399376128
 20
47.6670794577
 30
0.0
 10
14.4186539729
 20
48.0479584476
 30
0.0
 10
13.9980229475
 20
48.4704299005
 30
0.0
 10
13.6876258542
 20
48.9269206102
 30
0.0
 10
13.4963365204
 20
49.4084831675
 30
0.0
 10
13.4528722313
 20
49.7419971366
 30
0.0
 10
13.4528684738
 20
49.9046839696
 30
0.0
  0
SPLINE
  5
265
100
AcDbEntity
  8
0
100
AcDbSpline
 62
7
  6
BYLAYER
 70
0
 71
3
 72
17
 73
13
 74
0
 42
0.0000001
 43
0.0000001
 44
0.0000000001
 40
0.0
 40
0.0
 40
0.0
 40
0.0
 40
0.0428590154
 40
0.087484945
 40
0.1353191404
 40
0.1872810096
 40
0.3045411455
 40
0.4382064078
 40
0.5825480614
 40
0.7297123844
 40
0.8713056989
 40
1.0
 40
1.0
 40
1.0
 40
1.0
 10
64.2506254658
 20
82.5254297241
 30
0.0
 10
64.3288957308
 20
82.4802335063
 30
0.0
 10
64.5014564872
 20
82.408581816
 30
0.0
 10
64.7862522845
 20
82.3667821198
 30
0.0
 10
65.0921138534
 20
82.3893204286
 30
0.0
 10
65.5365234499
 20
82.507523715
 30
0.0
 10
66.1046314296
 20
82.8181759693
 30
0.0
 10
66.7322998129
 20
83.3740508989
 30
0.0
 10
67.2871566614
 20
84.0842256406
 30
0.0
 10
67.7238220271
 20
84.8913457693
 30
0.0
 10
68.0072309465
 20
85.7292063691
 30
0.0
 10
68.0831477979
 20
86.2998480407
 30
0.0
 10
68.0831477979
 20
86.5712417519
 30
0.0
  0
SPLINE
  5
266
100
AcDbEntity
  8
0
100
AcDbSpline
 62
7
  6
BYLAYER
 70
0
 71
3
 72
11
 73
7
 74
0
 42
0.0000001
 43
0.0000001
 44
0.0000000001
 40
0.0
 40
0.0
 40
0.0
 40
0.0
 40
0.2277824428
 40
0.4765206172
 40
0.7374017966
 40
1.0
 40
1.0
 40
1.0
 40
1.0
 10
68.0292293588
 20
95.2141773987
 30
0.0
 10
67.6819860375
 20
95.0136975704
 30
0.0
 10
66.9076971322
 20
94.6753306194
 30
0.0
 10
65.6426597683
 20
94.363499195
 30
0.0
 10
64.2846416588
 20
94.2367762468
 30
0.0
 10
63.3605285278
 20
94.2816479601
 30
0.0
 10
62.9017400136
 20
94.338087419
 30
0.0
  0
SPLINE
  5
267
100
AcDbEntity
  8
0
100
AcDbSpline
 62
7
  6
BYLAYER
 70
0
 71
3
 72
13
 73
9
 74
0
 42
0.0000001
 43
0.0000001
 44
0.0000000001
 40
0.0
 40
0.0
 40
0.0
 40
0.0
 40
0.2964666842
 40
0.4319838356
 40
0.55883017
 40
0.7888539867
 40
0.8957707135
 40
1.0
 40
1.0
 40
1.0
 40
1.0
 10
60.6842862366
 20
94.9243397975
 30
0.0
 10
60.3597883331
 20
95.0664411627
 30
0.0
 10
59.9014691435
 20
95.3133246341
 30
0.0
 10
59.3736400505
 20
95.7248607508
 30
0.0
 10
58.9574191464
 20
96.1417905021
 30
0.0
 10
58.648972531
 20
96.6163089257
 30
0.0
 10
58.4938732649
 20
97.1230568991
 30
0.0
 10
58.468242248
 20
97.3760677538
 30
0.0
 10
58.4682543115
 20
97.500611334
 30
0.0
  0
SPLINE
  5
268
100
AcDbEntity
  8
0
100
AcDbSpline
 62
7
  6
BYLAYER
 70
0
 71
3
 72
11
 73
7
 74
0
 42
0.0000001
 43
0.0000001
 44
0.0000000001
 40
0.0
 40
0.0
 40
0.0
 40
0.0
 40
0.2837647711
 40
0.543437982
 40
0.7804657733
 40
1.0
 40
1.0
 40
1.0
 40
1.0
 10
23.2089583373
 20
48.0900670866
 30
0.0
 10
23.4148794292
 20
48.2089549747
 30
0.0
 10
23.7950466739
 20
48.4631007204
 30
0.0
 10
24.275435074
 20
48.9118661236
 30
0.0
 10
24.6285402576
 20
49.4025154339
 30
0.0
 10
24.775205748
 20
49.7610664521
 30
0.0
 10
24.8209983498
 20
49.939231396
 30
0.0
  0
SPLINE
  5
269
100
AcDbEntity
  8
0
100
AcDbSpline
 62
7
  6
BYLAYER
 70
0
 71
3
 72
9
 73
5
 74
0
 42
0.0000001
 43
0.0000001
 44
0.0000000001
 40
0.0
 40
0.0
 40
0.0
 40
0.0
 40
0.2525785232
 40
1.0
 40
1.0
 40
1.0
 40
1.0
 10
24.8209983498
 20
49.939231396
 30
0.0
 10
24.8312383071
 20
49.9790719238
 30
0.0
 10
24.8669933424
 20
50.137995435
 30
0.0
 10
24.8827876845
 20
50.301436454
 30
0.0
 10
24.8827867158
 20
50.4231629986
 30
0.0
  0
SPLINE
  5
26A
100
AcDbEntity
  8
0
100
AcDbSpline
 62
7
  6
BYLAYER
 70
0
 71
3
 72
17
 73
13
 74
0
 42
0.0000001
 43
0.0000001
 44
0.0000000001
 40
0.0
 40
0.0
 40
0.0
 40
0.0
 40
0.1286926208
 40
0.2702795078
 40
0.4174383051
 40
0.5617803148
 40
0.6954501289
 40
0.8127134773
 40
0.8646759206
 40
0.9125113962
 40
0.9571388332
 40
1.0
 40
1.0
 40
1.0
 40
1.0
 10
21.4128996355
 20
49.1269986031
 30
0.0
 10
21.1778677886
 20
48.991303713
 30
0.0
 10
20.645732934
 20
48.771735941
 30
0.0
 10
19.7784459379
 20
48.5982504257
 30
0.0
 10
18.861149401
 20
48.5728453778
 30
0.0
 10
17.9686878234
 20
48.6982652623
 30
0.0
 10
17.1734307676
 20
48.963896985
 30
0.0
 10
16.6203115456
 20
49.3005573965
 30
0.0
 10
16.2957362829
 20
49.626337255
 30
0.0
 10
16.1232626748
 20
49.8799466021
 30
0.0
 10
16.017069938
 20
50.147500698
 30
0.0
 10
15.9928285063
 20
50.3327760037
 30
0.0
 10
15.9928408563
 20
50.4231629624
 30
0.0
  0
SPLINE
  5
26B
100
AcDbEntity
  8
0
100
AcDbSpline
 62
7
  6
BYLAYER
 70
0
 71
3
 72
11
 73
7
 74
0
 42
0.0000001
 43
0.0000001
 44
0.0000000001
 40
0.0
 40
0.0
 40
0.0
 40
0.0
 40
0.2177827477
 40
0.4509152641
 40
0.7103063952
 40
1.0
 40
1.0
 40
1.0
 40
1.0
 10
31.7980258257
 20
73.6508660384
 30
0.0
 10
31.7980423489
 20
73.7717959421
 30
0.0
 10
31.8427055319
 20
74.0238550306
 30
0.0
 10
32.0338014081
 20
74.3750559443
 30
0.0
 10
32.3358788363
 20
74.6925153344
 30
0.0
 10
32.5886284489
 20
74.86660063
 30
0.0
 10
32.7279378502
 20
74.9470304703
 30
0.0
  0
SPLINE
  5
26C
100
AcDbEntity
  8
0
100
AcDbSpline
 62
7
  6
BYLAYER
 70
0
 71
3
 72
9
 73
5
 74
0
 42
0.0000001
 43
0.0000001
 44
0.0000000001
 40
0.0
 40
0.0
 40
0.0
 40
0.0
 40
0.4905064112
 40
1.0
 40
1.0
 40
1.0
 40
1.0
 10
14.405381212
 20
64.5257926934
 30
0.0
 10
14.4053657554
 20
64.3947246131
 30
0.0
 10
14.4390733695
 20
64.1265368503
 30
0.0
 10
14.5356501831
 20
63.8746511041
 30
0.0
 10
14.5972087825
 20
63.753221763
 30
0.0
  0
SPLINE
  5
26D
100
AcDbEntity
  8
0
100
AcDbSpline
 62
7
  6
BYLAYER
 70
0
 71
3
 72
9
 73
5
 74
0
 42
0.0000001
 43
0.0000001
 44
0.0000000001
 40
0.0
 40
0.0
 40
0.0
 40
0.0
 40
0.2397796747
 40
1.0
 40
1.0
 40
1.0
 40
1.0
 10
14.6526224427
 20
63.6513129704
 30
0.0
 10
14.6788068922
 20
63.60624994
 30
0.0
 10
14.7950470681
 20
63.4224236384
 30
0.0
 10
14.9374544795
 20
63.2557348508
 30
0.0
 10
15.0549341219
 20
63.1395328204
 30
0.0
  0
SPLINE
  5
26E
100
AcDbEntity
  8
0
100
AcDbSpline
 62
7
  6
BYLAYER
 70
0
 71
3
 72
15
 73
11
 74
0
 42
0.0000001
 43
0.0000001
 44
0.0000000001
 40
0.0
 40
0.0
 40
0.0
 40
0.0
 40
0.1022963202
 40
0.2161810699
 40
0.3401543979
 40
0.4715434915
 40
0.6069574253
 40
0.7426282137
 40
0.8748158739
 40
1.0
 40
1.0
 40
1.0
 40
1.0
 10
15.0549341219
 20
63.1395328204
 30
0.0
 10
15.2291299642
 20
62.9672313889
 30
0.0
 10
15.6429052455
 20
62.6483803908
 30
0.0
 10
16.3715716827
 20
62.2765635979
 30
0.0
 10
17.2139380792
 20
61.9973744254
 30
0.0
 10
18.1358092997
 20
61.8220203634
 30
0.0
 10
19.0998823765
 20
61.7574383974
 30
0.0
 10
20.0668446262
 20
61.8062036144
 30
0.0
 10
20.9967722497
 20
61.9664032886
 30
0.0
 10
21.5878826922
 20
62.1496167965
 30
0.0
 10
21.8665530045
 20
62.2602655874
 30
0.0
  0
SPLINE
  5
26F
100
AcDbEntity
  8
0
100
AcDbSpline
 62
7
  6
BYLAYER
 70
0
 71
3
 72
11
 73
7
 74
0
 42
0.0000001
 43
0.0000001
 44
0.0000000001
 40
0.0
 40
0.0
 40
0.0
 40
0.0
 40
0.2897026209
 40
0.5490908265
 40
0.782219764
 40
1.0
 40
1.0
 40
1.0
 40
1.0
 10
63.5930384316
 20
83.9788913748
 30
0.0
 10
63.5930384316
 20
83.8180198567
 30
0.0
 10
63.6174286133
 20
83.5120750762
 30
0.0
 10
63.7413257885
 20
83.0917203129
 30
0.0
 10
63.9499428024
 20
82.750627489
 30
0.0
 10
64.1458982999
 20
82.5859031594
 30
0.0
 10
64.2506254658
 20
82.5254297241
 30
0.0
  0
SPLINE
  5
270
100
AcDbEntity
  8
0
100
AcDbSpline
 62
7
  6
BYLAYER
 70
0
 71
3
 72
17
 73
13
 74
0
 42
0.0000001
 43
0.0000001
 44
0.0000000001
 40
0.0
 40
0.0
 40
0.0
 40
0.0
 40
0.0428590154
 40
0.087484945
 40
0.1353191404
 40
0.1872810096
 40
0.3045411455
 40
0.4382064078
 40
0.5825480614
 40
0.7297123844
 40
0.8713056989
 40
1.0
 40
1.0
 40
1.0
 40
1.0
 10
67.4255607637
 20
88.0247034026
 30
0.0
 10
67.3472904987
 20
88.0698996205
 30
0.0
 10
67.1747297423
 20
88.1415513108
 30
0.0
 10
66.889933945
 20
88.1833510069
 30
0.0
 10
66.5840723761
 20
88.1608126981
 30
0.0
 10
66.1396627796
 20
88.0426094118
 30
0.0
 10
65.5715547999
 20
87.7319571574
 30
0.0
 10
64.9438864165
 20
87.1760822278
 30
0.0
 10
64.389029568
 20
86.4659074861
 30
0.0
 10
63.9523642023
 20
85.6587873575
 30
0.0
 10
63.668955283
 20
84.8209267577
 30
0.0
 10
63.5930384316
 20
84.2502850861
 30
0.0
 10
63.5930384316
 20
83.9788913748
 30
0.0
  0
SPLINE
  5
271
100
AcDbEntity
  8
0
100
AcDbSpline
 62
7
  6
BYLAYER
 70
0
 71
3
 72
9
 73
5
 74
0
 42
0.0000001
 43
0.0000001
 44
0.0000000001
 40
0.0
 40
0.0
 40
0.0
 40
0.0
 40
0.2486917327
 40
1.0
 40
1.0
 40
1.0
 40
1.0
 10
13.4528658005
 20
50.4231629988
 30
0.0
 10
13.4528661099
 20
50.3842852746
 30
0.0
 10
13.4576232904
 20
50.227984369
 30
0.0
 10
13.4817257882
 20
50.0723378203
 30
0.0
 10
13.5098522713
 20
49.9583040632
 30
0.0
  0
SPLINE
  5
272
100
AcDbEntity
  8
0
100
AcDbSpline
 62
7
  6
BYLAYER
 70
0
 71
3
 72
18
 73
14
 74
0
 42
0.0000001
 43
0.0000001
 44
0.0000000001
 40
0.0
 40
0.0
 40
0.0
 40
0.0
 40
0.0435608671
 40
0.0899632372
 40
0.1400684479
 40
0.1943163253
 40
0.2527652799
 40
0.3151813222
 40
0.4497065311
 40
0.592455336
 40
0.7364026943
 40
0.874320472
 40
1.0
 40
1.0
 40
1.0
 40
1.0
 10
13.5098522713
 20
49.9583040632
 30
0.0
 10
13.5478408995
 20
49.8042860165
 30
0.0
 10
13.6644259801
 20
49.4947062327
 30
0.0
 10
13.9412208388
 20
49.0626809627
 30
0.0
 10
14.3168929906
 20
48.6588368259
 30
0.0
 10
14.7837461795
 20
48.2902613332
 30
0.0
 10
15.3327754919
 20
47.9627527855
 30
0.0
 10
16.1818856449
 20
47.5793455115
 30
0.0
 10
17.3812508071
 20
47.245935785
 30
0.0
 10
18.9129623878
 20
47.0858923444
 30
0.0
 10
20.4638576135
 20
47.1676567266
 30
0.0
 10
21.9202687169
 20
47.484698151
 30
0.0
 10
22.8125934845
 20
47.8612270981
 30
0.0
 10
23.2089583373
 20
48.0900670866
 30
0.0
  0
SPLINE
  5
273
100
AcDbEntity
  8
0
100
AcDbSpline
 62
7
  6
BYLAYER
 70
0
 71
3
 72
11
 73
7
 74
0
 42
0.0000001
 43
0.0000001
 44
0.0000000001
 40
0.0
 40
0.0
 40
0.0
 40
0.0
 40
0.2177830968
 40
0.450915839
 40
0.7103069095
 40
1.0
 40
1.0
 40
1.0
 40
1.0
 10
61.4442856564
 20
84.1456384707
 30
0.0
 10
61.3395608909
 20
84.2061190325
 30
0.0
 10
61.1435938724
 20
84.3708326425
 30
0.0
 10
60.9349823829
 20
84.7119383587
 30
0.0
 10
60.8110862125
 20
85.1322895521
 30
0.0
 10
60.7866967099
 20
85.4382307811
 30
0.0
 10
60.7866967099
 20
85.5990968693
 30
0.0
  0
SPLINE
  5
274
100
AcDbEntity
  8
0
100
AcDbSpline
 62
7
  6
BYLAYER
 70
0
 71
3
 72
11
 73
7
 74
0
 42
0.0000001
 43
0.0000001
 44
0.0000000001
 40
0.0
 40
0.0
 40
0.0
 40
0.0
 40
0.2178091557
 40
0.452064696
 40
0.711854588
 40
1.0
 40
1.0
 40
1.0
 40
1.0
 10
56.8743205097
 20
88.0473185984
 30
0.0
 10
56.811594061
 20
88.0898111628
 30
0.0
 10
56.6954501267
 20
88.2002905987
 30
0.0
 10
56.5726989483
 20
88.4186492863
 30
0.0
 10
56.4996820063
 20
88.6829219102
 30
0.0
 10
56.4851296881
 20
88.8740821328
 30
0.0
 10
56.4851296881
 20
88.9743126683
 30
0.0
  0
SPLINE
  5
275
100
AcDbEntity
  8
0
100
AcDbSpline
 62
7
  6
BYLAYER
 70
0
 71
3
 72
17
 73
13
 74
0
 42
0.0000001
 43
0.0000001
 44
0.0000000001
 40
0.0
 40
0.0
 40
0.0
 40
0.0
 40
0.1286933065
 40
0.2702801751
 40
0.4174384432
 40
0.5617797022
 40
0.6954488753
 40
0.8127120148
 40
0.8646745954
 40
0.9125103814
 40
0.9571382807
 40
1.0
 40
1.0
 40
1.0
 40
1.0
 10
60.7866967099
 20
85.5990968693
 30
0.0
 10
60.7866967099
 20
85.870488454
 30
0.0
 10
60.86261005
 20
86.4411145134
 30
0.0
 10
61.1460057267
 20
87.2789489467
 30
0.0
 10
61.5826469113
 20
88.0860503113
 30
0.0
 10
62.1374890957
 20
88.7962303591
 30
0.0
 10
62.7651574527
 20
89.3521229563
 30
0.0
 10
63.3332715292
 20
89.6628044496
 30
0.0
 10
63.7776922817
 20
89.7810031511
 30
0.0
 10
64.0835621946
 20
89.8035643347
 30
0.0
 10
64.3683690464
 20
89.7617528998
 30
0.0
 10
64.5409446904
 20
89.6901094809
 30
0.0
 10
64.6192171297
 20
89.6449056451
 30
0.0
  0
SPLINE
  5
276
100
AcDbEntity
  8
0
100
AcDbSpline
 62
7
  6
BYLAYER
 70
0
 71
3
 72
12
 73
8
 74
0
 42
0.0000001
 43
0.0000001
 44
0.0000000001
 40
0.0
 40
0.0
 40
0.0
 40
0.0
 40
0.108161917
 40
0.2183658641
 40
0.4513556544
 40
0.7104318537
 40
1.0
 40
1.0
 40
1.0
 40
1.0
 10
58.4682543115
 20
97.500611334
 30
0.0
 10
58.4682645814
 20
97.6066384216
 30
0.0
 10
58.486670102
 20
97.8211404603
 30
0.0
 10
58.5981242374
 20
98.2511452379
 30
0.0
 10
58.8841097292
 20
98.7784554499
 30
0.0
 10
59.4168787606
 20
99.3379848992
 30
0.0
 10
59.862786346
 20
99.6451196016
 30
0.0
 10
60.1086104836
 20
99.7870453864
 30
0.0
  0
SPLINE
  5
277
100
AcDbEntity
  8
0
100
AcDbSpline
 62
7
  6
BYLAYER
 70
0
 71
3
 72
20
 73
16
 74
0
 42
0.0000001
 43
0.0000001
 44
0.0000000001
 40
0.0
 40
0.0
 40
0.0
 40
0.0
 40
0.0623992543
 40
0.1288070458
 40
0.2703006472
 40
0.4173607734
 40
0.5616153163
 40
0.6302546434
 40
0.695379927
 40
0.7563638271
 40
0.8128351556
 40
0.8647649839
 40
0.9125682496
 40
0.9571691199
 40
1.0
 40
1.0
 40
1.0
 40
1.0
 10
60.1086104836
 20
99.7870453864
 30
0.0
 10
60.3097660863
 20
99.9031819345
 30
0.0
 10
60.7410685115
 20
100.1157658096
 30
0.0
 10
61.688451167
 20
100.4590714591
 30
0.0
 10
62.9923397963
 20
100.7198740804
 30
0.0
 10
64.6095029499
 20
100.7645417136
 30
0.0
 10
65.9441153088
 20
100.5773163755
 30
0.0
 10
66.9399632018
 20
100.2904722113
 30
0.0
 10
67.6137008297
 20
100.0189817302
 30
0.0
 10
68.2122500842
 20
99.6934641953
 30
0.0
 10
68.7231084566
 20
99.3202027485
 30
0.0
 10
69.1353270334
 20
98.9061804653
 30
0.0
 10
69.4395163171
 20
98.4588194757
 30
0.0
 10
69.6269798967
 20
97.9868881353
 30
0.0
 10
69.6695748447
 20
97.6600444728
 30
0.0
 10
69.669578551
 20
97.500611387
 30
0.0
  0
SPLINE
  5
278
100
AcDbEntity
  8
0
100
AcDbSpline
 62
7
  6
BYLAYER
 70
0
 71
3
 72
17
 73
13
 74
0
 42
0.0000001
 43
0.0000001
 44
0.0000000001
 40
0.0
 40
0.0
 40
0.0
 40
0.0
 40
0.1286926208
 40
0.2702795078
 40
0.4174383051
 40
0.5617803148
 40
0.6954501289
 40
0.8127134773
 40
0.8646759206
 40
0.9125113962
 40
0.9571388332
 40
1.0
 40
1.0
 40
1.0
 40
1.0
 10
90.2013377389
 20
108.129115297
 30
0.0
 10
90.4363695858
 20
108.264810187
 30
0.0
 10
90.9685044404
 20
108.484377959
 30
0.0
 10
91.8357914365
 20
108.6578634743
 30
0.0
 10
92.7530879734
 20
108.6832685223
 30
0.0
 10
93.645549551
 20
108.5578486377
 30
0.0
 10
94.4408066068
 20
108.292216915
 30
0.0
 10
94.9939258288
 20
107.9555565036
 30
0.0
 10
95.3185010915
 20
107.6297766451
 30
0.0
 10
95.4909746996
 20
107.376167298
 30
0.0
 10
95.5971674364
 20
107.108613202
 30
0.0
 10
95.6214088681
 20
106.9233378963
 30
0.0
 10
95.6213965181
 20
106.8329509376
 30
0.0
  0
SPLINE
  5
279
100
AcDbEntity
  8
0
100
AcDbSpline
 62
7
  6
BYLAYER
 70
0
 71
3
 72
11
 73
7
 74
0
 42
0.0000001
 43
0.0000001
 44
0.0000000001
 40
0.0
 40
0.0
 40
0.0
 40
0.0
 40
0.2177827477
 40
0.4509152641
 40
0.7103063952
 40
1.0
 40
1.0
 40
1.0
 40
1.0
 10
22.34281166
 20
50.4231630349
 30
0.0
 10
22.3427951367
 20
50.3022331312
 30
0.0
 10
22.2981319538
 20
50.0501740428
 30
0.0
 10
22.1070360775
 20
49.698973129
 30
0.0
 10
21.8049586493
 20
49.3815137389
 30
0.0
 10
21.5522090368
 20
49.2074284433
 30
0.0
 10
21.4128996355
 20
49.1269986031
 30
0.0
  0
SPLINE
  5
27A
100
AcDbEntity
  8
0
100
AcDbSpline
 62
7
  6
BYLAYER
 70
0
 71
3
 72
10
 73
6
 74
0
 42
0.0000001
 43
0.0000001
 44
0.0000000001
 40
0.0
 40
0.0
 40
0.0
 40
0.0
 40
0.2289506038
 40
0.4752421139
 40
1.0
 40
1.0
 40
1.0
 40
1.0
 10
56.4851296881
 20
88.9743126683
 30
0.0
 10
56.4851296881
 20
89.0809142654
 30
0.0
 10
56.5031027991
 20
89.3024101841
 30
0.0
 10
56.6010467893
 20
89.7584285171
 30
0.0
 10
56.7382715575
 20
90.0943573624
 30
0.0
 10
56.8525937677
 20
90.3102941761
 30
0.0
  0
SPLINE
  5
27B
100
AcDbEntity
  8
0
100
AcDbSpline
 62
7
  6
BYLAYER
 70
0
 71
3
 72
9
 73
5
 74
0
 42
0.0000001
 43
0.0000001
 44
0.0000000001
 40
0.0
 40
0.0
 40
0.0
 40
0.0
 40
0.2664593506
 40
1.0
 40
1.0
 40
1.0
 40
1.0
 10
57.6969849365
 20
91.3476684325
 30
0.0
 10
57.7386454307
 20
91.3803880495
 30
0.0
 10
57.8987911069
 20
91.4980599064
 30
0.0
 10
58.0752583941
 20
91.5951182053
 30
0.0
 10
58.2118028516
 20
91.6463268698
 30
0.0
  0
ENDSEC
  0
SECTION
  2
OBJECTS
  0
DICTIONARY
  5
C
100
AcDbDictionary
280
0
281
1
  3
ACAD_GROUP
350
D
  3
ACAD_MLINESTYLE
350
17
  3
ACAD_LAYOUT
350
1A
  3
ACAD_PLOTSETTINGS
350
19
  3
ACAD_PLOTSTYLENAME
350
E
  0
DICTIONARY
  5
D
102
{ACAD_REACTORS
330
C
102
}
100
AcDbDictionary
280
0
281
1
  0
ACDBDICTIONARYWDFLT
  5
E
102
{ACAD_REACTORS
330
C
102
}
100
AcDbDictionary
281
1
  3
Normal
350
F
100
AcDbDictionaryWithDefault
340
F
  0
DICTIONARY
  5
17
102
{ACAD_REACTORS
330
C
102
}
100
AcDbDictionary
280
0
281
1
  3
Standard
350
18
  0
DICTIONARY
  5
19
102
{ACAD_REACTORS
330
C
102
}
100
AcDbDictionary
281
1
  0
DICTIONARY
  5
1A
102
{ACAD_REACTORS
330
C
102
}
100
AcDbDictionary
281
1
  3
Model
350
27C
  3
Layout1
350
27D
  0
ACDBPLACEHOLDER
  5
F
102
{ACAD_REACTORS
330
E
102
}
  0
MLINESTYLE
  5
18
102
{ACAD_REACTORS
330
17
102
}
100
AcDbMlineStyle
  2
STANDARD
 70
0
  3

 62
256
 51
90.0
 52
90.0
 71
2
 49
0.5
 62
256
  6
BYLAYER
 49
-0.5
 62
256
  6
BYLAYER
  0
LAYOUT
  5
27C
102
{ACAD_REACTORS
330
1A
102
}
100
AcDbPlotSettings
  1

  2
none_device
  4

  6

 40
0.0
 41
0.0
 42
0.0
 43
0.0
 44
210.0
 45
297.0
 46
0.0
 47
0.0
 48
0.0
 49
0.0
140
0.0
141
0.0
142
1.0
143
1.0
 70
1024
 72
1
 73
0
 74
0
  7

 75
0
147
1.0
148
0.0
149
0.0
100
AcDbLayout
  1
Model
 70
0
 71
0
 10
0.0
 20
0.0
 11
210.0
 21
297.0
 12
0.0
 22
0.0
 32
0.0
 14
0.0
 24
0.0
 34
0.0
 15
0.0
 25
0.0
 35
0.0
146
0.0
 13
0.0
 23
0.0
 33
0.0
 16
1.0
 26
0.0
 36
0.0
 17
0.0
 27
1.0
 37
0.0
 76
0
330
210
345
0
346
0
  0
LAYOUT
  5
27D
102
{ACAD_REACTORS
330
1A
102
}
100
AcDbPlotSettings
  1

  2
none_device
  4

  6

 40
0.0
 41
0.0
 42
0.0
 43
0.0
 44
210.0
 45
297.0
 46
0.0
 47
0.0
 48
0.0
 49
0.0
140
0.0
141
0.0
142
1.0
143
1.0
 70
0
 72
1
 73
0
 74
0
  7

 75
0
147
1.0
148
0.0
149
0.0
100
AcDbLayout
  1
Layout1
 70
0
 71
1
 10
0.0
 20
0.0
 11
210.0
 21
297.0
 12
0.0
 22
0.0
 32
0.0
 14
0.0
 24
0.0
 34
0.0
 15
0.0
 25
0.0
 35
0.0
146
0.0
 13
0.0
 23
0.0
 33
0.0
 16
1.0
 26
0.0
 36
0.0
 17
0.0
 27
1.0
 37
0.0
 76
0
330
211
345
0
346
0
  0
ENDSEC
  0
EOF
