999
DXF file: C:\Users\sesa63760\Dev\_Creo\CAD\MCADID0002695_3D-CAD\drw0001_1.dxf
999
Pro/ENGINEER 2019471 by Parametric Technology Corporation
  0
SECTION
  2
HEADER
  9
$ACADVER
  1
AC1024
  9
$DWGCODEPAGE
  3
ANSI_1252
  9
$EXTMAX
 10
75.9444352922
 20
107.4071299132
 30
0.0
  9
$EXTMIN
 10
0.0
 20
0.0
 30
0.0
  9
$LIMMIN
 10
0.0
 20
0.0
  9
$LIMMAX
 10
75.9444352922
 20
107.4071299132
  9
$VIEWCTR
 10
37.9722176461
 20
53.7035649566
  9
$VIEWSIZE
 40
107.4071299132
  9
$CLAYER
  8
0
  9
$LTSCALE
 40
7.0013536536
  9
$CELTYPE
  6
BYLAYER
  9
$DIMSCALE
 40
1.0
  9
$DIMASZ
 40
0.9041004201
  9
$DIMEXO
 40
1.0
  9
$DIMDLI
 40
4.8372988879
  9
$DIMEXE
 40
1.0
  9
$DIMCEN
 40
1.1456760524
  9
$DIMLFAC
 40
1.0
  9
$DIMBLK
  1
_FILLED
  9
$DIMALT
 70
0
  9
$DIMALTF
 40
0.0393700787
  9
$DIMTXT
 40
1.2657405882
  9
$DIMTOL
 70
1
  9
$DIMLIM
 70
0
  9
$DIMTFAC
 40
1.0
  9
$DIMTP
 40
0.01
  9
$DIMTM
 40
0.01
  9
$DIMGAP
 40
0.625
  9
$DIMDSEP
 70
46
  9
$AUNITS
 70
0
  9
$PDMODE
 70
3
  9
$PDSIZE
 40
0.3125
  9
$HANDSEED
  5
2D2
  9
$TILEMODE
 70
1
  9
$MEASUREMENT
 70
1
  9
$INSUNITS
 70
4
  0
ENDSEC
  0
SECTION
  2
CLASSES
  0
CLASS
  1
ACDBDICTIONARYWDFLT
  2
AcDbDictionaryWithDefault
  3
AutoCAD 2000
 90
0
 91
1
280
0
281
0
  0
CLASS
  1
ACDBPLACEHOLDER
  2
AcDbPlaceHolder
  3
AutoCAD 2000
 90
0
 91
1
280
0
281
0
  0
CLASS
  1
LAYOUT
  2
AcDbLayout
  3
AutoCAD 2000
 90
0
 91
0
280
0
281
0
  0
ENDSEC
  0
SECTION
  2
TABLES
  0
TABLE
  2
VPORT
  5
8
100
AcDbSymbolTable
 70
2
  0
VPORT
  5
1F4
100
AcDbSymbolTableRecord
100
AcDbViewportTableRecord
  2
*ACTIVE
 70
0
 10
0.0
 20
0.0
 11
1.0
 21
1.0
 12
37.9722176461
 22
53.7035649566
 13
0.0
 23
0.0
 14
1.0
 24
1.0
 15
0.0
 25
0.0
 16
0.0
 26
0.0
 36
1.0
 17
0.0
 27
0.0
 37
0.0
 40
107.4071299132
 41
0.7070707071
 42
50.0
 43
0.0
 44
0.0
 50
0.0
 51
0.0
 71
0
 72
100
 73
1
 74
1
 75
0
 76
0
 77
0
 78
0
  0
ENDTAB
  0
TABLE
  2
LTYPE
  5
5
100
AcDbSymbolTable
 70
6
  0
LTYPE
  5
14
100
AcDbSymbolTableRecord
100
AcDbLinetypeTableRecord
  2
BYBLOCK
 70
0
  3

 72
65
 73
0
 40
0.0
  0
LTYPE
  5
15
100
AcDbSymbolTableRecord
100
AcDbLinetypeTableRecord
  2
BYLAYER
 70
0
  3

 72
65
 73
0
 40
0.0
  0
LTYPE
  5
16
100
AcDbSymbolTableRecord
100
AcDbLinetypeTableRecord
  2
CONTINUOUS
 70
64
  3
Solid line
 72
65
 73
0
 40
0.0
  0
LTYPE
  5
1F5
100
AcDbSymbolTableRecord
100
AcDbLinetypeTableRecord
  2
CENTER
 70
64
  3
____ _ ____ _ ____ _ ____ _ ____ _ ____ _ ____
 72
65
 73
4
 40
0.6
 49
0.375
 74
0
 49
-0.075
 74
0
 49
0.075
 74
0
 49
-0.075
 74
0
  0
LTYPE
  5
1F6
100
AcDbSymbolTableRecord
100
AcDbLinetypeTableRecord
  2
HIDDEN
 70
64
  3
- - - - - - - - - - - - - - - - - - - -
 72
65
 73
2
 40
0.2
 49
0.1
 74
0
 49
-0.1
 74
0
  0
LTYPE
  5
1F7
100
AcDbSymbolTableRecord
100
AcDbLinetypeTableRecord
  2
PHANTOM
 70
64
  3
_____ _ _ _____ _ _ _____ _ _ _____
 72
65
 73
6
 40
0.8
 49
0.45
 74
0
 49
-0.05
 74
0
 49
0.1
 74
0
 49
-0.05
 74
0
 49
0.1
 74
0
 49
-0.05
 74
0
  0
LTYPE
  5
1F8
100
AcDbSymbolTableRecord
100
AcDbLinetypeTableRecord
  2
DOT
 70
64
  3
. . . . . . . . . . . . . . . . . . . .
 72
65
 73
2
 40
0.2
 49
0.1
 74
0
 49
-0.1
 74
0
  0
LTYPE
  5
1F9
100
AcDbSymbolTableRecord
100
AcDbLinetypeTableRecord
  2
DASHED
 70
64
  3
- - - - - - - - - - - - - - - - - - - -
 72
65
 73
2
 40
0.2
 49
0.1
 74
0
 49
-0.1
 74
0
  0
ENDTAB
  0
TABLE
  2
LAYER
  5
2
100
AcDbSymbolTable
 70
36
  0
LAYER
  5
10
100
AcDbSymbolTableRecord
100
AcDbLayerTableRecord
  2
0
 70
0
 62
7
  6
CONTINUOUS
370
-3
390
F
  0
LAYER
  5
1FA
100
AcDbSymbolTableRecord
100
AcDbLayerTableRecord
  2
DEFAULT_1
 70
0
 62
7
  6
CENTER
370
-3
390
F
  0
LAYER
  5
1FB
100
AcDbSymbolTableRecord
100
AcDbLayerTableRecord
  2
DEFAULT_2
 70
0
 62
7
  6
HIDDEN
370
-3
390
F
  0
LAYER
  5
1FC
100
AcDbSymbolTableRecord
100
AcDbLayerTableRecord
  2
DEFAULT_3
 70
0
 62
7
  6
PHANTOM
370
-3
390
F
  0
LAYER
  5
1FD
100
AcDbSymbolTableRecord
100
AcDbLayerTableRecord
  2
00_COMPONENTS
 70
0
 62
7
  6
CONTINUOUS
370
-3
390
F
  0
LAYER
  5
1FE
100
AcDbSymbolTableRecord
100
AcDbLayerTableRecord
  2
01_1_DEFAULT_DATUMS
 70
0
 62
7
  6
CONTINUOUS
370
-3
390
F
  0
LAYER
  5
1FF
100
AcDbSymbolTableRecord
100
AcDbLayerTableRecord
  2
01_PLANES
 70
0
 62
7
  6
CONTINUOUS
370
-3
390
F
  0
LAYER
  5
200
100
AcDbSymbolTableRecord
100
AcDbLayerTableRecord
  2
02_COORD_SYS
 70
0
 62
7
  6
CONTINUOUS
370
-3
390
F
  0
LAYER
  5
201
100
AcDbSymbolTableRecord
100
AcDbLayerTableRecord
  2
03_AXES
 70
0
 62
7
  6
CONTINUOUS
370
-3
390
F
  0
LAYER
  5
202
100
AcDbSymbolTableRecord
100
AcDbLayerTableRecord
  2
04_POINTS
 70
0
 62
7
  6
CONTINUOUS
370
-3
390
F
  0
LAYER
  5
203
100
AcDbSymbolTableRecord
100
AcDbLayerTableRecord
  2
05_CURVES
 70
0
 62
7
  6
CONTINUOUS
370
-3
390
F
  0
LAYER
  5
204
100
AcDbSymbolTableRecord
100
AcDbLayerTableRecord
  2
06_SURFS
 70
0
 62
7
  6
CONTINUOUS
370
-3
390
F
  0
LAYER
  5
205
100
AcDbSymbolTableRecord
100
AcDbLayerTableRecord
  2
07_COSMETICS
 70
0
 62
7
  6
CONTINUOUS
370
-3
390
F
  0
LAYER
  5
206
100
AcDbSymbolTableRecord
100
AcDbLayerTableRecord
  2
10_NOTES
 70
0
 62
7
  6
CONTINUOUS
370
-3
390
F
  0
LAYER
  5
207
100
AcDbSymbolTableRecord
100
AcDbLayerTableRecord
  2
11_NOTES_PUB
 70
0
 62
7
  6
CONTINUOUS
370
-3
390
F
  0
LAYER
  5
208
100
AcDbSymbolTableRecord
100
AcDbLayerTableRecord
  2
13_REF_GTOL
 70
0
 62
7
  6
CONTINUOUS
370
-3
390
F
  0
LAYER
  5
209
100
AcDbSymbolTableRecord
100
AcDbLayerTableRecord
  2
16_MISC
 70
0
 62
7
  6
CONTINUOUS
370
-3
390
F
  0
LAYER
  5
20A
100
AcDbSymbolTableRecord
100
AcDbLayerTableRecord
  2
17_NO_PRINT
 70
0
 62
7
  6
CONTINUOUS
370
-3
390
F
  0
LAYER
  5
20B
100
AcDbSymbolTableRecord
100
AcDbLayerTableRecord
  2
18_DATUM_CAMS_JOINTS
 70
0
 62
7
  6
CONTINUOUS
370
-3
390
F
  0
LAYER
  5
20C
100
AcDbSymbolTableRecord
100
AcDbLayerTableRecord
  2
19_DATUM_FUNCTIONAL
 70
0
 62
7
  6
CONTINUOUS
370
-3
390
F
  0
LAYER
  5
20D
100
AcDbSymbolTableRecord
100
AcDbLayerTableRecord
  2
20_DATUM_KINEMATIC_SCHEME
 70
0
 62
7
  6
CONTINUOUS
370
-3
390
F
  0
LAYER
  5
20E
100
AcDbSymbolTableRecord
100
AcDbLayerTableRecord
  2
INTFCLR_6221
 70
0
 62
7
  6
CONTINUOUS
370
-3
390
F
  0
ENDTAB
  0
TABLE
  2
STYLE
  5
3
100
AcDbSymbolTable
 70
1
  0
STYLE
  5
11
100
AcDbSymbolTableRecord
100
AcDbTextStyleTableRecord
  2
STANDARD
 70
0
 40
0.0
 41
1.0
 50
0.0
 71
0
 42
0.2
  3
ARIAL.TTF
  4

  0
STYLE
  5
20F
100
AcDbSymbolTableRecord
100
AcDbTextStyleTableRecord
  2
TEXTSTYLE_1
 70
0
 40
0.0
 41
0.8
 50
0.0
 71
0
 42
0.2
  3
gdt
  4

  0
ENDTAB
  0
TABLE
  2
VIEW
  5
6
100
AcDbSymbolTable
 70
0
  0
ENDTAB
  0
TABLE
  2
UCS
  5
7
100
AcDbSymbolTable
 70
0
  0
ENDTAB
  0
TABLE
  2
APPID
  5
9
100
AcDbSymbolTable
 70
1
  0
APPID
  5
210
100
AcDbSymbolTableRecord
100
AcDbRegAppTableRecord
  2
ACAD
 70
0
  0
ENDTAB
  0
TABLE
  2
BLOCK_RECORD
  5
1
100
AcDbSymbolTable
 70
0
  0
BLOCK_RECORD
  5
211
100
AcDbSymbolTableRecord
100
AcDbBlockTableRecord
  2
*Model_Space
  0
BLOCK_RECORD
  5
212
100
AcDbSymbolTableRecord
100
AcDbBlockTableRecord
  2
*Paper_Space
  0
BLOCK_RECORD
  5
213
100
AcDbSymbolTableRecord
100
AcDbBlockTableRecord
  2
_FILLED
  0
ENDTAB
  0
TABLE
  2
DIMSTYLE
  5
A
100
AcDbSymbolTable
 70
1
100
AcDbDimStyleTable
 71
0
  0
DIMSTYLE
105
214
100
AcDbSymbolTableRecord
100
AcDbDimStyleTableRecord
  2
STANDARD
 70
0
  3

  4

 40
1.0
 41
0.9041004201
 42
1.0
 43
0.38
 44
1.0
 45
0.0
 46
0.0
 47
0.01
 48
0.01
140
1.2657405882
141
0.09
142
0.0
143
25.4
144
1.0
145
0.0
146
1.0
147
0.625
 71
1
 72
0
 73
0
 74
0
 75
0
 76
0
 77
1
 78
8
 79
2
170
0
171
1
172
0
173
0
174
0
175
0
176
0
177
0
178
0
270
2
179
2
271
2
272
2
273
2
274
2
275
0
280
0
281
0
282
0
283
1
284
8
285
0
286
0
287
3
288
0
340
11
278
46
341
213
342
213
343
213
344
213
  0
ENDTAB
  0
ENDSEC
  0
SECTION
  2
BLOCKS
  0
BLOCK
  5
20
100
AcDbEntity
  8
0
100
AcDbBlockBegin
  2
*Model_Space
 70
0
 10
0.0
 20
0.0
 30
0.0
  3
*Model_Space
  1

  0
ENDBLK
  5
21
100
AcDbEntity
  8
0
100
AcDbBlockEnd
  0
BLOCK
  5
1C
100
AcDbEntity
  8
0
100
AcDbBlockBegin
  2
*Paper_Space
 70
0
 10
0.0
 20
0.0
 30
0.0
  3
*Paper_Space
  1

  0
ENDBLK
  5
1D
100
AcDbEntity
  8
0
100
AcDbBlockEnd
  0
BLOCK
  5
215
100
AcDbEntity
  8
0
100
AcDbBlockBegin
  2
_FILLED
 70
64
 10
0.0
 20
0.0
  3
_FILLED
  1

  0
SOLID
  5
216
100
AcDbEntity
  8
0
  6
BYBLOCK
 62
0
100
AcDbTrace
 10
0.0
 20
0.0
 11
-1.0
 21
0.25
 12
-1.0
 22
-0.25
 13
-1.0
 23
-0.25
  0
ENDBLK
  5
217
100
AcDbEntity
  8
0
  6
BYBLOCK
 62
0
100
AcDbBlockEnd
  0
ENDSEC
  0
SECTION
  2
ENTITIES
  0
LINE
  5
218
100
AcDbEntity
  8
0
100
AcDbLine
 62
7
  6
BYLAYER
 10
10.1214416206
 20
70.4682140636
 11
10.1214416206
 21
57.4025424213
  0
LINE
  5
219
100
AcDbEntity
  8
0
100
AcDbLine
 62
7
  6
BYLAYER
 10
10.6475060099
 20
71.6309903705
 11
11.1863191339
 21
71.9420724157
  0
LINE
  5
21A
100
AcDbEntity
  8
0
100
AcDbLine
 62
7
  6
BYLAYER
 10
12.2106053549
 20
71.9260100859
 11
12.7065819502
 21
72.2123605974
  0
LINE
  5
21B
100
AcDbEntity
  8
0
100
AcDbLine
 62
7
  6
BYLAYER
 10
12.7755506076
 20
72.2435892441
 11
17.029786885
 21
74.6997590427
  0
LINE
  5
21C
100
AcDbEntity
  8
0
100
AcDbLine
 62
7
  6
BYLAYER
 10
11.9175003225
 20
71.5051987049
 11
12.4563134465
 21
71.8162807502
  0
LINE
  5
21D
100
AcDbEntity
  8
0
100
AcDbLine
 62
7
  6
BYLAYER
 10
13.7135515467
 20
71.5052030221
 11
18.9220784116
 21
74.5123294595
  0
LINE
  5
21E
100
AcDbEntity
  8
0
100
AcDbLine
 62
7
  6
BYLAYER
 10
14.0577136986
 20
47.7679395894
 11
14.2450771835
 21
47.2850395898
  0
LINE
  5
21F
100
AcDbEntity
  8
0
100
AcDbLine
 62
7
  6
BYLAYER
 10
23.5535520871
 20
71.8384073784
 11
33.0019241431
 21
77.2933949664
  0
LINE
  5
220
100
AcDbEntity
  8
0
100
AcDbLine
 62
7
  6
BYLAYER
 10
20.8949782843
 20
37.3395444066
 11
23.7791665893
 21
35.6743951831
  0
LINE
  5
221
100
AcDbEntity
  8
0
100
AcDbLine
 62
7
  6
BYLAYER
 10
24.6694662576
 20
71.1941486068
 11
34.9069156128
 21
77.1047074665
  0
LINE
  5
222
100
AcDbEntity
  8
0
100
AcDbLine
 62
7
  6
BYLAYER
 10
12.5678541422
 20
63.5348533246
 11
11.4929219599
 21
62.9142446443
  0
LINE
  5
223
100
AcDbEntity
  8
0
100
AcDbLine
 62
7
  6
BYLAYER
 10
38.4092300815
 20
75.0826910094
 11
42.0013175745
 21
77.156571311
  0
LINE
  5
224
100
AcDbEntity
  8
0
100
AcDbLine
 62
7
  6
BYLAYER
 10
14.320446296
 20
60.4992565493
 11
13.2455141137
 21
59.878647869
  0
LINE
  5
225
100
AcDbEntity
  8
0
100
AcDbLine
 62
7
  6
BYLAYER
 10
27.6490671795
 20
39.6617466799
 11
29.1672978288
 21
38.7852156356
  0
LINE
  5
226
100
AcDbEntity
  8
0
100
AcDbLine
 62
7
  6
BYLAYER
 10
17.2981979955
 20
52.3780753686
 11
14.0577136986
 21
47.7679395894
  0
LINE
  5
227
100
AcDbEntity
  8
0
100
AcDbLine
 62
7
  6
BYLAYER
 10
43.7973762764
 20
76.1196397946
 11
40.2052887833
 21
74.0457594929
  0
LINE
  5
228
100
AcDbEntity
  8
0
100
AcDbLine
 62
7
  6
BYLAYER
 10
27.0196508861
 20
40.2845309622
 11
23.7791665893
 21
48.636371055
  0
LINE
  5
229
100
AcDbEntity
  8
0
100
AcDbLine
 62
7
  6
BYLAYER
 10
22.686329235
 20
55.4888958211
 11
20.6124723913
 21
52.5384844751
  0
LINE
  5
22A
100
AcDbEntity
  8
0
100
AcDbLine
 62
7
  6
BYLAYER
 10
11.9175003384
 20
54.2916947378
 11
16.7017709787
 21
51.5295572837
  0
LINE
  5
22B
100
AcDbEntity
  8
0
100
AcDbLine
 62
7
  6
BYLAYER
 10
32.700169465
 20
42.2930865679
 11
53.2268504497
 21
30.4422698771
  0
LINE
  5
22C
100
AcDbEntity
  8
0
100
AcDbLine
 62
7
  6
BYLAYER
 10
25.5752103358
 20
49.6733112058
 11
28.8156946327
 21
41.3214711131
  0
LINE
  5
22D
100
AcDbEntity
  8
0
100
AcDbLine
 62
7
  6
BYLAYER
 10
46.6711001101
 20
70.3128060336
 11
51.1612094764
 21
72.9051564106
  0
LINE
  5
22E
100
AcDbEntity
  8
0
100
AcDbLine
 62
7
  6
BYLAYER
 10
23.7791665893
 20
48.636371055
 11
17.2981979955
 21
52.3780753686
  0
LINE
  5
22F
100
AcDbEntity
  8
0
100
AcDbLine
 62
7
  6
BYLAYER
 10
19.094241742
 20
53.4150155194
 11
25.5752103358
 21
49.6733112058
  0
LINE
  5
230
100
AcDbEntity
  8
0
100
AcDbLine
 62
7
  6
BYLAYER
 10
17.2981979955
 20
52.3780753686
 11
19.094241742
 21
53.4150155194
  0
LINE
  5
231
100
AcDbEntity
  8
0
100
AcDbLine
 62
7
  6
BYLAYER
 10
22.686329235
 20
55.4888958211
 11
24.4823729816
 21
56.5258359719
  0
LINE
  5
232
100
AcDbEntity
  8
0
100
AcDbLine
 62
7
  6
BYLAYER
 10
29.0796910296
 20
57.022930759
 11
27.4632516577
 21
56.0896846232
  0
LINE
  5
233
100
AcDbEntity
  8
0
100
AcDbLine
 62
7
  6
BYLAYER
 10
33.8068384299
 20
43.8675099329
 11
34.4482188504
 21
43.9912943405
  0
LINE
  5
234
100
AcDbEntity
  8
0
100
AcDbLine
 62
7
  6
BYLAYER
 10
32.4077821257
 20
43.3953514147
 11
29.1672978288
 21
51.7471915075
  0
LINE
  5
235
100
AcDbEntity
  8
0
100
AcDbLine
 62
7
  6
BYLAYER
 10
30.9633415753
 20
52.7841316583
 11
34.2038258722
 21
44.4322915656
  0
LINE
  5
236
100
AcDbEntity
  8
0
100
AcDbLine
 62
7
  6
BYLAYER
 10
27.9712493834
 20
55.2098014999
 11
27.3665612865
 21
54.8606867483
  0
LINE
  5
237
100
AcDbEntity
  8
0
100
AcDbLine
 62
7
  6
BYLAYER
 10
22.9423268932
 20
52.3063690776
 11
21.978430047
 21
51.7498662958
  0
LINE
  5
238
100
AcDbEntity
  8
0
100
AcDbLine
 62
7
  6
BYLAYER
 10
17.5541956536
 20
49.1955486251
 11
13.7851978515
 21
47.0195297186
  0
LINE
  5
239
100
AcDbEntity
  8
0
100
AcDbLine
 62
7
  6
BYLAYER
 10
13.7318038342
 20
46.6910099507
 11
9.9932840307
 21
44.5325874199
  0
LINE
  5
23A
100
AcDbEntity
  8
0
100
AcDbLine
 62
7
  6
BYLAYER
 10
55.6513562311
 20
70.3128276194
 11
51.1612468648
 21
67.7204772423
  0
LINE
  5
23B
100
AcDbEntity
  8
0
100
AcDbLine
 62
7
  6
BYLAYER
 10
29.1672978288
 20
51.7471915075
 11
22.686329235
 21
55.4888958211
  0
LINE
  5
23C
100
AcDbEntity
  8
0
100
AcDbLine
 62
7
  6
BYLAYER
 10
23.7791665893
 20
48.636371055
 11
25.5752103358
 21
49.6733112058
  0
LINE
  5
23D
100
AcDbEntity
  8
0
100
AcDbLine
 62
7
  6
BYLAYER
 10
29.1672978288
 20
51.7471915075
 11
30.9633415753
 21
52.7841316583
  0
LINE
  5
23E
100
AcDbEntity
  8
0
100
AcDbLine
 62
7
  6
BYLAYER
 10
24.4823729816
 20
56.5258359719
 11
30.9633415753
 21
52.7841316583
  0
LINE
  5
23F
100
AcDbEntity
  8
0
100
AcDbLine
 62
7
  6
BYLAYER
 10
23.7791665893
 20
35.6743951831
 11
27.0196508861
 21
40.2845309622
  0
LINE
  5
240
100
AcDbEntity
  8
0
100
AcDbLine
 62
7
  6
BYLAYER
 10
28.8156946327
 20
41.3214711131
 11
25.5752103358
 21
36.7113353339
  0
LINE
  5
241
100
AcDbEntity
  8
0
100
AcDbLine
 62
7
  6
BYLAYER
 10
29.1672978288
 20
38.7852156356
 11
32.4077821257
 21
43.3953514147
  0
LINE
  5
242
100
AcDbEntity
  8
0
100
AcDbLine
 62
7
  6
BYLAYER
 10
34.2038258722
 20
44.4322915656
 11
30.9633415753
 21
39.8221557864
  0
LINE
  5
243
100
AcDbEntity
  8
0
100
AcDbLine
 62
7
  6
BYLAYER
 10
57.6270581915
 20
63.987523783
 11
61.2191456846
 21
66.0614040847
  0
LINE
  5
244
100
AcDbEntity
  8
0
100
AcDbLine
 62
7
  6
BYLAYER
 10
63.0152043864
 20
65.0244725682
 11
59.4231168934
 21
62.9505922665
  0
LINE
  5
245
100
AcDbEntity
  8
0
100
AcDbLine
 62
7
  6
BYLAYER
 10
53.2268504497
 20
47.655773835
 11
11.9175003384
 21
71.5051986957
  0
LINE
  5
246
100
AcDbEntity
  8
0
100
AcDbLine
 62
7
  6
BYLAYER
 10
12.4563134623
 20
71.816280741
 11
53.7656635737
 21
47.9668558802
  0
LINE
  5
247
100
AcDbEntity
  8
0
100
AcDbLine
 62
7
  6
BYLAYER
 10
43.7973762764
 20
76.1196397946
 11
43.7973762764
 21
71.9719137285
  0
LINE
  5
248
100
AcDbEntity
  8
0
100
AcDbLine
 62
7
  6
BYLAYER
 10
19.4429682658
 20
36.7989239372
 11
15.7044484624
 21
34.6405014064
  0
LINE
  5
249
100
AcDbEntity
  8
0
100
AcDbLine
 62
7
  6
BYLAYER
 10
53.2268429721
 20
48.6927096686
 11
13.7135515626
 21
71.5052030129
  0
LINE
  5
24A
100
AcDbEntity
  8
0
100
AcDbLine
 62
7
  6
BYLAYER
 10
28.9113001707
 20
41.967742379
 11
28.6283311477
 21
41.8043711126
  0
LINE
  5
24B
100
AcDbEntity
  8
0
100
AcDbLine
 62
7
  6
BYLAYER
 10
23.5231689311
 20
38.8569219265
 11
19.754171129
 21
36.68090302
  0
LINE
  5
24C
100
AcDbEntity
  8
0
100
AcDbLine
 62
7
  6
BYLAYER
 10
27.0196508861
 20
40.2845309622
 11
28.8156946327
 21
41.3214711131
  0
LINE
  5
24D
100
AcDbEntity
  8
0
100
AcDbLine
 62
7
  6
BYLAYER
 10
32.4077821257
 20
43.3953514147
 11
34.2038258722
 21
44.4322915656
  0
LINE
  5
24E
100
AcDbEntity
  8
0
100
AcDbLine
 62
7
  6
BYLAYER
 10
62.925431362
 20
60.9285758094
 11
52.6879820069
 21
55.0180169496
  0
LINE
  5
24F
100
AcDbEntity
  8
0
100
AcDbLine
 62
7
  6
BYLAYER
 10
36.0646597586
 20
44.9245378138
 11
34.4482203867
 21
43.9912916781
  0
LINE
  5
250
100
AcDbEntity
  8
0
100
AcDbLine
 62
7
  6
BYLAYER
 10
23.7791665893
 20
35.6743951831
 11
25.5752103358
 21
36.7113353339
  0
LINE
  5
251
100
AcDbEntity
  8
0
100
AcDbLine
 62
7
  6
BYLAYER
 10
29.1672978288
 20
38.7852156356
 11
30.9633415753
 21
39.8221557864
  0
LINE
  5
252
100
AcDbEntity
  8
0
100
AcDbLine
 62
7
  6
BYLAYER
 10
18.9220784275
 20
74.5123294503
 11
24.6694662735
 21
71.1941485976
  0
LINE
  5
253
100
AcDbEntity
  8
0
100
AcDbLine
 62
7
  6
BYLAYER
 10
52.687981991
 20
55.0180169588
 11
58.435369837
 21
51.6998361061
  0
LINE
  5
254
100
AcDbEntity
  8
0
100
AcDbLine
 62
7
  6
BYLAYER
 10
58.0762046678
 20
51.9071955221
 11
65.6195194148
 21
56.2623043254
  0
LINE
  5
255
100
AcDbEntity
  8
0
100
AcDbLine
 62
7
  6
BYLAYER
 10
58.4353698528
 20
51.6998360969
 11
53.2268429879
 21
48.6927096595
  0
LINE
  5
256
100
AcDbEntity
  8
0
100
AcDbLine
 62
7
  6
BYLAYER
 10
53.7656635896
 20
47.9668558711
 11
53.2268504656
 21
47.6557738258
  0
LINE
  5
257
100
AcDbEntity
  8
0
100
AcDbLine
 62
7
  6
BYLAYER
 10
65.6195194148
 20
51.8033846255
 11
68.3135850346
 21
53.3587948517
  0
LINE
  5
258
100
AcDbEntity
  8
0
100
AcDbLine
 62
7
  6
BYLAYER
 10
55.0229091675
 20
31.4792545092
 11
55.0229091675
 21
44.5449261515
  0
LINE
  5
259
100
AcDbEntity
  8
0
100
AcDbLine
 62
7
  6
BYLAYER
 10
55.5617222914
 20
44.8560081968
 11
55.5617222914
 21
31.7903365545
  0
LINE
  5
25A
100
AcDbEntity
  8
0
100
AcDbLine
 62
7
  6
BYLAYER
 10
55.6513562311
 20
65.2661261439
 11
55.6513562311
 21
70.3128276194
  0
LINE
  5
25B
100
AcDbEntity
  8
0
100
AcDbLine
 62
7
  6
BYLAYER
 10
55.9209310407
 20
33.0346826544
 11
55.9209310407
 21
44.0264381572
  0
LINE
  5
25C
100
AcDbEntity
  8
0
100
AcDbLine
 62
7
  6
BYLAYER
 10
55.0229091675
 20
44.5449261698
 11
55.5617222914
 21
44.8560082151
  0
LINE
  5
25D
100
AcDbEntity
  8
0
100
AcDbLine
 62
7
  6
BYLAYER
 10
50.8239044921
 20
41.4482120235
 11
49.7489723098
 21
40.8276033433
  0
LINE
  5
25E
100
AcDbEntity
  8
0
100
AcDbLine
 62
7
  6
BYLAYER
 10
68.3135850346
 20
51.2848787122
 11
65.6195194148
 21
49.729468486
  0
LINE
  5
25F
100
AcDbEntity
  8
0
100
AcDbLine
 62
7
  6
BYLAYER
 10
56.8152991371
 20
44.5842767188
 11
61.1114973186
 21
47.0646730895
  0
LINE
  5
260
100
AcDbEntity
  8
0
100
AcDbLine
 62
7
  6
BYLAYER
 10
55.9209310407
 20
44.0264381755
 11
56.818952914
 21
44.5449082509
  0
LINE
  5
261
100
AcDbEntity
  8
0
100
AcDbLine
 62
7
  6
BYLAYER
 10
68.3135700793
 20
55.432666519
 11
66.069054795
 21
56.7285087067
  0
LINE
  5
262
100
AcDbEntity
  8
0
100
AcDbLine
 62
7
  6
BYLAYER
 10
56.818952914
 20
44.5449082326
 11
56.818952914
 21
33.5531527298
  0
LINE
  5
263
100
AcDbEntity
  8
0
100
AcDbLine
 62
7
  6
BYLAYER
 10
52.5764966459
 20
38.4126152482
 11
51.5015644636
 21
37.7920065679
  0
LINE
  5
264
100
AcDbEntity
  8
0
100
AcDbLine
 62
7
  6
BYLAYER
 10
34.9069156287
 20
77.1047074573
 11
38.4092300815
 21
75.0826910094
  0
LINE
  5
265
100
AcDbEntity
  8
0
100
AcDbLine
 62
7
  6
BYLAYER
 10
40.2052887833
 20
74.0457594929
 11
46.6711001101
 21
70.3128060336
  0
LINE
  5
266
100
AcDbEntity
  8
0
100
AcDbLine
 62
7
  6
BYLAYER
 10
51.1612468648
 20
67.7204772423
 11
57.6270581915
 21
63.987523783
  0
LINE
  5
267
100
AcDbEntity
  8
0
100
AcDbLine
 62
7
  6
BYLAYER
 10
59.4231168934
 20
62.9505922665
 11
62.9254313462
 21
60.9285758186
  0
LINE
  5
268
100
AcDbEntity
  8
0
100
AcDbLine
 62
7
  6
BYLAYER
 10
61.1114973186
 20
47.0646730712
 11
61.1114973186
 21
36.0729175684
  0
LINE
  5
269
100
AcDbEntity
  8
0
100
AcDbLine
 62
7
  6
BYLAYER
 10
65.6195194148
 20
45.270548786
 11
62.4188435786
 21
43.4226487609
  0
LINE
  5
26A
100
AcDbEntity
  8
0
100
AcDbLine
 62
7
  6
BYLAYER
 10
61.1827085998
 20
42.3255277803
 11
62.0139133317
 21
42.8054211914
  0
LINE
  5
26B
100
AcDbEntity
  8
0
100
AcDbLine
 62
7
  6
BYLAYER
 10
61.1114973186
 20
41.3792745219
 11
64.8304228318
 21
43.5263843515
  0
LINE
  5
26C
100
AcDbEntity
  8
0
100
AcDbLine
 62
7
  6
BYLAYER
 10
42.0013175745
 20
77.156571311
 11
43.7973762764
 21
76.1196397946
  0
LINE
  5
26D
100
AcDbEntity
  8
0
100
AcDbLine
 62
7
  6
BYLAYER
 10
61.2191456846
 20
66.0614040847
 11
63.0152043864
 21
65.0244725682
  0
LINE
  5
26E
100
AcDbEntity
  8
0
100
AcDbLine
 62
7
  6
BYLAYER
 10
51.1612094764
 20
72.9051564106
 11
55.6513562311
 21
70.3128276194
  0
LINE
  5
26F
100
AcDbEntity
  8
0
100
AcDbLine
 62
7
  6
BYLAYER
 10
63.0152043864
 20
65.0244725682
 11
63.0152043864
 21
60.8650084021
  0
LINE
  5
270
100
AcDbEntity
  8
0
100
AcDbLine
 62
7
  6
BYLAYER
 10
65.6195194148
 20
56.2623043071
 11
65.6195194148
 21
51.8033846255
  0
LINE
  5
271
100
AcDbEntity
  8
0
100
AcDbLine
 62
7
  6
BYLAYER
 10
65.6195194148
 20
49.729468486
 11
65.6195194148
 21
45.2705488043
  0
LINE
  5
272
100
AcDbEntity
  8
0
100
AcDbLine
 62
7
  6
BYLAYER
 10
61.1114973186
 20
36.0729175501
 11
56.818952914
 21
33.5946306759
  0
LINE
  5
273
100
AcDbEntity
  8
0
100
AcDbLine
 62
7
  6
BYLAYER
 10
56.818952914
 20
33.5531527115
 11
55.9209310407
 21
33.0346826361
  0
LINE
  5
274
100
AcDbEntity
  8
0
100
AcDbLine
 62
7
  6
BYLAYER
 10
55.5617222914
 20
31.7903365362
 11
55.0229091675
 21
31.4792544909
  0
LINE
  5
275
100
AcDbEntity
  8
0
100
AcDbLine
 62
7
  6
BYLAYER
 10
56.2486956214
 20
31.9854029574
 11
60.3276613795
 21
34.3403808785
  0
LINE
  5
276
100
AcDbEntity
  8
0
100
AcDbLine
 62
7
  6
BYLAYER
 10
55.5338961406
 20
31.5226472369
 11
56.0298563309
 21
31.808988277
  0
LINE
  5
277
100
AcDbEntity
  8
0
100
AcDbLine
 62
7
  6
BYLAYER
 10
68.3135700793
 20
55.432666519
 11
68.3135850346
 21
51.2848787122
  0
LINE
  5
278
100
AcDbEntity
  8
0
100
AcDbLine
 62
7
  6
BYLAYER
 10
54.4968447782
 20
30.3164782023
 11
55.0356579021
 21
30.6275602476
  0
ARC
  5
279
100
AcDbEntity
  8
0
100
AcDbCircle
 62
7
  6
BYLAYER
 10
53.2271205278
 20
44.5448647289
 40
3.5918323865
100
AcDbArc
 50
0.0006939578
 51
0.4930374711
  0
ARC
  5
27A
100
AcDbEntity
  8
0
100
AcDbCircle
 62
7
  6
BYLAYER
 10
59.1050949585
 20
44.6342588305
 40
3.091333206
100
AcDbArc
 50
50.9111147994
 51
54.5094294289
  0
ARC
  5
27B
100
AcDbEntity
  8
0
100
AcDbCircle
 62
7
  6
BYLAYER
 10
18.7526655445
 20
38.4170574096
 40
2.0043067378
100
AcDbArc
 50
292.2100892609
 51
299.9786198081
  0
ARC
  5
27C
100
AcDbEntity
  8
0
100
AcDbCircle
 62
7
  6
BYLAYER
 10
14.7878495653
 20
45.2842689836
 40
2.0041058546
100
AcDbArc
 50
120.0197690813
 51
127.7891060187
  0
ARC
  5
27D
100
AcDbEntity
  8
0
100
AcDbCircle
 62
7
  6
BYLAYER
 10
54.240461755
 20
32.612962464
 40
1.611640823
100
AcDbArc
 50
327.0458123657
 51
328.9169199689
  0
ARC
  5
27E
100
AcDbEntity
  8
0
100
AcDbCircle
 62
7
  6
BYLAYER
 10
12.5081353972
 20
70.2607500931
 40
1.611604088
100
AcDbArc
 50
91.0837726684
 51
92.9555885028
  0
ARC
  5
27F
100
AcDbEntity
  8
0
100
AcDbCircle
 62
7
  6
BYLAYER
 10
13.349331601
 20
71.0971403294
 40
1.2871883017
100
AcDbArc
 50
108.9695588168
 51
116.5964582158
  0
ARC
  5
280
100
AcDbEntity
  8
0
100
AcDbCircle
 62
7
  6
BYLAYER
 10
13.343470871
 20
71.109176692
 40
1.2738017413
100
AcDbArc
 50
116.6031227735
 51
119.9986520412
  0
ARC
  5
281
100
AcDbEntity
  8
0
100
AcDbCircle
 62
7
  6
BYLAYER
 10
55.3936773099
 20
32.9108888032
 40
1.2723353521
100
AcDbArc
 50
299.9998617794
 51
300.6479438364
  0
SPLINE
  5
282
100
AcDbEntity
  8
0
100
AcDbSpline
 62
7
  6
BYLAYER
 70
0
 71
3
 72
12
 73
8
 74
0
 42
0.0000001
 43
0.0000001
 44
0.0000000001
 40
0.0
 40
0.0
 40
0.0
 40
0.0
 40
0.2895273834
 40
0.548664004
 40
0.7816292601
 40
0.891838578
 40
1.0
 40
1.0
 40
1.0
 40
1.0
 10
62.5662809386
 20
44.0263362977
 30
0.0
 10
62.5662809386
 20
43.8911833956
 30
0.0
 10
62.5457549901
 20
43.6341576937
 30
0.0
 10
62.4419087085
 20
43.2811968955
 30
0.0
 10
62.2924780962
 20
43.0377147488
 30
0.0
 10
62.1417064499
 20
42.8893576915
 30
0.0
 10
62.0576359111
 20
42.830672097
 30
0.0
 10
62.0139057
 20
42.8054344069
 30
0.0
  0
SPLINE
  5
283
100
AcDbEntity
  8
0
100
AcDbSpline
 62
7
  6
BYLAYER
 70
0
 71
3
 72
9
 73
5
 74
0
 42
0.0000001
 43
0.0000001
 44
0.0000000001
 40
0.0
 40
0.0
 40
0.0
 40
0.0
 40
0.52733645
 40
1.0
 40
1.0
 40
1.0
 40
1.0
 10
61.3180336006
 20
42.8805192011
 30
0.0
 10
61.3180336006
 20
42.7208236386
 30
0.0
 10
61.2942150518
 20
42.4171731947
 30
0.0
 10
61.2086723875
 20
42.1233417813
 30
0.0
 10
61.1504949698
 20
41.9925591944
 30
0.0
  0
SPLINE
  5
284
100
AcDbEntity
  8
0
100
AcDbSpline
 62
7
  6
BYLAYER
 70
0
 71
3
 72
13
 73
9
 74
0
 42
0.0000001
 43
0.0000001
 44
0.0000000001
 40
0.0
 40
0.0
 40
0.0
 40
0.0
 40
0.2893776721
 40
0.5483149916
 40
0.6677431634
 40
0.7817668513
 40
0.8919057347
 40
1.0
 40
1.0
 40
1.0
 40
1.0
 10
61.1114973186
 20
36.0729175684
 30
0.0
 10
61.1114973185
 20
35.8811092911
 30
0.0
 10
61.0825814441
 20
35.5165809373
 30
0.0
 10
60.9559486284
 20
35.0877478353
 30
0.0
 10
60.8022033242
 20
34.7987267818
 30
0.0
 10
60.6666063788
 20
34.6146324668
 30
0.0
 10
60.5090231449
 20
34.459445988
 30
0.0
 10
60.3896966791
 20
34.3762288874
 30
0.0
 10
60.3276474696
 20
34.3404049712
 30
0.0
  0
SPLINE
  5
285
100
AcDbEntity
  8
0
100
AcDbSpline
 62
7
  6
BYLAYER
 70
0
 71
3
 72
15
 73
11
 74
0
 42
0.0000001
 43
0.0000001
 44
0.0000000001
 40
0.0
 40
0.0
 40
0.0
 40
0.0
 40
0.1141465952
 40
0.2373352438
 40
0.3669756459
 40
0.4999989181
 40
0.6330223407
 40
0.7626631822
 40
0.8858525235
 40
1.0
 40
1.0
 40
1.0
 40
1.0
 10
58.435369837
 20
51.6998361061
 30
0.0
 10
58.6185588857
 20
51.594074252
 30
0.0
 10
58.9804147979
 20
51.3403905533
 30
0.0
 10
59.4783390095
 20
50.8746034577
 30
0.0
 10
59.9371457468
 20
50.323928724
 30
0.0
 10
60.3396623643
 20
49.7091757943
 30
0.0
 10
60.6707991856
 20
49.0532105606
 30
0.0
 10
60.9182984734
 20
48.3805339903
 30
0.0
 10
61.0727248797
 20
47.7164227982
 30
0.0
 10
61.1114973185
 20
47.2762020012
 30
0.0
 10
61.1114973186
 20
47.0646730712
 30
0.0
  0
SPLINE
  5
286
100
AcDbEntity
  8
0
100
AcDbSpline
 62
7
  6
BYLAYER
 70
0
 71
3
 72
10
 73
6
 74
0
 42
0.0000001
 43
0.0000001
 44
0.0000000001
 40
0.0
 40
0.0
 40
0.0
 40
0.0
 40
0.5245355385
 40
0.7705142044
 40
1.0
 40
1.0
 40
1.0
 40
1.0
 10
65.663597613
 20
49.0976682747
 30
0.0
 10
65.8039211347
 20
48.8163439054
 30
0.0
 10
65.9720482028
 20
48.3813994309
 30
0.0
 10
66.0916947408
 20
47.7931379572
 30
0.0
 10
66.1134235936
 20
47.5079022671
 30
0.0
 10
66.1134235936
 20
47.3703606017
 30
0.0
  0
SPLINE
  5
287
100
AcDbEntity
  8
0
100
AcDbSpline
 62
7
  6
BYLAYER
 70
0
 71
3
 72
16
 73
12
 74
0
 42
0.0000001
 43
0.0000001
 44
0.0000000001
 40
0.0
 40
0.0
 40
0.0
 40
0.0
 40
0.0992111582
 40
0.1542102664
 40
0.2126367982
 40
0.338427419
 40
0.4730943913
 40
0.6117829636
 40
0.7491536921
 40
0.8800136805
 40
1.0
 40
1.0
 40
1.0
 40
1.0
 10
63.3718603616
 20
60.6727351702
 30
0.0
 10
63.5346085969
 20
60.6505584455
 30
0.0
 10
63.7824574315
 20
60.5737587889
 30
0.0
 10
64.0962382181
 20
60.4137375875
 30
0.0
 10
64.4290875104
 20
60.1977617121
 30
0.0
 10
64.8288794013
 20
59.8487195586
 30
0.0
 10
65.2554676013
 20
59.3411236189
 30
0.0
 10
65.6169353222
 20
58.7625936655
 30
0.0
 10
65.8929672817
 20
58.1455478499
 30
0.0
 10
66.0681320932
 20
57.524773735
 30
0.0
 10
66.1134235936
 20
57.1090220617
 30
0.0
 10
66.1134235936
 20
56.9103748434
 30
0.0
  0
SPLINE
  5
288
100
AcDbEntity
  8
0
100
AcDbSpline
 62
7
  6
BYLAYER
 70
0
 71
3
 72
13
 73
9
 74
0
 42
0.0000001
 43
0.0000001
 44
0.0000000001
 40
0.0
 40
0.0
 40
0.0
 40
0.0
 40
0.2893776721
 40
0.5483149915
 40
0.6677431634
 40
0.7817668513
 40
0.8919057347
 40
1.0
 40
1.0
 40
1.0
 40
1.0
 10
65.6195194148
 20
45.2705488043
 30
0.0
 10
65.6195194147
 20
45.0774532232
 30
0.0
 10
65.5904094741
 20
44.7104783703
 30
0.0
 10
65.4629267736
 20
44.2787671939
 30
0.0
 10
65.3081496218
 20
43.9878064018
 30
0.0
 10
65.1716426298
 20
43.8024765545
 30
0.0
 10
65.0130017903
 20
43.6462485557
 30
0.0
 10
64.8928744757
 20
43.562472951
 30
0.0
 10
64.8304088286
 20
43.5264086059
 30
0.0
  0
SPLINE
  5
289
100
AcDbEntity
  8
0
100
AcDbSpline
 62
7
  6
BYLAYER
 70
0
 71
3
 72
10
 73
6
 74
0
 42
0.0000001
 43
0.0000001
 44
0.0000000001
 40
0.0
 40
0.0
 40
0.0
 40
0.0
 40
0.4638311476
 40
0.7237919312
 40
1.0
 40
1.0
 40
1.0
 40
1.0
 10
36.0365510315
 20
76.5109846208
 30
0.0
 10
36.2382838616
 20
76.4638513822
 30
0.0
 10
36.5402666884
 20
76.3324885649
 30
0.0
 10
36.9121629056
 20
76.0849418557
 30
0.0
 10
37.0964446457
 20
75.9309940794
 30
0.0
 10
37.1872604821
 20
75.8474980391
 30
0.0
  0
SPLINE
  5
28A
100
AcDbEntity
  8
0
100
AcDbSpline
 62
7
  6
BYLAYER
 70
0
 71
3
 72
15
 73
11
 74
0
 42
0.0000001
 43
0.0000001
 44
0.0000000001
 40
0.0
 40
0.0
 40
0.0
 40
0.0
 40
0.1141465952
 40
0.2373352438
 40
0.3669756459
 40
0.4999989181
 40
0.6330223407
 40
0.7626631822
 40
0.8858525235
 40
1.0
 40
1.0
 40
1.0
 40
1.0
 10
62.9254313462
 20
60.9285758186
 30
0.0
 10
63.1098498516
 20
60.8221041534
 30
0.0
 10
63.474134327
 20
60.5667178795
 30
0.0
 10
63.9754003117
 20
60.0978046961
 30
0.0
 10
64.4372862888
 20
59.5434341588
 30
0.0
 10
64.8425043602
 20
58.9245553706
 30
0.0
 10
65.1758635762
 20
58.2641876856
 30
0.0
 10
65.4250239331
 20
57.5869965075
 30
0.0
 10
65.5804867582
 20
56.9184281934
 30
0.0
 10
65.6195194147
 20
56.4752528944
 30
0.0
 10
65.6195194148
 20
56.2623043071
 30
0.0
  0
SPLINE
  5
28B
100
AcDbEntity
  8
0
100
AcDbSpline
 62
7
  6
BYLAYER
 70
0
 71
3
 72
14
 73
10
 74
0
 42
0.0000001
 43
0.0000001
 44
0.0000000001
 40
0.0
 40
0.0
 40
0.0
 40
0.0
 40
0.1080478072
 40
0.2181343416
 40
0.3321142811
 40
0.4514964914
 40
0.5774408518
 40
0.7107392346
 40
1.0
 40
1.0
 40
1.0
 40
1.0
 10
9.9932909102
 20
44.5325755052
 30
0.0
 10
9.8996585892
 20
44.4785033258
 30
0.0
 10
9.719618113
 20
44.3528904764
 30
0.0
 10
9.4817294099
 20
44.1187733515
 30
0.0
 10
9.2771861375
 20
43.8408945588
 30
0.0
 10
9.1077448518
 20
43.5224750979
 30
0.0
 10
8.9748588472
 20
43.1665697253
 30
0.0
 10
8.8442385057
 20
42.6324846104
 30
0.0
 10
8.8104282554
 20
42.2075498311
 30
0.0
 10
8.8104282554
 20
41.9180849279
 30
0.0
  0
SPLINE
  5
28C
100
AcDbEntity
  8
0
100
AcDbSpline
 62
7
  6
BYLAYER
 70
0
 71
3
 72
9
 73
5
 74
0
 42
0.0000001
 43
0.0000001
 44
0.0000000001
 40
0.0
 40
0.0
 40
0.0
 40
0.0
 40
0.2543453232
 40
1.0
 40
1.0
 40
1.0
 40
1.0
 10
19.019625338
 20
36.4277414156
 30
0.0
 10
19.062321953
 20
36.4341501341
 30
0.0
 10
19.2294359666
 20
36.4640752599
 30
0.0
 10
19.3931259514
 20
36.5135975641
 30
0.0
 10
19.5103011444
 20
36.561462142
 30
0.0
  0
SPLINE
  5
28D
100
AcDbEntity
  8
0
100
AcDbSpline
 62
7
  6
BYLAYER
 70
0
 71
3
 72
9
 73
5
 74
0
 42
0.0000001
 43
0.0000001
 44
0.0000000001
 40
0.0
 40
0.0
 40
0.0
 40
0.0
 40
0.2466701738
 40
1.0
 40
1.0
 40
1.0
 40
1.0
 10
13.5598200634
 20
46.868056791
 30
0.0
 10
13.5267269586
 20
46.8424057858
 30
0.0
 10
13.3957943066
 20
46.7342945413
 30
0.0
 10
13.2783650245
 20
46.6100263029
 30
0.0
 10
13.1987009158
 20
46.5100019774
 30
0.0
  0
SPLINE
  5
28E
100
AcDbEntity
  8
0
100
AcDbSpline
 62
7
  6
BYLAYER
 70
0
 71
3
 72
9
 73
5
 74
0
 42
0.0000001
 43
0.0000001
 44
0.0000000001
 40
0.0
 40
0.0
 40
0.0
 40
0.0
 40
0.49117442
 40
1.0
 40
1.0
 40
1.0
 40
1.0
 10
27.4632557908
 20
56.0896774631
 30
0.0
 10
27.3033175861
 20
55.997339337
 30
0.0
 10
26.999374248
 20
55.7692602741
 30
0.0
 10
26.7563999766
 20
55.4779205284
 30
0.0
 10
26.6492395178
 20
55.3194320681
 30
0.0
  0
SPLINE
  5
28F
100
AcDbEntity
  8
0
100
AcDbSpline
 62
7
  6
BYLAYER
 70
0
 71
3
 72
11
 73
7
 74
0
 42
0.0000001
 43
0.0000001
 44
0.0000000001
 40
0.0
 40
0.0
 40
0.0
 40
0.0
 40
0.2897974663
 40
0.5490416238
 40
0.7822229232
 40
1.0
 40
1.0
 40
1.0
 40
1.0
 10
12.3691863021
 20
59.9654624425
 30
0.0
 10
12.4461161729
 20
59.9210456778
 30
0.0
 10
12.5990806377
 20
59.848228707
 30
0.0
 10
12.8342455238
 20
59.7915296811
 30
0.0
 10
13.0548544552
 20
59.7970378356
 30
0.0
 10
13.1877045499
 20
59.8452665751
 30
0.0
 10
13.245514114
 20
59.8786478685
 30
0.0
  0
SPLINE
  5
290
100
AcDbEntity
  8
0
100
AcDbSpline
 62
7
  6
BYLAYER
 70
0
 71
3
 72
11
 73
7
 74
0
 42
0.0000001
 43
0.0000001
 44
0.0000000001
 40
0.0
 40
0.0
 40
0.0
 40
0.0
 40
0.2177853238
 40
0.4509152369
 40
0.7102996252
 40
1.0
 40
1.0
 40
1.0
 40
1.0
 10
11.4929219596
 20
62.9142446448
 30
0.0
 10
11.4351110429
 20
62.8808625704
 30
0.0
 10
11.3269446239
 20
62.7899295829
 30
0.0
 10
11.2117899277
 20
62.6016446335
 30
0.0
 10
11.1433996735
 20
62.3696095821
 30
0.0
 10
11.1299375325
 20
62.2007295614
 30
0.0
 10
11.1299375325
 20
62.111929003
 30
0.0
  0
SPLINE
  5
291
100
AcDbEntity
  8
0
100
AcDbSpline
 62
7
  6
BYLAYER
 70
0
 71
3
 72
11
 73
7
 74
0
 42
0.0000001
 43
0.0000001
 44
0.0000000001
 40
0.0
 40
0.0
 40
0.0
 40
0.0
 40
0.2897974663
 40
0.5490416238
 40
0.7822229232
 40
1.0
 40
1.0
 40
1.0
 40
1.0
 10
50.625236652
 20
37.8788211415
 30
0.0
 10
50.7021665228
 20
37.8344043768
 30
0.0
 10
50.8551309876
 20
37.7615874059
 30
0.0
 10
51.0902958737
 20
37.7048883801
 30
0.0
 10
51.3109048051
 20
37.7103965345
 30
0.0
 10
51.4437548998
 20
37.758625274
 30
0.0
 10
51.5015644639
 20
37.7920065674
 30
0.0
  0
SPLINE
  5
292
100
AcDbEntity
  8
0
100
AcDbSpline
 62
7
  6
BYLAYER
 70
0
 71
3
 72
11
 73
7
 74
0
 42
0.0000001
 43
0.0000001
 44
0.0000000001
 40
0.0
 40
0.0
 40
0.0
 40
0.0
 40
0.2177853238
 40
0.4509152369
 40
0.7102996252
 40
1.0
 40
1.0
 40
1.0
 40
1.0
 10
49.7489723095
 20
40.8276033438
 30
0.0
 10
49.6911613928
 20
40.7942212694
 30
0.0
 10
49.5829949738
 20
40.7032882819
 30
0.0
 10
49.4678402776
 20
40.5150033325
 30
0.0
 10
49.3994500234
 20
40.2829682811
 30
0.0
 10
49.3859878824
 20
40.1140882603
 30
0.0
 10
49.3859878824
 20
40.025287702
 30
0.0
  0
SPLINE
  5
293
100
AcDbEntity
  8
0
100
AcDbSpline
 62
7
  6
BYLAYER
 70
0
 71
3
 72
12
 73
8
 74
0
 42
0.0000001
 43
0.0000001
 44
0.0000000001
 40
0.0
 40
0.0
 40
0.0
 40
0.0
 40
0.1081614688
 40
0.2183687402
 40
0.4513480152
 40
0.7104447573
 40
1.0
 40
1.0
 40
1.0
 40
1.0
 10
11.1863284694
 20
71.9420562462
 30
0.0
 10
11.2279713144
 20
71.9660986119
 30
0.0
 10
11.3163909233
 20
72.0075195469
 30
0.0
 10
11.510558002
 20
72.0612152189
 30
0.0
 10
11.7825129314
 20
72.0685078789
 30
0.0
 10
12.1230820705
 20
71.9861171358
 30
0.0
 10
12.3448324088
 20
71.880642901
 30
0.0
 10
12.4563134623
 20
71.816280741
 30
0.0
  0
SPLINE
  5
294
100
AcDbEntity
  8
0
100
AcDbSpline
 62
7
  6
BYLAYER
 70
0
 71
3
 72
12
 73
8
 74
0
 42
0.0000001
 43
0.0000001
 44
0.0000000001
 40
0.0
 40
0.0
 40
0.0
 40
0.0
 40
0.1081609634
 40
0.2183678066
 40
0.4513466776
 40
0.7104437711
 40
1.0
 40
1.0
 40
1.0
 40
1.0
 10
10.6475153454
 20
71.6309742009
 30
0.0
 10
10.6058715805
 20
71.6069313041
 30
0.0
 10
10.5257881915
 20
71.551067136
 30
0.0
 10
10.3821994378
 20
71.4097579153
 30
0.0
 10
10.2399037702
 20
71.1778774968
 30
0.0
 10
10.1409716666
 20
70.8417303455
 30
0.0
 10
10.1214416208
 20
70.5969444514
 30
0.0
 10
10.1214416206
 20
70.4682140636
 30
0.0
  0
SPLINE
  5
295
100
AcDbEntity
  8
0
100
AcDbSpline
 62
7
  6
BYLAYER
 70
0
 71
3
 72
11
 73
7
 74
0
 42
0.0000001
 43
0.0000001
 44
0.0000000001
 40
0.0
 40
0.0
 40
0.0
 40
0.0
 40
0.2187405374
 40
0.4548511283
 40
0.714604759
 40
1.0
 40
1.0
 40
1.0
 40
1.0
 10
12.9309107632
 20
72.3144232573
 30
0.0
 10
13.0518749351
 20
72.3560691536
 30
0.0
 10
13.3172445957
 20
72.4055434072
 30
0.0
 10
13.7376695401
 20
72.3756172566
 30
0.0
 10
14.1791990745
 20
72.2477808307
 30
0.0
 10
14.4670190401
 20
72.1071297174
 30
0.0
 10
14.61157342
 20
72.0236730954
 30
0.0
  0
SPLINE
  5
296
100
AcDbEntity
  8
0
100
AcDbSpline
 62
7
  6
BYLAYER
 70
0
 71
3
 72
13
 73
9
 74
0
 42
0.0000001
 43
0.0000001
 44
0.0000000001
 40
0.0
 40
0.0
 40
0.0
 40
0.0
 40
0.1080947723
 40
0.2182340857
 40
0.3322580582
 40
0.4516863353
 40
0.7106233083
 40
1.0
 40
1.0
 40
1.0
 40
1.0
 10
17.0298007949
 20
74.6997349501
 30
0.0
 10
17.0918486338
 20
74.7355580749
 30
0.0
 10
17.2235771972
 20
74.7972874427
 30
0.0
 10
17.4367592661
 20
74.8561639805
 30
0.0
 10
17.6639824307
 20
74.8815473845
 30
0.0
 10
17.9911459602
 20
74.8701863448
 30
0.0
 10
18.4258310627
 20
74.7654436229
 30
0.0
 10
18.7559716584
 20
74.6082290685
 30
0.0
 10
18.9220784275
 20
74.5123294503
 30
0.0
  0
SPLINE
  5
297
100
AcDbEntity
  8
0
100
AcDbSpline
 62
7
  6
BYLAYER
 70
0
 71
3
 72
10
 73
6
 74
0
 42
0.0000001
 43
0.0000001
 44
0.0000000001
 40
0.0
 40
0.0
 40
0.0
 40
0.0
 40
0.4638311476
 40
0.7237919312
 40
1.0
 40
1.0
 40
1.0
 40
1.0
 10
44.2984210601
 20
71.7410996449
 30
0.0
 10
44.5001538902
 20
71.6939664063
 30
0.0
 10
44.802136717
 20
71.5626035891
 30
0.0
 10
45.1740329342
 20
71.3150568799
 30
0.0
 10
45.3583146743
 20
71.1611091036
 30
0.0
 10
45.4491305107
 20
71.0776130632
 30
0.0
  0
SPLINE
  5
298
100
AcDbEntity
  8
0
100
AcDbSpline
 62
7
  6
BYLAYER
 70
0
 71
3
 72
10
 73
6
 74
0
 42
0.0000001
 43
0.0000001
 44
0.0000000001
 40
0.0
 40
0.0
 40
0.0
 40
0.0
 40
0.4638311476
 40
0.7237919312
 40
1.0
 40
1.0
 40
1.0
 40
1.0
 10
55.2543791415
 20
65.4158173944
 30
0.0
 10
55.4561119716
 20
65.3686841558
 30
0.0
 10
55.7580947984
 20
65.2373213385
 30
0.0
 10
56.1299910157
 20
64.9897746294
 30
0.0
 10
56.3142727557
 20
64.835826853
 30
0.0
 10
56.4050885921
 20
64.7523308127
 30
0.0
  0
SPLINE
  5
299
100
AcDbEntity
  8
0
100
AcDbSpline
 62
7
  6
BYLAYER
 70
0
 71
3
 72
13
 73
9
 74
0
 42
0.0000001
 43
0.0000001
 44
0.0000000001
 40
0.0
 40
0.0
 40
0.0
 40
0.0
 40
0.1080947723
 40
0.2182340857
 40
0.3322580582
 40
0.4516863353
 40
0.7106233083
 40
1.0
 40
1.0
 40
1.0
 40
1.0
 10
33.0019381463
 20
77.2933707121
 30
0.0
 10
33.0644024136
 20
77.3294342606
 30
0.0
 10
33.1970150614
 20
77.3915779194
 30
0.0
 10
33.4116278824
 20
77.4508496018
 30
0.0
 10
33.6403760347
 20
77.4764033642
 30
0.0
 10
33.9697352925
 20
77.4649660759
 30
0.0
 10
34.4073377447
 20
77.3595203827
 30
0.0
 10
34.7396940491
 20
77.2012506971
 30
0.0
 10
34.9069156287
 20
77.1047074573
 30
0.0
  0
SPLINE
  5
29A
100
AcDbEntity
  8
0
100
AcDbSpline
 62
7
  6
BYLAYER
 70
0
 71
3
 72
13
 73
9
 74
0
 42
0.0000001
 43
0.0000001
 44
0.0000000001
 40
0.0
 40
0.0
 40
0.0
 40
0.0
 40
0.2891669328
 40
0.5481713592
 40
0.6676856008
 40
0.7817907851
 40
0.8919651915
 40
1.0
 40
1.0
 40
1.0
 40
1.0
 10
56.818952914
 20
33.5531527298
 30
0.0
 10
56.8189529139
 20
33.3615769246
 30
0.0
 10
56.7902752254
 20
32.9973417002
 30
0.0
 10
56.6648978964
 20
32.5685127261
 30
0.0
 10
56.5126550384
 20
32.2787280898
 30
0.0
 10
56.3783297392
 20
32.0937006311
 30
0.0
 10
56.2221912085
 20
31.937189391
 30
0.0
 10
56.1038411779
 20
31.8527643365
 30
0.0
 10
56.0422648712
 20
31.8162786336
 30
0.0
  0
SPLINE
  5
29B
100
AcDbEntity
  8
0
100
AcDbSpline
 62
7
  6
BYLAYER
 70
0
 71
3
 72
15
 73
11
 74
0
 42
0.0000001
 43
0.0000001
 44
0.0000000001
 40
0.0
 40
0.0
 40
0.0
 40
0.0
 40
0.1140233952
 40
0.2370401103
 40
0.3664975015
 40
0.499376194
 40
0.6323404967
 40
0.7620503124
 40
0.8854576888
 40
1.0
 40
1.0
 40
1.0
 40
1.0
 10
54.1248648612
 20
49.2111797328
 30
0.0
 10
54.3080712339
 20
49.1054078769
 30
0.0
 10
54.6700239678
 20
48.851958721
 30
0.0
 10
55.1684748023
 20
48.3868893049
 30
0.0
 10
55.6282580033
 20
47.8371651566
 30
0.0
 10
56.0323797858
 20
47.2233145294
 30
0.0
 10
56.3658785995
 20
46.5678819765
 30
0.0
 10
56.6165440149
 20
45.895061793
 30
0.0
 10
56.774980997
 20
45.2298046582
 30
0.0
 10
56.8169938425
 20
44.7882747206
 30
0.0
 10
56.8188199307
 20
44.575772522
 30
0.0
  0
SPLINE
  5
29C
100
AcDbEntity
  8
0
100
AcDbSpline
 62
7
  6
BYLAYER
 70
0
 71
3
 72
9
 73
5
 74
0
 42
0.0000001
 43
0.0000001
 44
0.0000000001
 40
0.0
 40
0.0
 40
0.0
 40
0.0
 40
0.5188884918
 40
1.0
 40
1.0
 40
1.0
 40
1.0
 10
61.152347002
 20
43.9556107652
 30
0.0
 10
61.2052763395
 20
43.7745760705
 30
0.0
 10
61.286562495
 20
43.4191772459
 30
0.0
 10
61.3180336006
 20
43.0554010039
 30
0.0
 10
61.3180336006
 20
42.8805192011
 30
0.0
  0
SPLINE
  5
29D
100
AcDbEntity
  8
0
100
AcDbSpline
 62
7
  6
BYLAYER
 70
0
 71
3
 72
13
 73
9
 74
0
 42
0.0000001
 43
0.0000001
 44
0.0000000001
 40
0.0
 40
0.0
 40
0.0
 40
0.0
 40
0.2500433879
 40
0.5123838156
 40
0.642356667
 40
0.7682604023
 40
0.8880963814
 40
1.0
 40
1.0
 40
1.0
 40
1.0
 10
61.1210274519
 20
46.9780497598
 30
0.0
 10
61.3348138056
 20
46.795304395
 30
0.0
 10
61.7282487449
 20
46.3672865423
 30
0.0
 10
62.108679228
 20
45.7479070036
 30
0.0
 10
62.3400510823
 20
45.2120175383
 30
0.0
 10
62.4678422489
 20
44.8083449236
 30
0.0
 10
62.5467842194
 20
44.4130648434
 30
0.0
 10
62.5662809386
 20
44.1522051572
 30
0.0
 10
62.5662809386
 20
44.0263362977
 30
0.0
  0
SPLINE
  5
29E
100
AcDbEntity
  8
0
100
AcDbSpline
 62
7
  6
BYLAYER
 70
0
 71
3
 72
12
 73
8
 74
0
 42
0.0000001
 43
0.0000001
 44
0.0000000001
 40
0.0
 40
0.0
 40
0.0
 40
0.0
 40
0.2895562289
 40
0.5486533224
 40
0.7816321934
 40
0.8918390366
 40
1.0
 40
1.0
 40
1.0
 40
1.0
 10
55.5617222914
 20
31.7903365545
 30
0.0
 10
55.5617222913
 20
31.6616061666
 30
0.0
 10
55.5421922454
 20
31.4168202725
 30
0.0
 10
55.4432601418
 20
31.0806731212
 30
0.0
 10
55.3009644742
 20
30.8487927027
 30
0.0
 10
55.1573757205
 20
30.707483482
 30
0.0
 10
55.0772923316
 20
30.651619314
 30
0.0
 10
55.0356485667
 20
30.6275764172
 30
0.0
  0
SPLINE
  5
29F
100
AcDbEntity
  8
0
100
AcDbSpline
 62
7
  6
BYLAYER
 70
0
 71
3
 72
15
 73
11
 74
0
 42
0.0000001
 43
0.0000001
 44
0.0000000001
 40
0.0
 40
0.0
 40
0.0
 40
0.0
 40
0.1141465952
 40
0.2373352438
 40
0.3669756459
 40
0.4999989181
 40
0.6330223407
 40
0.7626631823
 40
0.8858525235
 40
1.0
 40
1.0
 40
1.0
 40
1.0
 10
53.7656635737
 20
47.9668558802
 30
0.0
 10
53.8886092443
 20
47.8958747699
 30
0.0
 10
54.1314655621
 20
47.7256172537
 30
0.0
 10
54.4656428867
 20
47.4130084642
 30
0.0
 10
54.7735668726
 20
47.043428105
 30
0.0
 10
55.0437122544
 20
46.6308422449
 30
0.0
 10
55.2659517325
 20
46.1905971201
 30
0.0
 10
55.4320586373
 20
45.7391363332
 30
0.0
 10
55.5357005205
 20
45.2934241223
 30
0.0
 10
55.5617222913
 20
44.9979739221
 30
0.0
 10
55.5617222914
 20
44.8560081968
 30
0.0
  0
SPLINE
  5
2A0
100
AcDbEntity
  8
0
100
AcDbSpline
 62
7
  6
BYLAYER
 70
0
 71
3
 72
11
 73
7
 74
0
 42
0.0000001
 43
0.0000001
 44
0.0000000001
 40
0.0
 40
0.0
 40
0.0
 40
0.0
 40
0.2866604993
 40
0.5464455162
 40
0.7817631026
 40
1.0
 40
1.0
 40
1.0
 40
1.0
 10
66.1134235936
 20
47.3703606017
 30
0.0
 10
66.1134235936
 20
47.2398594064
 30
0.0
 10
66.0954502742
 20
46.9904429453
 30
0.0
 10
66.0055287918
 20
46.6436362233
 30
0.0
 10
65.8547686173
 20
46.3524468956
 30
0.0
 10
65.7115247944
 20
46.1989990579
 30
0.0
 10
65.6333145612
 20
46.1377299991
 30
0.0
  0
SPLINE
  5
2A1
100
AcDbEntity
  8
0
100
AcDbSpline
 62
7
  6
BYLAYER
 70
0
 71
3
 72
11
 73
7
 74
0
 42
0.0000001
 43
0.0000001
 44
0.0000000001
 40
0.0
 40
0.0
 40
0.0
 40
0.0
 40
0.2866604993
 40
0.5464455162
 40
0.7817631026
 40
1.0
 40
1.0
 40
1.0
 40
1.0
 10
66.1134235936
 20
56.9103748434
 30
0.0
 10
66.1134235936
 20
56.7798736481
 30
0.0
 10
66.0954502742
 20
56.5304571871
 30
0.0
 10
66.0055287918
 20
56.183650465
 30
0.0
 10
65.8547686173
 20
55.8924611373
 30
0.0
 10
65.7115247944
 20
55.7390132996
 30
0.0
 10
65.6333145612
 20
55.6777442408
 30
0.0
  0
SPLINE
  5
2A2
100
AcDbEntity
  8
0
100
AcDbSpline
 62
7
  6
BYLAYER
 70
0
 71
3
 72
15
 73
11
 74
0
 42
0.0000001
 43
0.0000001
 44
0.0000000001
 40
0.0
 40
0.0
 40
0.0
 40
0.0
 40
0.1141474765
 40
0.2373368177
 40
0.3669776593
 40
0.5000010819
 40
0.6330243541
 40
0.7626647562
 40
0.8858534048
 40
1.0
 40
1.0
 40
1.0
 40
1.0
 10
10.1214416206
 20
57.4025424213
 30
0.0
 10
10.1214416208
 20
57.260576696
 30
0.0
 10
10.1474633916
 20
56.9651264958
 30
0.0
 10
10.2511052748
 20
56.5194142849
 30
0.0
 10
10.4172121796
 20
56.067953498
 30
0.0
 10
10.6394516576
 20
55.6277083732
 30
0.0
 10
10.9095970395
 20
55.215122513
 30
0.0
 10
11.2175210254
 20
54.8455421539
 30
0.0
 10
11.55169835
 20
54.5329333644
 30
0.0
 10
11.7945546677
 20
54.3626758482
 30
0.0
 10
11.9175003384
 20
54.2916947378
 30
0.0
  0
SPLINE
  5
2A3
100
AcDbEntity
  8
0
100
AcDbSpline
 62
7
  6
BYLAYER
 70
0
 71
3
 72
12
 73
8
 74
0
 42
0.0000001
 43
0.0000001
 44
0.0000000001
 40
0.0
 40
0.0
 40
0.0
 40
0.0
 40
0.2895552427
 40
0.5486519848
 40
0.7816312598
 40
0.8918385312
 40
1.0
 40
1.0
 40
1.0
 40
1.0
 10
53.2268504497
 20
30.4422698771
 30
0.0
 10
53.3383315032
 20
30.377907717
 30
0.0
 10
53.5600818416
 20
30.2724334823
 30
0.0
 10
53.9006509807
 20
30.1900427392
 30
0.0
 10
54.1726059101
 20
30.1973353992
 30
0.0
 10
54.3667729888
 20
30.2510310711
 30
0.0
 10
54.4551925977
 20
30.2924520062
 30
0.0
 10
54.4968354427
 20
30.3164943719
 30
0.0
  0
SPLINE
  5
2A4
100
AcDbEntity
  8
0
100
AcDbSpline
 62
7
  6
BYLAYER
 70
0
 71
3
 72
15
 73
11
 74
0
 42
0.0000001
 43
0.0000001
 44
0.0000000001
 40
0.0
 40
0.0
 40
0.0
 40
0.0
 40
0.1141067199
 40
0.2373609586
 40
0.3669850089
 40
0.50000601
 40
0.6330265029
 40
0.7626732025
 40
0.8858484851
 40
1.0
 40
1.0
 40
1.0
 40
1.0
 10
49.3859894004
 20
39.8147897277
 30
0.0
 10
49.3859894004
 20
39.7312748519
 30
0.0
 10
49.4013492077
 20
39.5573946567
 30
0.0
 10
49.4622769009
 20
39.2950816199
 30
0.0
 10
49.5600495023
 20
39.0293719809
 30
0.0
 10
49.6908442765
 20
38.7703192291
 30
0.0
 10
49.8498109794
 20
38.5275110564
 30
0.0
 10
50.0310196536
 20
38.3100287403
 30
0.0
 10
50.2276644729
 20
38.126049247
 30
0.0
 10
50.3705894426
 20
38.0258770822
 30
0.0
 10
50.4429428901
 20
37.9841016066
 30
0.0
  0
SPLINE
  5
2A5
100
AcDbEntity
  8
0
100
AcDbSpline
 62
7
  6
BYLAYER
 70
0
 71
3
 72
15
 73
11
 74
0
 42
0.0000001
 43
0.0000001
 44
0.0000000001
 40
0.0
 40
0.0
 40
0.0
 40
0.0
 40
0.1141067199
 40
0.2373609586
 40
0.3669850089
 40
0.50000601
 40
0.6330265029
 40
0.7626732025
 40
0.8858484851
 40
1.0
 40
1.0
 40
1.0
 40
1.0
 10
11.1299390505
 20
61.9014310288
 30
0.0
 10
11.1299390505
 20
61.8179161529
 30
0.0
 10
11.1452988578
 20
61.6440359578
 30
0.0
 10
11.206226551
 20
61.381722921
 30
0.0
 10
11.3039991524
 20
61.116013282
 30
0.0
 10
11.4347939266
 20
60.8569605301
 30
0.0
 10
11.5937606295
 20
60.6141523574
 30
0.0
 10
11.7749693037
 20
60.3966700414
 30
0.0
 10
11.971614123
 20
60.2126905481
 30
0.0
 10
12.1145390927
 20
60.1125183832
 30
0.0
 10
12.1868925402
 20
60.0707429076
 30
0.0
  0
SPLINE
  5
2A6
100
AcDbEntity
  8
0
100
AcDbSpline
 62
7
  6
BYLAYER
 70
0
 71
3
 72
23
 73
19
 74
0
 42
0.0000001
 43
0.0000001
 44
0.0000000001
 40
0.0
 40
0.0
 40
0.0
 40
0.0
 40
0.0623788002
 40
0.1287503477
 40
0.1983457761
 40
0.2703345382
 40
0.3437243134
 40
0.4174668573
 40
0.4905033045
 40
0.5618008101
 40
0.6304087171
 40
0.6955076318
 40
0.7564648179
 40
0.8129108578
 40
0.8648208718
 40
0.9126040628
 40
0.9571856744
 40
1.0
 40
1.0
 40
1.0
 40
1.0
 10
8.8104282554
 20
41.9180849279
 30
0.0
 10
8.8104282554
 20
41.6812047358
 30
0.0
 10
8.8425857204
 20
41.191961413
 30
0.0
 10
8.974580842
 20
40.449135455
 30
0.0
 10
9.1893749573
 20
39.6879446071
 30
0.0
 10
9.4821669319
 20
38.9247686276
 30
0.0
 10
9.8468190066
 20
38.1756955651
 30
0.0
 10
10.2755098072
 20
37.4567242902
 30
0.0
 10
10.759103595
 20
36.7831921069
 30
0.0
 10
11.2873374758
 20
36.1694789006
 30
0.0
 10
11.8489547647
 20
35.6285933293
 30
0.0
 10
12.4321402354
 20
35.1719935187
 30
0.0
 10
13.0248259391
 20
34.8094153386
 30
0.0
 10
13.6149396755
 20
34.5486297838
 30
0.0
 10
14.1907293295
 20
34.3956185851
 30
0.0
 10
14.7409172379
 20
34.3551117505
 30
0.0
 10
15.2532482032
 20
34.4302544361
 30
0.0
 10
15.5636475384
 20
34.5592054911
 30
0.0
 10
15.7044415829
 20
34.6405133211
 30
0.0
  0
SPLINE
  5
2A7
100
AcDbEntity
  8
0
100
AcDbSpline
 62
7
  6
BYLAYER
 70
0
 71
3
 72
23
 73
19
 74
0
 42
0.0000001
 43
0.0000001
 44
0.0000000001
 40
0.0
 40
0.0
 40
0.0
 40
0.0
 40
0.0428145861
 40
0.0873970423
 40
0.1351798452
 40
0.1870888322
 40
0.2435357079
 40
0.304492732
 40
0.3695894583
 40
0.438196618
 40
0.509494164
 40
0.5825297073
 40
0.6562715538
 40
0.7296598424
 40
0.8016501985
 40
0.8712484419
 40
0.9376157826
 40
1.0
 40
1.0
 40
1.0
 40
1.0
 10
27.9712525321
 20
55.2097960404
 30
0.0
 10
28.1184142337
 20
55.2947552658
 30
0.0
 10
28.4428100262
 20
55.4295713109
 30
0.0
 10
28.9782877382
 20
55.5080362444
 30
0.0
 10
29.5533018593
 20
55.4657202371
 30
0.0
 10
30.1550959249
 20
55.3058448479
 30
0.0
 10
30.7718345613
 20
55.0332543724
 30
0.0
 10
31.3912527544
 20
54.6542901108
 30
0.0
 10
32.0007767317
 20
54.177117574
 30
0.0
 10
32.5877499233
 20
53.6118338845
 30
0.0
 10
33.1397995913
 20
52.9704005717
 30
0.0
 10
33.6452253552
 20
52.2664754154
 30
0.0
 10
34.0932813113
 20
51.5150716144
 30
0.0
 10
34.4744016107
 20
50.7321901191
 30
0.0
 10
34.780395348
 20
49.9345454986
 30
0.0
 10
35.0048964264
 20
49.1389977013
 30
0.0
 10
35.1428817175
 20
48.3626282893
 30
0.0
 10
35.1764739716
 20
47.8512937293
 30
0.0
 10
35.1764739716
 20
47.6036990869
 30
0.0
  0
SPLINE
  5
2A8
100
AcDbEntity
  8
0
100
AcDbSpline
 62
7
  6
BYLAYER
 70
0
 71
3
 72
10
 73
6
 74
0
 42
0.0000001
 43
0.0000001
 44
0.0000000001
 40
0.0
 40
0.0
 40
0.0
 40
0.0
 40
0.2255429992
 40
0.5933405864
 40
1.0
 40
1.0
 40
1.0
 40
1.0
 10
55.6207025186
 20
31.7809038262
 30
0.0
 10
55.6712859973
 20
31.8647977109
 30
0.0
 10
55.784581021
 20
32.0977635845
 30
0.0
 10
55.8963147771
 20
32.5208001526
 30
0.0
 10
55.9209310406
 20
32.8580518957
 30
0.0
 10
55.9209310407
 20
33.0346826544
 30
0.0
  0
SPLINE
  5
2A9
100
AcDbEntity
  8
0
100
AcDbSpline
 62
7
  6
BYLAYER
 70
0
 71
3
 72
9
 73
5
 74
0
 42
0.0000001
 43
0.0000001
 44
0.0000000001
 40
0.0
 40
0.0
 40
0.0
 40
0.0
 40
0.276730857
 40
1.0
 40
1.0
 40
1.0
 40
1.0
 10
13.7135515626
 20
71.5052030129
 30
0.0
 10
13.6099110275
 20
71.56503855
 30
0.0
 10
13.2261014864
 20
71.7621171833
 30
0.0
 10
12.7903765955
 20
71.8780071534
 30
0.0
 10
12.4776530768
 20
71.8720658798
 30
0.0
  0
SPLINE
  5
2AA
100
AcDbEntity
  8
0
100
AcDbSpline
 62
7
  6
BYLAYER
 70
0
 71
3
 72
9
 73
5
 74
0
 42
0.0000001
 43
0.0000001
 44
0.0000000001
 40
0.0
 40
0.0
 40
0.0
 40
0.0
 40
0.4852445238
 40
1.0
 40
1.0
 40
1.0
 40
1.0
 10
55.9209310407
 20
44.0264381572
 30
0.0
 10
55.9209310407
 20
44.1733621095
 30
0.0
 10
55.9023676638
 20
44.4762983045
 30
0.0
 10
55.8526549789
 20
44.77550594
 30
0.0
 10
55.8200690962
 20
44.9279208526
 30
0.0
  0
SPLINE
  5
2AB
100
AcDbEntity
  8
0
100
AcDbSpline
 62
7
  6
BYLAYER
 70
0
 71
3
 72
11
 73
7
 74
0
 42
0.0000001
 43
0.0000001
 44
0.0000000001
 40
0.0
 40
0.0
 40
0.0
 40
0.0
 40
0.2445576901
 40
0.5000008135
 40
0.755443516
 40
1.0
 40
1.0
 40
1.0
 40
1.0
 10
55.8200690962
 20
44.9279208526
 30
0.0
 10
55.7556571625
 20
45.2291966955
 30
0.0
 10
55.5684512524
 20
45.8340638328
 30
0.0
 10
55.1520589075
 20
46.693394851
 30
0.0
 10
54.6160487911
 20
47.4836623048
 30
0.0
 10
54.1858196145
 20
47.9482165426
 30
0.0
 10
53.9571124986
 20
48.1546339588
 30
0.0
  0
SPLINE
  5
2AC
100
AcDbEntity
  8
0
100
AcDbSpline
 62
7
  6
BYLAYER
 70
0
 71
3
 72
9
 73
5
 74
0
 42
0.0000001
 43
0.0000001
 44
0.0000000001
 40
0.0
 40
0.0
 40
0.0
 40
0.0
 40
0.5147557436
 40
1.0
 40
1.0
 40
1.0
 40
1.0
 10
53.9571124986
 20
48.1546339588
 30
0.0
 10
53.8414111095
 20
48.2590591389
 30
0.0
 10
53.6071479971
 20
48.4517105149
 30
0.0
 10
53.3540815563
 20
48.6192500996
 30
0.0
 10
53.2268429721
 20
48.6927096686
 30
0.0
  0
SPLINE
  5
2AD
100
AcDbEntity
  8
0
100
AcDbSpline
 62
7
  6
BYLAYER
 70
0
 71
3
 72
23
 73
19
 74
0
 42
0.0000001
 43
0.0000001
 44
0.0000000001
 40
0.0
 40
0.0
 40
0.0
 40
0.0
 40
0.0428149419
 40
0.0873975974
 40
0.1351804678
 40
0.1870895322
 40
0.24353648
 40
0.3044935527
 40
0.3695903147
 40
0.4381974762
 40
0.5094949872
 40
0.5825307593
 40
0.6562728516
 40
0.729660996
 40
0.8016509628
 40
0.871248974
 40
0.9376159988
 40
1.0
 40
1.0
 40
1.0
 40
1.0
 10
29.0796946898
 20
57.0229244101
 30
0.0
 10
29.2519067981
 20
57.1223453005
 30
0.0
 10
29.6315216511
 20
57.2801088752
 30
0.0
 10
30.2581474806
 20
57.3719293929
 30
0.0
 10
30.931037859
 20
57.3224086232
 30
0.0
 10
31.6352654813
 20
57.1353185765
 30
0.0
 10
32.3569810409
 20
56.8163277737
 30
0.0
 10
33.0818321437
 20
56.3728576641
 30
0.0
 10
33.7951045286
 20
55.81446315
 30
0.0
 10
34.4819870934
 20
55.1529599703
 30
0.0
 10
35.1280025412
 20
54.4023452136
 30
0.0
 10
35.7194581169
 20
53.5786004358
 30
0.0
 10
36.243779257
 20
52.6992965266
 30
0.0
 10
36.6897688759
 20
51.7831590046
 30
0.0
 10
37.0478442711
 20
50.8497479933
 30
0.0
 10
37.310555728
 20
49.9187916563
 30
0.0
 10
37.4720277005
 20
49.0102778364
 30
0.0
 10
37.5113368242
 20
48.411910022
 30
0.0
 10
37.5113368242
 20
48.1221726161
 30
0.0
  0
SPLINE
  5
2AE
100
AcDbEntity
  8
0
100
AcDbSpline
 62
7
  6
BYLAYER
 70
0
 71
3
 72
15
 73
11
 74
0
 42
0.0000001
 43
0.0000001
 44
0.0000000001
 40
0.0
 40
0.0
 40
0.0
 40
0.0
 40
0.1080099865
 40
0.2180569043
 40
0.3320009503
 40
0.45135217
 40
0.5772569789
 40
0.7104993542
 40
0.8514751134
 40
1.0
 40
1.0
 40
1.0
 40
1.0
 10
34.4482162536
 20
43.9912988382
 30
0.0
 10
34.5627365676
 20
44.0574155688
 30
0.0
 10
34.7828908166
 20
44.2110887053
 30
0.0
 10
35.0738782984
 20
44.4973649446
 30
0.0
 10
35.3240185035
 20
44.8372460879
 30
0.0
 10
35.5312651985
 20
45.2266996761
 30
0.0
 10
35.6937644036
 20
45.6619409922
 30
0.0
 10
35.8104458481
 20
46.1387498428
 30
0.0
 10
35.8801680153
 20
46.6524155807
 30
0.0
 10
35.8948974523
 20
47.0070885067
 30
0.0
 10
35.8948974523
 20
47.1889264803
 30
0.0
  0
SPLINE
  5
2AF
100
AcDbEntity
  8
0
100
AcDbSpline
 62
7
  6
BYLAYER
 70
0
 71
3
 72
9
 73
5
 74
0
 42
0.0000001
 43
0.0000001
 44
0.0000000001
 40
0.0
 40
0.0
 40
0.0
 40
0.0
 40
0.2590275737
 40
1.0
 40
1.0
 40
1.0
 40
1.0
 10
12.1868925402
 20
60.0707429076
 30
0.0
 10
12.2022979562
 20
60.0618481195
 30
0.0
 10
12.2624080376
 20
60.0286370464
 30
0.0
 10
12.3251542465
 20
60.0000834233
 30
0.0
 10
12.3728670653
 20
59.982393135
 30
0.0
  0
SPLINE
  5
2B0
100
AcDbEntity
  8
0
100
AcDbSpline
 62
7
  6
BYLAYER
 70
0
 71
3
 72
15
 73
11
 74
0
 42
0.0000001
 43
0.0000001
 44
0.0000000001
 40
0.0
 40
0.0
 40
0.0
 40
0.0
 40
0.1347100225
 40
0.2569215555
 40
0.3702693473
 40
0.4804061995
 40
0.5938271662
 40
0.7162031269
 40
0.8512716155
 40
1.0
 40
1.0
 40
1.0
 40
1.0
 10
12.3728670653
 20
59.982393135
 30
0.0
 10
12.430281116
 20
59.9611059602
 30
0.0
 10
12.5437145194
 20
59.9297487244
 30
0.0
 10
12.7134619907
 20
59.9216700757
 30
0.0
 10
12.8689451135
 20
59.9565945955
 30
0.0
 10
13.0034617741
 20
60.0347736062
 30
0.0
 10
13.1110964075
 20
60.152385287
 30
0.0
 10
13.1885579842
 20
60.3040226148
 30
0.0
 10
13.2346093675
 20
60.4840282254
 30
0.0
 10
13.2439001426
 20
60.613357198
 30
0.0
 10
13.2439001426
 20
60.6809626339
 30
0.0
  0
SPLINE
  5
2B1
100
AcDbEntity
  8
0
100
AcDbSpline
 62
7
  6
BYLAYER
 70
0
 71
3
 72
17
 73
13
 74
0
 42
0.0000001
 43
0.0000001
 44
0.0000000001
 40
0.0
 40
0.0
 40
0.0
 40
0.0
 40
0.0428592926
 40
0.087485474
 40
0.1353198781
 40
0.1872819044
 40
0.3045421965
 40
0.4382074305
 40
0.582548911
 40
0.7297129633
 40
0.8713059682
 40
1.0
 40
1.0
 40
1.0
 40
1.0
 10
12.567857132
 20
63.5348481529
 30
0.0
 10
12.6110625683
 20
63.5597970274
 30
0.0
 10
12.7063166811
 20
63.5993499015
 30
0.0
 10
12.8635251348
 20
63.6224250488
 30
0.0
 10
13.0323621588
 20
63.6099855439
 30
0.0
 10
13.2776783887
 20
63.5447395064
 30
0.0
 10
13.5912771297
 20
63.373261809
 30
0.0
 10
13.9377539098
 20
63.0664207338
 30
0.0
 10
14.2440384015
 20
62.6744054506
 30
0.0
 10
14.4850805238
 20
62.2288756015
 30
0.0
 10
14.6415241335
 20
61.7663763744
 30
0.0
 10
14.6834307234
 20
61.451381731
 30
0.0
 10
14.6834307234
 20
61.3015721906
 30
0.0
  0
SPLINE
  5
2B2
100
AcDbEntity
  8
0
100
AcDbSpline
 62
7
  6
BYLAYER
 70
0
 71
3
 72
11
 73
7
 74
0
 42
0.0000001
 43
0.0000001
 44
0.0000000001
 40
0.0
 40
0.0
 40
0.0
 40
0.0
 40
0.2177853238
 40
0.4509152369
 40
0.7102996252
 40
1.0
 40
1.0
 40
1.0
 40
1.0
 10
13.245514114
 20
59.8786478685
 30
0.0
 10
13.3033250307
 20
59.9120299429
 30
0.0
 10
13.4114914497
 20
60.0029629304
 30
0.0
 10
13.5266461459
 20
60.1912478798
 30
0.0
 10
13.5950364001
 20
60.4232829312
 30
0.0
 10
13.6084985411
 20
60.592162952
 30
0.0
 10
13.6084985411
 20
60.6809635103
 30
0.0
  0
SPLINE
  5
2B3
100
AcDbEntity
  8
0
100
AcDbSpline
 62
7
  6
BYLAYER
 70
0
 71
3
 72
12
 73
8
 74
0
 42
0.0000001
 43
0.0000001
 44
0.0000000001
 40
0.0
 40
0.0
 40
0.0
 40
0.0
 40
0.2895552427
 40
0.5486519848
 40
0.7816312598
 40
0.8918385312
 40
1.0
 40
1.0
 40
1.0
 40
1.0
 10
11.9175003384
 20
71.5051986957
 30
0.0
 10
11.8060192849
 20
71.5695608558
 30
0.0
 10
11.5842689465
 20
71.6750350905
 30
0.0
 10
11.2436998074
 20
71.7574258336
 30
0.0
 10
10.9717448781
 20
71.7501331736
 30
0.0
 10
10.7775777993
 20
71.6964375017
 30
0.0
 10
10.6891581904
 20
71.6550165666
 30
0.0
 10
10.6475153454
 20
71.6309742009
 30
0.0
  0
SPLINE
  5
2B4
100
AcDbEntity
  8
0
100
AcDbSpline
 62
7
  6
BYLAYER
 70
0
 71
3
 72
15
 73
11
 74
0
 42
0.0000001
 43
0.0000001
 44
0.0000000001
 40
0.0
 40
0.0
 40
0.0
 40
0.0
 40
0.1141474765
 40
0.2373368177
 40
0.3669776593
 40
0.5000010819
 40
0.6330243541
 40
0.7626647562
 40
0.8858534048
 40
1.0
 40
1.0
 40
1.0
 40
1.0
 10
55.0229091675
 20
44.5449261515
 30
0.0
 10
55.0229091674
 20
44.6868918768
 30
0.0
 10
54.9968873965
 20
44.982342077
 30
0.0
 10
54.8932455133
 20
45.4280542879
 30
0.0
 10
54.7271386085
 20
45.8795150748
 30
0.0
 10
54.5048991305
 20
46.3197601996
 30
0.0
 10
54.2347537486
 20
46.7323460598
 30
0.0
 10
53.9268297627
 20
47.1019264189
 30
0.0
 10
53.5926524381
 20
47.4145352084
 30
0.0
 10
53.3497961204
 20
47.5847927246
 30
0.0
 10
53.2268504497
 20
47.655773835
 30
0.0
  0
SPLINE
  5
2B5
100
AcDbEntity
  8
0
100
AcDbSpline
 62
7
  6
BYLAYER
 70
0
 71
3
 72
9
 73
5
 74
0
 42
0.0000001
 43
0.0000001
 44
0.0000000001
 40
0.0
 40
0.0
 40
0.0
 40
0.0
 40
0.2590275737
 40
1.0
 40
1.0
 40
1.0
 40
1.0
 10
50.4429428901
 20
37.9841016066
 30
0.0
 10
50.4583483061
 20
37.9752068185
 30
0.0
 10
50.5184583875
 20
37.9419957453
 30
0.0
 10
50.5812045964
 20
37.9134421222
 30
0.0
 10
50.6289174152
 20
37.8957518339
 30
0.0
  0
SPLINE
  5
2B6
100
AcDbEntity
  8
0
100
AcDbSpline
 62
7
  6
BYLAYER
 70
0
 71
3
 72
15
 73
11
 74
0
 42
0.0000001
 43
0.0000001
 44
0.0000000001
 40
0.0
 40
0.0
 40
0.0
 40
0.0
 40
0.1347100225
 40
0.2569215555
 40
0.3702693473
 40
0.4804061995
 40
0.5938271662
 40
0.7162031269
 40
0.8512716155
 40
1.0
 40
1.0
 40
1.0
 40
1.0
 10
50.6289174152
 20
37.8957518339
 30
0.0
 10
50.6863314659
 20
37.8744646592
 30
0.0
 10
50.7997648693
 20
37.8431074233
 30
0.0
 10
50.9695123406
 20
37.8350287746
 30
0.0
 10
51.1249954634
 20
37.8699532944
 30
0.0
 10
51.2595121241
 20
37.9481323051
 30
0.0
 10
51.3671467574
 20
38.065743986
 30
0.0
 10
51.4446083341
 20
38.2173813137
 30
0.0
 10
51.4906597174
 20
38.3973869244
 30
0.0
 10
51.4999504925
 20
38.526715897
 30
0.0
 10
51.4999504925
 20
38.5943213328
 30
0.0
  0
SPLINE
  5
2B7
100
AcDbEntity
  8
0
100
AcDbSpline
 62
7
  6
BYLAYER
 70
0
 71
3
 72
11
 73
7
 74
0
 42
0.0000001
 43
0.0000001
 44
0.0000000001
 40
0.0
 40
0.0
 40
0.0
 40
0.0
 40
0.2897016594
 40
0.5490895814
 40
0.7822189142
 40
1.0
 40
1.0
 40
1.0
 40
1.0
 10
52.9394810733
 20
39.2149308895
 30
0.0
 10
52.9394810733
 20
39.1261302124
 30
0.0
 10
52.9260176791
 20
38.957249278
 30
0.0
 10
52.8576265047
 20
38.7252140136
 30
0.0
 10
52.7424700907
 20
38.5369306817
 30
0.0
 10
52.634302966
 20
38.4460022659
 30
0.0
 10
52.5764936562
 20
38.4126204199
 30
0.0
  0
SPLINE
  5
2B8
100
AcDbEntity
  8
0
100
AcDbSpline
 62
7
  6
BYLAYER
 70
0
 71
3
 72
11
 73
7
 74
0
 42
0.0000001
 43
0.0000001
 44
0.0000000001
 40
0.0
 40
0.0
 40
0.0
 40
0.0
 40
0.2897016594
 40
0.5490895814
 40
0.7822189142
 40
1.0
 40
1.0
 40
1.0
 40
1.0
 10
14.6834307234
 20
61.3015721906
 30
0.0
 10
14.6834307234
 20
61.2127715134
 30
0.0
 10
14.6699673292
 20
61.0438905791
 30
0.0
 10
14.6015761548
 20
60.8118553147
 30
0.0
 10
14.4864197408
 20
60.6235719828
 30
0.0
 10
14.3782526161
 20
60.532643567
 30
0.0
 10
14.3204433063
 20
60.499261721
 30
0.0
  0
SPLINE
  5
2B9
100
AcDbEntity
  8
0
100
AcDbSpline
 62
7
  6
BYLAYER
 70
0
 71
3
 72
15
 73
11
 74
0
 42
0.0000001
 43
0.0000001
 44
0.0000000001
 40
0.0
 40
0.0
 40
0.0
 40
0.0
 40
0.1485255234
 40
0.2894997304
 40
0.4227405019
 40
0.5486450413
 40
0.6679968035
 40
0.7819411543
 40
0.8919887669
 40
1.0
 40
1.0
 40
1.0
 40
1.0
 10
37.5113368242
 20
48.1221726161
 30
0.0
 10
37.5113368242
 20
47.9403338183
 30
0.0
 10
37.4966088156
 20
47.5856618481
 30
0.0
 10
37.426886152
 20
47.0719991457
 30
0.0
 10
37.3102062856
 20
46.5951941308
 30
0.0
 10
37.1477079234
 20
46.1599542006
 30
0.0
 10
36.9404638214
 20
45.7704983812
 30
0.0
 10
36.6903232541
 20
45.4306147266
 30
0.0
 10
36.3993334771
 20
45.1443371793
 30
0.0
 10
36.1791787428
 20
44.9906599742
 30
0.0
 10
36.0646560984
 20
44.9245441627
 30
0.0
  0
SPLINE
  5
2BA
100
AcDbEntity
  8
0
100
AcDbSpline
 62
7
  6
BYLAYER
 70
0
 71
3
 72
23
 73
19
 74
0
 42
0.0000001
 43
0.0000001
 44
0.0000000001
 40
0.0
 40
0.0
 40
0.0
 40
0.0
 40
0.0428143256
 40
0.0873959372
 40
0.1351791282
 40
0.1870891422
 40
0.2435351821
 40
0.3044923682
 40
0.3695912829
 40
0.4381991899
 40
0.5094966955
 40
0.5825331427
 40
0.6562756866
 40
0.7296654618
 40
0.8016542239
 40
0.8712496523
 40
0.9376211998
 40
1.0
 40
1.0
 40
1.0
 40
1.0
 10
13.7318107137
 20
46.690998036
 30
0.0
 10
13.8726047582
 20
46.772305866
 30
0.0
 10
14.1830040934
 20
46.901256921
 30
0.0
 10
14.6953350587
 20
46.9763996066
 30
0.0
 10
15.245522967
 20
46.935892772
 30
0.0
 10
15.821312621
 20
46.7828815733
 30
0.0
 10
16.4114263574
 20
46.5220960185
 30
0.0
 10
17.0041120611
 20
46.1595178384
 30
0.0
 10
17.5872975318
 20
45.7029180278
 30
0.0
 10
18.1489148207
 20
45.1620324565
 30
0.0
 10
18.6771487016
 20
44.5483192502
 30
0.0
 10
19.1607424893
 20
43.8747870669
 30
0.0
 10
19.5894332899
 20
43.155815792
 30
0.0
 10
19.9540853647
 20
42.4067427295
 30
0.0
 10
20.2468773392
 20
41.64356675
 30
0.0
 10
20.4616714546
 20
40.8823759021
 30
0.0
 10
20.5936665761
 20
40.1395499441
 30
0.0
 10
20.6258240412
 20
39.6503066213
 30
0.0
 10
20.6258240412
 20
39.4134264292
 30
0.0
  0
SPLINE
  5
2BB
100
AcDbEntity
  8
0
100
AcDbSpline
 62
7
  6
BYLAYER
 70
0
 71
3
 72
11
 73
7
 74
0
 42
0.0000001
 43
0.0000001
 44
0.0000000001
 40
0.0
 40
0.0
 40
0.0
 40
0.0
 40
0.2177853238
 40
0.4509152369
 40
0.7102996252
 40
1.0
 40
1.0
 40
1.0
 40
1.0
 10
51.5015644639
 20
37.7920065674
 30
0.0
 10
51.5593753806
 20
37.8253886418
 30
0.0
 10
51.6675417996
 20
37.9163216293
 30
0.0
 10
51.7826964958
 20
38.1046065787
 30
0.0
 10
51.85108675
 20
38.3366416301
 30
0.0
 10
51.864548891
 20
38.5055216509
 30
0.0
 10
51.864548891
 20
38.5943222092
 30
0.0
  0
SPLINE
  5
2BC
100
AcDbEntity
  8
0
100
AcDbSpline
 62
7
  6
BYLAYER
 70
0
 71
3
 72
17
 73
13
 74
0
 42
0.0000001
 43
0.0000001
 44
0.0000000001
 40
0.0
 40
0.0
 40
0.0
 40
0.0
 40
0.1286888805
 40
0.2702714229
 40
0.4174305201
 40
0.5617751791
 40
0.6954457062
 40
0.8127113456
 40
0.8646748728
 40
0.9125106729
 40
0.9571387358
 40
1.0
 40
1.0
 40
1.0
 40
1.0
 10
51.864548891
 20
38.5943222092
 30
0.0
 10
51.864548891
 20
38.7441262244
 30
0.0
 10
51.8226472812
 20
39.0591037413
 30
0.0
 10
51.6662182779
 20
39.5215839493
 30
0.0
 10
51.4251916046
 20
39.9671073929
 30
0.0
 10
51.1189143748
 20
40.3591357599
 30
0.0
 10
50.7724308992
 20
40.6659956217
 30
0.0
 10
50.4588223733
 20
40.8374887835
 30
0.0
 10
50.2134969288
 20
40.902739791
 30
0.0
 10
50.0446538972
 20
40.9151849928
 30
0.0
 10
49.8874391235
 20
40.8921061608
 30
0.0
 10
49.7921800956
 20
40.8525530525
 30
0.0
 10
49.7489723095
 20
40.8276033438
 30
0.0
  0
SPLINE
  5
2BD
100
AcDbEntity
  8
0
100
AcDbSpline
 62
7
  6
BYLAYER
 70
0
 71
3
 72
21
 73
17
 74
0
 42
0.0000001
 43
0.0000001
 44
0.0000000001
 40
0.0
 40
0.0
 40
0.0
 40
0.0
 40
0.0659223364
 40
0.136796749
 40
0.2878227779
 40
0.4414700741
 40
0.515366324
 40
0.5853300223
 40
0.6502475655
 40
0.709469252
 40
0.7629653516
 40
0.8115293093
 40
0.8569394817
 40
0.9017626747
 40
0.9487195711
 40
1.0
 40
1.0
 40
1.0
 40
1.0
 10
51.4999504925
 20
38.5943213328
 30
0.0
 10
51.4999504925
 20
38.669888415
 30
0.0
 10
51.4873744942
 20
38.8268355107
 30
0.0
 10
51.4186461523
 20
39.1502261517
 30
0.0
 10
51.2561757713
 20
39.5527142988
 30
0.0
 10
51.0157519041
 20
39.9178042952
 30
0.0
 10
50.7843961435
 20
40.1692294697
 30
0.0
 10
50.6023540768
 20
40.325560539
 30
0.0
 10
50.4150767813
 20
40.4471208968
 30
0.0
 10
50.2280632074
 20
40.5302036139
 30
0.0
 10
50.0465056435
 20
40.5718934544
 30
0.0
 10
49.8755299046
 20
40.5697323969
 30
0.0
 10
49.7211245287
 20
40.5220989788
 30
0.0
 10
49.5906475449
 20
40.4296989001
 30
0.0
 10
49.4898983444
 20
40.2976190933
 30
0.0
 10
49.4463980594
 20
40.1924527195
 30
0.0
 10
49.429474852
 20
40.1361584429
 30
0.0
  0
SPLINE
  5
2BE
100
AcDbEntity
  8
0
100
AcDbSpline
 62
7
  6
BYLAYER
 70
0
 71
3
 72
9
 73
5
 74
0
 42
0.0000001
 43
0.0000001
 44
0.0000000001
 40
0.0
 40
0.0
 40
0.0
 40
0.0
 40
0.2356686145
 40
1.0
 40
1.0
 40
1.0
 40
1.0
 10
49.429474852
 20
40.1361584429
 30
0.0
 10
49.4221255506
 20
40.1117113273
 30
0.0
 10
49.3955228812
 20
40.0066061944
 30
0.0
 10
49.3859894004
 20
39.8975829985
 30
0.0
 10
49.3859894004
 20
39.8147897277
 30
0.0
  0
SPLINE
  5
2BF
100
AcDbEntity
  8
0
100
AcDbSpline
 62
7
  6
BYLAYER
 70
0
 71
3
 72
17
 73
13
 74
0
 42
0.0000001
 43
0.0000001
 44
0.0000000001
 40
0.0
 40
0.0
 40
0.0
 40
0.0
 40
0.1286888805
 40
0.2702714229
 40
0.4174305201
 40
0.5617751791
 40
0.6954457062
 40
0.8127113456
 40
0.8646748728
 40
0.9125106729
 40
0.9571387358
 40
1.0
 40
1.0
 40
1.0
 40
1.0
 10
13.6084985411
 20
60.6809635103
 30
0.0
 10
13.6084985411
 20
60.8307675254
 30
0.0
 10
13.5665969313
 20
61.1457450424
 30
0.0
 10
13.410167928
 20
61.6082252503
 30
0.0
 10
13.1691412547
 20
62.053748694
 30
0.0
 10
12.8628640249
 20
62.4457770609
 30
0.0
 10
12.5163805493
 20
62.7526369227
 30
0.0
 10
12.2027720234
 20
62.9241300845
 30
0.0
 10
11.9574465789
 20
62.9893810921
 30
0.0
 10
11.7886035473
 20
63.0018262938
 30
0.0
 10
11.6313887736
 20
62.9787474619
 30
0.0
 10
11.5361297457
 20
62.9391943535
 30
0.0
 10
11.4929219596
 20
62.9142446448
 30
0.0
  0
SPLINE
  5
2C0
100
AcDbEntity
  8
0
100
AcDbSpline
 62
7
  6
BYLAYER
 70
0
 71
3
 72
21
 73
17
 74
0
 42
0.0000001
 43
0.0000001
 44
0.0000000001
 40
0.0
 40
0.0
 40
0.0
 40
0.0
 40
0.0659223364
 40
0.136796749
 40
0.2878227779
 40
0.4414700741
 40
0.515366324
 40
0.5853300223
 40
0.6502475655
 40
0.709469252
 40
0.7629653516
 40
0.8115293093
 40
0.8569394817
 40
0.9017626747
 40
0.9487195711
 40
1.0
 40
1.0
 40
1.0
 40
1.0
 10
13.2439001426
 20
60.6809626339
 30
0.0
 10
13.2439001426
 20
60.7565297161
 30
0.0
 10
13.2313241443
 20
60.9134768117
 30
0.0
 10
13.1625958024
 20
61.2368674527
 30
0.0
 10
13.0001254214
 20
61.6393555998
 30
0.0
 10
12.7597015542
 20
62.0044455963
 30
0.0
 10
12.5283457936
 20
62.2558707708
 30
0.0
 10
12.3463037269
 20
62.4122018401
 30
0.0
 10
12.1590264314
 20
62.5337621978
 30
0.0
 10
11.9720128575
 20
62.616844915
 30
0.0
 10
11.7904552936
 20
62.6585347555
 30
0.0
 10
11.6194795547
 20
62.6563736979
 30
0.0
 10
11.4650741788
 20
62.6087402799
 30
0.0
 10
11.334597195
 20
62.5163402012
 30
0.0
 10
11.2338479945
 20
62.3842603943
 30
0.0
 10
11.1903477095
 20
62.2790940205
 30
0.0
 10
11.1734245021
 20
62.222799744
 30
0.0
  0
SPLINE
  5
2C1
100
AcDbEntity
  8
0
100
AcDbSpline
 62
7
  6
BYLAYER
 70
0
 71
3
 72
9
 73
5
 74
0
 42
0.0000001
 43
0.0000001
 44
0.0000000001
 40
0.0
 40
0.0
 40
0.0
 40
0.0
 40
0.2356686145
 40
1.0
 40
1.0
 40
1.0
 40
1.0
 10
11.1734245021
 20
62.222799744
 30
0.0
 10
11.1660752007
 20
62.1983526284
 30
0.0
 10
11.1394725313
 20
62.0932474954
 30
0.0
 10
11.1299390505
 20
61.9842242995
 30
0.0
 10
11.1299390505
 20
61.9014310288
 30
0.0
  0
SPLINE
  5
2C2
100
AcDbEntity
  8
0
100
AcDbSpline
 62
7
  6
BYLAYER
 70
0
 71
3
 72
17
 73
13
 74
0
 42
0.0000001
 43
0.0000001
 44
0.0000000001
 40
0.0
 40
0.0
 40
0.0
 40
0.0
 40
0.0428592926
 40
0.087485474
 40
0.1353198781
 40
0.1872819044
 40
0.3045421965
 40
0.4382074305
 40
0.582548911
 40
0.7297129633
 40
0.8713059682
 40
1.0
 40
1.0
 40
1.0
 40
1.0
 10
50.8239074819
 20
41.4482068518
 30
0.0
 10
50.8671129182
 20
41.4731557264
 30
0.0
 10
50.962367031
 20
41.5127086005
 30
0.0
 10
51.1195754847
 20
41.5357837477
 30
0.0
 10
51.2884125087
 20
41.5233442428
 30
0.0
 10
51.5337287386
 20
41.4580982053
 30
0.0
 10
51.8473274796
 20
41.2866205079
 30
0.0
 10
52.1938042597
 20
40.9797794327
 30
0.0
 10
52.5000887514
 20
40.5877641495
 30
0.0
 10
52.7411308737
 20
40.1422343005
 30
0.0
 10
52.8975744834
 20
39.6797350733
 30
0.0
 10
52.9394810733
 20
39.36474043
 30
0.0
 10
52.9394810733
 20
39.2149308895
 30
0.0
  0
SPLINE
  5
2C3
100
AcDbEntity
  8
0
100
AcDbSpline
 62
7
  6
BYLAYER
 70
0
 71
3
 72
23
 73
19
 74
0
 42
0.0000001
 43
0.0000001
 44
0.0000000001
 40
0.0
 40
0.0
 40
0.0
 40
0.0
 40
0.0623834861
 40
0.1287491504
 40
0.1983465047
 40
0.2703360098
 40
0.3437241422
 40
0.4174669434
 40
0.4905038561
 40
0.5618027025
 40
0.6304109576
 40
0.6955083342
 40
0.7564655543
 40
0.8129122604
 40
0.86482082
 40
0.9126030956
 40
0.957185261
 40
1.0
 40
1.0
 40
1.0
 40
1.0
 10
35.8948974523
 20
47.1889264803
 30
0.0
 10
35.8948974523
 20
47.4786614933
 30
0.0
 10
35.8555911161
 20
48.0770207291
 30
0.0
 10
35.6941210679
 20
48.9855229698
 30
0.0
 10
35.4314154362
 20
49.9164688437
 30
0.0
 10
35.0733463135
 20
50.8498766192
 30
0.0
 10
34.6273598179
 20
51.7660169293
 30
0.0
 10
34.1030359357
 20
52.6453292132
 30
0.0
 10
33.5115727186
 20
53.4690867077
 30
0.0
 10
32.8655477332
 20
54.2197152182
 30
0.0
 10
32.1786539826
 20
54.8812273142
 30
0.0
 10
31.4653733058
 20
55.4396252824
 30
0.0
 10
30.7405184715
 20
55.8830940119
 30
0.0
 10
30.0188037697
 20
56.2020800148
 30
0.0
 10
29.3145816056
 20
56.3891653234
 30
0.0
 10
28.6416979721
 20
56.4386835576
 30
0.0
 10
28.0150800014
 20
56.3468576436
 30
0.0
 10
27.6354656081
 20
56.1891004362
 30
0.0
 10
27.4632557908
 20
56.0896774631
 30
0.0
  0
SPLINE
  5
2C4
100
AcDbEntity
  8
0
100
AcDbSpline
 62
7
  6
BYLAYER
 70
0
 71
3
 72
14
 73
10
 74
0
 42
0.0000001
 43
0.0000001
 44
0.0000000001
 40
0.0
 40
0.0
 40
0.0
 40
0.0
 40
0.2883832776
 40
0.4216602612
 40
0.54782659
 40
0.667570209
 40
0.7819028541
 40
0.8921570516
 40
1.0
 40
1.0
 40
1.0
 40
1.0
 10
35.1764739716
 20
47.6036990869
 30
0.0
 10
35.1764739716
 20
47.3110367394
 30
0.0
 10
35.1433662672
 20
46.8811941669
 30
0.0
 10
35.0161097242
 20
46.3391142474
 30
0.0
 10
34.8865016
 20
45.9757923418
 30
0.0
 10
34.721150326
 20
45.648569143
 30
0.0
 10
34.5214186002
 20
45.3603258371
 30
0.0
 10
34.2888303527
 20
45.1141607921
 30
0.0
 10
34.1121555547
 20
44.9789254909
 30
0.0
 10
34.0200518343
 20
44.9198094623
 30
0.0
  0
SPLINE
  5
2C5
100
AcDbEntity
  8
0
100
AcDbSpline
 62
7
  6
BYLAYER
 70
0
 71
3
 72
14
 73
10
 74
0
 42
0.0000001
 43
0.0000001
 44
0.0000000001
 40
0.0
 40
0.0
 40
0.0
 40
0.0
 40
0.1080478072
 40
0.2181343416
 40
0.3321142811
 40
0.4514964914
 40
0.5774408518
 40
0.7107392346
 40
1.0
 40
1.0
 40
1.0
 40
1.0
 10
15.7044415829
 20
34.6405133211
 30
0.0
 10
15.7980739039
 20
34.6945855005
 30
0.0
 10
15.9781143801
 20
34.8201983498
 30
0.0
 10
16.2160030831
 20
35.0543154748
 30
0.0
 10
16.4205463556
 20
35.3321942675
 30
0.0
 10
16.5899876413
 20
35.6506137283
 30
0.0
 10
16.7228736458
 20
36.006519101
 30
0.0
 10
16.8534939873
 20
36.5406042159
 30
0.0
 10
16.8873042377
 20
36.9655389951
 30
0.0
 10
16.8873042377
 20
37.2550038983
 30
0.0
  0
SPLINE
  5
2C6
100
AcDbEntity
  8
0
100
AcDbSpline
 62
7
  6
BYLAYER
 70
0
 71
3
 72
9
 73
5
 74
0
 42
0.0000001
 43
0.0000001
 44
0.0000000001
 40
0.0
 40
0.0
 40
0.0
 40
0.0
 40
0.4860052362
 40
1.0
 40
1.0
 40
1.0
 40
1.0
 10
54.4968354427
 20
30.3164943719
 30
0.0
 10
54.5717270792
 20
30.359732823
 30
0.0
 10
54.7125742169
 20
30.473495988
 30
0.0
 10
54.8141834247
 20
30.6224644521
 30
0.0
 10
54.8565181475
 20
30.7035339507
 30
0.0
  0
SPLINE
  5
2C7
100
AcDbEntity
  8
0
100
AcDbSpline
 62
7
  6
BYLAYER
 70
0
 71
3
 72
10
 73
6
 74
0
 42
0.0000001
 43
0.0000001
 44
0.0000000001
 40
0.0
 40
0.0
 40
0.0
 40
0.0
 40
0.2275327495
 40
0.5962750686
 40
1.0
 40
1.0
 40
1.0
 40
1.0
 10
54.8565181475
 20
30.7035339507
 30
0.0
 10
54.884605919
 20
30.7573210407
 30
0.0
 10
54.9472408108
 20
30.9041653181
 30
0.0
 10
55.0090810103
 20
31.1651581331
 30
0.0
 10
55.0229091674
 20
31.3715876584
 30
0.0
 10
55.0229091675
 20
31.4792545092
 30
0.0
  0
SPLINE
  5
2C8
100
AcDbEntity
  8
0
100
AcDbSpline
 62
7
  6
BYLAYER
 70
0
 71
3
 72
23
 73
19
 74
0
 42
0.0000001
 43
0.0000001
 44
0.0000000001
 40
0.0
 40
0.0
 40
0.0
 40
0.0
 40
0.0428145861
 40
0.0873970423
 40
0.1351798452
 40
0.1870888322
 40
0.2435357079
 40
0.304492732
 40
0.3695894583
 40
0.438196618
 40
0.509494164
 40
0.5825297073
 40
0.6562715538
 40
0.7296598424
 40
0.8016501985
 40
0.8712484419
 40
0.9376157826
 40
1.0
 40
1.0
 40
1.0
 40
1.0
 10
17.5541988023
 20
49.1955431656
 30
0.0
 10
17.7013605039
 20
49.280502391
 30
0.0
 10
18.0257562964
 20
49.4153184361
 30
0.0
 10
18.5612340084
 20
49.4937833695
 30
0.0
 10
19.1362481295
 20
49.4514673622
 30
0.0
 10
19.7380421951
 20
49.2915919731
 30
0.0
 10
20.3547808314
 20
49.0190014976
 30
0.0
 10
20.9741990245
 20
48.6400372359
 30
0.0
 10
21.5837230019
 20
48.1628646991
 30
0.0
 10
22.1706961935
 20
47.5975810097
 30
0.0
 10
22.7227458615
 20
46.9561476969
 30
0.0
 10
23.2281716254
 20
46.2522225405
 30
0.0
 10
23.6762275814
 20
45.5008187396
 30
0.0
 10
24.0573478809
 20
44.7179372442
 30
0.0
 10
24.3633416181
 20
43.9202926238
 30
0.0
 10
24.5878426965
 20
43.1247448265
 30
0.0
 10
24.7258279877
 20
42.3483754145
 30
0.0
 10
24.7594202418
 20
41.8370408544
 30
0.0
 10
24.7594202418
 20
41.5894462121
 30
0.0
  0
SPLINE
  5
2C9
100
AcDbEntity
  8
0
100
AcDbSpline
 62
7
  6
BYLAYER
 70
0
 71
3
 72
14
 73
10
 74
0
 42
0.0000001
 43
0.0000001
 44
0.0000000001
 40
0.0
 40
0.0
 40
0.0
 40
0.0
 40
0.2892730701
 40
0.4225567859
 40
0.5485014711
 40
0.6678914099
 40
0.7818722781
 40
0.8919548315
 40
1.0
 40
1.0
 40
1.0
 40
1.0
 10
30.1475514813
 20
44.7002666646
 30
0.0
 10
30.1475514813
 20
44.3977219844
 30
0.0
 10
30.1122299625
 20
43.953604381
 30
0.0
 10
29.9756901116
 20
43.3954178705
 30
0.0
 10
29.8368091435
 20
43.0234521379
 30
0.0
 10
29.65971343
 20
42.69065341
 30
0.0
 10
29.4459558894
 20
42.40020577
 30
0.0
 10
29.1972928273
 20
42.1555698666
 30
0.0
 10
29.0091611219
 20
42.0242466288
 30
0.0
 10
28.911297022
 20
41.9677478385
 30
0.0
  0
SPLINE
  5
2CA
100
AcDbEntity
  8
0
100
AcDbSpline
 62
7
  6
BYLAYER
 70
0
 71
3
 72
23
 73
19
 74
0
 42
0.0000001
 43
0.0000001
 44
0.0000000001
 40
0.0
 40
0.0
 40
0.0
 40
0.0
 40
0.0623788002
 40
0.1287503477
 40
0.1983457761
 40
0.2703345382
 40
0.3437243134
 40
0.4174668573
 40
0.4905033045
 40
0.5618008101
 40
0.6304087171
 40
0.6955076318
 40
0.7564648179
 40
0.8129108578
 40
0.8648208718
 40
0.9126040628
 40
0.9571856744
 40
1.0
 40
1.0
 40
1.0
 40
1.0
 10
16.8873042377
 20
37.2550038983
 30
0.0
 10
16.8873042377
 20
37.4918840905
 30
0.0
 10
16.8551467726
 20
37.9811274132
 30
0.0
 10
16.7231516511
 20
38.7239533712
 30
0.0
 10
16.5083575358
 20
39.4851442191
 30
0.0
 10
16.2155655612
 20
40.2483201986
 30
0.0
 10
15.8509134864
 20
40.9973932612
 30
0.0
 10
15.4222226859
 20
41.716364536
 30
0.0
 10
14.9386288981
 20
42.3898967194
 30
0.0
 10
14.4103950172
 20
43.0036099257
 30
0.0
 10
13.8487777283
 20
43.544495497
 30
0.0
 10
13.2655922577
 20
44.0010953075
 30
0.0
 10
12.672906554
 20
44.3636734876
 30
0.0
 10
12.0827928176
 20
44.6244590424
 30
0.0
 10
11.5070031635
 20
44.7774702411
 30
0.0
 10
10.9568152552
 20
44.8179770758
 30
0.0
 10
10.4444842899
 20
44.7428343901
 30
0.0
 10
10.1340849547
 20
44.6138833352
 30
0.0
 10
9.9932909102
 20
44.5325755052
 30
0.0
  0
SPLINE
  5
2CB
100
AcDbEntity
  8
0
100
AcDbSpline
 62
7
  6
BYLAYER
 70
0
 71
3
 72
14
 73
10
 74
0
 42
0.0000001
 43
0.0000001
 44
0.0000000001
 40
0.0
 40
0.0
 40
0.0
 40
0.0
 40
0.1080471855
 40
0.2181316023
 40
0.3321125462
 40
0.4515018187
 40
0.5774457261
 40
0.7107284566
 40
1.0
 40
1.0
 40
1.0
 40
1.0
 10
19.7541711289
 20
36.6809030203
 30
0.0
 10
19.8520365339
 20
36.737403979
 30
0.0
 10
20.0401701128
 20
36.8687317801
 30
0.0
 10
20.2888368157
 20
37.1133702644
 30
0.0
 10
20.5025937338
 20
37.4038206999
 30
0.0
 10
20.6796850922
 20
37.7366204586
 30
0.0
 10
20.818563757
 20
38.1085846094
 30
0.0
 10
20.9551018046
 20
38.6667685726
 30
0.0
 10
20.9904224397
 20
39.1108839413
 30
0.0
 10
20.9904224397
 20
39.4134273056
 30
0.0
  0
SPLINE
  5
2CC
100
AcDbEntity
  8
0
100
AcDbSpline
 62
7
  6
BYLAYER
 70
0
 71
3
 72
14
 73
10
 74
0
 42
0.0000001
 43
0.0000001
 44
0.0000000001
 40
0.0
 40
0.0
 40
0.0
 40
0.0
 40
0.2892607654
 40
0.4225591482
 40
0.5485035086
 40
0.6678857189
 40
0.7818656584
 40
0.8919521928
 40
1.0
 40
1.0
 40
1.0
 40
1.0
 10
20.6258240412
 20
39.4134264292
 30
0.0
 10
20.6258240412
 20
39.123961526
 30
0.0
 10
20.5920137908
 20
38.6990267467
 30
0.0
 10
20.4613934493
 20
38.1649416318
 30
0.0
 10
20.3285074447
 20
37.8090362592
 30
0.0
 10
20.1590661591
 20
37.4906167984
 30
0.0
 10
19.9545228866
 20
37.2127380056
 30
0.0
 10
19.7166341835
 20
36.9786208807
 30
0.0
 10
19.5365937073
 20
36.8530080314
 30
0.0
 10
19.4429613863
 20
36.7989358519
 30
0.0
  0
SPLINE
  5
2CD
100
AcDbEntity
  8
0
100
AcDbSpline
 62
7
  6
BYLAYER
 70
0
 71
3
 72
23
 73
19
 74
0
 42
0.0000001
 43
0.0000001
 44
0.0000000001
 40
0.0
 40
0.0
 40
0.0
 40
0.0
 40
0.0428145861
 40
0.0873970423
 40
0.1351798452
 40
0.1870888322
 40
0.2435357079
 40
0.304492732
 40
0.3695894583
 40
0.438196618
 40
0.509494164
 40
0.5825297073
 40
0.6562715538
 40
0.7296598424
 40
0.8016501985
 40
0.8712484419
 40
0.9376157826
 40
1.0
 40
1.0
 40
1.0
 40
1.0
 10
22.9423300418
 20
52.3063636181
 30
0.0
 10
23.0894917435
 20
52.3913228435
 30
0.0
 10
23.413887536
 20
52.5261388886
 30
0.0
 10
23.9493652479
 20
52.604603822
 30
0.0
 10
24.524379369
 20
52.5622878147
 30
0.0
 10
25.1261734346
 20
52.4024124256
 30
0.0
 10
25.742912071
 20
52.1298219501
 30
0.0
 10
26.3623302641
 20
51.7508576884
 30
0.0
 10
26.9718542415
 20
51.2736851516
 30
0.0
 10
27.558827433
 20
50.7084014622
 30
0.0
 10
28.1108771011
 20
50.0669681494
 30
0.0
 10
28.616302865
 20
49.363042993
 30
0.0
 10
29.064358821
 20
48.6116391921
 30
0.0
 10
29.4454791204
 20
47.8287576967
 30
0.0
 10
29.7514728577
 20
47.0311130763
 30
0.0
 10
29.9759739361
 20
46.235565279
 30
0.0
 10
30.1139592272
 20
45.459195867
 30
0.0
 10
30.1475514813
 20
44.9478613069
 30
0.0
 10
30.1475514813
 20
44.7002666646
 30
0.0
  0
SPLINE
  5
2CE
100
AcDbEntity
  8
0
100
AcDbSpline
 62
7
  6
BYLAYER
 70
0
 71
3
 72
23
 73
19
 74
0
 42
0.0000001
 43
0.0000001
 44
0.0000000001
 40
0.0
 40
0.0
 40
0.0
 40
0.0
 40
0.0623833947
 40
0.1287487122
 40
0.1983454145
 40
0.2703347117
 40
0.3437239549
 40
0.4174667285
 40
0.4905026392
 40
0.561800852
 40
0.6304088906
 40
0.6955064836
 40
0.7564642291
 40
0.8129115183
 40
0.8648205169
 40
0.9126030798
 40
0.9571852694
 40
1.0
 40
1.0
 40
1.0
 40
1.0
 10
20.9904224397
 20
39.4134273056
 30
0.0
 10
20.9904224397
 20
39.6610189509
 30
0.0
 10
20.956833517
 20
40.172342919
 30
0.0
 10
20.8188516383
 20
40.9486961117
 30
0.0
 10
20.5943604263
 20
41.7442283474
 30
0.0
 10
20.2883753835
 20
42.541870353
 30
0.0
 10
19.9072570411
 20
43.3247575095
 30
0.0
 10
19.4592009561
 20
44.0761727911
 30
0.0
 10
18.9537717047
 20
44.7801062097
 30
0.0
 10
18.4017201163
 20
45.4215490468
 30
0.0
 10
17.8147412968
 20
45.9868421276
 30
0.0
 10
17.205209462
 20
46.4640219455
 30
0.0
 10
16.5857841998
 20
46.8429914343
 30
0.0
 10
15.9690405904
 20
47.1155839536
 30
0.0
 10
15.3672448467
 20
47.2754584949
 30
0.0
 10
14.7922318279
 20
47.3177730742
 30
0.0
 10
14.2567556248
 20
47.2393061245
 30
0.0
 10
13.932359288
 20
47.1044909182
 30
0.0
 10
13.7851978517
 20
47.0195297183
 30
0.0
  0
SPLINE
  5
2CF
100
AcDbEntity
  8
0
100
AcDbSpline
 62
7
  6
BYLAYER
 70
0
 71
3
 72
14
 73
10
 74
0
 42
0.0000001
 43
0.0000001
 44
0.0000000001
 40
0.0
 40
0.0
 40
0.0
 40
0.0
 40
0.2892730701
 40
0.4225567859
 40
0.5485014711
 40
0.6678914099
 40
0.7818722781
 40
0.8919548315
 40
1.0
 40
1.0
 40
1.0
 40
1.0
 10
24.7594202418
 20
41.5894462121
 30
0.0
 10
24.7594202418
 20
41.2869015319
 30
0.0
 10
24.724098723
 20
40.8427839285
 30
0.0
 10
24.587558872
 20
40.284597418
 30
0.0
 10
24.4486779039
 20
39.9126316854
 30
0.0
 10
24.2715821904
 20
39.5798329575
 30
0.0
 10
24.0578246498
 20
39.2893853175
 30
0.0
 10
23.8091615878
 20
39.0447494141
 30
0.0
 10
23.6210298823
 20
38.9134261763
 30
0.0
 10
23.5231657825
 20
38.856927386
 30
0.0
  0
ENDSEC
  0
SECTION
  2
OBJECTS
  0
DICTIONARY
  5
C
100
AcDbDictionary
280
0
281
1
  3
ACAD_GROUP
350
D
  3
ACAD_MLINESTYLE
350
17
  3
ACAD_LAYOUT
350
1A
  3
ACAD_PLOTSETTINGS
350
19
  3
ACAD_PLOTSTYLENAME
350
E
  0
DICTIONARY
  5
D
102
{ACAD_REACTORS
330
C
102
}
100
AcDbDictionary
280
0
281
1
  0
ACDBDICTIONARYWDFLT
  5
E
102
{ACAD_REACTORS
330
C
102
}
100
AcDbDictionary
281
1
  3
Normal
350
F
100
AcDbDictionaryWithDefault
340
F
  0
DICTIONARY
  5
17
102
{ACAD_REACTORS
330
C
102
}
100
AcDbDictionary
280
0
281
1
  3
Standard
350
18
  0
DICTIONARY
  5
19
102
{ACAD_REACTORS
330
C
102
}
100
AcDbDictionary
281
1
  0
DICTIONARY
  5
1A
102
{ACAD_REACTORS
330
C
102
}
100
AcDbDictionary
281
1
  3
Model
350
2D0
  3
Layout1
350
2D1
  0
ACDBPLACEHOLDER
  5
F
102
{ACAD_REACTORS
330
E
102
}
  0
MLINESTYLE
  5
18
102
{ACAD_REACTORS
330
17
102
}
100
AcDbMlineStyle
  2
STANDARD
 70
0
  3

 62
256
 51
90.0
 52
90.0
 71
2
 49
0.5
 62
256
  6
BYLAYER
 49
-0.5
 62
256
  6
BYLAYER
  0
LAYOUT
  5
2D0
102
{ACAD_REACTORS
330
1A
102
}
100
AcDbPlotSettings
  1

  2
none_device
  4

  6

 40
0.0
 41
0.0
 42
0.0
 43
0.0
 44
210.0
 45
297.0
 46
0.0
 47
0.0
 48
0.0
 49
0.0
140
0.0
141
0.0
142
1.0
143
1.0
 70
1024
 72
1
 73
0
 74
0
  7

 75
0
147
1.0
148
0.0
149
0.0
100
AcDbLayout
  1
Model
 70
0
 71
0
 10
0.0
 20
0.0
 11
210.0
 21
297.0
 12
0.0
 22
0.0
 32
0.0
 14
0.0
 24
0.0
 34
0.0
 15
0.0
 25
0.0
 35
0.0
146
0.0
 13
0.0
 23
0.0
 33
0.0
 16
1.0
 26
0.0
 36
0.0
 17
0.0
 27
1.0
 37
0.0
 76
0
330
211
345
0
346
0
  0
LAYOUT
  5
2D1
102
{ACAD_REACTORS
330
1A
102
}
100
AcDbPlotSettings
  1

  2
none_device
  4

  6

 40
0.0
 41
0.0
 42
0.0
 43
0.0
 44
210.0
 45
297.0
 46
0.0
 47
0.0
 48
0.0
 49
0.0
140
0.0
141
0.0
142
1.0
143
1.0
 70
0
 72
1
 73
0
 74
0
  7

 75
0
147
1.0
148
0.0
149
0.0
100
AcDbLayout
  1
Layout1
 70
0
 71
1
 10
0.0
 20
0.0
 11
210.0
 21
297.0
 12
0.0
 22
0.0
 32
0.0
 14
0.0
 24
0.0
 34
0.0
 15
0.0
 25
0.0
 35
0.0
146
0.0
 13
0.0
 23
0.0
 33
0.0
 16
1.0
 26
0.0
 36
0.0
 17
0.0
 27
1.0
 37
0.0
 76
0
330
212
345
0
346
0
  0
ENDSEC
  0
EOF
