999
DXF file: C:\Users\sesa63760\Dev\_Creo\CAD\MCADID0002472_3D-CAD\drw0001_1.dxf
999
Pro/ENGINEER 2019471 by Parametric Technology Corporation
  0
SECTION
  2
HEADER
  9
$ACADVER
  1
AC1024
  9
$DWGCODEPAGE
  3
ANSI_1252
  9
$EXTMAX
 10
73.1020996998
 20
103.3872552898
 30
0.0
  9
$EXTMIN
 10
0.0
 20
0.0
 30
0.0
  9
$LIMMIN
 10
0.0
 20
0.0
  9
$LIMMAX
 10
73.1020996998
 20
103.3872552898
  9
$VIEWCTR
 10
36.5510498499
 20
51.6936276449
  9
$VIEWSIZE
 40
103.3872552898
  9
$CLAYER
  8
0
  9
$LTSCALE
 40
6.7393173819
  9
$CELTYPE
  6
BYLAYER
  9
$DIMSCALE
 40
1.0
  9
$DIMASZ
 40
0.8702630917
  9
$DIMEXO
 40
1.0
  9
$DIMDLI
 40
4.6562556456
  9
$DIMEXE
 40
1.0
  9
$DIMCEN
 40
1.1027973898
  9
$DIMLFAC
 40
1.0
  9
$DIMBLK
  1
_FILLED
  9
$DIMALT
 70
0
  9
$DIMALTF
 40
0.0393700787
  9
$DIMTXT
 40
1.2183683283
  9
$DIMTOL
 70
1
  9
$DIMLIM
 70
0
  9
$DIMTFAC
 40
1.0
  9
$DIMTP
 40
0.01
  9
$DIMTM
 40
0.01
  9
$DIMGAP
 40
0.625
  9
$DIMDSEP
 70
46
  9
$AUNITS
 70
0
  9
$PDMODE
 70
3
  9
$PDSIZE
 40
0.3125
  9
$HANDSEED
  5
301
  9
$TILEMODE
 70
1
  9
$MEASUREMENT
 70
1
  9
$INSUNITS
 70
4
  0
ENDSEC
  0
SECTION
  2
CLASSES
  0
CLASS
  1
ACDBDICTIONARYWDFLT
  2
AcDbDictionaryWithDefault
  3
AutoCAD 2000
 90
0
 91
1
280
0
281
0
  0
CLASS
  1
ACDBPLACEHOLDER
  2
AcDbPlaceHolder
  3
AutoCAD 2000
 90
0
 91
1
280
0
281
0
  0
CLASS
  1
LAYOUT
  2
AcDbLayout
  3
AutoCAD 2000
 90
0
 91
0
280
0
281
0
  0
ENDSEC
  0
SECTION
  2
TABLES
  0
TABLE
  2
VPORT
  5
8
100
AcDbSymbolTable
 70
2
  0
VPORT
  5
1F4
100
AcDbSymbolTableRecord
100
AcDbViewportTableRecord
  2
*ACTIVE
 70
0
 10
0.0
 20
0.0
 11
1.0
 21
1.0
 12
36.5510498499
 22
51.6936276449
 13
0.0
 23
0.0
 14
1.0
 24
1.0
 15
0.0
 25
0.0
 16
0.0
 26
0.0
 36
1.0
 17
0.0
 27
0.0
 37
0.0
 40
103.3872552898
 41
0.7070707071
 42
50.0
 43
0.0
 44
0.0
 50
0.0
 51
0.0
 71
0
 72
100
 73
1
 74
1
 75
0
 76
0
 77
0
 78
0
  0
ENDTAB
  0
TABLE
  2
LTYPE
  5
5
100
AcDbSymbolTable
 70
6
  0
LTYPE
  5
14
100
AcDbSymbolTableRecord
100
AcDbLinetypeTableRecord
  2
BYBLOCK
 70
0
  3

 72
65
 73
0
 40
0.0
  0
LTYPE
  5
15
100
AcDbSymbolTableRecord
100
AcDbLinetypeTableRecord
  2
BYLAYER
 70
0
  3

 72
65
 73
0
 40
0.0
  0
LTYPE
  5
16
100
AcDbSymbolTableRecord
100
AcDbLinetypeTableRecord
  2
CONTINUOUS
 70
64
  3
Solid line
 72
65
 73
0
 40
0.0
  0
LTYPE
  5
1F5
100
AcDbSymbolTableRecord
100
AcDbLinetypeTableRecord
  2
CENTER
 70
64
  3
____ _ ____ _ ____ _ ____ _ ____ _ ____ _ ____
 72
65
 73
4
 40
0.6
 49
0.375
 74
0
 49
-0.075
 74
0
 49
0.075
 74
0
 49
-0.075
 74
0
  0
LTYPE
  5
1F6
100
AcDbSymbolTableRecord
100
AcDbLinetypeTableRecord
  2
HIDDEN
 70
64
  3
- - - - - - - - - - - - - - - - - - - -
 72
65
 73
2
 40
0.2
 49
0.1
 74
0
 49
-0.1
 74
0
  0
LTYPE
  5
1F7
100
AcDbSymbolTableRecord
100
AcDbLinetypeTableRecord
  2
PHANTOM
 70
64
  3
_____ _ _ _____ _ _ _____ _ _ _____
 72
65
 73
6
 40
0.8
 49
0.45
 74
0
 49
-0.05
 74
0
 49
0.1
 74
0
 49
-0.05
 74
0
 49
0.1
 74
0
 49
-0.05
 74
0
  0
LTYPE
  5
1F8
100
AcDbSymbolTableRecord
100
AcDbLinetypeTableRecord
  2
DOT
 70
64
  3
. . . . . . . . . . . . . . . . . . . .
 72
65
 73
2
 40
0.2
 49
0.1
 74
0
 49
-0.1
 74
0
  0
LTYPE
  5
1F9
100
AcDbSymbolTableRecord
100
AcDbLinetypeTableRecord
  2
DASHED
 70
64
  3
- - - - - - - - - - - - - - - - - - - -
 72
65
 73
2
 40
0.2
 49
0.1
 74
0
 49
-0.1
 74
0
  0
ENDTAB
  0
TABLE
  2
LAYER
  5
2
100
AcDbSymbolTable
 70
36
  0
LAYER
  5
10
100
AcDbSymbolTableRecord
100
AcDbLayerTableRecord
  2
0
 70
0
 62
7
  6
CONTINUOUS
370
-3
390
F
  0
LAYER
  5
1FA
100
AcDbSymbolTableRecord
100
AcDbLayerTableRecord
  2
DEFAULT_1
 70
0
 62
7
  6
CENTER
370
-3
390
F
  0
LAYER
  5
1FB
100
AcDbSymbolTableRecord
100
AcDbLayerTableRecord
  2
DEFAULT_2
 70
0
 62
7
  6
HIDDEN
370
-3
390
F
  0
LAYER
  5
1FC
100
AcDbSymbolTableRecord
100
AcDbLayerTableRecord
  2
DEFAULT_3
 70
0
 62
7
  6
PHANTOM
370
-3
390
F
  0
LAYER
  5
1FD
100
AcDbSymbolTableRecord
100
AcDbLayerTableRecord
  2
00_COMPONENTS
 70
0
 62
7
  6
CONTINUOUS
370
-3
390
F
  0
LAYER
  5
1FE
100
AcDbSymbolTableRecord
100
AcDbLayerTableRecord
  2
01_1_DEFAULT_DATUMS
 70
0
 62
7
  6
CONTINUOUS
370
-3
390
F
  0
LAYER
  5
1FF
100
AcDbSymbolTableRecord
100
AcDbLayerTableRecord
  2
01_PLANES
 70
0
 62
7
  6
CONTINUOUS
370
-3
390
F
  0
LAYER
  5
200
100
AcDbSymbolTableRecord
100
AcDbLayerTableRecord
  2
02_COORD_SYS
 70
0
 62
7
  6
CONTINUOUS
370
-3
390
F
  0
LAYER
  5
201
100
AcDbSymbolTableRecord
100
AcDbLayerTableRecord
  2
03_AXES
 70
0
 62
7
  6
CONTINUOUS
370
-3
390
F
  0
LAYER
  5
202
100
AcDbSymbolTableRecord
100
AcDbLayerTableRecord
  2
04_POINTS
 70
0
 62
7
  6
CONTINUOUS
370
-3
390
F
  0
LAYER
  5
203
100
AcDbSymbolTableRecord
100
AcDbLayerTableRecord
  2
05_CURVES
 70
0
 62
7
  6
CONTINUOUS
370
-3
390
F
  0
LAYER
  5
204
100
AcDbSymbolTableRecord
100
AcDbLayerTableRecord
  2
06_SURFS
 70
0
 62
7
  6
CONTINUOUS
370
-3
390
F
  0
LAYER
  5
205
100
AcDbSymbolTableRecord
100
AcDbLayerTableRecord
  2
07_COSMETICS
 70
0
 62
7
  6
CONTINUOUS
370
-3
390
F
  0
LAYER
  5
206
100
AcDbSymbolTableRecord
100
AcDbLayerTableRecord
  2
10_NOTES
 70
0
 62
7
  6
CONTINUOUS
370
-3
390
F
  0
LAYER
  5
207
100
AcDbSymbolTableRecord
100
AcDbLayerTableRecord
  2
11_NOTES_PUB
 70
0
 62
7
  6
CONTINUOUS
370
-3
390
F
  0
LAYER
  5
208
100
AcDbSymbolTableRecord
100
AcDbLayerTableRecord
  2
13_REF_GTOL
 70
0
 62
7
  6
CONTINUOUS
370
-3
390
F
  0
LAYER
  5
209
100
AcDbSymbolTableRecord
100
AcDbLayerTableRecord
  2
16_MISC
 70
0
 62
7
  6
CONTINUOUS
370
-3
390
F
  0
LAYER
  5
20A
100
AcDbSymbolTableRecord
100
AcDbLayerTableRecord
  2
17_NO_PRINT
 70
0
 62
7
  6
CONTINUOUS
370
-3
390
F
  0
LAYER
  5
20B
100
AcDbSymbolTableRecord
100
AcDbLayerTableRecord
  2
18_DATUM_CAMS_JOINTS
 70
0
 62
7
  6
CONTINUOUS
370
-3
390
F
  0
LAYER
  5
20C
100
AcDbSymbolTableRecord
100
AcDbLayerTableRecord
  2
19_DATUM_FUNCTIONAL
 70
0
 62
7
  6
CONTINUOUS
370
-3
390
F
  0
LAYER
  5
20D
100
AcDbSymbolTableRecord
100
AcDbLayerTableRecord
  2
20_DATUM_KINEMATIC_SCHEME
 70
0
 62
7
  6
CONTINUOUS
370
-3
390
F
  0
ENDTAB
  0
TABLE
  2
STYLE
  5
3
100
AcDbSymbolTable
 70
1
  0
STYLE
  5
11
100
AcDbSymbolTableRecord
100
AcDbTextStyleTableRecord
  2
STANDARD
 70
0
 40
0.0
 41
1.0
 50
0.0
 71
0
 42
0.2
  3
ARIAL.TTF
  4

  0
STYLE
  5
20E
100
AcDbSymbolTableRecord
100
AcDbTextStyleTableRecord
  2
TEXTSTYLE_1
 70
0
 40
0.0
 41
0.8
 50
0.0
 71
0
 42
0.2
  3
gdt
  4

  0
ENDTAB
  0
TABLE
  2
VIEW
  5
6
100
AcDbSymbolTable
 70
0
  0
ENDTAB
  0
TABLE
  2
UCS
  5
7
100
AcDbSymbolTable
 70
0
  0
ENDTAB
  0
TABLE
  2
APPID
  5
9
100
AcDbSymbolTable
 70
1
  0
APPID
  5
20F
100
AcDbSymbolTableRecord
100
AcDbRegAppTableRecord
  2
ACAD
 70
0
  0
ENDTAB
  0
TABLE
  2
BLOCK_RECORD
  5
1
100
AcDbSymbolTable
 70
0
  0
BLOCK_RECORD
  5
210
100
AcDbSymbolTableRecord
100
AcDbBlockTableRecord
  2
*Model_Space
  0
BLOCK_RECORD
  5
211
100
AcDbSymbolTableRecord
100
AcDbBlockTableRecord
  2
*Paper_Space
  0
BLOCK_RECORD
  5
212
100
AcDbSymbolTableRecord
100
AcDbBlockTableRecord
  2
_FILLED
  0
ENDTAB
  0
TABLE
  2
DIMSTYLE
  5
A
100
AcDbSymbolTable
 70
1
100
AcDbDimStyleTable
 71
0
  0
DIMSTYLE
105
213
100
AcDbSymbolTableRecord
100
AcDbDimStyleTableRecord
  2
STANDARD
 70
0
  3

  4

 40
1.0
 41
0.8702630917
 42
1.0
 43
0.38
 44
1.0
 45
0.0
 46
0.0
 47
0.01
 48
0.01
140
1.2183683283
141
0.09
142
0.0
143
25.4
144
1.0
145
0.0
146
1.0
147
0.625
 71
1
 72
0
 73
0
 74
0
 75
0
 76
0
 77
1
 78
8
 79
2
170
0
171
1
172
0
173
0
174
0
175
0
176
0
177
0
178
0
270
2
179
2
271
2
272
2
273
2
274
2
275
0
280
0
281
0
282
0
283
1
284
8
285
0
286
0
287
3
288
0
340
11
278
46
341
212
342
212
343
212
344
212
  0
ENDTAB
  0
ENDSEC
  0
SECTION
  2
BLOCKS
  0
BLOCK
  5
20
100
AcDbEntity
  8
0
100
AcDbBlockBegin
  2
*Model_Space
 70
0
 10
0.0
 20
0.0
 30
0.0
  3
*Model_Space
  1

  0
ENDBLK
  5
21
100
AcDbEntity
  8
0
100
AcDbBlockEnd
  0
BLOCK
  5
1C
100
AcDbEntity
  8
0
100
AcDbBlockBegin
  2
*Paper_Space
 70
0
 10
0.0
 20
0.0
 30
0.0
  3
*Paper_Space
  1

  0
ENDBLK
  5
1D
100
AcDbEntity
  8
0
100
AcDbBlockEnd
  0
BLOCK
  5
214
100
AcDbEntity
  8
0
100
AcDbBlockBegin
  2
_FILLED
 70
64
 10
0.0
 20
0.0
  3
_FILLED
  1

  0
SOLID
  5
215
100
AcDbEntity
  8
0
  6
BYBLOCK
 62
0
100
AcDbTrace
 10
0.0
 20
0.0
 11
-1.0
 21
0.25
 12
-1.0
 22
-0.25
 13
-1.0
 23
-0.25
  0
ENDBLK
  5
216
100
AcDbEntity
  8
0
  6
BYBLOCK
 62
0
100
AcDbBlockEnd
  0
ENDSEC
  0
SECTION
  2
ENTITIES
  0
LINE
  5
217
100
AcDbEntity
  8
0
100
AcDbLine
 62
7
  6
BYLAYER
 10
9.5583108727
 20
71.1400072908
 11
20.6039799138
 21
77.5171892184
  0
LINE
  5
218
100
AcDbEntity
  8
0
100
AcDbLine
 62
7
  6
BYLAYER
 10
8.4806846248
 20
53.9472532456
 11
8.4806846248
 21
69.2734935166
  0
LINE
  5
219
100
AcDbEntity
  8
0
100
AcDbLine
 62
7
  6
BYLAYER
 10
9.7916113533
 20
47.5133683628
 11
9.7916113533
 21
63.4410443142
  0
LINE
  5
21A
100
AcDbEntity
  8
0
100
AcDbLine
 62
7
  6
BYLAYER
 10
11.4905344324
 20
60.8639301176
 11
11.4905344324
 21
60.2417552758
  0
LINE
  5
21B
100
AcDbEntity
  8
0
100
AcDbLine
 62
7
  6
BYLAYER
 10
11.4905344324
 20
44.3140793244
 11
11.4905344324
 21
43.6919044825
  0
LINE
  5
21C
100
AcDbEntity
  8
0
100
AcDbLine
 62
7
  6
BYLAYER
 10
12.2344906822
 20
42.6549643317
 11
12.2344906822
 21
43.2771391735
  0
LINE
  5
21D
100
AcDbEntity
  8
0
100
AcDbLine
 62
7
  6
BYLAYER
 10
12.2344906822
 20
59.204815125
 11
12.2344906822
 21
59.8269899668
  0
LINE
  5
21E
100
AcDbEntity
  8
0
100
AcDbLine
 62
7
  6
BYLAYER
 10
24.6271738391
 20
72.0836551205
 11
21.1248885333
 21
70.0616218264
  0
LINE
  5
21F
100
AcDbEntity
  8
0
100
AcDbLine
 62
7
  6
BYLAYER
 10
21.663715455
 20
69.7505369958
 11
24.6271738391
 21
71.4614802787
  0
LINE
  5
220
100
AcDbEntity
  8
0
100
AcDbLine
 62
7
  6
BYLAYER
 10
15.826608086
 20
57.7531269339
 11
15.826608086
 21
57.130952092
  0
LINE
  5
221
100
AcDbEntity
  8
0
100
AcDbLine
 62
7
  6
BYLAYER
 10
15.826608086
 20
41.2032761406
 11
15.826608086
 21
40.5811012987
  0
LINE
  5
222
100
AcDbEntity
  8
0
100
AcDbLine
 62
7
  6
BYLAYER
 10
8.9497135763
 20
61.5964677054
 11
9.3089223256
 21
61.8038557355
  0
LINE
  5
223
100
AcDbEntity
  8
0
100
AcDbLine
 62
7
  6
BYLAYER
 10
15.6469588453
 20
63.8710479207
 11
12.2344757428
 21
61.9008616433
  0
LINE
  5
224
100
AcDbEntity
  8
0
100
AcDbLine
 62
7
  6
BYLAYER
 10
23.8705378161
 20
68.4764563351
 11
31.3432065602
 21
72.7907778931
  0
LINE
  5
225
100
AcDbEntity
  8
0
100
AcDbLine
 62
7
  6
BYLAYER
 10
10.3753351797
 20
63.7238302374
 11
9.7916113533
 21
63.4410443142
  0
LINE
  5
226
100
AcDbEntity
  8
0
100
AcDbLine
 62
7
  6
BYLAYER
 10
15.8266080701
 20
40.5811013079
 11
12.2344906981
 21
42.6549643225
  0
LINE
  5
227
100
AcDbEntity
  8
0
100
AcDbLine
 62
7
  6
BYLAYER
 10
19.4187105344
 20
40.5811099331
 11
19.4187105344
 21
41.2032847749
  0
LINE
  5
228
100
AcDbEntity
  8
0
100
AcDbLine
 62
7
  6
BYLAYER
 10
19.4187105344
 20
57.1309607264
 11
19.4187105344
 21
57.7531355682
  0
LINE
  5
229
100
AcDbEntity
  8
0
100
AcDbLine
 62
7
  6
BYLAYER
 10
24.9864519866
 20
67.8321975635
 11
33.24819803
 21
72.6020903932
  0
LINE
  5
22A
100
AcDbEntity
  8
0
100
AcDbLine
 62
7
  6
BYLAYER
 10
8.949715771
 20
56.4637883919
 11
9.3089245203
 21
56.6711764221
  0
LINE
  5
22B
100
AcDbEntity
  8
0
100
AcDbLine
 62
7
  6
BYLAYER
 10
12.2344906981
 20
43.2771391644
 11
15.8266080701
 21
41.2032761497
  0
LINE
  5
22C
100
AcDbEntity
  8
0
100
AcDbLine
 62
7
  6
BYLAYER
 10
13.8189685312
 20
44.7423710176
 11
9.7916113533
 21
47.5133683628
  0
LINE
  5
22D
100
AcDbEntity
  8
0
100
AcDbLine
 62
7
  6
BYLAYER
 10
20.1371056
 20
61.2787191295
 11
20.1371056
 21
60.6565442877
  0
LINE
  5
22E
100
AcDbEntity
  8
0
100
AcDbLine
 62
7
  6
BYLAYER
 10
20.137128033
 20
58.1679116285
 11
20.137128033
 21
57.5457367867
  0
LINE
  5
22F
100
AcDbEntity
  8
0
100
AcDbLine
 62
7
  6
BYLAYER
 10
20.137128033
 20
41.6180608353
 11
20.137128033
 21
40.9958859934
  0
LINE
  5
230
100
AcDbEntity
  8
0
100
AcDbLine
 62
7
  6
BYLAYER
 10
9.4577156913
 20
56.1704986021
 11
9.7916113533
 21
56.3632722017
  0
LINE
  5
231
100
AcDbEntity
  8
0
100
AcDbLine
 62
7
  6
BYLAYER
 10
20.1371056
 20
61.2787191295
 11
17.4430399802
 21
59.7233089033
  0
LINE
  5
232
100
AcDbEntity
  8
0
100
AcDbLine
 62
7
  6
BYLAYER
 10
20.1371056
 20
60.6565442877
 11
17.9818669018
 21
59.4122240727
  0
LINE
  5
233
100
AcDbEntity
  8
0
100
AcDbLine
 62
7
  6
BYLAYER
 10
25.9378307135
 20
39.6761474664
 11
13.8189685312
 21
44.7423710176
  0
LINE
  5
234
100
AcDbEntity
  8
0
100
AcDbLine
 62
7
  6
BYLAYER
 10
20.137128033
 20
41.6180608353
 11
17.4430399802
 21
43.17345811
  0
LINE
  5
235
100
AcDbEntity
  8
0
100
AcDbLine
 62
7
  6
BYLAYER
 10
39.6755653253
 20
32.8264137064
 11
50.6521429448
 21
26.4892270294
  0
LINE
  5
236
100
AcDbEntity
  8
0
100
AcDbLine
 62
7
  6
BYLAYER
 10
22.4990187683
 20
31.9025501868
 11
22.4990187683
 21
36.4651656937
  0
LINE
  5
237
100
AcDbEntity
  8
0
100
AcDbLine
 62
7
  6
BYLAYER
 10
23.7690187718
 20
36.4651656935
 11
23.7690187718
 21
37.0873405354
  0
LINE
  5
238
100
AcDbEntity
  8
0
100
AcDbLine
 62
7
  6
BYLAYER
 10
24.6271738391
 20
72.0836551205
 11
24.6271738391
 21
71.4614802787
  0
LINE
  5
239
100
AcDbEntity
  8
0
100
AcDbLine
 62
7
  6
BYLAYER
 10
19.4187105502
 20
57.7531355774
 11
20.137128033
 21
58.1679116285
  0
LINE
  5
23A
100
AcDbEntity
  8
0
100
AcDbLine
 62
7
  6
BYLAYER
 10
20.137128033
 20
57.5457367867
 11
19.4187105502
 21
57.1309607355
  0
LINE
  5
23B
100
AcDbEntity
  8
0
100
AcDbLine
 62
7
  6
BYLAYER
 10
39.0918414989
 20
33.0360626527
 11
35.2004689659
 21
35.7134966328
  0
LINE
  5
23C
100
AcDbEntity
  8
0
100
AcDbLine
 62
7
  6
BYLAYER
 10
25.7430857863
 20
73.6390523952
 11
25.7430857863
 21
73.0168775534
  0
LINE
  5
23D
100
AcDbEntity
  8
0
100
AcDbLine
 62
7
  6
BYLAYER
 10
27.5790187683
 20
37.0873405356
 11
27.5790187683
 21
37.108079697
  0
LINE
  5
23E
100
AcDbEntity
  8
0
100
AcDbLine
 62
7
  6
BYLAYER
 10
43.6653385008
 20
66.5878875976
 11
45.4613822473
 21
67.6248277484
  0
LINE
  5
23F
100
AcDbEntity
  8
0
100
AcDbLine
 62
7
  6
BYLAYER
 10
39.6755653253
 20
38.5036389247
 11
33.1448108072
 21
42.9970827968
  0
LINE
  5
240
100
AcDbEntity
  8
0
100
AcDbLine
 62
7
  6
BYLAYER
 10
32.5610869808
 20
42.7142968736
 11
17.9438477365
 21
56.7182364848
  0
LINE
  5
241
100
AcDbEntity
  8
0
100
AcDbLine
 62
7
  6
BYLAYER
 10
18.669999304
 20
56.8645705479
 11
33.1448108072
 21
42.9970827968
  0
LINE
  5
242
100
AcDbEntity
  8
0
100
AcDbLine
 62
7
  6
BYLAYER
 10
30.1190187683
 20
37.0873405356
 11
30.1190187683
 21
37.108079697
  0
LINE
  5
243
100
AcDbEntity
  8
0
100
AcDbLine
 62
7
  6
BYLAYER
 10
32.1143960273
 20
34.2184437576
 11
32.1143960273
 21
34.8406185995
  0
LINE
  5
244
100
AcDbEntity
  8
0
100
AcDbLine
 62
7
  6
BYLAYER
 10
12.6150383623
 20
45.5707274693
 11
12.2344757428
 21
45.35101085
  0
LINE
  5
245
100
AcDbEntity
  8
0
100
AcDbLine
 62
7
  6
BYLAYER
 10
49.4127113915
 20
65.3435784121
 11
47.6166676449
 21
64.3066382613
  0
LINE
  5
246
100
AcDbEntity
  8
0
100
AcDbLine
 62
7
  6
BYLAYER
 10
15.8266080701
 20
57.1309521012
 11
12.2344906981
 21
59.2048151158
  0
LINE
  5
247
100
AcDbEntity
  8
0
100
AcDbLine
 62
7
  6
BYLAYER
 10
12.2344906981
 20
59.8269899577
 11
15.8266080701
 21
57.753126943
  0
LINE
  5
248
100
AcDbEntity
  8
0
100
AcDbLine
 62
7
  6
BYLAYER
 10
9.7916113533
 20
63.4410443142
 11
12.1349494932
 21
61.8287254962
  0
LINE
  5
249
100
AcDbEntity
  8
0
100
AcDbLine
 62
7
  6
BYLAYER
 10
12.664223598
 20
62.1489752021
 11
10.3753351797
 21
63.7238302374
  0
LINE
  5
24A
100
AcDbEntity
  8
0
100
AcDbLine
 62
7
  6
BYLAYER
 10
17.4430399802
 20
43.17345811
 11
17.4971793012
 21
43.2047152749
  0
LINE
  5
24B
100
AcDbEntity
  8
0
100
AcDbLine
 62
7
  6
BYLAYER
 10
17.4430399802
 20
59.7233089033
 11
20.137128033
 21
58.1679116285
  0
LINE
  5
24C
100
AcDbEntity
  8
0
100
AcDbLine
 62
7
  6
BYLAYER
 10
35.1990187683
 20
31.9025501868
 11
35.1990187683
 21
35.7127940823
  0
LINE
  5
24D
100
AcDbEntity
  8
0
100
AcDbLine
 62
7
  6
BYLAYER
 10
17.9818669018
 20
42.8623732794
 11
18.1222348288
 21
42.9434142561
  0
LINE
  5
24E
100
AcDbEntity
  8
0
100
AcDbLine
 62
7
  6
BYLAYER
 10
29.8647780422
 20
49.5318340186
 11
27.655345434
 21
48.2562251218
  0
LINE
  5
24F
100
AcDbEntity
  8
0
100
AcDbLine
 62
7
  6
BYLAYER
 10
19.4187105502
 20
41.2032847841
 11
20.137128033
 21
41.6180608353
  0
LINE
  5
250
100
AcDbEntity
  8
0
100
AcDbLine
 62
7
  6
BYLAYER
 10
20.1371056
 20
61.2787191295
 11
15.6469588453
 21
63.8710479207
  0
LINE
  5
251
100
AcDbEntity
  8
0
100
AcDbLine
 62
7
  6
BYLAYER
 10
39.0918414989
 20
33.0360626527
 11
39.0918414989
 21
37.5986781596
  0
LINE
  5
252
100
AcDbEntity
  8
0
100
AcDbLine
 62
7
  6
BYLAYER
 10
39.6755653253
 20
32.6966737341
 11
39.6755653253
 21
38.5036389247
  0
LINE
  5
253
100
AcDbEntity
  8
0
100
AcDbLine
 62
7
  6
BYLAYER
 10
35.1989617146
 20
31.9025501721
 11
35.0330151593
 21
31.0697578667
  0
LINE
  5
254
100
AcDbEntity
  8
0
100
AcDbLine
 62
7
  6
BYLAYER
 10
20.137128033
 20
40.9958859934
 11
19.4187105502
 21
40.5811099422
  0
LINE
  5
255
100
AcDbEntity
  8
0
100
AcDbLine
 62
7
  6
BYLAYER
 10
8.4806846248
 20
69.2734935166
 11
53.3462309976
 21
43.3709442349
  0
LINE
  5
256
100
AcDbEntity
  8
0
100
AcDbLine
 62
7
  6
BYLAYER
 10
33.0397638281
 20
44.032564498
 11
32.4309006158
 21
43.6810392568
  0
LINE
  5
257
100
AcDbEntity
  8
0
100
AcDbLine
 62
7
  6
BYLAYER
 10
54.4238572455
 20
45.2374580091
 11
9.5583108727
 21
71.1400072908
  0
LINE
  5
258
100
AcDbEntity
  8
0
100
AcDbLine
 62
7
  6
BYLAYER
 10
52.5559158161
 20
51.915320288
 11
56.0582011219
 21
53.9373535821
  0
LINE
  5
259
100
AcDbEntity
  8
0
100
AcDbLine
 62
7
  6
BYLAYER
 10
33.1448108072
 20
42.9970827968
 11
25.5836415289
 21
39.3340624812
  0
LINE
  5
25A
100
AcDbEntity
  8
0
100
AcDbLine
 62
7
  6
BYLAYER
 10
21.1248885333
 20
70.0616218264
 11
52.5559158161
 21
51.915320288
  0
LINE
  5
25B
100
AcDbEntity
  8
0
100
AcDbLine
 62
7
  6
BYLAYER
 10
61.2667137792
 20
56.425958736
 11
57.8988837922
 21
54.481552793
  0
LINE
  5
25C
100
AcDbEntity
  8
0
100
AcDbLine
 62
7
  6
BYLAYER
 10
49.4127113915
 20
63.2697153791
 11
49.4127113915
 21
65.3435784121
  0
LINE
  5
25D
100
AcDbEntity
  8
0
100
AcDbLine
 62
7
  6
BYLAYER
 10
32.114396047
 20
34.840618609
 11
39.6755653253
 21
38.5036389247
  0
LINE
  5
25E
100
AcDbEntity
  8
0
100
AcDbLine
 62
7
  6
BYLAYER
 10
65.7568455785
 20
48.3895556064
 11
63.960801832
 21
49.4264784886
  0
LINE
  5
25F
100
AcDbEntity
  8
0
100
AcDbLine
 62
7
  6
BYLAYER
 10
54.4238572455
 20
45.2374580091
 11
65.4695262866
 21
51.6146399367
  0
LINE
  5
260
100
AcDbEntity
  8
0
100
AcDbLine
 62
7
  6
BYLAYER
 10
65.4695262866
 20
50.9924650948
 11
54.4238572455
 21
44.6152831672
  0
LINE
  5
261
100
AcDbEntity
  8
0
100
AcDbLine
 62
7
  6
BYLAYER
 10
47.2057639262
 20
39.5098264043
 11
47.5649726755
 21
39.7172144345
  0
LINE
  5
262
100
AcDbEntity
  8
0
100
AcDbLine
 62
7
  6
BYLAYER
 10
39.0918414989
 20
37.5986781596
 11
32.114396047
 21
34.2184437672
  0
LINE
  5
263
100
AcDbEntity
  8
0
100
AcDbLine
 62
7
  6
BYLAYER
 10
20.6039799138
 20
77.5171892184
 11
24.627151406
 21
75.1944626215
  0
LINE
  5
264
100
AcDbEntity
  8
0
100
AcDbLine
 62
7
  6
BYLAYER
 10
61.4463547944
 20
53.9373665336
 11
65.4695262866
 21
51.6146399367
  0
LINE
  5
265
100
AcDbEntity
  8
0
100
AcDbLine
 62
7
  6
BYLAYER
 10
53.3462309976
 20
28.0447039639
 11
53.3462309976
 21
43.3709442349
  0
LINE
  5
266
100
AcDbEntity
  8
0
100
AcDbLine
 62
7
  6
BYLAYER
 10
53.8850441216
 20
43.6820262801
 11
53.8850441216
 21
28.3557860091
  0
LINE
  5
267
100
AcDbEntity
  8
0
100
AcDbLine
 62
7
  6
BYLAYER
 10
53.9030047086
 20
28.324677555
 11
53.9030047086
 21
39.3164329643
  0
LINE
  5
268
100
AcDbEntity
  8
0
100
AcDbLine
 62
7
  6
BYLAYER
 10
54.2622134579
 20
39.5238210838
 11
54.2622134579
 21
28.5320655852
  0
LINE
  5
269
100
AcDbEntity
  8
0
100
AcDbLine
 62
7
  6
BYLAYER
 10
63.960801832
 20
47.3526154556
 11
65.7568455785
 21
48.3895556064
  0
LINE
  5
26A
100
AcDbEntity
  8
0
100
AcDbLine
 62
7
  6
BYLAYER
 10
48.0947813439
 20
37.9700432926
 11
48.4539900932
 21
38.1774313228
  0
LINE
  5
26B
100
AcDbEntity
  8
0
100
AcDbLine
 62
7
  6
BYLAYER
 10
35.0330151593
 20
31.0697578667
 11
39.0918414989
 21
33.0360626527
  0
LINE
  5
26C
100
AcDbEntity
  8
0
100
AcDbLine
 62
7
  6
BYLAYER
 10
33.2481980458
 20
72.602090384
 11
43.6653385008
 21
66.5878875976
  0
LINE
  5
26D
100
AcDbEntity
  8
0
100
AcDbLine
 62
7
  6
BYLAYER
 10
47.6166676449
 20
64.3066382613
 11
61.2667137597
 21
56.4259587473
  0
LINE
  5
26E
100
AcDbEntity
  8
0
100
AcDbLine
 62
7
  6
BYLAYER
 10
45.4613822473
 20
67.6248277484
 11
49.4127113915
 21
65.3435784121
  0
LINE
  5
26F
100
AcDbEntity
  8
0
100
AcDbLine
 62
7
  6
BYLAYER
 10
65.7568455785
 20
46.21194366
 11
63.960801832
 21
45.1750035091
  0
LINE
  5
270
100
AcDbEntity
  8
0
100
AcDbLine
 62
7
  6
BYLAYER
 10
54.258559681
 20
39.5631895701
 11
58.5547578625
 21
42.0435859407
  0
LINE
  5
271
100
AcDbEntity
  8
0
100
AcDbLine
 62
7
  6
BYLAYER
 10
53.9030047086
 20
39.316433072
 11
54.2622134579
 21
39.5238211021
  0
LINE
  5
272
100
AcDbEntity
  8
0
100
AcDbLine
 62
7
  6
BYLAYER
 10
47.2057661209
 20
34.3771470909
 11
47.5649748702
 21
34.584535121
  0
LINE
  5
273
100
AcDbEntity
  8
0
100
AcDbLine
 62
7
  6
BYLAYER
 10
52.1587845475
 20
36.6502633073
 11
52.5179932968
 21
36.8576513374
  0
LINE
  5
274
100
AcDbEntity
  8
0
100
AcDbLine
 62
7
  6
BYLAYER
 10
47.7137660412
 20
34.083857301
 11
48.0729747905
 21
34.2912453312
  0
LINE
  5
275
100
AcDbEntity
  8
0
100
AcDbLine
 62
7
  6
BYLAYER
 10
39.6755653253
 20
32.6966737341
 11
34.3566940624
 21
30.1199382087
  0
LINE
  5
276
100
AcDbEntity
  8
0
100
AcDbLine
 62
7
  6
BYLAYER
 10
58.5547578625
 20
42.0435859224
 11
58.5547578625
 21
31.0518304238
  0
LINE
  5
277
100
AcDbEntity
  8
0
100
AcDbLine
 62
7
  6
BYLAYER
 10
52.1587823529
 20
36.0636699738
 11
52.5179911022
 21
36.271058004
  0
LINE
  5
278
100
AcDbEntity
  8
0
100
AcDbLine
 62
7
  6
BYLAYER
 10
63.960801832
 20
40.7679317127
 11
58.5547578625
 21
37.6467694025
  0
LINE
  5
279
100
AcDbEntity
  8
0
100
AcDbLine
 62
7
  6
BYLAYER
 10
51.2697671298
 20
32.4707737721
 11
51.6289758791
 21
32.6781618023
  0
LINE
  5
27A
100
AcDbEntity
  8
0
100
AcDbLine
 62
7
  6
BYLAYER
 10
58.5547578625
 20
36.3581873732
 11
63.1717052489
 21
39.0237672782
  0
LINE
  5
27B
100
AcDbEntity
  8
0
100
AcDbLine
 62
7
  6
BYLAYER
 10
51.6507824325
 20
31.8108712495
 11
52.0099911818
 21
32.0182592797
  0
LINE
  5
27C
100
AcDbEntity
  8
0
100
AcDbLine
 62
7
  6
BYLAYER
 10
52.1587845475
 20
30.9309906604
 11
52.5179932968
 21
31.1383786906
  0
LINE
  5
27D
100
AcDbEntity
  8
0
100
AcDbLine
 62
7
  6
BYLAYER
 10
63.960801832
 20
50.1214078243
 11
63.960801832
 21
47.3526154556
  0
LINE
  5
27E
100
AcDbEntity
  8
0
100
AcDbLine
 62
7
  6
BYLAYER
 10
63.960801832
 20
45.1750035091
 11
63.960801832
 21
40.7679317351
  0
LINE
  5
27F
100
AcDbEntity
  8
0
100
AcDbLine
 62
7
  6
BYLAYER
 10
65.4695262866
 20
51.6146399367
 11
65.4695262866
 21
50.9924650948
  0
LINE
  5
280
100
AcDbEntity
  8
0
100
AcDbLine
 62
7
  6
BYLAYER
 10
65.7568455785
 20
48.3895556064
 11
65.7568455785
 21
46.21194366
  0
LINE
  5
281
100
AcDbEntity
  8
0
100
AcDbLine
 62
7
  6
BYLAYER
 10
58.5547578625
 20
31.0518304013
 11
54.2622134579
 21
28.5735435272
  0
LINE
  5
282
100
AcDbEntity
  8
0
100
AcDbLine
 62
7
  6
BYLAYER
 10
53.8850441216
 20
28.3557860091
 11
53.3462309976
 21
28.0447039639
  0
LINE
  5
283
100
AcDbEntity
  8
0
100
AcDbLine
 62
7
  6
BYLAYER
 10
54.2622134579
 20
28.5320655628
 11
53.9030047086
 21
28.3246775326
  0
LINE
  5
284
100
AcDbEntity
  8
0
100
AcDbLine
 62
7
  6
BYLAYER
 10
53.6919561662
 20
26.9643158092
 11
57.7709219233
 21
29.3192937298
  0
LINE
  5
285
100
AcDbEntity
  8
0
100
AcDbLine
 62
7
  6
BYLAYER
 10
52.5571344163
 20
26.3005395263
 11
53.0959475403
 21
26.6116215716
  0
LINE
  5
286
100
AcDbEntity
  8
0
100
AcDbLine
 62
7
  6
BYLAYER
 10
53.1139081255
 20
26.5805130981
 11
53.4731168748
 21
26.7879011283
  0
ARC
  5
287
100
AcDbEntity
  8
0
100
AcDbCircle
 62
7
  6
BYLAYER
 10
15.3243370776
 20
59.5570774889
 40
6.7739326131
100
AcDbArc
 50
209.9962162315
 51
215.1047982219
  0
ARC
  5
288
100
AcDbEntity
  8
0
100
AcDbCircle
 62
7
  6
BYLAYER
 10
50.6703810716
 20
39.5237775801
 40
3.5918323866
100
AcDbArc
 50
0.0006939578
 51
0.4930374711
  0
ARC
  5
289
100
AcDbEntity
  8
0
100
AcDbCircle
 62
7
  6
BYLAYER
 10
28.9497637511
 20
51.1288486276
 40
2.6047144067
100
AcDbArc
 50
125.9150113268
 51
133.0855289853
  0
ARC
  5
28A
100
AcDbEntity
  8
0
100
AcDbCircle
 62
7
  6
BYLAYER
 10
52.4156287185
 20
27.7673289742
 40
1.3420219821
100
AcDbArc
 50
311.0258137742
 51
315.4563210957
  0
ARC
  5
28B
100
AcDbEntity
  8
0
100
AcDbCircle
 62
7
  6
BYLAYER
 10
52.4697125309
 20
27.6984354239
 40
1.2902193692
100
AcDbArc
 50
288.0555144077
 51
299.9524209275
  0
ARC
  5
28C
100
AcDbEntity
  8
0
100
AcDbCircle
 62
7
  6
BYLAYER
 10
52.4514523411
 20
27.7262540013
 40
1.2875198626
100
AcDbArc
 50
300.0370692559
 51
311.022953736
  0
ARC
  5
28D
100
AcDbEntity
  8
0
100
AcDbCircle
 62
7
  6
BYLAYER
 10
52.8369378536
 20
27.8898016546
 40
1.2723353524
100
AcDbArc
 50
299.9998617792
 51
300.6479438373
  0
SPLINE
  5
28E
100
AcDbEntity
  8
0
100
AcDbSpline
 62
7
  6
BYLAYER
 70
0
 71
3
 72
17
 73
13
 74
0
 42
0.0000001
 43
0.0000001
 44
0.0000000001
 40
0.0
 40
0.0
 40
0.0
 40
0.0
 40
0.0428129323
 40
0.087267925
 40
0.1347285051
 40
0.1860848391
 40
0.3016126148
 40
0.4333499509
 40
0.5763586213
 40
0.7235598545
 40
0.8671745736
 40
1.0
 40
1.0
 40
1.0
 40
1.0
 10
30.1190122859
 20
37.1080796901
 30
0.0
 10
30.119008584
 20
37.1428815575
 30
0.0
 10
30.1100508764
 20
37.2140967563
 30
0.0
 10
30.0707387572
 20
37.3172761971
 30
0.0
 10
30.0066893538
 20
37.4154767906
 30
0.0
 10
29.8860661044
 20
37.5422926075
 30
0.0
 10
29.679258707
 20
37.6755470339
 30
0.0
 10
29.3794540973
 20
37.7847551676
 30
0.0
 10
29.0396575962
 20
37.8426582973
 30
0.0
 10
28.6854714036
 20
37.8448121602
 30
0.0
 10
28.3438196133
 20
37.7912048627
 30
0.0
 10
28.1298437918
 20
37.7168340193
 30
0.0
 10
28.0326744535
 20
37.669760181
 30
0.0
  0
SPLINE
  5
28F
100
AcDbEntity
  8
0
100
AcDbSpline
 62
7
  6
BYLAYER
 70
0
 71
3
 72
9
 73
5
 74
0
 42
0.0000001
 43
0.0000001
 44
0.0000000001
 40
0.0
 40
0.0
 40
0.0
 40
0.0
 40
0.2444713039
 40
1.0
 40
1.0
 40
1.0
 40
1.0
 10
32.9307403421
 20
29.0941477667
 30
0.0
 10
32.8750082818
 20
29.0671482827
 30
0.0
 10
32.6455218823
 20
28.9598542916
 30
0.0
 10
32.4103407598
 20
28.8648415606
 30
0.0
 10
32.2304592432
 20
28.7994899812
 30
0.0
  0
SPLINE
  5
290
100
AcDbEntity
  8
0
100
AcDbSpline
 62
7
  6
BYLAYER
 70
0
 71
3
 72
23
 73
19
 74
0
 42
0.0000001
 43
0.0000001
 44
0.0000000001
 40
0.0
 40
0.0
 40
0.0
 40
0.0
 40
0.0681182043
 40
0.1388390537
 40
0.2114439245
 40
0.2850993392
 40
0.3589393952
 40
0.43209714
 40
0.5037239053
 40
0.5730309287
 40
0.6393191657
 40
0.7020198722
 40
0.7607412535
 40
0.8153151985
 40
0.865862308
 40
0.9128560968
 40
0.9571588227
 40
1.0
 40
1.0
 40
1.0
 40
1.0
 10
32.2304592432
 20
28.7994899812
 30
0.0
 10
31.9861750522
 20
28.7107406867
 30
0.0
 10
31.479287029
 20
28.5538665862
 30
0.0
 10
30.6900059947
 20
28.3826252163
 30
0.0
 10
29.868498305
 20
28.2730793946
 30
0.0
 10
29.0291320909
 20
28.2271311794
 30
0.0
 10
28.1866015203
 20
28.2455912853
 30
0.0
 10
27.3556803248
 20
28.3281678782
 30
0.0
 10
26.5509082355
 20
28.4734020724
 30
0.0
 10
25.7863448657
 20
28.6787277529
 30
0.0
 10
25.0753188175
 20
28.9406604658
 30
0.0
 10
24.4301544374
 20
29.2547328637
 30
0.0
 10
23.8619594712
 20
29.6156721712
 30
0.0
 10
23.3805999818
 20
30.017734986
 30
0.0
 10
22.9946734583
 20
30.4546670828
 30
0.0
 10
22.7116486051
 20
30.9198521556
 30
0.0
 10
22.5382393771
 20
31.405401487
 30
0.0
 10
22.4990595177
 20
31.739088994
 30
0.0
 10
22.4990533233
 20
31.9025502196
 30
0.0
  0
SPLINE
  5
291
100
AcDbEntity
  8
0
100
AcDbSpline
 62
7
  6
BYLAYER
 70
0
 71
3
 72
11
 73
7
 74
0
 42
0.0000001
 43
0.0000001
 44
0.0000000001
 40
0.0
 40
0.0
 40
0.0
 40
0.0
 40
0.2178467895
 40
0.4554942644
 40
0.7160992954
 40
1.0
 40
1.0
 40
1.0
 40
1.0
 10
35.0330151593
 20
31.0697578667
 30
0.0
 10
34.9529109502
 20
30.8714891567
 30
0.0
 10
34.7302205763
 20
30.4780779069
 30
0.0
 10
34.2578113274
 20
29.9519324459
 30
0.0
 10
33.6491367253
 20
29.4785043303
 30
0.0
 10
33.1815376662
 20
29.2156469237
 30
0.0
 10
32.9307403421
 20
29.0941477667
 30
0.0
  0
SPLINE
  5
292
100
AcDbEntity
  8
0
100
AcDbSpline
 62
7
  6
BYLAYER
 70
0
 71
3
 72
15
 73
11
 74
0
 42
0.0000001
 43
0.0000001
 44
0.0000000001
 40
0.0
 40
0.0
 40
0.0
 40
0.0
 40
0.1080107901
 40
0.2180579961
 40
0.331999402
 40
0.4513566344
 40
0.5772621867
 40
0.7104933895
 40
0.8514588329
 40
1.0
 40
1.0
 40
1.0
 40
1.0
 10
27.1034855598
 20
53.0702222682
 30
0.0
 10
27.2284072058
 20
53.1423609077
 30
0.0
 10
27.4936612505
 20
53.2665531356
 30
0.0
 10
27.9228400748
 20
53.3852669872
 30
0.0
 10
28.3803713396
 20
53.4362507403
 30
0.0
 10
28.8613464411
 20
53.4195663833
 30
0.0
 10
29.3611624058
 20
53.3357176589
 30
0.0
 10
29.875235161
 20
53.185886314
 30
0.0
 10
30.3985439654
 20
52.9716092365
 30
0.0
 10
30.7416501341
 20
52.7920565962
 30
0.0
 10
30.9134578112
 20
52.6928656316
 30
0.0
  0
SPLINE
  5
293
100
AcDbEntity
  8
0
100
AcDbSpline
 62
7
  6
BYLAYER
 70
0
 71
3
 72
14
 73
10
 74
0
 42
0.0000001
 43
0.0000001
 44
0.0000000001
 40
0.0
 40
0.0
 40
0.0
 40
0.0
 40
0.1511663891
 40
0.2942928037
 40
0.5549175037
 40
0.6738646947
 40
0.7864724104
 40
0.8944591451
 40
1.0
 40
1.0
 40
1.0
 40
1.0
 10
25.5836415289
 20
39.3340624812
 30
0.0
 10
25.445841816
 20
39.2673051941
 30
0.0
 10
25.1828020749
 20
39.1258093399
 30
0.0
 10
24.7152071429
 20
38.8132909051
 30
0.0
 10
24.3214205303
 20
38.4497445778
 30
0.0
 10
24.0339862293
 20
38.0403831156
 30
0.0
 10
23.8820736003
 20
37.7300229864
 30
0.0
 10
23.7897529083
 20
37.411065236
 30
0.0
 10
23.7690425007
 20
37.1942443693
 30
0.0
 10
23.7690446526
 20
37.0873405477
 30
0.0
  0
SPLINE
  5
294
100
AcDbEntity
  8
0
100
AcDbSpline
 62
7
  6
BYLAYER
 70
0
 71
3
 72
13
 73
9
 74
0
 42
0.0000001
 43
0.0000001
 44
0.0000000001
 40
0.0
 40
0.0
 40
0.0
 40
0.0
 40
0.0908486811
 40
0.1881373159
 40
0.2962869128
 40
0.4171942003
 40
0.6936497206
 40
1.0
 40
1.0
 40
1.0
 40
1.0
 10
8.9497307238
 20
56.463762454
 30
0.0
 10
8.9329759308
 20
56.4540898558
 30
0.0
 10
8.9015925438
 20
56.4277616811
 30
0.0
 10
8.8682655649
 20
56.3731727347
 30
0.0
 10
8.8483929154
 20
56.3059169136
 30
0.0
 10
8.839886583
 20
56.1980075062
 30
0.0
 10
8.8665754565
 20
56.0482570164
 30
0.0
 10
8.9170945435
 20
55.9336925669
 30
0.0
 10
8.9497135763
 20
55.8771950585
 30
0.0
  0
SPLINE
  5
295
100
AcDbEntity
  8
0
100
AcDbSpline
 62
7
  6
BYLAYER
 70
0
 71
3
 72
12
 73
8
 74
0
 42
0.0000001
 43
0.0000001
 44
0.0000000001
 40
0.0
 40
0.0
 40
0.0
 40
0.0
 40
0.2895581804
 40
0.5486557819
 40
0.7816338328
 40
0.8918399141
 40
1.0
 40
1.0
 40
1.0
 40
1.0
 10
12.2344906981
 20
59.2048151158
 30
0.0
 10
12.123008098
 20
59.269178169
 30
0.0
 10
11.9207845483
 20
59.4084797735
 30
0.0
 10
11.6791404913
 20
59.6622226814
 30
0.0
 10
11.5494744081
 20
59.9013872056
 30
0.0
 10
11.4988913664
 20
60.0963874191
 30
0.0
 10
11.490553104
 20
60.1936707667
 30
0.0
 10
11.4905531034
 20
60.2417552758
 30
0.0
  0
SPLINE
  5
296
100
AcDbEntity
  8
0
100
AcDbSpline
 62
7
  6
BYLAYER
 70
0
 71
3
 72
15
 73
11
 74
0
 42
0.0000001
 43
0.0000001
 44
0.0000000001
 40
0.0
 40
0.0
 40
0.0
 40
0.0
 40
0.1141464977
 40
0.237335278
 40
0.3669759337
 40
0.4999994786
 40
0.633023096
 40
0.7626639635
 40
0.8858530776
 40
1.0
 40
1.0
 40
1.0
 40
1.0
 10
19.4187105502
 20
57.1309607355
 30
0.0
 10
19.2957657226
 20
57.05997893
 30
0.0
 10
19.0268893704
 20
56.9347911188
 30
0.0
 10
18.5890730587
 20
56.8016929662
 30
0.0
 10
18.1150448425
 20
56.7198152923
 30
0.0
 10
17.6226623391
 20
56.692156169
 30
0.0
 10
17.1302794421
 20
56.7198129554
 30
0.0
 10
16.6562500631
 20
56.8016883785
 30
0.0
 10
16.2184318665
 20
56.9347844499
 30
0.0
 10
15.949553867
 20
57.0599709182
 30
0.0
 10
15.8266080701
 20
57.1309521012
 30
0.0
  0
SPLINE
  5
297
100
AcDbEntity
  8
0
100
AcDbSpline
 62
7
  6
BYLAYER
 70
0
 71
3
 72
13
 73
9
 74
0
 42
0.0000001
 43
0.0000001
 44
0.0000000001
 40
0.0
 40
0.0
 40
0.0
 40
0.0
 40
0.0908486811
 40
0.1881373159
 40
0.2962869128
 40
0.4171942003
 40
0.6936497206
 40
1.0
 40
1.0
 40
1.0
 40
1.0
 10
47.2057810737
 20
34.377121153
 30
0.0
 10
47.1890262807
 20
34.3674485547
 30
0.0
 10
47.1576428937
 20
34.3411203801
 30
0.0
 10
47.1243159148
 20
34.2865314337
 30
0.0
 10
47.1044432653
 20
34.2192756125
 30
0.0
 10
47.0959369329
 20
34.1113662052
 30
0.0
 10
47.1226258064
 20
33.9616157153
 30
0.0
 10
47.1731448934
 20
33.8470512659
 30
0.0
 10
47.2057639262
 20
33.7905537574
 30
0.0
  0
SPLINE
  5
298
100
AcDbEntity
  8
0
100
AcDbSpline
 62
7
  6
BYLAYER
 70
0
 71
3
 72
12
 73
8
 74
0
 42
0.0000001
 43
0.0000001
 44
0.0000000001
 40
0.0
 40
0.0
 40
0.0
 40
0.0
 40
0.2895577051
 40
0.5486551373
 40
0.7816333829
 40
0.8918396706
 40
1.0
 40
1.0
 40
1.0
 40
1.0
 10
12.2344757428
 20
45.35101085
 30
0.0
 10
12.1229952274
 20
45.2866479285
 30
0.0
 10
11.9207755153
 20
45.1473468582
 30
0.0
 10
11.6791363666
 20
44.8936058232
 30
0.0
 10
11.5494731263
 20
44.6544437056
 30
0.0
 10
11.4988911847
 20
44.4594456115
 30
0.0
 10
11.4905531028
 20
44.3621633216
 30
0.0
 10
11.4905531034
 20
44.3140793244
 30
0.0
  0
SPLINE
  5
299
100
AcDbEntity
  8
0
100
AcDbSpline
 62
7
  6
BYLAYER
 70
0
 71
3
 72
19
 73
15
 74
0
 42
0.0000001
 43
0.0000001
 44
0.0000000001
 40
0.0
 40
0.0
 40
0.0
 40
0.0
 40
0.0428385741
 40
0.0874433207
 40
0.1352549764
 40
0.1871925429
 40
0.2436709144
 40
0.3046630743
 40
0.4382667828
 40
0.5825421017
 40
0.7296386972
 40
0.8711665501
 40
0.9376089289
 40
1.0
 40
1.0
 40
1.0
 40
1.0
 10
61.3602987341
 20
51.811642674
 30
0.0
 10
61.3603033811
 20
51.7501836318
 30
0.0
 10
61.3438288619
 20
51.624203718
 30
0.0
 10
61.2716170887
 20
51.4422739136
 30
0.0
 10
61.1543443259
 20
51.2698340861
 30
0.0
 10
60.9954468725
 20
51.1102469317
 30
0.0
 10
60.7985376274
 20
50.966333266
 30
0.0
 10
60.4813126885
 20
50.7939018419
 30
0.0
 10
60.0165264184
 20
50.6386351401
 30
0.0
 10
59.4099268764
 20
50.5534635355
 30
0.0
 10
58.7863244372
 20
50.5706602767
 30
0.0
 10
58.2836648905
 20
50.671161555
 30
0.0
 10
57.9184668193
 20
50.8035726785
 30
0.0
 10
57.7521875787
 20
50.8854891375
 30
0.0
 10
57.6746689089
 20
50.9302435499
 30
0.0
  0
SPLINE
  5
29A
100
AcDbEntity
  8
0
100
AcDbSpline
 62
7
  6
BYLAYER
 70
0
 71
3
 72
9
 73
5
 74
0
 42
0.0000001
 43
0.0000001
 44
0.0000000001
 40
0.0
 40
0.0
 40
0.0
 40
0.0
 40
0.2451162089
 40
1.0
 40
1.0
 40
1.0
 40
1.0
 10
61.2910598229
 20
51.5026107672
 30
0.0
 10
61.2860066087
 20
51.5138570889
 30
0.0
 10
61.2644014249
 20
51.559290554
 30
0.0
 10
61.2389481473
 20
51.6028697623
 30
0.0
 10
61.2179859996
 20
51.6345301108
 30
0.0
  0
SPLINE
  5
29B
100
AcDbEntity
  8
0
100
AcDbSpline
 62
7
  6
BYLAYER
 70
0
 71
3
 72
10
 73
6
 74
0
 42
0.0000001
 43
0.0000001
 44
0.0000000001
 40
0.0
 40
0.0
 40
0.0
 40
0.0
 40
0.2282196859
 40
0.5973951269
 40
1.0
 40
1.0
 40
1.0
 40
1.0
 10
61.2179859996
 20
51.6345301108
 30
0.0
 10
61.1902155206
 20
51.6764734772
 30
0.0
 10
61.1092843942
 20
51.7809451972
 30
0.0
 10
60.9468271202
 20
51.9316395253
 30
0.0
 10
60.8047956904
 20
52.0264972073
 30
0.0
 10
60.727943278
 20
52.0708669645
 30
0.0
  0
SPLINE
  5
29C
100
AcDbEntity
  8
0
100
AcDbSpline
 62
7
  6
BYLAYER
 70
0
 71
3
 72
19
 73
15
 74
0
 42
0.0000001
 43
0.0000001
 44
0.0000000001
 40
0.0
 40
0.0
 40
0.0
 40
0.0
 40
0.0428385741
 40
0.0874433207
 40
0.1352549764
 40
0.1871925429
 40
0.2436709144
 40
0.3046630743
 40
0.4382667828
 40
0.5825421017
 40
0.7296386972
 40
0.8711665501
 40
0.9376089289
 40
1.0
 40
1.0
 40
1.0
 40
1.0
 10
23.1042483842
 20
73.8982839751
 30
0.0
 10
23.1042530312
 20
73.8368249328
 30
0.0
 10
23.087778512
 20
73.7108450191
 30
0.0
 10
23.0155667388
 20
73.5289152146
 30
0.0
 10
22.898293976
 20
73.3564753872
 30
0.0
 10
22.7393965226
 20
73.1968882328
 30
0.0
 10
22.5424872775
 20
73.0529745671
 30
0.0
 10
22.2252623386
 20
72.880543143
 30
0.0
 10
21.7604760685
 20
72.7252764412
 30
0.0
 10
21.1538765265
 20
72.6401048365
 30
0.0
 10
20.5302740873
 20
72.6573015778
 30
0.0
 10
20.0276145406
 20
72.757802856
 30
0.0
 10
19.6624164694
 20
72.8902139796
 30
0.0
 10
19.4961372288
 20
72.9721304386
 30
0.0
 10
19.418618559
 20
73.016884851
 30
0.0
  0
SPLINE
  5
29D
100
AcDbEntity
  8
0
100
AcDbSpline
 62
7
  6
BYLAYER
 70
0
 71
3
 72
12
 73
8
 74
0
 42
0.0000001
 43
0.0000001
 44
0.0000000001
 40
0.0
 40
0.0
 40
0.0
 40
0.0
 40
0.1108597298
 40
0.228076066
 40
0.4771126092
 40
0.7380946033
 40
1.0
 40
1.0
 40
1.0
 40
1.0
 10
8.4806846248
 20
53.9472532456
 30
0.0
 10
8.4806846248
 20
53.8111375286
 30
0.0
 10
8.4966052381
 20
53.5309405828
 30
0.0
 10
8.5864603129
 20
52.951366124
 30
0.0
 10
8.8062609101
 20
52.2091829766
 30
0.0
 10
9.2106804319
 20
51.3486794296
 30
0.0
 10
9.5662467397
 20
50.8107486543
 30
0.0
 10
9.7635033501
 20
50.5567827024
 30
0.0
  0
SPLINE
  5
29E
100
AcDbEntity
  8
0
100
AcDbSpline
 62
7
  6
BYLAYER
 70
0
 71
3
 72
14
 73
10
 74
0
 42
0.0000001
 43
0.0000001
 44
0.0000000001
 40
0.0
 40
0.0
 40
0.0
 40
0.0
 40
0.2892465103
 40
0.4225697622
 40
0.5485168638
 40
0.6678914139
 40
0.7818640907
 40
0.891953856
 40
1.0
 40
1.0
 40
1.0
 40
1.0
 10
50.6521429448
 20
26.4892270294
 30
0.0
 10
50.8193645231
 20
26.3926837902
 30
0.0
 10
51.0761501612
 20
26.2705067127
 30
0.0
 10
51.4282686618
 20
26.1677914756
 30
0.0
 10
51.6782211999
 20
26.1258766363
 30
0.0
 10
51.9186877875
 20
26.1175321222
 30
0.0
 10
52.1474293438
 20
26.1430846392
 30
0.0
 10
52.362043868
 20
26.2023566436
 30
0.0
 10
52.4946561462
 20
26.2645002324
 30
0.0
 10
52.5571204131
 20
26.3005637807
 30
0.0
  0
SPLINE
  5
29F
100
AcDbEntity
  8
0
100
AcDbSpline
 62
7
  6
BYLAYER
 70
0
 71
3
 72
9
 73
5
 74
0
 42
0.0000001
 43
0.0000001
 44
0.0000000001
 40
0.0
 40
0.0
 40
0.0
 40
0.0
 40
0.2451162089
 40
1.0
 40
1.0
 40
1.0
 40
1.0
 10
23.035009473
 20
73.5892520682
 30
0.0
 10
23.0299562588
 20
73.60049839
 30
0.0
 10
23.008351075
 20
73.6459318551
 30
0.0
 10
22.9828977974
 20
73.6895110634
 30
0.0
 10
22.9619356497
 20
73.7211714119
 30
0.0
  0
SPLINE
  5
2A0
100
AcDbEntity
  8
0
100
AcDbSpline
 62
7
  6
BYLAYER
 70
0
 71
3
 72
10
 73
6
 74
0
 42
0.0000001
 43
0.0000001
 44
0.0000000001
 40
0.0
 40
0.0
 40
0.0
 40
0.0
 40
0.2282196859
 40
0.5973951269
 40
1.0
 40
1.0
 40
1.0
 40
1.0
 10
22.9619356497
 20
73.7211714119
 30
0.0
 10
22.9341651707
 20
73.7631147783
 30
0.0
 10
22.8532340443
 20
73.8675864982
 30
0.0
 10
22.6907767703
 20
74.0182808263
 30
0.0
 10
22.5487453405
 20
74.1131385084
 30
0.0
 10
22.4718929281
 20
74.1575082656
 30
0.0
  0
SPLINE
  5
2A1
100
AcDbEntity
  8
0
100
AcDbSpline
 62
7
  6
BYLAYER
 70
0
 71
3
 72
14
 73
10
 74
0
 42
0.0000001
 43
0.0000001
 44
0.0000000001
 40
0.0
 40
0.0
 40
0.0
 40
0.0
 40
0.1080450031
 40
0.2181337829
 40
0.3321057623
 40
0.4514799957
 40
0.5774272149
 40
0.7107510372
 40
1.0
 40
1.0
 40
1.0
 40
1.0
 10
25.7430577798
 20
73.0168775534
 30
0.0
 10
25.7430577807
 20
72.9447515582
 30
0.0
 10
25.7305697782
 20
72.7988368687
 30
0.0
 10
25.6745934234
 20
72.5833432803
 30
0.0
 10
25.5823511832
 20
72.3724749978
 30
0.0
 10
25.4548903631
 20
72.1684009588
 30
0.0
 10
25.2936134665
 20
71.9728968824
 30
0.0
 10
25.0285975935
 20
71.7193154766
 30
0.0
 10
24.7943946103
 20
71.5580246597
 30
0.0
 10
24.6271738391
 20
71.4614802787
 30
0.0
  0
SPLINE
  5
2A2
100
AcDbEntity
  8
0
100
AcDbSpline
 62
7
  6
BYLAYER
 70
0
 71
3
 72
14
 73
10
 74
0
 42
0.0000001
 43
0.0000001
 44
0.0000000001
 40
0.0
 40
0.0
 40
0.0
 40
0.0
 40
0.1080447584
 40
0.2181333306
 40
0.3321051724
 40
0.4514793547
 40
0.5774266151
 40
0.7107505662
 40
1.0
 40
1.0
 40
1.0
 40
1.0
 10
25.7430577798
 20
73.6390523952
 30
0.0
 10
25.7430577788
 20
73.7111791581
 30
0.0
 10
25.7305695054
 20
73.8570954342
 30
0.0
 10
25.6745919547
 20
74.0725912926
 30
0.0
 10
25.5823477473
 20
74.2834616841
 30
0.0
 10
25.4548842687
 20
74.4875376199
 30
0.0
 10
25.2936040583
 20
74.6830433161
 30
0.0
 10
25.0285827984
 20
74.9366265682
 30
0.0
 10
24.7943753044
 20
75.0979180429
 30
0.0
 10
24.627151406
 20
75.1944626215
 30
0.0
  0
SPLINE
  5
2A3
100
AcDbEntity
  8
0
100
AcDbSpline
 62
7
  6
BYLAYER
 70
0
 71
3
 72
12
 73
8
 74
0
 42
0.0000001
 43
0.0000001
 44
0.0000000001
 40
0.0
 40
0.0
 40
0.0
 40
0.0
 40
0.1079006404
 40
0.2183333025
 40
0.4522918551
 40
0.7116875273
 40
1.0
 40
1.0
 40
1.0
 40
1.0
 10
9.7828182846
 20
60.0220233149
 30
0.0
 10
9.7348015739
 20
59.9901810759
 30
0.0
 10
9.6427584727
 20
59.9176478758
 30
0.0
 10
9.4784055289
 20
59.7395454228
 30
0.0
 10
9.316411024
 20
59.4555859108
 30
0.0
 10
9.2035800009
 20
59.0505531675
 30
0.0
 10
9.1811505096
 20
58.7571635875
 30
0.0
 10
9.1811505096
 20
58.603214229
 30
0.0
  0
SPLINE
  5
2A4
100
AcDbEntity
  8
0
100
AcDbSpline
 62
7
  6
BYLAYER
 70
0
 71
3
 72
20
 73
16
 74
0
 42
0.0000001
 43
0.0000001
 44
0.0000000001
 40
0.0
 40
0.0
 40
0.0
 40
0.0
 40
0.0588765236
 40
0.1210208298
 40
0.1859376767
 40
0.2531100297
 40
0.3915581857
 40
0.5309571127
 40
0.5992859772
 40
0.6657732286
 40
0.729817243
 40
0.7909049135
 40
0.8486376685
 40
0.9027712083
 40
1.0
 40
1.0
 40
1.0
 40
1.0
 10
30.9134578112
 20
52.6928656316
 30
0.0
 10
31.1427915062
 20
52.5604627564
 30
0.0
 10
31.5994131721
 20
52.2621516875
 30
0.0
 10
32.2538578764
 20
51.7398083282
 30
0.0
 10
32.8878671338
 20
51.1372615531
 30
0.0
 10
33.7008762712
 20
50.2305097076
 30
0.0
 10
34.602931448
 20
48.960648102
 30
0.0
 10
35.3200011956
 20
47.5722520094
 30
0.0
 10
35.7626792994
 20
46.4200195121
 30
0.0
 10
36.0187611522
 20
45.5620511103
 30
0.0
 10
36.1972270906
 20
44.7178003603
 30
0.0
 10
36.2954124093
 20
43.9001104351
 30
0.0
 10
36.3115066732
 20
43.1205838823
 30
0.0
 10
36.2266999352
 20
42.1834479195
 30
0.0
 10
36.0388555463
 20
41.5156258011
 30
0.0
 10
35.8474603688
 20
41.1224257878
 30
0.0
  0
SPLINE
  5
2A5
100
AcDbEntity
  8
0
100
AcDbSpline
 62
7
  6
BYLAYER
 70
0
 71
3
 72
12
 73
8
 74
0
 42
0.0000001
 43
0.0000001
 44
0.0000000001
 40
0.0
 40
0.0
 40
0.0
 40
0.0
 40
0.2895581804
 40
0.5486557819
 40
0.7816338328
 40
0.8918399141
 40
1.0
 40
1.0
 40
1.0
 40
1.0
 10
12.2344906981
 20
42.6549643225
 30
0.0
 10
12.123008098
 20
42.7193273758
 30
0.0
 10
11.9207845483
 20
42.8586289803
 30
0.0
 10
11.6791404913
 20
43.1123718881
 30
0.0
 10
11.5494744081
 20
43.3515364123
 30
0.0
 10
11.4988913664
 20
43.5465366258
 30
0.0
 10
11.490553104
 20
43.6438199735
 30
0.0
 10
11.4905531034
 20
43.6919044825
 30
0.0
  0
SPLINE
  5
2A6
100
AcDbEntity
  8
0
100
AcDbSpline
 62
7
  6
BYLAYER
 70
0
 71
3
 72
15
 73
11
 74
0
 42
0.0000001
 43
0.0000001
 44
0.0000000001
 40
0.0
 40
0.0
 40
0.0
 40
0.0
 40
0.1141464977
 40
0.237335278
 40
0.3669759337
 40
0.4999994786
 40
0.633023096
 40
0.7626639635
 40
0.8858530776
 40
1.0
 40
1.0
 40
1.0
 40
1.0
 10
19.4187105502
 20
40.5811099422
 30
0.0
 10
19.2957657226
 20
40.5101281367
 30
0.0
 10
19.0268893704
 20
40.3849403255
 30
0.0
 10
18.5890730587
 20
40.2518421729
 30
0.0
 10
18.1150448425
 20
40.169964499
 30
0.0
 10
17.6226623391
 20
40.1423053757
 30
0.0
 10
17.1302794421
 20
40.1699621621
 30
0.0
 10
16.6562500631
 20
40.2518375852
 30
0.0
 10
16.2184318665
 20
40.3849336566
 30
0.0
 10
15.949553867
 20
40.5101201249
 30
0.0
 10
15.8266080701
 20
40.5811013079
 30
0.0
  0
SPLINE
  5
2A7
100
AcDbEntity
  8
0
100
AcDbSpline
 62
7
  6
BYLAYER
 70
0
 71
3
 72
13
 73
9
 74
0
 42
0.0000001
 43
0.0000001
 44
0.0000000001
 40
0.0
 40
0.0
 40
0.0
 40
0.0
 40
0.114176888
 40
0.2375715548
 40
0.5000017735
 40
0.762431024
 40
0.8858245003
 40
1.0
 40
1.0
 40
1.0
 40
1.0
 10
53.8850441216
 20
43.6820262801
 30
0.0
 10
53.8850441216
 20
43.7245885425
 30
0.0
 10
53.8928887066
 20
43.8132329315
 30
0.0
 10
53.9351642129
 20
43.9952222234
 30
0.0
 10
54.0336675709
 20
44.2183904891
 30
0.0
 10
54.1776840742
 20
44.4152814027
 30
0.0
 10
54.3141523769
 20
44.5428871802
 30
0.0
 10
54.3869976382
 20
44.5940023901
 30
0.0
 10
54.4238572455
 20
44.6152831672
 30
0.0
  0
SPLINE
  5
2A8
100
AcDbEntity
  8
0
100
AcDbSpline
 62
7
  6
BYLAYER
 70
0
 71
3
 72
15
 73
11
 74
0
 42
0.0000001
 43
0.0000001
 44
0.0000000001
 40
0.0
 40
0.0
 40
0.0
 40
0.0
 40
0.1141242661
 40
0.2373486253
 40
0.3669740476
 40
0.5000015346
 40
0.6330288076
 40
0.7626536034
 40
0.8858770013
 40
1.0
 40
1.0
 40
1.0
 40
1.0
 10
8.4806846248
 20
69.2734935166
 30
0.0
 10
8.4806846248
 20
69.3586553813
 30
0.0
 10
8.4963213986
 20
69.5359308404
 30
0.0
 10
8.5584727673
 20
69.8033618489
 30
0.0
 10
8.658155946
 20
70.0742500104
 30
0.0
 10
8.7914814153
 20
70.3383989991
 30
0.0
 10
8.9535769173
 20
70.5859371614
 30
0.0
 10
9.1383295589
 20
70.8077091719
 30
0.0
 10
9.3388539062
 20
70.9952483985
 30
0.0
 10
9.4845592434
 20
71.0974270219
 30
0.0
 10
9.5583108727
 20
71.1400072908
 30
0.0
  0
SPLINE
  5
2A9
100
AcDbEntity
  8
0
100
AcDbSpline
 62
7
  6
BYLAYER
 70
0
 71
3
 72
13
 73
9
 74
0
 42
0.0000001
 43
0.0000001
 44
0.0000000001
 40
0.0
 40
0.0
 40
0.0
 40
0.0
 40
0.1080923394
 40
0.2182319076
 40
0.3322566028
 40
0.4516863322
 40
0.7106265324
 40
1.0
 40
1.0
 40
1.0
 40
1.0
 10
48.0947929921
 20
37.9700231191
 30
0.0
 10
48.0427383925
 20
37.9399713375
 30
0.0
 10
47.9426311663
 20
37.8701604149
 30
0.0
 10
47.8104327921
 20
37.7399681604
 30
0.0
 10
47.6966718654
 20
37.5855279628
 30
0.0
 10
47.567693122
 20
37.3430553279
 30
0.0
 10
47.4614580916
 20
36.9832958565
 30
0.0
 10
47.4372008595
 20
36.6774837326
 30
0.0
 10
47.4372008595
 20
36.516572928
 30
0.0
  0
SPLINE
  5
2AA
100
AcDbEntity
  8
0
100
AcDbSpline
 62
7
  6
BYLAYER
 70
0
 71
3
 72
12
 73
8
 74
0
 42
0.0000001
 43
0.0000001
 44
0.0000000001
 40
0.0
 40
0.0
 40
0.0
 40
0.0
 40
0.1081711684
 40
0.2183745344
 40
0.4513260781
 40
0.710516265
 40
1.0
 40
1.0
 40
1.0
 40
1.0
 10
48.6027844562
 20
37.0901508395
 30
0.0
 10
48.6381836401
 20
37.1105884303
 30
0.0
 10
48.7133678046
 20
37.1457376925
 30
0.0
 10
48.8783733132
 20
37.1914508604
 30
0.0
 10
49.1095717453
 20
37.1976254404
 30
0.0
 10
49.3990316101
 20
37.1275523267
 30
0.0
 10
49.5875398557
 20
37.0379309341
 30
0.0
 10
49.6822742369
 20
36.9832372509
 30
0.0
  0
SPLINE
  5
2AB
100
AcDbEntity
  8
0
100
AcDbSpline
 62
7
  6
BYLAYER
 70
0
 71
3
 72
13
 73
9
 74
0
 42
0.0000001
 43
0.0000001
 44
0.0000000001
 40
0.0
 40
0.0
 40
0.0
 40
0.0
 40
0.2891669329
 40
0.5481713593
 40
0.6676856009
 40
0.7817907852
 40
0.8919651916
 40
1.0
 40
1.0
 40
1.0
 40
1.0
 10
54.2622134579
 20
28.5320655852
 30
0.0
 10
54.2622134578
 20
28.3404897795
 30
0.0
 10
54.2335357699
 20
27.9762545543
 30
0.0
 10
54.1081584411
 20
27.5474255791
 30
0.0
 10
53.955915583
 20
27.2576409421
 30
0.0
 10
53.8215902837
 20
27.0726134829
 30
0.0
 10
53.6654517527
 20
26.9161022425
 30
0.0
 10
53.5471017219
 20
26.8316771878
 30
0.0
 10
53.4855254152
 20
26.7951914848
 30
0.0
  0
SPLINE
  5
2AC
100
AcDbEntity
  8
0
100
AcDbSpline
 62
7
  6
BYLAYER
 70
0
 71
3
 72
9
 73
5
 74
0
 42
0.0000001
 43
0.0000001
 44
0.0000000001
 40
0.0
 40
0.0
 40
0.0
 40
0.0
 40
0.5212010437
 40
1.0
 40
1.0
 40
1.0
 40
1.0
 10
53.9422638246
 20
41.1789081288
 30
0.0
 10
54.0415531317
 20
40.9078936833
 30
0.0
 10
54.1955713672
 20
40.3735828092
 30
0.0
 10
54.2598020668
 20
39.8198240856
 30
0.0
 10
54.2620804746
 20
39.5546853732
 30
0.0
  0
SPLINE
  5
2AD
100
AcDbEntity
  8
0
100
AcDbSpline
 62
7
  6
BYLAYER
 70
0
 71
3
 72
14
 73
10
 74
0
 42
0.0000001
 43
0.0000001
 44
0.0000000001
 40
0.0
 40
0.0
 40
0.0
 40
0.0
 40
0.1080461439
 40
0.2181359091
 40
0.3321085859
 40
0.451483136
 40
0.5774302377
 40
0.7107534897
 40
1.0
 40
1.0
 40
1.0
 40
1.0
 10
31.3432205634
 20
72.7907536387
 30
0.0
 10
31.4056848307
 20
72.8268171872
 30
0.0
 10
31.5382971099
 20
72.8889607764
 30
0.0
 10
31.7529116357
 20
72.9482327809
 30
0.0
 10
31.9816531938
 20
72.9737852975
 30
0.0
 10
32.2221197833
 20
72.9654407824
 30
0.0
 10
32.4720723233
 20
72.9235259417
 30
0.0
 10
32.8241908263
 20
72.8208107026
 30
0.0
 10
33.0809764662
 20
72.6986336238
 30
0.0
 10
33.2481980458
 20
72.602090384
 30
0.0
  0
SPLINE
  5
2AE
100
AcDbEntity
  8
0
100
AcDbSpline
 62
7
  6
BYLAYER
 70
0
 71
3
 72
11
 73
7
 74
0
 42
0.0000001
 43
0.0000001
 44
0.0000000001
 40
0.0
 40
0.0
 40
0.0
 40
0.0
 40
0.2944129729
 40
0.5557208397
 40
0.7869532652
 40
1.0
 40
1.0
 40
1.0
 40
1.0
 10
28.0326744535
 20
37.669760181
 30
0.0
 10
27.9657118934
 20
37.6373200637
 30
0.0
 10
27.8438550911
 20
37.5655718032
 30
0.0
 10
27.6962210294
 20
37.4294878559
 30
0.0
 10
27.6015422046
 20
37.2750638873
 30
0.0
 10
27.5790195232
 20
37.1619227394
 30
0.0
 10
27.5790252506
 20
37.1080797038
 30
0.0
  0
SPLINE
  5
2AF
100
AcDbEntity
  8
0
100
AcDbSpline
 62
7
  6
BYLAYER
 70
0
 71
3
 72
14
 73
10
 74
0
 42
0.0000001
 43
0.0000001
 44
0.0000000001
 40
0.0
 40
0.0
 40
0.0
 40
0.0
 40
0.2892474877
 40
0.4225710071
 40
0.5485181945
 40
0.6678926383
 40
0.7818650295
 40
0.8919543639
 40
1.0
 40
1.0
 40
1.0
 40
1.0
 10
63.960801832
 20
40.7679317351
 30
0.0
 10
63.9608018319
 20
40.5748361536
 30
0.0
 10
63.9382194994
 20
40.2913560533
 30
0.0
 10
63.851114684
 20
39.9350437169
 30
0.0
 10
63.7624370307
 20
39.6976138685
 30
0.0
 10
63.6494285493
 20
39.4851852731
 30
0.0
 10
63.5129259344
 20
39.2998605125
 30
0.0
 10
63.3542839631
 20
39.1436311982
 30
0.0
 10
63.234156893
 20
39.0598558778
 30
0.0
 10
63.1716912457
 20
39.0237915326
 30
0.0
  0
SPLINE
  5
2B0
100
AcDbEntity
  8
0
100
AcDbSpline
 62
7
  6
BYLAYER
 70
0
 71
3
 72
9
 73
5
 74
0
 42
0.0000001
 43
0.0000001
 44
0.0000000001
 40
0.0
 40
0.0
 40
0.0
 40
0.0
 40
0.256077005
 40
1.0
 40
1.0
 40
1.0
 40
1.0
 10
26.7528085012
 20
39.9257668964
 30
0.0
 10
26.6416327666
 20
39.9033209528
 30
0.0
 10
26.2090599482
 20
39.8081509394
 30
0.0
 10
25.7829814184
 20
39.6825654394
 30
0.0
 10
25.4732088871
 20
39.5702930768
 30
0.0
  0
SPLINE
  5
2B1
100
AcDbEntity
  8
0
100
AcDbSpline
 62
7
  6
BYLAYER
 70
0
 71
3
 72
9
 73
5
 74
0
 42
0.0000001
 43
0.0000001
 44
0.0000000001
 40
0.0
 40
0.0
 40
0.0
 40
0.0
 40
0.2554013862
 40
1.0
 40
1.0
 40
1.0
 40
1.0
 10
25.4732088871
 20
39.5702930768
 30
0.0
 10
25.4119047491
 20
39.5480743204
 30
0.0
 10
25.1729477808
 20
39.4581617804
 30
0.0
 10
24.9383812107
 20
39.3564500338
 30
0.0
 10
24.7672971944
 20
39.2735681138
 30
0.0
  0
SPLINE
  5
2B2
100
AcDbEntity
  8
0
100
AcDbSpline
 62
7
  6
BYLAYER
 70
0
 71
3
 72
15
 73
11
 74
0
 42
0.0000001
 43
0.0000001
 44
0.0000000001
 40
0.0
 40
0.0
 40
0.0
 40
0.0
 40
0.1510915201
 40
0.2941466059
 40
0.4287439131
 40
0.5551370688
 40
0.6740264841
 40
0.7865779751
 40
0.8945100939
 40
1.0
 40
1.0
 40
1.0
 40
1.0
 10
24.7672971944
 20
39.2735681138
 30
0.0
 10
24.5950478898
 20
39.190121668
 30
0.0
 10
24.2663606017
 20
39.0133331034
 30
0.0
 10
23.8140708218
 20
38.7110234888
 30
0.0
 10
23.4208922316
 20
38.3815616963
 30
0.0
 10
23.0916091807
 20
38.0287816257
 30
0.0
 10
22.8302149386
 20
37.6564416256
 30
0.0
 10
22.6403323202
 20
37.2685265616
 30
0.0
 10
22.5249282806
 20
36.8698217567
 30
0.0
 10
22.4990488547
 20
36.5987968891
 30
0.0
 10
22.4990530209
 20
36.4651656973
 30
0.0
  0
SPLINE
  5
2B3
100
AcDbEntity
  8
0
100
AcDbSpline
 62
7
  6
BYLAYER
 70
0
 71
3
 72
14
 73
10
 74
0
 42
0.0000001
 43
0.0000001
 44
0.0000000001
 40
0.0
 40
0.0
 40
0.0
 40
0.0
 40
0.2892474877
 40
0.4225710071
 40
0.5485181945
 40
0.6678926383
 40
0.7818650296
 40
0.8919543639
 40
1.0
 40
1.0
 40
1.0
 40
1.0
 10
58.5547578625
 20
31.0518304238
 30
0.0
 10
58.5547578624
 20
30.8600221461
 30
0.0
 10
58.5323260788
 20
30.5784319132
 30
0.0
 10
58.4458019622
 20
30.2244949923
 30
0.0
 10
58.3577154932
 20
29.9886480095
 30
0.0
 10
58.2454604017
 20
29.7776356048
 30
0.0
 10
58.1098678042
 20
29.5935463426
 30
0.0
 10
57.9522834461
 20
29.438358557
 30
0.0
 10
57.8329572231
 20
29.3551417387
 30
0.0
 10
57.7709080135
 20
29.3193178224
 30
0.0
  0
SPLINE
  5
2B4
100
AcDbEntity
  8
0
100
AcDbSpline
 62
7
  6
BYLAYER
 70
0
 71
3
 72
15
 73
11
 74
0
 42
0.0000001
 43
0.0000001
 44
0.0000000001
 40
0.0
 40
0.0
 40
0.0
 40
0.0
 40
0.1253740636
 40
0.2546423555
 40
0.3858034678
 40
0.5167885685
 40
0.6455337556
 40
0.7700689972
 40
0.8887407115
 40
1.0
 40
1.0
 40
1.0
 40
1.0
 10
56.758790132
 20
45.9986830349
 30
0.0
 10
56.8915353264
 20
45.8686572449
 30
0.0
 10
57.1475964002
 20
45.5904327899
 30
0.0
 10
57.4941605499
 20
45.1346882273
 30
0.0
 10
57.8029014954
 20
44.6426342731
 30
0.0
 10
58.0665345555
 20
44.1258938102
 30
0.0
 10
58.2789007804
 20
43.5965864539
 30
0.0
 10
58.4350702343
 20
43.0669442587
 30
0.0
 10
58.5312103559
 20
42.5495011659
 30
0.0
 10
58.5547578624
 20
42.2084834872
 30
0.0
 10
58.5547578625
 20
42.0435859224
 30
0.0
  0
SPLINE
  5
2B5
100
AcDbEntity
  8
0
100
AcDbSpline
 62
7
  6
BYLAYER
 70
0
 71
3
 72
15
 73
11
 74
0
 42
0.0000001
 43
0.0000001
 44
0.0000000001
 40
0.0
 40
0.0
 40
0.0
 40
0.0
 40
0.1118413823
 40
0.2315752012
 40
0.3573894429
 40
0.4872699472
 40
0.6188637888
 40
0.7497478733
 40
0.8775220137
 40
1.0
 40
1.0
 40
1.0
 40
1.0
 10
61.2667137597
 20
56.4259587473
 30
0.0
 10
61.4224212706
 20
56.3360630075
 30
0.0
 10
61.7311642207
 20
56.1256960086
 30
0.0
 10
62.1637021945
 20
55.745772088
 30
0.0
 10
62.5716959852
 20
55.2995000173
 30
0.0
 10
62.9440640734
 20
54.7992909332
 30
0.0
 10
63.2706955671
 20
54.2585755616
 30
0.0
 10
63.5426686354
 20
53.6921233801
 30
0.0
 10
63.7526538522
 20
53.1154823018
 30
0.0
 10
63.8500614764
 20
52.7241279067
 30
0.0
 10
63.8860543879
 20
52.5305519037
 30
0.0
  0
SPLINE
  5
2B6
100
AcDbEntity
  8
0
100
AcDbSpline
 62
7
  6
BYLAYER
 70
0
 71
3
 72
12
 73
8
 74
0
 42
0.0000001
 43
0.0000001
 44
0.0000000001
 40
0.0
 40
0.0
 40
0.0
 40
0.0
 40
0.2895577051
 40
0.5486551373
 40
0.7816333829
 40
0.8918396706
 40
1.0
 40
1.0
 40
1.0
 40
1.0
 10
12.2344757428
 20
61.9008616433
 30
0.0
 10
12.1229952274
 20
61.8364987218
 30
0.0
 10
11.9207755153
 20
61.6971976515
 30
0.0
 10
11.6791363666
 20
61.4434566165
 30
0.0
 10
11.5494731263
 20
61.2042944989
 30
0.0
 10
11.4988911847
 20
61.0092964048
 30
0.0
 10
11.4905531028
 20
60.9120141149
 30
0.0
 10
11.4905531034
 20
60.8639301177
 30
0.0
  0
SPLINE
  5
2B7
100
AcDbEntity
  8
0
100
AcDbSpline
 62
7
  6
BYLAYER
 70
0
 71
3
 72
11
 73
7
 74
0
 42
0.0000001
 43
0.0000001
 44
0.0000000001
 40
0.0
 40
0.0
 40
0.0
 40
0.0
 40
0.2282852217
 40
0.4746727658
 40
0.7339669418
 40
1.0
 40
1.0
 40
1.0
 40
1.0
 10
47.4372008595
 20
36.516572928
 30
0.0
 10
47.4372008595
 20
36.3388245721
 30
0.0
 10
47.4698322144
 20
35.9688929287
 30
0.0
 10
47.5997932997
 20
35.4108302308
 30
0.0
 10
47.8080143425
 20
34.8456979845
 30
0.0
 10
47.9930448113
 20
34.4797542134
 30
0.0
 10
48.0967434482
 20
34.3004403556
 30
0.0
  0
SPLINE
  5
2B8
100
AcDbEntity
  8
0
100
AcDbSpline
 62
7
  6
BYLAYER
 70
0
 71
3
 72
17
 73
13
 74
0
 42
0.0000001
 43
0.0000001
 44
0.0000000001
 40
0.0
 40
0.0
 40
0.0
 40
0.0
 40
0.1551098203
 40
0.3062731962
 40
0.4498742029
 40
0.5829585485
 40
0.7036375856
 40
0.8116014883
 40
0.8614186128
 40
0.9089761508
 40
0.9549130029
 40
1.0
 40
1.0
 40
1.0
 40
1.0
 10
48.0967434482
 20
34.3004403556
 30
0.0
 10
48.2001794496
 20
34.1215806425
 30
0.0
 10
48.4244381917
 20
33.7795369751
 30
0.0
 10
48.8092025077
 20
33.3183605148
 30
0.0
 10
49.2268035425
 20
32.9281243827
 30
0.0
 10
49.6621150672
 20
32.6233417477
 30
0.0
 10
50.0995753755
 20
32.4153401891
 30
0.0
 10
50.4639965828
 20
32.3277331261
 30
0.0
 10
50.7381833294
 20
32.3182847434
 30
0.0
 10
50.9286480121
 20
32.3396165446
 30
0.0
 10
51.1073278699
 20
32.3890166952
 30
0.0
 10
51.2177424952
 20
32.4407661878
 30
0.0
 10
51.2697554816
 20
32.4707939456
 30
0.0
  0
SPLINE
  5
2B9
100
AcDbEntity
  8
0
100
AcDbSpline
 62
7
  6
BYLAYER
 70
0
 71
3
 72
19
 73
15
 74
0
 42
0.0000001
 43
0.0000001
 44
0.0000000001
 40
0.0
 40
0.0
 40
0.0
 40
0.0
 40
0.0623912204
 40
0.12883165
 40
0.2703521188
 40
0.4174418405
 40
0.5617162437
 40
0.6953237839
 40
0.7563173263
 40
0.8127977205
 40
0.8647364846
 40
0.9125503751
 40
0.9571578678
 40
1.0
 40
1.0
 40
1.0
 40
1.0
 10
49.6822742369
 20
36.9832372509
 30
0.0
 10
49.7597939143
 20
36.9384822568
 30
0.0
 10
49.9138768368
 20
36.8354418384
 30
0.0
 10
50.2111437746
 20
36.5853864377
 30
0.0
 10
50.5495035552
 20
36.2003394851
 30
0.0
 10
50.8761989264
 20
35.6689006876
 30
0.0
 10
51.1057440934
 20
35.1009866801
 30
0.0
 10
51.2036861301
 20
34.6208263188
 30
0.0
 10
51.2129630878
 20
34.259872074
 30
0.0
 10
51.1867953933
 20
34.0173758277
 30
0.0
 10
51.1280265693
 20
33.7999659795
 30
0.0
 10
51.0373324442
 20
33.6121686936
 30
0.0
 10
50.9158668503
 20
33.4586610822
 30
0.0
 10
50.8149988182
 20
33.3813904917
 30
0.0
 10
50.7617644617
 20
33.3506655052
 30
0.0
  0
SPLINE
  5
2BA
100
AcDbEntity
  8
0
100
AcDbSpline
 62
7
  6
BYLAYER
 70
0
 71
3
 72
19
 73
15
 74
0
 42
0.0000001
 43
0.0000001
 44
0.0000000001
 40
0.0
 40
0.0
 40
0.0
 40
0.0
 40
0.0453755571
 40
0.0940773173
 40
0.1481663247
 40
0.2086025916
 40
0.3468415821
 40
0.4999851355
 40
0.6531292867
 40
0.7913784578
 40
0.8518214814
 40
0.9059179987
 40
0.9546237043
 40
1.0
 40
1.0
 40
1.0
 40
1.0
 10
47.2057639262
 20
39.5098264043
 30
0.0
 10
47.1890277978
 20
39.5001635198
 30
0.0
 10
47.1577173046
 20
39.4737563451
 30
0.0
 10
47.1242628097
 20
39.4192475322
 30
0.0
 10
47.1044418783
 20
39.3519355348
 30
0.0
 10
47.0959334692
 20
39.2440398126
 30
0.0
 10
47.1226728021
 20
39.0942599657
 30
0.0
 10
47.1996089794
 20
38.9197050557
 30
0.0
 10
47.3123054862
 20
38.7657907621
 30
0.0
 10
47.4286501863
 20
38.6677327325
 30
0.0
 10
47.5263531991
 20
38.6211470005
 30
0.0
 10
47.5945644975
 20
38.6046509203
 30
0.0
 10
47.6585031383
 20
38.6063701672
 30
0.0
 10
47.6970296403
 20
38.6202827734
 30
0.0
 10
47.7137660412
 20
38.6299458152
 30
0.0
  0
SPLINE
  5
2BB
100
AcDbEntity
  8
0
100
AcDbSpline
 62
7
  6
BYLAYER
 70
0
 71
3
 72
18
 73
14
 74
0
 42
0.0000001
 43
0.0000001
 44
0.0000000001
 40
0.0
 40
0.0
 40
0.0
 40
0.0
 40
0.0450364352
 40
0.0909847334
 40
0.1385461891
 40
0.1883479818
 40
0.2408849538
 40
0.2964767933
 40
0.4171418744
 40
0.5502142553
 40
0.6937833066
 40
0.8449422598
 40
1.0
 40
1.0
 40
1.0
 40
1.0
 10
47.7137660412
 20
38.6299458152
 30
0.0
 10
47.7782638078
 20
38.6671846828
 30
0.0
 10
47.9153323494
 20
38.7312803463
 30
0.0
 10
48.1370648738
 20
38.7927027509
 30
0.0
 10
48.3735289758
 20
38.8190910183
 30
0.0
 10
48.622052767
 20
38.8104344864
 30
0.0
 10
48.8802909187
 20
38.7670946297
 30
0.0
 10
49.2442032027
 20
38.6609448475
 30
0.0
 10
49.7092172637
 20
38.43971923
 30
0.0
 10
50.2490806042
 20
38.0611486563
 30
0.0
 10
50.7672983985
 20
37.5764755213
 30
0.0
 10
51.2444799887
 20
37.003752494
 30
0.0
 10
51.5225734645
 20
36.5790229775
 30
0.0
 10
51.6507824325
 20
36.3569597637
 30
0.0
  0
SPLINE
  5
2BC
100
AcDbEntity
  8
0
100
AcDbSpline
 62
7
  6
BYLAYER
 70
0
 71
3
 72
13
 73
9
 74
0
 42
0.0000001
 43
0.0000001
 44
0.0000000001
 40
0.0
 40
0.0
 40
0.0
 40
0.0
 40
0.3063506246
 40
0.5827902232
 40
0.7036979959
 40
0.8118499759
 40
0.9091454716
 40
1.0
 40
1.0
 40
1.0
 40
1.0
 10
51.6507824325
 20
36.3569597637
 30
0.0
 10
51.683401102
 20
36.3004628845
 30
0.0
 10
51.7573539762
 20
36.1994324675
 30
0.0
 10
51.8736945674
 20
36.1014516786
 30
0.0
 10
51.9713927799
 20
36.0548563723
 30
0.0
 10
52.0395763003
 20
36.0384433887
 30
0.0
 10
52.1035181717
 20
36.0400040417
 30
0.0
 10
52.1420117341
 20
36.0540228096
 30
0.0
 10
52.1587674
 20
36.0636959118
 30
0.0
  0
SPLINE
  5
2BD
100
AcDbEntity
  8
0
100
AcDbSpline
 62
7
  6
BYLAYER
 70
0
 71
3
 72
9
 73
5
 74
0
 42
0.0000001
 43
0.0000001
 44
0.0000000001
 40
0.0
 40
0.0
 40
0.0
 40
0.0
 40
0.2521398495
 40
1.0
 40
1.0
 40
1.0
 40
1.0
 10
8.9497135763
 20
55.8771950585
 30
0.0
 10
9.0098631719
 20
55.7730134812
 30
0.0
 10
9.2571268013
 20
55.3649325903
 30
0.0
 10
9.5384811868
 20
54.9773473125
 30
0.0
 10
9.7670812287
 20
54.7033819316
 30
0.0
  0
SPLINE
  5
2BE
100
AcDbEntity
  8
0
100
AcDbSpline
 62
7
  6
BYLAYER
 70
0
 71
3
 72
11
 73
7
 74
0
 42
0.0000001
 43
0.0000001
 44
0.0000000001
 40
0.0
 40
0.0
 40
0.0
 40
0.0
 40
0.2287893219
 40
0.4747994999
 40
0.7335866493
 40
1.0
 40
1.0
 40
1.0
 40
1.0
 10
9.1811505096
 20
58.603214229
 30
0.0
 10
9.1811505096
 20
58.4388118121
 30
0.0
 10
9.2090623934
 20
58.0973433718
 30
0.0
 10
9.3211875236
 20
57.580996438
 30
0.0
 10
9.50172169
 20
57.055845434
 30
0.0
 10
9.6625767503
 20
56.7135276922
 30
0.0
 10
9.7529275901
 20
56.5447518605
 30
0.0
  0
SPLINE
  5
2BF
100
AcDbEntity
  8
0
100
AcDbSpline
 62
7
  6
BYLAYER
 70
0
 71
3
 72
18
 73
14
 74
0
 42
0.0000001
 43
0.0000001
 44
0.0000000001
 40
0.0
 40
0.0
 40
0.0
 40
0.0
 40
0.1550699885
 40
0.3062053944
 40
0.4497879542
 40
0.5828590296
 40
0.7035253683
 40
0.7591156924
 40
0.811658766
 40
0.8614578689
 40
0.909008113
 40
0.9549510119
 40
1.0
 40
1.0
 40
1.0
 40
1.0
 10
47.2057639262
 20
33.7905537574
 30
0.0
 10
47.3670724317
 20
33.5111607812
 30
0.0
 10
47.7168964529
 20
32.9768227115
 30
0.0
 10
48.3172670043
 20
32.2563320538
 30
0.0
 10
48.9691538969
 20
31.6465372995
 30
0.0
 10
49.648393429
 20
31.1703066715
 30
0.0
 10
50.2333829742
 20
30.8919176491
 30
0.0
 10
50.6912463998
 20
30.7584572447
 30
0.0
 10
51.0161279334
 20
30.7039110852
 30
0.0
 10
51.328772401
 20
30.693053231
 30
0.0
 10
51.6262233098
 20
30.7261968676
 30
0.0
 10
51.9051787391
 20
30.8034545632
 30
0.0
 10
52.0776192719
 20
30.8841285269
 30
0.0
 10
52.1587845475
 20
30.9309906604
 30
0.0
  0
SPLINE
  5
2C0
100
AcDbEntity
  8
0
100
AcDbSpline
 62
7
  6
BYLAYER
 70
0
 71
3
 72
16
 73
12
 74
0
 42
0.0000001
 43
0.0000001
 44
0.0000000001
 40
0.0
 40
0.0
 40
0.0
 40
0.0
 40
0.1210677735
 40
0.2532997556
 40
0.3919736175
 40
0.5315410799
 40
0.6663284465
 40
0.7912853404
 40
0.8489494617
 40
0.9029904236
 40
1.0
 40
1.0
 40
1.0
 40
1.0
 10
22.4718929281
 20
74.1575082656
 30
0.0
 10
22.3380180157
 20
74.2347992337
 30
0.0
 10
22.0394592047
 20
74.3652429339
 30
0.0
 10
21.5517192317
 20
74.4854976205
 30
0.0
 10
21.0280108458
 20
74.5342583321
 30
0.0
 10
20.4994670428
 20
74.5085770194
 30
0.0
 10
19.9973417569
 20
74.4099826688
 30
0.0
 10
19.6151580834
 20
74.2681012442
 30
0.0
 10
19.3504386715
 20
74.1210195696
 30
0.0
 10
19.1333053649
 20
73.9662313975
 30
0.0
 10
18.9970500011
 20
73.8244962704
 30
0.0
 10
18.9286476691
 20
73.7212300584
 30
0.0
  0
SPLINE
  5
2C1
100
AcDbEntity
  8
0
100
AcDbSpline
 62
7
  6
BYLAYER
 70
0
 71
3
 72
9
 73
5
 74
0
 42
0.0000001
 43
0.0000001
 44
0.0000000001
 40
0.0
 40
0.0
 40
0.0
 40
0.0
 40
0.255535728
 40
1.0
 40
1.0
 40
1.0
 40
1.0
 10
18.9286476691
 20
73.7212300584
 30
0.0
 10
18.9212434647
 20
73.7100520163
 30
0.0
 10
18.8931381
 20
73.6657421732
 30
0.0
 10
18.8686355317
 20
73.6191182439
 30
0.0
 10
18.8528907931
 20
73.583370169
 30
0.0
  0
SPLINE
  5
2C2
100
AcDbEntity
  8
0
100
AcDbSpline
 62
7
  6
BYLAYER
 70
0
 71
3
 72
16
 73
12
 74
0
 42
0.0000001
 43
0.0000001
 44
0.0000000001
 40
0.0
 40
0.0
 40
0.0
 40
0.0
 40
0.1210677735
 40
0.2532997556
 40
0.3919736175
 40
0.5315410799
 40
0.6663284465
 40
0.7912853404
 40
0.8489494617
 40
0.9029904236
 40
1.0
 40
1.0
 40
1.0
 40
1.0
 10
60.727943278
 20
52.0708669645
 30
0.0
 10
60.5940683656
 20
52.1481579326
 30
0.0
 10
60.2955095546
 20
52.2786016328
 30
0.0
 10
59.8077695816
 20
52.3988563194
 30
0.0
 10
59.2840611957
 20
52.447617031
 30
0.0
 10
58.7555173927
 20
52.4219357183
 30
0.0
 10
58.2533921068
 20
52.3233413677
 30
0.0
 10
57.8712084333
 20
52.1814599431
 30
0.0
 10
57.6064890214
 20
52.0343782686
 30
0.0
 10
57.3893557148
 20
51.8795900964
 30
0.0
 10
57.253100351
 20
51.7378549693
 30
0.0
 10
57.184698019
 20
51.6345887573
 30
0.0
  0
SPLINE
  5
2C3
100
AcDbEntity
  8
0
100
AcDbSpline
 62
7
  6
BYLAYER
 70
0
 71
3
 72
9
 73
5
 74
0
 42
0.0000001
 43
0.0000001
 44
0.0000000001
 40
0.0
 40
0.0
 40
0.0
 40
0.0
 40
0.255535728
 40
1.0
 40
1.0
 40
1.0
 40
1.0
 10
57.184698019
 20
51.6345887573
 30
0.0
 10
57.1772938146
 20
51.6234107153
 30
0.0
 10
57.1491884499
 20
51.5791008722
 30
0.0
 10
57.1246858816
 20
51.5324769428
 30
0.0
 10
57.108941143
 20
51.4967288679
 30
0.0
  0
SPLINE
  5
2C4
100
AcDbEntity
  8
0
100
AcDbSpline
 62
7
  6
BYLAYER
 70
0
 71
3
 72
15
 73
11
 74
0
 42
0.0000001
 43
0.0000001
 44
0.0000000001
 40
0.0
 40
0.0
 40
0.0
 40
0.0
 40
0.1141469224
 40
0.2373360366
 40
0.366976904
 40
0.5000005214
 40
0.6330240662
 40
0.7626647219
 40
0.8858535023
 40
1.0
 40
1.0
 40
1.0
 40
1.0
 10
61.4463547944
 20
53.9373665336
 30
0.0
 10
61.2619361009
 20
54.0438383073
 30
0.0
 10
60.8586191047
 20
54.2316180071
 30
0.0
 10
60.2018918151
 20
54.4312621099
 30
0.0
 10
59.490847753
 20
54.5540752422
 30
0.0
 10
58.7522734148
 20
54.5955604209
 30
0.0
 10
58.0136996669
 20
54.5540717367
 30
0.0
 10
57.3026573491
 20
54.4312552284
 30
0.0
 10
56.6459328869
 20
54.2316080037
 30
0.0
 10
56.2426183615
 20
54.0438262895
 30
0.0
 10
56.0582011219
 20
53.9373535821
 30
0.0
  0
SPLINE
  5
2C5
100
AcDbEntity
  8
0
100
AcDbSpline
 62
7
  6
BYLAYER
 70
0
 71
3
 72
12
 73
8
 74
0
 42
0.0000001
 43
0.0000001
 44
0.0000000001
 40
0.0
 40
0.0
 40
0.0
 40
0.0
 40
0.2894851579
 40
0.5486779968
 40
0.781630718
 40
0.8918332777
 40
1.0
 40
1.0
 40
1.0
 40
1.0
 10
19.418618559
 20
73.016884851
 30
0.0
 10
19.3238831963
 20
73.0715791008
 30
0.0
 10
19.1520099842
 20
73.1900189167
 30
0.0
 10
18.9465848515
 20
73.4056571436
 30
0.0
 10
18.8363283059
 20
73.6089698341
 30
0.0
 10
18.7934200404
 20
73.774726243
 30
0.0
 10
18.7862661934
 20
73.857410053
 30
0.0
 10
18.7862631029
 20
73.8982839833
 30
0.0
  0
SPLINE
  5
2C6
100
AcDbEntity
  8
0
100
AcDbSpline
 62
7
  6
BYLAYER
 70
0
 71
3
 72
12
 73
8
 74
0
 42
0.0000001
 43
0.0000001
 44
0.0000000001
 40
0.0
 40
0.0
 40
0.0
 40
0.0
 40
0.2894851579
 40
0.5486779968
 40
0.781630718
 40
0.8918332777
 40
1.0
 40
1.0
 40
1.0
 40
1.0
 10
57.6746689089
 20
50.9302435499
 30
0.0
 10
57.5799335462
 20
50.9849377997
 30
0.0
 10
57.4080603341
 20
51.1033776157
 30
0.0
 10
57.2026352014
 20
51.3190158425
 30
0.0
 10
57.0923786558
 20
51.522328533
 30
0.0
 10
57.0494703903
 20
51.688084942
 30
0.0
 10
57.0423165434
 20
51.770768752
 30
0.0
 10
57.0423134528
 20
51.8116426823
 30
0.0
  0
SPLINE
  5
2C7
100
AcDbEntity
  8
0
100
AcDbSpline
 62
7
  6
BYLAYER
 70
0
 71
3
 72
19
 73
15
 74
0
 42
0.0000001
 43
0.0000001
 44
0.0000000001
 40
0.0
 40
0.0
 40
0.0
 40
0.0
 40
0.0453755571
 40
0.0940773173
 40
0.1481663247
 40
0.2086025916
 40
0.3468415821
 40
0.4999851355
 40
0.6531292867
 40
0.7913784578
 40
0.8518214814
 40
0.9059179987
 40
0.9546237043
 40
1.0
 40
1.0
 40
1.0
 40
1.0
 10
8.9497135763
 20
61.5964677054
 30
0.0
 10
8.9329774479
 20
61.5868048208
 30
0.0
 10
8.9016669547
 20
61.5603976462
 30
0.0
 10
8.8682124597
 20
61.5058888333
 30
0.0
 10
8.8483915284
 20
61.4385768359
 30
0.0
 10
8.8398831193
 20
61.3306811136
 30
0.0
 10
8.8666224522
 20
61.1809012668
 30
0.0
 10
8.9435586295
 20
61.0063463568
 30
0.0
 10
9.0562551363
 20
60.8524320631
 30
0.0
 10
9.1725998364
 20
60.7543740336
 30
0.0
 10
9.2703028492
 20
60.7077883016
 30
0.0
 10
9.3385141476
 20
60.6912922214
 30
0.0
 10
9.4024527884
 20
60.6930114682
 30
0.0
 10
9.4409792904
 20
60.7069240744
 30
0.0
 10
9.4577156913
 20
60.7165871162
 30
0.0
  0
SPLINE
  5
2C8
100
AcDbEntity
  8
0
100
AcDbSpline
 62
7
  6
BYLAYER
 70
0
 71
3
 72
9
 73
5
 74
0
 42
0.0000001
 43
0.0000001
 44
0.0000000001
 40
0.0
 40
0.0
 40
0.0
 40
0.0
 40
0.2481522274
 40
1.0
 40
1.0
 40
1.0
 40
1.0
 10
9.4577156913
 20
60.7165871162
 30
0.0
 10
9.4829251261
 20
60.7311422064
 30
0.0
 10
9.5864542609
 20
60.7863894297
 30
0.0
 10
9.6973745381
 20
60.8276158263
 30
0.0
 10
9.7825722336
 20
60.8504156281
 30
0.0
  0
SPLINE
  5
2C9
100
AcDbEntity
  8
0
100
AcDbSpline
 62
7
  6
BYLAYER
 70
0
 71
3
 72
11
 73
7
 74
0
 42
0.0000001
 43
0.0000001
 44
0.0000000001
 40
0.0
 40
0.0
 40
0.0
 40
0.0
 40
0.2839007046
 40
0.5445057356
 40
0.7821532105
 40
1.0
 40
1.0
 40
1.0
 40
1.0
 10
32.9307403421
 20
33.6567632736
 30
0.0
 10
33.1815376662
 20
33.7782624306
 30
0.0
 10
33.6491367253
 20
34.0411198372
 30
0.0
 10
34.2578113274
 20
34.5145479528
 30
0.0
 10
34.7302205763
 20
35.0406934138
 30
0.0
 10
34.9529109502
 20
35.4341046636
 30
0.0
 10
35.0330151593
 20
35.6323733736
 30
0.0
  0
SPLINE
  5
2CA
100
AcDbEntity
  8
0
100
AcDbSpline
 62
7
  6
BYLAYER
 70
0
 71
3
 72
15
 73
11
 74
0
 42
0.0000001
 43
0.0000001
 44
0.0000000001
 40
0.0
 40
0.0
 40
0.0
 40
0.0
 40
0.1141469224
 40
0.2373360365
 40
0.366976904
 40
0.5000005214
 40
0.6330240663
 40
0.762664722
 40
0.8858535023
 40
1.0
 40
1.0
 40
1.0
 40
1.0
 10
15.8266080701
 20
41.2032761497
 30
0.0
 10
15.949553867
 20
41.1322949667
 30
0.0
 10
16.2184318665
 20
41.0071084984
 30
0.0
 10
16.6562500631
 20
40.8740124271
 30
0.0
 10
17.1302794421
 20
40.7921370039
 30
0.0
 10
17.6226623391
 20
40.7644802176
 30
0.0
 10
18.1150448425
 20
40.7921393409
 30
0.0
 10
18.5890730587
 20
40.8740170148
 30
0.0
 10
19.0268893704
 20
41.0071151674
 30
0.0
 10
19.2957657226
 20
41.1323029786
 30
0.0
 10
19.4187105502
 20
41.2032847841
 30
0.0
  0
SPLINE
  5
2CB
100
AcDbEntity
  8
0
100
AcDbSpline
 62
7
  6
BYLAYER
 70
0
 71
3
 72
15
 73
11
 74
0
 42
0.0000001
 43
0.0000001
 44
0.0000000001
 40
0.0
 40
0.0
 40
0.0
 40
0.0
 40
0.118677713
 40
0.245351418
 40
0.3771858558
 40
0.5109159951
 40
0.6431273281
 40
0.7705246015
 40
0.8902105399
 40
1.0
 40
1.0
 40
1.0
 40
1.0
 10
32.114396047
 20
34.2184437672
 30
0.0
 10
31.8492926397
 20
34.0900140059
 30
0.0
 10
31.2793052282
 20
33.8685043424
 30
0.0
 10
30.3673961286
 20
33.6468877219
 30
0.0
 10
29.3985196737
 20
33.530783004
 30
0.0
 10
28.4091373367
 20
33.524639461
 30
0.0
 10
27.4362292792
 20
33.6286267728
 30
0.0
 10
26.5160363303
 20
33.8389676696
 30
0.0
 10
25.6830234293
 20
34.1477342686
 30
0.0
 10
25.1820312842
 20
34.4254571909
 30
0.0
 10
24.9575265942
 20
34.5799262066
 30
0.0
  0
SPLINE
  5
2CC
100
AcDbEntity
  8
0
100
AcDbSpline
 62
7
  6
BYLAYER
 70
0
 71
3
 72
13
 73
9
 74
0
 42
0.0000001
 43
0.0000001
 44
0.0000000001
 40
0.0
 40
0.0
 40
0.0
 40
0.0
 40
0.2842141897
 40
0.5414027011
 40
0.6614365364
 40
0.776970969
 40
0.889315696
 40
1.0
 40
1.0
 40
1.0
 40
1.0
 10
24.9575265942
 20
34.5799262066
 30
0.0
 10
24.7767637557
 20
34.7042989215
 30
0.0
 10
24.4499092744
 20
34.9687332097
 30
0.0
 10
24.1217956266
 20
35.3660706625
 30
0.0
 10
23.9381026965
 20
35.7003170241
 30
0.0
 10
23.8409260578
 20
35.9516579046
 30
0.0
 10
23.7821470043
 20
36.2072550903
 30
0.0
 10
23.7690463717
 20
36.3797160423
 30
0.0
 10
23.7690446549
 20
36.4651657057
 30
0.0
  0
SPLINE
  5
2CD
100
AcDbEntity
  8
0
100
AcDbSpline
 62
7
  6
BYLAYER
 70
0
 71
3
 72
11
 73
7
 74
0
 42
0.0000001
 43
0.0000001
 44
0.0000000001
 40
0.0
 40
0.0
 40
0.0
 40
0.0
 40
0.213048831
 40
0.4442854977
 40
0.705598124
 40
1.0
 40
1.0
 40
1.0
 40
1.0
 10
30.1190112302
 20
37.0873405355
 30
0.0
 10
30.1190134571
 20
37.0334970287
 30
0.0
 10
30.0964964312
 20
36.9203541278
 30
0.0
 10
30.001811622
 20
36.7659290575
 30
0.0
 10
29.8541784077
 20
36.6298464205
 30
0.0
 10
29.7323230462
 20
36.5580989107
 30
0.0
 10
29.665363083
 20
36.5256600515
 30
0.0
  0
SPLINE
  5
2CE
100
AcDbEntity
  8
0
100
AcDbSpline
 62
7
  6
BYLAYER
 70
0
 71
3
 72
15
 73
11
 74
0
 42
0.0000001
 43
0.0000001
 44
0.0000000001
 40
0.0
 40
0.0
 40
0.0
 40
0.0
 40
0.1097894721
 40
0.2294754242
 40
0.3568727045
 40
0.4890840409
 40
0.6228141776
 40
0.7546486089
 40
0.8813222997
 40
1.0
 40
1.0
 40
1.0
 40
1.0
 10
24.9575265942
 20
35.2021010485
 30
0.0
 10
25.1820313085
 20
35.047632016
 30
0.0
 10
25.683023516
 20
34.7699090727
 30
0.0
 10
26.5160364975
 20
34.4611424569
 30
0.0
 10
27.4362295126
 20
34.2508015787
 30
0.0
 10
28.409137591
 20
34.1468142901
 30
0.0
 10
29.3985199142
 20
34.1529578582
 30
0.0
 10
30.3673963074
 20
34.2690626005
 30
0.0
 10
31.2793053235
 20
34.4906792125
 30
0.0
 10
31.8492926681
 20
34.7121888615
 30
0.0
 10
32.114396047
 20
34.840618609
 30
0.0
  0
SPLINE
  5
2CF
100
AcDbEntity
  8
0
100
AcDbSpline
 62
7
  6
BYLAYER
 70
0
 71
3
 72
13
 73
9
 74
0
 42
0.0000001
 43
0.0000001
 44
0.0000000001
 40
0.0
 40
0.0
 40
0.0
 40
0.0
 40
0.2893779699
 40
0.5483155318
 40
0.6677446235
 40
0.7817692655
 40
0.8919078479
 40
1.0
 40
1.0
 40
1.0
 40
1.0
 10
33.6973443125
 20
45.4860348627
 30
0.0
 10
33.6973443125
 20
45.3251214574
 30
0.0
 10
33.6730868666
 20
45.019308316
 30
0.0
 10
33.5668521828
 20
44.6595471751
 30
0.0
 10
33.4378706142
 20
44.4170783352
 30
0.0
 10
33.3241143733
 20
44.2626356242
 30
0.0
 10
33.1919133509
 20
44.1324464973
 30
0.0
 10
33.0918071088
 20
44.0626357467
 30
0.0
 10
33.0397530977
 20
44.0325830815
 30
0.0
  0
SPLINE
  5
2D0
100
AcDbEntity
  8
0
100
AcDbSpline
 62
7
  6
BYLAYER
 70
0
 71
3
 72
11
 73
7
 74
0
 42
0.0000001
 43
0.0000001
 44
0.0000000001
 40
0.0
 40
0.0
 40
0.0
 40
0.0
 40
0.2832453152
 40
0.5428783991
 40
0.7801823199
 40
1.0
 40
1.0
 40
1.0
 40
1.0
 10
53.8850441216
 20
28.3557860091
 30
0.0
 10
53.8850441216
 20
28.1998536023
 30
0.0
 10
53.8656545499
 20
27.9003956446
 30
0.0
 10
53.7699781927
 20
27.4794818919
 30
0.0
 10
53.6099366471
 20
27.1158395769
 30
0.0
 10
53.4570065149
 20
26.91220117
 30
0.0
 10
53.3721091371
 20
26.8259638966
 30
0.0
  0
SPLINE
  5
2D1
100
AcDbEntity
  8
0
100
AcDbSpline
 62
7
  6
BYLAYER
 70
0
 71
3
 72
9
 73
5
 74
0
 42
0.0000001
 43
0.0000001
 44
0.0000000001
 40
0.0
 40
0.0
 40
0.0
 40
0.0
 40
0.2449154455
 40
1.0
 40
1.0
 40
1.0
 40
1.0
 10
53.9030047086
 20
39.3164329643
 30
0.0
 10
53.9030047086
 20
39.3465982602
 30
0.0
 10
53.9014529987
 20
39.4697615661
 30
0.0
 10
53.8938387904
 20
39.5928318936
 30
0.0
 10
53.8850441216
 20
39.6854159919
 30
0.0
  0
SPLINE
  5
2D2
100
AcDbEntity
  8
0
100
AcDbSpline
 62
7
  6
BYLAYER
 70
0
 71
3
 72
19
 73
15
 74
0
 42
0.0000001
 43
0.0000001
 44
0.0000000001
 40
0.0
 40
0.0
 40
0.0
 40
0.0
 40
0.0428385741
 40
0.0874433207
 40
0.1352549764
 40
0.1871925429
 40
0.2436709144
 40
0.3046630743
 40
0.4382667828
 40
0.5825421017
 40
0.7296386972
 40
0.8711665501
 40
0.9376089289
 40
1.0
 40
1.0
 40
1.0
 40
1.0
 10
18.7862631029
 20
73.8982839833
 30
0.0
 10
18.7862584559
 20
73.9597430256
 30
0.0
 10
18.8027329751
 20
74.0857229394
 30
0.0
 10
18.8749447483
 20
74.2676527438
 30
0.0
 10
18.992217511
 20
74.4400925712
 30
0.0
 10
19.1511149645
 20
74.5996797256
 30
0.0
 10
19.3480242095
 20
74.7435933913
 30
0.0
 10
19.6652491485
 20
74.9160248155
 30
0.0
 10
20.1300354186
 20
75.0712915172
 30
0.0
 10
20.7366349606
 20
75.1564631219
 30
0.0
 10
21.3602373997
 20
75.1392663807
 30
0.0
 10
21.8628969465
 20
75.0387651024
 30
0.0
 10
22.2280950176
 20
74.9063539788
 30
0.0
 10
22.3943742582
 20
74.8244375198
 30
0.0
 10
22.4718929281
 20
74.7796831074
 30
0.0
  0
SPLINE
  5
2D3
100
AcDbEntity
  8
0
100
AcDbSpline
 62
7
  6
BYLAYER
 70
0
 71
3
 72
21
 73
17
 74
0
 42
0.0000001
 43
0.0000001
 44
0.0000000001
 40
0.0
 40
0.0
 40
0.0
 40
0.0
 40
0.042823707
 40
0.0874174244
 40
0.1352138045
 40
0.1871361845
 40
0.2435991005
 40
0.3045737868
 40
0.369688349
 40
0.4383155559
 40
0.5825445299
 40
0.7295829639
 40
0.801591326
 40
0.871208631
 40
0.9376090448
 40
1.0
 40
1.0
 40
1.0
 40
1.0
 10
29.8647887727
 20
49.5318154351
 30
0.0
 10
29.9430606634
 20
49.5770046314
 30
0.0
 10
30.1155954377
 20
49.6487295571
 30
0.0
 10
30.4004186638
 20
49.6904769528
 30
0.0
 10
30.7062708531
 20
49.6679413231
 30
0.0
 10
31.0263775665
 20
49.5829253028
 30
0.0
 10
31.3544346001
 20
49.4379318317
 30
0.0
 10
31.6839034793
 20
49.236347737
 30
0.0
 10
32.0081558834
 20
48.9825454849
 30
0.0
 10
32.4312604046
 20
48.5749435454
 30
0.0
 10
32.9013672005
 20
47.9729587713
 30
0.0
 10
33.2681140375
 20
47.29530503
 30
0.0
 10
33.4866728515
 20
46.7258907735
 30
0.0
 10
33.6060891702
 20
46.3026761322
 30
0.0
 10
33.6794486043
 20
45.8897057675
 30
0.0
 10
33.6973443125
 20
45.6177118629
 30
0.0
 10
33.6973443125
 20
45.4860348627
 30
0.0
  0
SPLINE
  5
2D4
100
AcDbEntity
  8
0
100
AcDbSpline
 62
7
  6
BYLAYER
 70
0
 71
3
 72
13
 73
9
 74
0
 42
0.0000001
 43
0.0000001
 44
0.0000000001
 40
0.0
 40
0.0
 40
0.0
 40
0.0
 40
0.0908486811
 40
0.1881373159
 40
0.2962869128
 40
0.4171942003
 40
0.6936497206
 40
1.0
 40
1.0
 40
1.0
 40
1.0
 10
52.1587674
 20
36.0636959118
 30
0.0
 10
52.175522193
 20
36.07336851
 30
0.0
 10
52.20690558
 20
36.0996966847
 30
0.0
 10
52.2402325589
 20
36.154285631
 30
0.0
 10
52.2601052084
 20
36.2215414522
 30
0.0
 10
52.2686115408
 20
36.3294508595
 30
0.0
 10
52.2419226673
 20
36.4792013494
 30
0.0
 10
52.1914035803
 20
36.5937657988
 30
0.0
 10
52.1587845475
 20
36.6502633073
 30
0.0
  0
SPLINE
  5
2D5
100
AcDbEntity
  8
0
100
AcDbSpline
 62
7
  6
BYLAYER
 70
0
 71
3
 72
17
 73
13
 74
0
 42
0.0000001
 43
0.0000001
 44
0.0000000001
 40
0.0
 40
0.0
 40
0.0
 40
0.0
 40
0.1328248256
 40
0.2764315073
 40
0.4236265607
 40
0.5666341893
 40
0.6983765028
 40
0.8139081032
 40
0.8652656703
 40
0.9127274391
 40
0.9571843835
 40
1.0
 40
1.0
 40
1.0
 40
1.0
 10
29.665363083
 20
36.5256600515
 30
0.0
 10
29.5681941854
 20
36.4785864267
 30
0.0
 10
29.3542252975
 20
36.4042170829
 30
0.0
 10
29.0125858391
 20
36.3506107217
 30
0.0
 10
28.6584122239
 20
36.3527577831
 30
0.0
 10
28.3186165658
 20
36.4106554791
 30
0.0
 10
28.0188040876
 20
36.5198595865
 30
0.0
 10
27.8119860924
 20
36.6531139321
 30
0.0
 10
27.6913589091
 20
36.7799324159
 30
0.0
 10
27.6273023859
 20
36.878133239
 30
0.0
 10
27.5879923555
 20
36.9813179959
 30
0.0
 10
27.5790277457
 20
37.0525364866
 30
0.0
 10
27.5790263063
 20
37.0873405356
 30
0.0
  0
SPLINE
  5
2D6
100
AcDbEntity
  8
0
100
AcDbSpline
 62
7
  6
BYLAYER
 70
0
 71
3
 72
17
 73
13
 74
0
 42
0.0000001
 43
0.0000001
 44
0.0000000001
 40
0.0
 40
0.0
 40
0.0
 40
0.0
 40
0.0428129323
 40
0.087267925
 40
0.1347285051
 40
0.1860848391
 40
0.3016126148
 40
0.4333499509
 40
0.5763586213
 40
0.7235598545
 40
0.8671745736
 40
1.0
 40
1.0
 40
1.0
 40
1.0
 10
27.5790252506
 20
37.1080797038
 30
0.0
 10
27.5790289525
 20
37.0732778364
 30
0.0
 10
27.5879866601
 20
37.0020626376
 30
0.0
 10
27.6272987794
 20
36.8988831968
 30
0.0
 10
27.6913481827
 20
36.8006826033
 30
0.0
 10
27.8119714321
 20
36.6738667864
 30
0.0
 10
28.0187788295
 20
36.54061236
 30
0.0
 10
28.3185834392
 20
36.4314042263
 30
0.0
 10
28.6583799403
 20
36.3735010967
 30
0.0
 10
29.0125661329
 20
36.3713472337
 30
0.0
 10
29.3542179232
 20
36.4249545312
 30
0.0
 10
29.5681937447
 20
36.4993253746
 30
0.0
 10
29.665363083
 20
36.5463992129
 30
0.0
  0
SPLINE
  5
2D7
100
AcDbEntity
  8
0
100
AcDbSpline
 62
7
  6
BYLAYER
 70
0
 71
3
 72
13
 73
9
 74
0
 42
0.0000001
 43
0.0000001
 44
0.0000000001
 40
0.0
 40
0.0
 40
0.0
 40
0.0
 40
0.0918791971
 40
0.1897112347
 40
0.2977156821
 40
0.4179252268
 40
0.6926225064
 40
1.0
 40
1.0
 40
1.0
 40
1.0
 10
9.3089395066
 20
56.6711505037
 30
0.0
 10
9.3248819484
 20
56.6803555182
 30
0.0
 10
9.3612097291
 20
56.6939514043
 30
0.0
 10
9.4215536834
 20
56.6967878835
 30
0.0
 10
9.4860540571
 20
56.683270782
 30
0.0
 10
9.5788566635
 20
56.6426330738
 30
0.0
 10
9.6912001712
 20
56.5544993176
 30
0.0
 10
9.7641458814
 20
56.4622666531
 30
0.0
 10
9.7972372909
 20
56.4103255781
 30
0.0
  0
SPLINE
  5
2D8
100
AcDbEntity
  8
0
100
AcDbSpline
 62
7
  6
BYLAYER
 70
0
 71
3
 72
13
 73
9
 74
0
 42
0.0000001
 43
0.0000001
 44
0.0000000001
 40
0.0
 40
0.0
 40
0.0
 40
0.0
 40
0.1080923394
 40
0.2182319076
 40
0.3322566028
 40
0.4516863322
 40
0.7106265324
 40
1.0
 40
1.0
 40
1.0
 40
1.0
 10
51.2697554816
 20
32.4707939456
 30
0.0
 10
51.3218100812
 20
32.5008457272
 30
0.0
 10
51.4219173074
 20
32.5706566499
 30
0.0
 10
51.5541156816
 20
32.7008489043
 30
0.0
 10
51.6678766083
 20
32.8552891019
 30
0.0
 10
51.7968553517
 20
33.0977617369
 30
0.0
 10
51.9030903822
 20
33.4575212082
 30
0.0
 10
51.9273476142
 20
33.7633333322
 30
0.0
 10
51.9273476142
 20
33.9242441368
 30
0.0
  0
SPLINE
  5
2D9
100
AcDbEntity
  8
0
100
AcDbSpline
 62
7
  6
BYLAYER
 70
0
 71
3
 72
17
 73
13
 74
0
 42
0.0000001
 43
0.0000001
 44
0.0000000001
 40
0.0
 40
0.0
 40
0.0
 40
0.0
 40
0.0450858529
 40
0.0910222323
 40
0.1385793172
 40
0.1883968948
 40
0.2963615674
 40
0.4170409845
 40
0.5501248928
 40
0.6937247304
 40
0.8448879531
 40
1.0
 40
1.0
 40
1.0
 40
1.0
 10
48.4540008237
 20
38.1774127393
 30
0.0
 10
48.5060125757
 20
38.2074410068
 30
0.0
 10
48.6164268311
 20
38.2591903752
 30
0.0
 10
48.7951067466
 20
38.3085866543
 30
0.0
 10
48.9855723809
 20
38.3299255534
 30
0.0
 10
49.259763446
 20
38.3204674832
 30
0.0
 10
49.6241908174
 20
38.2328627424
 30
0.0
 10
50.061656431
 20
38.0248549139
 30
0.0
 10
50.4969704421
 20
37.7200682249
 30
0.0
 10
50.9145724663
 20
37.3298265838
 30
0.0
 10
51.2993397107
 20
36.8686415733
 30
0.0
 10
51.5235979126
 20
36.5265885353
 30
0.0
 10
51.6270361579
 20
36.3477238719
 30
0.0
  0
SPLINE
  5
2DA
100
AcDbEntity
  8
0
100
AcDbSpline
 62
7
  6
BYLAYER
 70
0
 71
3
 72
11
 73
7
 74
0
 42
0.0000001
 43
0.0000001
 44
0.0000000001
 40
0.0
 40
0.0
 40
0.0
 40
0.0
 40
0.2660342092
 40
0.5253290332
 40
0.7717183956
 40
1.0
 40
1.0
 40
1.0
 40
1.0
 10
51.6270361579
 20
36.3477238719
 30
0.0
 10
51.7307326973
 20
36.1684125683
 30
0.0
 10
51.9157546759
 20
35.8024721339
 30
0.0
 10
52.1239716253
 20
35.2373484271
 30
0.0
 10
52.2539260649
 20
34.6792968229
 30
0.0
 10
52.2865563635
 20
34.3093741389
 30
0.0
 10
52.2865563635
 20
34.1316321669
 30
0.0
  0
SPLINE
  5
2DB
100
AcDbEntity
  8
0
100
AcDbSpline
 62
7
  6
BYLAYER
 70
0
 71
3
 72
9
 73
5
 74
0
 42
0.0000001
 43
0.0000001
 44
0.0000000001
 40
0.0
 40
0.0
 40
0.0
 40
0.0
 40
0.4963502051
 40
1.0
 40
1.0
 40
1.0
 40
1.0
 10
9.3089223256
 20
61.8038557355
 30
0.0
 10
9.3776738007
 20
61.8435505531
 30
0.0
 10
9.5221988523
 20
61.9135169586
 30
0.0
 10
9.6751529598
 20
61.9622315585
 30
0.0
 10
9.7533858726
 20
61.9814355297
 30
0.0
  0
SPLINE
  5
2DC
100
AcDbEntity
  8
0
100
AcDbSpline
 62
7
  6
BYLAYER
 70
0
 71
3
 72
12
 73
8
 74
0
 42
0.0000001
 43
0.0000001
 44
0.0000000001
 40
0.0
 40
0.0
 40
0.0
 40
0.0
 40
0.108169861
 40
0.2183744485
 40
0.4513322769
 40
0.7105272076
 40
1.0
 40
1.0
 40
1.0
 40
1.0
 10
50.7617644617
 20
33.3506655052
 30
0.0
 10
50.7263629009
 20
33.3302329772
 30
0.0
 10
50.6511789172
 20
33.2950857837
 30
0.0
 10
50.4861744505
 20
33.2493586257
 30
0.0
 10
50.2549690931
 20
33.2431901083
 30
0.0
 10
49.9655110308
 20
33.3132671375
 30
0.0
 10
49.7770050867
 20
33.4028881694
 30
0.0
 10
49.6822742369
 20
33.4575798138
 30
0.0
  0
SPLINE
  5
2DD
100
AcDbEntity
  8
0
100
AcDbSpline
 62
7
  6
BYLAYER
 70
0
 71
3
 72
15
 73
11
 74
0
 42
0.0000001
 43
0.0000001
 44
0.0000000001
 40
0.0
 40
0.0
 40
0.0
 40
0.0
 40
0.1141469224
 40
0.2373360365
 40
0.366976904
 40
0.5000005214
 40
0.6330240663
 40
0.762664722
 40
0.8858535023
 40
1.0
 40
1.0
 40
1.0
 40
1.0
 10
15.8266080701
 20
57.753126943
 30
0.0
 10
15.949553867
 20
57.68214576
 30
0.0
 10
16.2184318665
 20
57.5569592917
 30
0.0
 10
16.6562500631
 20
57.4238632204
 30
0.0
 10
17.1302794421
 20
57.3419877972
 30
0.0
 10
17.6226623391
 20
57.3143310109
 30
0.0
 10
18.1150448425
 20
57.3419901342
 30
0.0
 10
18.5890730587
 20
57.4238678081
 30
0.0
 10
19.0268893704
 20
57.5569659606
 30
0.0
 10
19.2957657226
 20
57.6821537719
 30
0.0
 10
19.4187105502
 20
57.7531355774
 30
0.0
  0
SPLINE
  5
2DE
100
AcDbEntity
  8
0
100
AcDbSpline
 62
7
  6
BYLAYER
 70
0
 71
3
 72
13
 73
9
 74
0
 42
0.0000001
 43
0.0000001
 44
0.0000000001
 40
0.0
 40
0.0
 40
0.0
 40
0.0
 40
0.1106843095
 40
0.2230290394
 40
0.338563477
 40
0.458597316
 40
0.7157858138
 40
1.0
 40
1.0
 40
1.0
 40
1.0
 10
23.7690446526
 20
37.0873405477
 30
0.0
 10
23.7690463726
 20
37.0018908799
 30
0.0
 10
23.7821470112
 20
36.8294299227
 30
0.0
 10
23.8409260477
 20
36.5738327212
 30
0.0
 10
23.9381027148
 20
36.3224918408
 30
0.0
 10
24.1217956353
 20
35.9882454794
 30
0.0
 10
24.4499092814
 20
35.590908035
 30
0.0
 10
24.7767637577
 20
35.326473762
 30
0.0
 10
24.9575265942
 20
35.2021010485
 30
0.0
  0
SPLINE
  5
2DF
100
AcDbEntity
  8
0
100
AcDbSpline
 62
7
  6
BYLAYER
 70
0
 71
3
 72
21
 73
17
 74
0
 42
0.0000001
 43
0.0000001
 44
0.0000000001
 40
0.0
 40
0.0
 40
0.0
 40
0.0
 40
0.062391013
 40
0.128789919
 40
0.1984052881
 40
0.2704119724
 40
0.4174475068
 40
0.561677761
 40
0.630306608
 40
0.6954224927
 40
0.7563978743
 40
0.8128614343
 40
0.8647840193
 40
0.9125805337
 40
0.957175071
 40
1.0
 40
1.0
 40
1.0
 40
1.0
 10
51.9273476142
 20
33.9242441368
 30
0.0
 10
51.9273476142
 20
34.0559212529
 30
0.0
 10
51.9094528797
 20
34.3279121338
 30
0.0
 10
51.8360946608
 20
34.7408754529
 30
0.0
 10
51.7166823245
 20
35.1640798431
 30
0.0
 10
51.4981340747
 20
35.7334833177
 30
0.0
 10
51.131394929
 20
36.4111335825
 30
0.0
 10
50.661290563
 20
37.0131198166
 30
0.0
 10
50.2381856675
 20
37.4207341794
 30
0.0
 10
49.913928546
 20
37.6745433113
 30
0.0
 10
49.5844546562
 20
37.8761296742
 30
0.0
 10
49.2563974363
 20
38.0211301999
 30
0.0
 10
48.9362885579
 20
38.1061489162
 30
0.0
 10
48.6304346157
 20
38.128681391
 30
0.0
 10
48.3456045484
 20
38.0869445028
 30
0.0
 10
48.1730679094
 20
38.0152122233
 30
0.0
 10
48.0947929921
 20
37.9700231191
 30
0.0
  0
SPLINE
  5
2E0
100
AcDbEntity
  8
0
100
AcDbSpline
 62
7
  6
BYLAYER
 70
0
 71
3
 72
15
 73
11
 74
0
 42
0.0000001
 43
0.0000001
 44
0.0000000001
 40
0.0
 40
0.0
 40
0.0
 40
0.0
 40
0.1141232787
 40
0.2373467935
 40
0.3669716251
 40
0.4999988493
 40
0.6330262331
 40
0.7626515288
 40
0.885875802
 40
1.0
 40
1.0
 40
1.0
 40
1.0
 10
49.6822742369
 20
33.4575798138
 30
0.0
 10
49.5777920082
 20
33.517901292
 30
0.0
 10
49.3713745713
 20
33.6626531449
 30
0.0
 10
49.0872960984
 20
33.9283322703
 30
0.0
 10
48.8255609975
 20
34.2425079339
 30
0.0
 10
48.5959237267
 20
34.5931858733
 30
0.0
 10
48.4070443197
 20
34.9673960703
 30
0.0
 10
48.2658252018
 20
35.3511537539
 30
0.0
 10
48.1777766573
 20
35.7300141229
 30
0.0
 10
48.1556243403
 20
35.9811543462
 30
0.0
 10
48.1556243403
 20
36.1018003214
 30
0.0
  0
SPLINE
  5
2E1
100
AcDbEntity
  8
0
100
AcDbSpline
 62
7
  6
BYLAYER
 70
0
 71
3
 72
19
 73
15
 74
0
 42
0.0000001
 43
0.0000001
 44
0.0000000001
 40
0.0
 40
0.0
 40
0.0
 40
0.0
 40
0.0453754065
 40
0.0940767671
 40
0.1481652364
 40
0.2086009359
 40
0.3468390001
 40
0.4999822071
 40
0.6531267046
 40
0.7913768019
 40
0.851820393
 40
0.9059174485
 40
0.9546235537
 40
1.0
 40
1.0
 40
1.0
 40
1.0
 10
52.0099911818
 20
32.0182592797
 30
0.0
 10
52.0267272547
 20
32.0279221322
 30
0.0
 10
52.0652512213
 20
32.0418351199
 30
0.0
 10
52.1291840139
 20
32.0435544688
 30
0.0
 10
52.1973880284
 20
32.0270650879
 30
0.0
 10
52.2950824207
 20
31.9804871712
 30
0.0
 10
52.4114259886
 20
31.8824415358
 30
0.0
 10
52.5241273503
 20
31.7285362272
 30
0.0
 10
52.6010737362
 20
31.5539810293
 30
0.0
 10
52.6278232367
 20
31.4041940051
 30
0.0
 10
52.6193172857
 20
31.2962869096
 30
0.0
 10
52.5994985143
 20
31.2289652544
 30
0.0
 10
52.5660411836
 20
31.1744513257
 30
0.0
 10
52.5347297532
 20
31.1480417645
 30
0.0
 10
52.5179932968
 20
31.1383786906
 30
0.0
  0
SPLINE
  5
2E2
100
AcDbEntity
  8
0
100
AcDbSpline
 62
7
  6
BYLAYER
 70
0
 71
3
 72
12
 73
8
 74
0
 42
0.0000001
 43
0.0000001
 44
0.0000000001
 40
0.0
 40
0.0
 40
0.0
 40
0.0
 40
0.2894847231
 40
0.5486751865
 40
0.7816263484
 40
0.8918293154
 40
1.0
 40
1.0
 40
1.0
 40
1.0
 10
48.1556243403
 20
36.1018003214
 30
0.0
 10
48.1556243403
 20
36.2111928451
 30
0.0
 10
48.1722625301
 20
36.4192626955
 30
0.0
 10
48.2563073918
 20
36.7049875467
 30
0.0
 10
48.3772561485
 20
36.9021297882
 30
0.0
 10
48.4993505262
 20
37.0221751527
 30
0.0
 10
48.5673844829
 20
37.0697127931
 30
0.0
 10
48.6027844562
 20
37.0901508395
 30
0.0
  0
SPLINE
  5
2E3
100
AcDbEntity
  8
0
100
AcDbSpline
 62
7
  6
BYLAYER
 70
0
 71
3
 72
18
 73
14
 74
0
 42
0.0000001
 43
0.0000001
 44
0.0000000001
 40
0.0
 40
0.0
 40
0.0
 40
0.0
 40
0.1550699885
 40
0.3062053944
 40
0.4497879542
 40
0.5828590296
 40
0.7035253683
 40
0.7591156924
 40
0.811658766
 40
0.8614578689
 40
0.909008113
 40
0.9549510119
 40
1.0
 40
1.0
 40
1.0
 40
1.0
 10
52.1587845475
 20
36.6502633073
 30
0.0
 10
51.997476042
 20
36.9296562835
 30
0.0
 10
51.6476520208
 20
37.4639943532
 30
0.0
 10
51.0472814694
 20
38.1844850109
 30
0.0
 10
50.3953945768
 20
38.7942797652
 30
0.0
 10
49.7161550447
 20
39.2705103932
 30
0.0
 10
49.1311654996
 20
39.5488994156
 30
0.0
 10
48.6733020739
 20
39.68235982
 30
0.0
 10
48.3484205403
 20
39.7369059795
 30
0.0
 10
48.0357760727
 20
39.7477638337
 30
0.0
 10
47.7383251639
 20
39.7146201972
 30
0.0
 10
47.4593697346
 20
39.6373625015
 30
0.0
 10
47.2869292019
 20
39.5566885379
 30
0.0
 10
47.2057639262
 20
39.5098264043
 30
0.0
  0
SPLINE
  5
2E4
100
AcDbEntity
  8
0
100
AcDbSpline
 62
7
  6
BYLAYER
 70
0
 71
3
 72
18
 73
14
 74
0
 42
0.0000001
 43
0.0000001
 44
0.0000000001
 40
0.0
 40
0.0
 40
0.0
 40
0.0
 40
0.1550577402
 40
0.3062166934
 40
0.4497857447
 40
0.5828581256
 40
0.7035232067
 40
0.7591150462
 40
0.8116520182
 40
0.8614538109
 40
0.9090152666
 40
0.9549635648
 40
1.0
 40
1.0
 40
1.0
 40
1.0
 10
48.0729747905
 20
34.2912453312
 30
0.0
 10
48.2011837585
 20
34.0691821173
 30
0.0
 10
48.4792772344
 20
33.6444526009
 30
0.0
 10
48.9564588246
 20
33.0717295735
 30
0.0
 10
49.4746766188
 20
32.5870564386
 30
0.0
 10
50.0145399593
 20
32.2084858649
 30
0.0
 10
50.4795540204
 20
31.9872602474
 30
0.0
 10
50.8434663043
 20
31.8811104652
 30
0.0
 10
51.1017044561
 20
31.8377706085
 30
0.0
 10
51.3502282472
 20
31.8291140766
 30
0.0
 10
51.5866923493
 20
31.855502344
 30
0.0
 10
51.8084248736
 20
31.9169247485
 30
0.0
 10
51.9454934152
 20
31.9810204121
 30
0.0
 10
52.0099911818
 20
32.0182592797
 30
0.0
  0
SPLINE
  5
2E5
100
AcDbEntity
  8
0
100
AcDbSpline
 62
7
  6
BYLAYER
 70
0
 71
3
 72
13
 73
9
 74
0
 42
0.0000001
 43
0.0000001
 44
0.0000000001
 40
0.0
 40
0.0
 40
0.0
 40
0.0
 40
0.090848907
 40
0.1881376545
 40
0.2962872097
 40
0.4171943242
 40
0.6936494679
 40
1.0
 40
1.0
 40
1.0
 40
1.0
 10
47.5649898565
 20
34.5845092026
 30
0.0
 10
47.5817438299
 20
34.5941827878
 30
0.0
 10
47.6202359633
 20
34.6081972107
 30
0.0
 10
47.6841740425
 20
34.6097647376
 30
0.0
 10
47.7523546824
 20
34.5933473726
 30
0.0
 10
47.8500587891
 20
34.5467602831
 30
0.0
 10
47.9664006862
 20
34.4487734779
 30
0.0
 10
48.0403561767
 20
34.3477421139
 30
0.0
 10
48.0729747905
 20
34.2912453312
 30
0.0
  0
SPLINE
  5
2E6
100
AcDbEntity
  8
0
100
AcDbSpline
 62
7
  6
BYLAYER
 70
0
 71
3
 72
13
 73
9
 74
0
 42
0.0000001
 43
0.0000001
 44
0.0000000001
 40
0.0
 40
0.0
 40
0.0
 40
0.0
 40
0.3063503715
 40
0.5827903469
 40
0.7036982925
 40
0.8118503148
 40
0.9091456975
 40
1.0
 40
1.0
 40
1.0
 40
1.0
 10
52.5179932968
 20
36.8576513374
 30
0.0
 10
52.5506123853
 20
36.8011537326
 30
0.0
 10
52.6011319601
 20
36.6865920226
 30
0.0
 10
52.6278162769
 20
36.5368456719
 30
0.0
 10
52.6193200069
 20
36.4289372607
 30
0.0
 10
52.5994421236
 20
36.3616811352
 30
0.0
 10
52.5661192003
 20
36.3070854685
 30
0.0
 10
52.5347313368
 20
36.2807582279
 30
0.0
 10
52.5179761158
 20
36.2710839224
 30
0.0
  0
SPLINE
  5
2E7
100
AcDbEntity
  8
0
100
AcDbSpline
 62
7
  6
BYLAYER
 70
0
 71
3
 72
18
 73
14
 74
0
 42
0.0000001
 43
0.0000001
 44
0.0000000001
 40
0.0
 40
0.0
 40
0.0
 40
0.0
 40
0.0450489906
 40
0.0909918964
 40
0.1385421477
 40
0.188341255
 40
0.2408843322
 40
0.2964746602
 40
0.4171410044
 40
0.5502120801
 40
0.6937946363
 40
0.844930027
 40
1.0
 40
1.0
 40
1.0
 40
1.0
 10
47.5649726755
 20
39.7172144345
 30
0.0
 10
47.6461379557
 20
39.7640765706
 30
0.0
 10
47.8185785112
 20
39.8447505321
 30
0.0
 10
48.0975339732
 20
39.9220082374
 30
0.0
 10
48.3949849222
 20
39.9551518677
 30
0.0
 10
48.7076294211
 20
39.9442939981
 30
0.0
 10
49.0325109747
 20
39.8897478088
 30
0.0
 10
49.4903744205
 20
39.7562873783
 30
0.0
 10
50.0753639702
 20
39.4778983186
 30
0.0
 10
50.7546034894
 20
39.0016676658
 30
0.0
 10
51.4064903312
 20
38.3918729148
 30
0.0
 10
52.0068608288
 20
37.6713823065
 30
0.0
 10
52.3566848075
 20
37.1370442857
 30
0.0
 10
52.5179932968
 20
36.8576513374
 30
0.0
  0
SPLINE
  5
2E8
100
AcDbEntity
  8
0
100
AcDbSpline
 62
7
  6
BYLAYER
 70
0
 71
3
 72
13
 73
9
 74
0
 42
0.0000001
 43
0.0000001
 44
0.0000000001
 40
0.0
 40
0.0
 40
0.0
 40
0.0
 40
0.3063506246
 40
0.5827902232
 40
0.7036979959
 40
0.8118499759
 40
0.9091454716
 40
1.0
 40
1.0
 40
1.0
 40
1.0
 10
9.4577156913
 20
56.1704986021
 30
0.0
 10
9.4250970218
 20
56.2269954813
 30
0.0
 10
9.3511441476
 20
56.3280258983
 30
0.0
 10
9.2348035565
 20
56.4260066872
 30
0.0
 10
9.1371053439
 20
56.4726019934
 30
0.0
 10
9.0689218235
 20
56.4890149771
 30
0.0
 10
9.0049799521
 20
56.4874543241
 30
0.0
 10
8.9664863897
 20
56.4734355562
 30
0.0
 10
8.9497307238
 20
56.463762454
 30
0.0
  0
SPLINE
  5
2E9
100
AcDbEntity
  8
0
100
AcDbSpline
 62
7
  6
BYLAYER
 70
0
 71
3
 72
13
 73
9
 74
0
 42
0.0000001
 43
0.0000001
 44
0.0000000001
 40
0.0
 40
0.0
 40
0.0
 40
0.0
 40
0.2893779699
 40
0.5483155318
 40
0.6677446235
 40
0.7817692655
 40
0.8919078479
 40
1.0
 40
1.0
 40
1.0
 40
1.0
 10
52.2865563635
 20
34.1316321669
 30
0.0
 10
52.2865563635
 20
33.9707187616
 30
0.0
 10
52.2622989176
 20
33.6649056202
 30
0.0
 10
52.1560642338
 20
33.3051444793
 30
0.0
 10
52.0270826652
 20
33.0626756394
 30
0.0
 10
51.9133264243
 20
32.9082329284
 30
0.0
 10
51.7811254019
 20
32.7780438015
 30
0.0
 10
51.6810191598
 20
32.708233051
 30
0.0
 10
51.6289651487
 20
32.6781803857
 30
0.0
  0
SPLINE
  5
2EA
100
AcDbEntity
  8
0
100
AcDbSpline
 62
7
  6
BYLAYER
 70
0
 71
3
 72
9
 73
5
 74
0
 42
0.0000001
 43
0.0000001
 44
0.0000000001
 40
0.0
 40
0.0
 40
0.0
 40
0.0
 40
0.4966338213
 40
1.0
 40
1.0
 40
1.0
 40
1.0
 10
53.1138941223
 20
26.5805373525
 30
0.0
 10
53.1665854641
 20
26.6109585331
 30
0.0
 10
53.2684038779
 20
26.6799417078
 30
0.0
 10
53.3593438658
 20
26.762696336
 30
0.0
 10
53.4020521947
 20
26.8071808094
 30
0.0
  0
SPLINE
  5
2EB
100
AcDbEntity
  8
0
100
AcDbSpline
 62
7
  6
BYLAYER
 70
0
 71
3
 72
11
 73
7
 74
0
 42
0.0000001
 43
0.0000001
 44
0.0000000001
 40
0.0
 40
0.0
 40
0.0
 40
0.0
 40
0.2200277201
 40
0.4575255419
 40
0.7171234318
 40
1.0
 40
1.0
 40
1.0
 40
1.0
 10
53.4020521947
 20
26.8071808094
 30
0.0
 10
53.4850741578
 20
26.8936554715
 30
0.0
 10
53.6344157373
 20
27.0968262336
 30
0.0
 10
53.7906403864
 20
27.4577695469
 30
0.0
 10
53.8840466794
 20
27.8744352666
 30
0.0
 10
53.9030047085
 20
28.1705587192
 30
0.0
 10
53.9030047086
 20
28.324677555
 30
0.0
  0
SPLINE
  5
2EC
100
AcDbEntity
  8
0
100
AcDbSpline
 62
7
  6
BYLAYER
 70
0
 71
3
 72
19
 73
15
 74
0
 42
0.0000001
 43
0.0000001
 44
0.0000000001
 40
0.0
 40
0.0
 40
0.0
 40
0.0
 40
0.0453755571
 40
0.0940773173
 40
0.1481663247
 40
0.2086025916
 40
0.3468415821
 40
0.4999851355
 40
0.6531292867
 40
0.7913784578
 40
0.8518214814
 40
0.9059179987
 40
0.9546237043
 40
1.0
 40
1.0
 40
1.0
 40
1.0
 10
52.1587845475
 20
30.9309906604
 30
0.0
 10
52.175520676
 20
30.940653545
 30
0.0
 10
52.2068311691
 20
30.9670607196
 30
0.0
 10
52.2402856641
 20
31.0215695325
 30
0.0
 10
52.2601065954
 20
31.0888815299
 30
0.0
 10
52.2686150045
 20
31.1967772522
 30
0.0
 10
52.2418756716
 20
31.346557099
 30
0.0
 10
52.1649394943
 20
31.521112009
 30
0.0
 10
52.0522429875
 20
31.6750263026
 30
0.0
 10
51.9358982874
 20
31.7730843322
 30
0.0
 10
51.8381952747
 20
31.8196700642
 30
0.0
 10
51.7699839763
 20
31.8361661444
 30
0.0
 10
51.7060453354
 20
31.8344468975
 30
0.0
 10
51.6675188334
 20
31.8205342914
 30
0.0
 10
51.6507824325
 20
31.8108712495
 30
0.0
  0
SPLINE
  5
2ED
100
AcDbEntity
  8
0
100
AcDbSpline
 62
7
  6
BYLAYER
 70
0
 71
3
 72
14
 73
10
 74
0
 42
0.0000001
 43
0.0000001
 44
0.0000000001
 40
0.0
 40
0.0
 40
0.0
 40
0.0
 40
0.2825549226
 40
0.4140517993
 40
0.5395249231
 40
0.65972066
 40
0.7756638172
 40
0.8886070737
 40
1.0
 40
1.0
 40
1.0
 40
1.0
 10
25.5592508632
 20
50.2597230938
 30
0.0
 10
25.5915398527
 20
50.5714831318
 30
0.0
 10
25.6745407604
 20
51.0266550687
 30
0.0
 10
25.8699971651
 20
51.5932498252
 30
0.0
 10
26.0490403505
 20
51.9724285582
 30
0.0
 10
26.2630360773
 20
52.3129164078
 30
0.0
 10
26.5105058397
 20
52.6122814815
 30
0.0
 10
26.7897944473
 20
52.8679887886
 30
0.0
 10
26.9964815705
 20
53.0084305575
 30
0.0
 10
27.1034855598
 20
53.0702222682
 30
0.0
  0
SPLINE
  5
2EE
100
AcDbEntity
  8
0
100
AcDbSpline
 62
7
  6
BYLAYER
 70
0
 71
3
 72
18
 73
14
 74
0
 42
0.0000001
 43
0.0000001
 44
0.0000000001
 40
0.0
 40
0.0
 40
0.0
 40
0.0
 40
0.0450364352
 40
0.0909847334
 40
0.1385461891
 40
0.1883479818
 40
0.2408849538
 40
0.2964767933
 40
0.4171418744
 40
0.5502142553
 40
0.6937833066
 40
0.8449422598
 40
1.0
 40
1.0
 40
1.0
 40
1.0
 10
51.6507824325
 20
31.8108712495
 30
0.0
 10
51.5862846659
 20
31.773632382
 30
0.0
 10
51.4492161243
 20
31.7095367184
 30
0.0
 10
51.2274836
 20
31.6481143138
 30
0.0
 10
50.9910194979
 20
31.6217260464
 30
0.0
 10
50.7424957068
 20
31.6303825784
 30
0.0
 10
50.484257555
 20
31.673722435
 30
0.0
 10
50.1203452711
 20
31.7798722172
 30
0.0
 10
49.65533121
 20
32.0010978348
 30
0.0
 10
49.1154678695
 20
32.3796684084
 30
0.0
 10
48.5972500752
 20
32.8643415434
 30
0.0
 10
48.1200684851
 20
33.4370645707
 30
0.0
 10
47.8419750092
 20
33.8617940872
 30
0.0
 10
47.7137660412
 20
34.083857301
 30
0.0
  0
SPLINE
  5
2EF
100
AcDbEntity
  8
0
100
AcDbSpline
 62
7
  6
BYLAYER
 70
0
 71
3
 72
13
 73
9
 74
0
 42
0.0000001
 43
0.0000001
 44
0.0000000001
 40
0.0
 40
0.0
 40
0.0
 40
0.0
 40
0.3063506246
 40
0.5827902232
 40
0.7036979959
 40
0.8118499759
 40
0.9091454716
 40
1.0
 40
1.0
 40
1.0
 40
1.0
 10
47.7137660412
 20
34.083857301
 30
0.0
 10
47.6811473717
 20
34.1403541803
 30
0.0
 10
47.6071944975
 20
34.2413845972
 30
0.0
 10
47.4908539064
 20
34.3393653861
 30
0.0
 10
47.3931556938
 20
34.3859606924
 30
0.0
 10
47.3249721734
 20
34.402373676
 30
0.0
 10
47.261030302
 20
34.400813023
 30
0.0
 10
47.2225367396
 20
34.3867942551
 30
0.0
 10
47.2057810737
 20
34.377121153
 30
0.0
  0
SPLINE
  5
2F0
100
AcDbEntity
  8
0
100
AcDbSpline
 62
7
  6
BYLAYER
 70
0
 71
3
 72
14
 73
10
 74
0
 42
0.0000001
 43
0.0000001
 44
0.0000000001
 40
0.0
 40
0.0
 40
0.0
 40
0.0
 40
0.1080456362
 40
0.2181349707
 40
0.332107362
 40
0.4514818058
 40
0.577428993
 40
0.7107525123
 40
1.0
 40
1.0
 40
1.0
 40
1.0
 10
52.5571204131
 20
26.3005637807
 30
0.0
 10
52.6195860599
 20
26.3366281256
 30
0.0
 10
52.739713129
 20
26.4204034452
 30
0.0
 10
52.8983550992
 20
26.5766327578
 30
0.0
 10
53.0348577134
 20
26.7619575162
 30
0.0
 10
53.1478661946
 20
26.974386109
 30
0.0
 10
53.2365438482
 20
27.2118159545
 30
0.0
 10
53.3236486644
 20
27.5681282868
 30
0.0
 10
53.3462309976
 20
27.8516083842
 30
0.0
 10
53.3462309976
 20
28.0447039639
 30
0.0
  0
SPLINE
  5
2F1
100
AcDbEntity
  8
0
100
AcDbSpline
 62
7
  6
BYLAYER
 70
0
 71
3
 72
12
 73
8
 74
0
 42
0.0000001
 43
0.0000001
 44
0.0000000001
 40
0.0
 40
0.0
 40
0.0
 40
0.0
 40
0.1075182171
 40
0.2185528043
 40
0.454762552
 40
0.7146228626
 40
1.0
 40
1.0
 40
1.0
 40
1.0
 10
27.1705111137
 20
53.0311622697
 30
0.0
 10
27.0778458722
 20
52.9445969084
 30
0.0
 10
26.9018707463
 20
52.7549094358
 30
0.0
 10
26.5918153938
 20
52.3156692748
 30
0.0
 10
26.2937352205
 20
51.6569344173
 30
0.0
 10
26.0923168982
 20
50.7526311601
 30
0.0
 10
26.0595149359
 20
50.1073925033
 30
0.0
 10
26.0651459979
 20
49.7708616582
 30
0.0
  0
SPLINE
  5
2F2
100
AcDbEntity
  8
0
100
AcDbSpline
 62
7
  6
BYLAYER
 70
0
 71
3
 72
9
 73
5
 74
0
 42
0.0000001
 43
0.0000001
 44
0.0000000001
 40
0.0
 40
0.0
 40
0.0
 40
0.0
 40
0.4860034883
 40
1.0
 40
1.0
 40
1.0
 40
1.0
 10
11.4905531034
 20
44.3140793244
 30
0.0
 10
11.4905531045
 20
44.2276016104
 30
0.0
 10
11.5186537213
 20
44.0487412952
 30
0.0
 10
11.5968645726
 20
43.8862613873
 30
0.0
 10
11.6459082652
 20
43.8090641818
 30
0.0
  0
SPLINE
  5
2F3
100
AcDbEntity
  8
0
100
AcDbSpline
 62
7
  6
BYLAYER
 70
0
 71
3
 72
10
 73
6
 74
0
 42
0.0000001
 43
0.0000001
 44
0.0000000001
 40
0.0
 40
0.0
 40
0.0
 40
0.0
 40
0.2275323467
 40
0.596274676
 40
1.0
 40
1.0
 40
1.0
 40
1.0
 10
11.6459082652
 20
43.8090641818
 30
0.0
 10
11.6784453431
 20
43.7578492068
 30
0.0
 10
11.7742977703
 20
43.6301919304
 30
0.0
 10
11.9693989666
 20
43.4461523942
 30
0.0
 10
12.1412519779
 20
43.3309693469
 30
0.0
 10
12.2344906981
 20
43.2771391644
 30
0.0
  0
SPLINE
  5
2F4
100
AcDbEntity
  8
0
100
AcDbSpline
 62
7
  6
BYLAYER
 70
0
 71
3
 72
11
 73
7
 74
0
 42
0.0000001
 43
0.0000001
 44
0.0000000001
 40
0.0
 40
0.0
 40
0.0
 40
0.0
 40
0.2791281409
 40
0.5381854305
 40
0.7775175013
 40
1.0
 40
1.0
 40
1.0
 40
1.0
 10
24.6271738391
 20
72.0836551205
 30
0.0
 10
24.7453660809
 20
72.1518930358
 30
0.0
 10
24.9660755711
 20
72.2966372667
 30
0.0
 10
25.2539884389
 20
72.5469398689
 30
0.0
 10
25.4810590319
 20
72.8186367641
 30
0.0
 10
25.5920594752
 20
73.0173356078
 30
0.0
 10
25.6344079574
 20
73.1175341191
 30
0.0
  0
SPLINE
  5
2F5
100
AcDbEntity
  8
0
100
AcDbSpline
 62
7
  6
BYLAYER
 70
0
 71
3
 72
9
 73
5
 74
0
 42
0.0000001
 43
0.0000001
 44
0.0000000001
 40
0.0
 40
0.0
 40
0.0
 40
0.0
 40
0.5068531376
 40
1.0
 40
1.0
 40
1.0
 40
1.0
 10
25.6344079574
 20
73.1175341191
 30
0.0
 10
25.6696246265
 20
73.2008584235
 30
0.0
 10
25.7242942577
 20
73.3720863745
 30
0.0
 10
25.7430577809
 20
73.551037843
 30
0.0
 10
25.7430577798
 20
73.6390523952
 30
0.0
  0
SPLINE
  5
2F6
100
AcDbEntity
  8
0
100
AcDbSpline
 62
7
  6
BYLAYER
 70
0
 71
3
 72
12
 73
8
 74
0
 42
0.0000001
 43
0.0000001
 44
0.0000000001
 40
0.0
 40
0.0
 40
0.0
 40
0.0
 40
0.2894851579
 40
0.5486779968
 40
0.781630718
 40
0.8918332777
 40
1.0
 40
1.0
 40
1.0
 40
1.0
 10
22.4718929281
 20
74.7796831074
 30
0.0
 10
22.5666282907
 20
74.7249888576
 30
0.0
 10
22.7385015029
 20
74.6065490417
 30
0.0
 10
22.9439266355
 20
74.3909108149
 30
0.0
 10
23.0541831812
 20
74.1875981244
 30
0.0
 10
23.0970914467
 20
74.0218417154
 30
0.0
 10
23.1042452936
 20
73.9391579054
 30
0.0
 10
23.1042483842
 20
73.8982839751
 30
0.0
  0
SPLINE
  5
2F7
100
AcDbEntity
  8
0
100
AcDbSpline
 62
7
  6
BYLAYER
 70
0
 71
3
 72
12
 73
8
 74
0
 42
0.0000001
 43
0.0000001
 44
0.0000000001
 40
0.0
 40
0.0
 40
0.0
 40
0.0
 40
0.2894851579
 40
0.5486779968
 40
0.781630718
 40
0.8918332777
 40
1.0
 40
1.0
 40
1.0
 40
1.0
 10
60.727943278
 20
52.6930418064
 30
0.0
 10
60.8226786406
 20
52.6383475566
 30
0.0
 10
60.9945518528
 20
52.5199077406
 30
0.0
 10
61.1999769854
 20
52.3042695138
 30
0.0
 10
61.3102335311
 20
52.1009568233
 30
0.0
 10
61.3531417966
 20
51.9352004143
 30
0.0
 10
61.3602956435
 20
51.8525166043
 30
0.0
 10
61.3602987341
 20
51.811642674
 30
0.0
  0
SPLINE
  5
2F8
100
AcDbEntity
  8
0
100
AcDbSpline
 62
7
  6
BYLAYER
 70
0
 71
3
 72
24
 73
20
 74
0
 42
0.0000001
 43
0.0000001
 44
0.0000000001
 40
0.0
 40
0.0
 40
0.0
 40
0.0
 40
0.0213182251
 40
0.0428481768
 40
0.0872606032
 40
0.134668927
 40
0.1859751498
 40
0.2416188388
 40
0.3016378616
 40
0.3657454316
 40
0.433408221
 40
0.5039100831
 40
0.576401749
 40
0.6499456108
 40
0.7235668032
 40
0.79628467
 40
0.8671447466
 40
0.9353168006
 40
1.0
 40
1.0
 40
1.0
 40
1.0
 10
22.4990530209
 20
36.4651656973
 30
0.0
 10
22.4990557251
 20
36.3784266378
 30
0.0
 10
22.5098152313
 20
36.2038867101
 30
0.0
 10
22.5747669516
 20
35.8540956826
 30
0.0
 10
22.7404563116
 20
35.4189806881
 30
0.0
 10
23.0605709563
 20
34.9281190301
 30
0.0
 10
23.4954430822
 20
34.4708713328
 30
0.0
 10
24.0356994745
 20
34.0552284582
 30
0.0
 10
24.6706096725
 20
33.688387037
 30
0.0
 10
25.3877797614
 20
33.3770267568
 30
0.0
 10
26.1732183121
 20
33.1269961591
 30
0.0
 10
27.0115388938
 20
32.9431461499
 30
0.0
 10
27.8862198653
 20
32.8291111786
 30
0.0
 10
28.7799618685
 20
32.7870770358
 30
0.0
 10
29.6750831077
 20
32.8178984203
 30
0.0
 10
30.5538137592
 20
32.9209937738
 30
0.0
 10
31.3989338724
 20
33.0942813973
 30
0.0
 10
32.193459962
 20
33.3344405626
 30
0.0
 10
32.6938891314
 20
33.5420203331
 30
0.0
 10
32.9307403421
 20
33.6567632736
 30
0.0
  0
SPLINE
  5
2F9
100
AcDbEntity
  8
0
100
AcDbSpline
 62
7
  6
BYLAYER
 70
0
 71
3
 72
9
 73
5
 74
0
 42
0.0000001
 43
0.0000001
 44
0.0000000001
 40
0.0
 40
0.0
 40
0.0
 40
0.0
 40
0.5100503164
 40
1.0
 40
1.0
 40
1.0
 40
1.0
 10
9.7670843763
 20
61.8264874545
 30
0.0
 10
9.6217985066
 20
61.8201279149
 30
0.0
 10
9.3370299653
 20
61.7773782226
 30
0.0
 10
9.0706911945
 20
61.6663161628
 30
0.0
 10
8.9497135763
 20
61.5964677054
 30
0.0
  0
SPLINE
  5
2FA
100
AcDbEntity
  8
0
100
AcDbSpline
 62
7
  6
BYLAYER
 70
0
 71
3
 72
19
 73
15
 74
0
 42
0.0000001
 43
0.0000001
 44
0.0000000001
 40
0.0
 40
0.0
 40
0.0
 40
0.0
 40
0.0428385741
 40
0.0874433207
 40
0.1352549764
 40
0.1871925429
 40
0.2436709144
 40
0.3046630743
 40
0.4382667828
 40
0.5825421017
 40
0.7296386972
 40
0.8711665501
 40
0.9376089289
 40
1.0
 40
1.0
 40
1.0
 40
1.0
 10
57.0423134528
 20
51.8116426823
 30
0.0
 10
57.0423088058
 20
51.8731017245
 30
0.0
 10
57.058783325
 20
51.9990816383
 30
0.0
 10
57.1309950982
 20
52.1810114427
 30
0.0
 10
57.2482678609
 20
52.3534512702
 30
0.0
 10
57.4071653144
 20
52.5130384246
 30
0.0
 10
57.6040745594
 20
52.6569520903
 30
0.0
 10
57.9212994984
 20
52.8293835144
 30
0.0
 10
58.3860857685
 20
52.9846502162
 30
0.0
 10
58.9926853105
 20
53.0698218208
 30
0.0
 10
59.6162877496
 20
53.0526250796
 30
0.0
 10
60.1189472964
 20
52.9521238013
 30
0.0
 10
60.4841453675
 20
52.8197126778
 30
0.0
 10
60.6504246081
 20
52.7377962188
 30
0.0
 10
60.727943278
 20
52.6930418064
 30
0.0
  0
SPLINE
  5
2FB
100
AcDbEntity
  8
0
100
AcDbSpline
 62
7
  6
BYLAYER
 70
0
 71
3
 72
9
 73
5
 74
0
 42
0.0000001
 43
0.0000001
 44
0.0000000001
 40
0.0
 40
0.0
 40
0.0
 40
0.0
 40
0.4860034883
 40
1.0
 40
1.0
 40
1.0
 40
1.0
 10
11.4905531034
 20
60.8639301177
 30
0.0
 10
11.4905531045
 20
60.7774524037
 30
0.0
 10
11.5186537213
 20
60.5985920885
 30
0.0
 10
11.5968645726
 20
60.4361121806
 30
0.0
 10
11.6459082652
 20
60.358914975
 30
0.0
  0
SPLINE
  5
2FC
100
AcDbEntity
  8
0
100
AcDbSpline
 62
7
  6
BYLAYER
 70
0
 71
3
 72
10
 73
6
 74
0
 42
0.0000001
 43
0.0000001
 44
0.0000000001
 40
0.0
 40
0.0
 40
0.0
 40
0.0
 40
0.2275323467
 40
0.596274676
 40
1.0
 40
1.0
 40
1.0
 40
1.0
 10
11.6459082652
 20
60.358914975
 30
0.0
 10
11.6784453431
 20
60.3077000001
 30
0.0
 10
11.7742977703
 20
60.1800427237
 30
0.0
 10
11.9693989666
 20
59.9960031874
 30
0.0
 10
12.1412519779
 20
59.8808201402
 30
0.0
 10
12.2344906981
 20
59.8269899577
 30
0.0
  0
SPLINE
  5
2FD
100
AcDbEntity
  8
0
100
AcDbSpline
 62
7
  6
BYLAYER
 70
0
 71
3
 72
15
 73
11
 74
0
 42
0.0000001
 43
0.0000001
 44
0.0000000001
 40
0.0
 40
0.0
 40
0.0
 40
0.0
 40
0.1141229605
 40
0.2373462928
 40
0.366971064
 40
0.4999983279
 40
0.633025824
 40
0.762651271
 40
0.8858756957
 40
1.0
 40
1.0
 40
1.0
 40
1.0
 10
54.4238572455
 20
45.2374580091
 30
0.0
 10
54.3501056409
 20
45.1948777545
 30
0.0
 10
54.2044003521
 20
45.0926991978
 30
0.0
 10
54.003876077
 20
44.9051600335
 30
0.0
 10
53.8191234579
 20
44.6833881028
 30
0.0
 10
53.6570279366
 20
44.4358499745
 30
0.0
 10
53.5237024281
 20
44.1717009856
 30
0.0
 10
53.4240191915
 20
43.9008127647
 30
0.0
 10
53.361867805
 20
43.6333816625
 30
0.0
 10
53.3462309976
 20
43.4561061281
 30
0.0
 10
53.3462309976
 20
43.3709442349
 30
0.0
  0
SPLINE
  5
2FE
100
AcDbEntity
  8
0
100
AcDbSpline
 62
7
  6
BYLAYER
 70
0
 71
3
 72
11
 73
7
 74
0
 42
0.0000001
 43
0.0000001
 44
0.0000000001
 40
0.0
 40
0.0
 40
0.0
 40
0.0
 40
0.2944129729
 40
0.5557208397
 40
0.7869532652
 40
1.0
 40
1.0
 40
1.0
 40
1.0
 10
29.665363083
 20
36.5463992129
 30
0.0
 10
29.7323256431
 20
36.5788393302
 30
0.0
 10
29.8541824454
 20
36.6505875907
 30
0.0
 10
30.0018165071
 20
36.786671538
 30
0.0
 10
30.096495332
 20
36.9410955066
 30
0.0
 10
30.1190180133
 20
37.0542366545
 30
0.0
 10
30.1190122859
 20
37.1080796901
 30
0.0
  0
ENDSEC
  0
SECTION
  2
OBJECTS
  0
DICTIONARY
  5
C
100
AcDbDictionary
280
0
281
1
  3
ACAD_GROUP
350
D
  3
ACAD_MLINESTYLE
350
17
  3
ACAD_LAYOUT
350
1A
  3
ACAD_PLOTSETTINGS
350
19
  3
ACAD_PLOTSTYLENAME
350
E
  0
DICTIONARY
  5
D
102
{ACAD_REACTORS
330
C
102
}
100
AcDbDictionary
280
0
281
1
  0
ACDBDICTIONARYWDFLT
  5
E
102
{ACAD_REACTORS
330
C
102
}
100
AcDbDictionary
281
1
  3
Normal
350
F
100
AcDbDictionaryWithDefault
340
F
  0
DICTIONARY
  5
17
102
{ACAD_REACTORS
330
C
102
}
100
AcDbDictionary
280
0
281
1
  3
Standard
350
18
  0
DICTIONARY
  5
19
102
{ACAD_REACTORS
330
C
102
}
100
AcDbDictionary
281
1
  0
DICTIONARY
  5
1A
102
{ACAD_REACTORS
330
C
102
}
100
AcDbDictionary
281
1
  3
Model
350
2FF
  3
Layout1
350
300
  0
ACDBPLACEHOLDER
  5
F
102
{ACAD_REACTORS
330
E
102
}
  0
MLINESTYLE
  5
18
102
{ACAD_REACTORS
330
17
102
}
100
AcDbMlineStyle
  2
STANDARD
 70
0
  3

 62
256
 51
90.0
 52
90.0
 71
2
 49
0.5
 62
256
  6
BYLAYER
 49
-0.5
 62
256
  6
BYLAYER
  0
LAYOUT
  5
2FF
102
{ACAD_REACTORS
330
1A
102
}
100
AcDbPlotSettings
  1

  2
none_device
  4

  6

 40
0.0
 41
0.0
 42
0.0
 43
0.0
 44
210.0
 45
297.0
 46
0.0
 47
0.0
 48
0.0
 49
0.0
140
0.0
141
0.0
142
1.0
143
1.0
 70
1024
 72
1
 73
0
 74
0
  7

 75
0
147
1.0
148
0.0
149
0.0
100
AcDbLayout
  1
Model
 70
0
 71
0
 10
0.0
 20
0.0
 11
210.0
 21
297.0
 12
0.0
 22
0.0
 32
0.0
 14
0.0
 24
0.0
 34
0.0
 15
0.0
 25
0.0
 35
0.0
146
0.0
 13
0.0
 23
0.0
 33
0.0
 16
1.0
 26
0.0
 36
0.0
 17
0.0
 27
1.0
 37
0.0
 76
0
330
210
345
0
346
0
  0
LAYOUT
  5
300
102
{ACAD_REACTORS
330
1A
102
}
100
AcDbPlotSettings
  1

  2
none_device
  4

  6

 40
0.0
 41
0.0
 42
0.0
 43
0.0
 44
210.0
 45
297.0
 46
0.0
 47
0.0
 48
0.0
 49
0.0
140
0.0
141
0.0
142
1.0
143
1.0
 70
0
 72
1
 73
0
 74
0
  7

 75
0
147
1.0
148
0.0
149
0.0
100
AcDbLayout
  1
Layout1
 70
0
 71
1
 10
0.0
 20
0.0
 11
210.0
 21
297.0
 12
0.0
 22
0.0
 32
0.0
 14
0.0
 24
0.0
 34
0.0
 15
0.0
 25
0.0
 35
0.0
146
0.0
 13
0.0
 23
0.0
 33
0.0
 16
1.0
 26
0.0
 36
0.0
 17
0.0
 27
1.0
 37
0.0
 76
0
330
211
345
0
346
0
  0
ENDSEC
  0
EOF
