999
DXF file: Y:\001_SCHNEIDER_PARIS\maxime fuentes - génération CAD 2D\TRAVAIL\9002AW2_2D-Views\9002AW2_2D-bottom.dxf
999
Pro/ENGINEER 2018260 by Parametric Technology Corporation
  0
SECTION
  2
HEADER
  9
$ACADVER
  1
AC1027
  9
$DWGCODEPAGE
  3
ANSI_1252
  9
$EXTMAX
 10
558.8
 20
431.8
 30
0.0
  9
$EXTMIN
 10
0.0
 20
0.0
 30
0.0
  9
$LIMMIN
 10
0.0
 20
0.0
  9
$LIMMAX
 10
558.8
 20
431.8
  9
$VIEWCTR
 10
279.4
 20
215.9
  9
$VIEWSIZE
 40
431.8
  9
$CLAYER
  8
0
  9
$LTSCALE
 40
30.734
  9
$CELTYPE
  6
BYLAYER
  9
$DIMSCALE
 40
1.0
  9
$DIMASZ
 40
0.1875
  9
$DIMEXO
 40
0.0625
  9
$DIMDLI
 40
21.2344
  9
$DIMEXE
 40
0.125
  9
$DIMCEN
 40
5.0292
  9
$DIMLFAC
 40
1.0
  9
$DIMBLK
  1
_CLOSED
  9
$DIMALT
 70
0
  9
$DIMALTF
 40
0.0393700787
  9
$DIMTXT
 40
0.15625
  9
$DIMTOL
 70
0
  9
$DIMLIM
 70
0
  9
$DIMTFAC
 40
1.0
  9
$DIMGAP
 40
0.625
  9
$DIMDSEP
 70
46
  9
$AUNITS
 70
0
  9
$PDMODE
 70
3
  9
$PDSIZE
 40
0.3125
  9
$HANDSEED
  5
4A4
  9
$TILEMODE
 70
1
  9
$MEASUREMENT
 70
1
  9
$INSUNITS
 70
4
  0
ENDSEC
  0
SECTION
  2
CLASSES
  0
CLASS
  1
ACDBDICTIONARYWDFLT
  2
AcDbDictionaryWithDefault
  3
AutoCAD 2000
 90
0
 91
1
280
0
281
0
  0
CLASS
  1
ACDBPLACEHOLDER
  2
AcDbPlaceHolder
  3
AutoCAD 2000
 90
0
 91
1
280
0
281
0
  0
CLASS
  1
LAYOUT
  2
AcDbLayout
  3
AutoCAD 2000
 90
0
 91
0
280
0
281
0
  0
ENDSEC
  0
SECTION
  2
TABLES
  0
TABLE
  2
VPORT
  5
8
100
AcDbSymbolTable
 70
2
  0
VPORT
  5
1F4
100
AcDbSymbolTableRecord
100
AcDbViewportTableRecord
  2
*ACTIVE
 70
0
 10
0.0
 20
0.0
 11
1.0
 21
1.0
 12
279.4
 22
215.9
 13
0.0
 23
0.0
 14
1.0
 24
1.0
 15
0.0
 25
0.0
 16
0.0
 26
0.0
 36
1.0
 17
0.0
 27
0.0
 37
0.0
 40
431.8
 41
1.2941176471
 42
50.0
 43
0.0
 44
0.0
 50
0.0
 51
0.0
 71
0
 72
100
 73
1
 74
1
 75
0
 76
0
 77
0
 78
0
  0
ENDTAB
  0
TABLE
  2
LTYPE
  5
5
100
AcDbSymbolTable
 70
6
  0
LTYPE
  5
14
100
AcDbSymbolTableRecord
100
AcDbLinetypeTableRecord
  2
BYBLOCK
 70
0
  3

 72
65
 73
0
 40
0.0
  0
LTYPE
  5
15
100
AcDbSymbolTableRecord
100
AcDbLinetypeTableRecord
  2
BYLAYER
 70
0
  3

 72
65
 73
0
 40
0.0
  0
LTYPE
  5
16
100
AcDbSymbolTableRecord
100
AcDbLinetypeTableRecord
  2
CONTINUOUS
 70
64
  3
Solid line
 72
65
 73
0
 40
0.0
  0
LTYPE
  5
1F5
100
AcDbSymbolTableRecord
100
AcDbLinetypeTableRecord
  2
CENTER
 70
64
  3
____ _ ____ _ ____ _ ____ _ ____ _ ____ _ ____
 72
65
 73
4
 40
0.6
 49
0.375
 74
0
 49
-0.075
 74
0
 49
0.075
 74
0
 49
-0.075
 74
0
  0
LTYPE
  5
1F6
100
AcDbSymbolTableRecord
100
AcDbLinetypeTableRecord
  2
HIDDEN
 70
64
  3
- - - - - - - - - - - - - - - - - - - -
 72
65
 73
2
 40
0.2
 49
0.1
 74
0
 49
-0.1
 74
0
  0
LTYPE
  5
1F7
100
AcDbSymbolTableRecord
100
AcDbLinetypeTableRecord
  2
PHANTOM
 70
64
  3
_____ _ _ _____ _ _ _____ _ _ _____
 72
65
 73
6
 40
0.8
 49
0.45
 74
0
 49
-0.05
 74
0
 49
0.1
 74
0
 49
-0.05
 74
0
 49
0.1
 74
0
 49
-0.05
 74
0
  0
LTYPE
  5
1F8
100
AcDbSymbolTableRecord
100
AcDbLinetypeTableRecord
  2
DOT
 70
64
  3
. . . . . . . . . . . . . . . . . . . .
 72
65
 73
2
 40
0.2
 49
0.1
 74
0
 49
-0.1
 74
0
  0
LTYPE
  5
1F9
100
AcDbSymbolTableRecord
100
AcDbLinetypeTableRecord
  2
DASHED
 70
64
  3
- - - - - - - - - - - - - - - - - - - -
 72
65
 73
2
 40
0.2
 49
0.1
 74
0
 49
-0.1
 74
0
  0
ENDTAB
  0
TABLE
  2
LAYER
  5
2
100
AcDbSymbolTable
 70
36
  0
LAYER
  5
10
100
AcDbSymbolTableRecord
100
AcDbLayerTableRecord
  2
0
 70
0
 62
7
  6
CONTINUOUS
370
-3
390
F
  0
LAYER
  5
1FA
100
AcDbSymbolTableRecord
100
AcDbLayerTableRecord
  2
DEFAULT_1
 70
0
 62
7
  6
CENTER
370
-3
390
F
  0
LAYER
  5
1FB
100
AcDbSymbolTableRecord
100
AcDbLayerTableRecord
  2
DEFAULT_2
 70
0
 62
8
  6
HIDDEN
370
-3
390
F
  0
LAYER
  5
1FC
100
AcDbSymbolTableRecord
100
AcDbLayerTableRecord
  2
DEFAULT_3
 70
0
 62
7
  6
PHANTOM
370
-3
390
F
  0
LAYER
  5
1FD
100
AcDbSymbolTableRecord
100
AcDbLayerTableRecord
  2
01_ALL_DTM_PLN
 70
0
 62
7
  6
CONTINUOUS
370
-3
390
F
  0
LAYER
  5
1FE
100
AcDbSymbolTableRecord
100
AcDbLayerTableRecord
  2
01__ASM_ALL_DTM_PLN
 70
0
 62
7
  6
CONTINUOUS
370
-3
390
F
  0
LAYER
  5
1FF
100
AcDbSymbolTableRecord
100
AcDbLayerTableRecord
  2
01__ASM_DEF_DTM_PLN
 70
0
 62
7
  6
CONTINUOUS
370
-3
390
F
  0
LAYER
  5
200
100
AcDbSymbolTableRecord
100
AcDbLayerTableRecord
  2
01___PRT_ALL_DTM_PLN
 70
0
 62
7
  6
CONTINUOUS
370
-3
390
F
  0
LAYER
  5
201
100
AcDbSymbolTableRecord
100
AcDbLayerTableRecord
  2
01___PRT_DEF_DTM_PLN
 70
0
 62
7
  6
CONTINUOUS
370
-3
390
F
  0
LAYER
  5
202
100
AcDbSymbolTableRecord
100
AcDbLayerTableRecord
  2
02_ALL_AXES
 70
0
 62
7
  6
CONTINUOUS
370
-3
390
F
  0
LAYER
  5
203
100
AcDbSymbolTableRecord
100
AcDbLayerTableRecord
  2
02__ASM_ALL_AXES
 70
0
 62
7
  6
CONTINUOUS
370
-3
390
F
  0
LAYER
  5
204
100
AcDbSymbolTableRecord
100
AcDbLayerTableRecord
  2
02___PRT_ALL_AXES
 70
0
 62
7
  6
CONTINUOUS
370
-3
390
F
  0
LAYER
  5
205
100
AcDbSymbolTableRecord
100
AcDbLayerTableRecord
  2
03_ALL_CURVES
 70
0
 62
7
  6
CONTINUOUS
370
-3
390
F
  0
LAYER
  5
206
100
AcDbSymbolTableRecord
100
AcDbLayerTableRecord
  2
03__ASM_ALL_CURVES
 70
0
 62
7
  6
CONTINUOUS
370
-3
390
F
  0
LAYER
  5
207
100
AcDbSymbolTableRecord
100
AcDbLayerTableRecord
  2
03___PRT_ALL_CURVES
 70
0
 62
7
  6
CONTINUOUS
370
-3
390
F
  0
LAYER
  5
208
100
AcDbSymbolTableRecord
100
AcDbLayerTableRecord
  2
04_ALL_DTM_PNT
 70
0
 62
7
  6
CONTINUOUS
370
-3
390
F
  0
LAYER
  5
209
100
AcDbSymbolTableRecord
100
AcDbLayerTableRecord
  2
04__ASM_ALL_DTM_PNT
 70
0
 62
7
  6
CONTINUOUS
370
-3
390
F
  0
LAYER
  5
20A
100
AcDbSymbolTableRecord
100
AcDbLayerTableRecord
  2
04___PRT_ALL_DTM_PNT
 70
0
 62
7
  6
CONTINUOUS
370
-3
390
F
  0
LAYER
  5
20B
100
AcDbSymbolTableRecord
100
AcDbLayerTableRecord
  2
05_ALL_DTM_CSYS
 70
0
 62
7
  6
CONTINUOUS
370
-3
390
F
  0
LAYER
  5
20C
100
AcDbSymbolTableRecord
100
AcDbLayerTableRecord
  2
05__ASM_ALL_DTM_CSYS
 70
0
 62
7
  6
CONTINUOUS
370
-3
390
F
  0
LAYER
  5
20D
100
AcDbSymbolTableRecord
100
AcDbLayerTableRecord
  2
05__ASM_DEF_DTM_CSYS
 70
0
 62
7
  6
CONTINUOUS
370
-3
390
F
  0
LAYER
  5
20E
100
AcDbSymbolTableRecord
100
AcDbLayerTableRecord
  2
05___PRT_ALL_DTM_CSYS
 70
0
 62
7
  6
CONTINUOUS
370
-3
390
F
  0
LAYER
  5
20F
100
AcDbSymbolTableRecord
100
AcDbLayerTableRecord
  2
05___PRT_DEF_DTM_CSYS
 70
0
 62
7
  6
CONTINUOUS
370
-3
390
F
  0
LAYER
  5
210
100
AcDbSymbolTableRecord
100
AcDbLayerTableRecord
  2
06_ALL_SURFS
 70
0
 62
7
  6
CONTINUOUS
370
-3
390
F
  0
LAYER
  5
211
100
AcDbSymbolTableRecord
100
AcDbLayerTableRecord
  2
06__ASM_ALL_SURFS
 70
0
 62
7
  6
CONTINUOUS
370
-3
390
F
  0
LAYER
  5
212
100
AcDbSymbolTableRecord
100
AcDbLayerTableRecord
  2
06___PRT_ALL_SURFS
 70
0
 62
7
  6
CONTINUOUS
370
-3
390
F
  0
LAYER
  5
213
100
AcDbSymbolTableRecord
100
AcDbLayerTableRecord
  2
07__ASM_ALL_SKELETONS
 70
0
 62
7
  6
CONTINUOUS
370
-3
390
F
  0
ENDTAB
  0
TABLE
  2
STYLE
  5
3
100
AcDbSymbolTable
 70
1
  0
STYLE
  5
11
100
AcDbSymbolTableRecord
100
AcDbTextStyleTableRecord
  2
STANDARD
 70
0
 40
0.0
 41
0.8
 50
0.0
 71
0
 42
0.2
  3
txt
  4

  0
STYLE
  5
214
100
AcDbSymbolTableRecord
100
AcDbTextStyleTableRecord
  2
TEXTSTYLE_1
 70
0
 40
0.0
 41
0.8
 50
0.0
 71
0
 42
0.2
  3
gdt
  4

  0
ENDTAB
  0
TABLE
  2
VIEW
  5
6
100
AcDbSymbolTable
 70
0
  0
ENDTAB
  0
TABLE
  2
UCS
  5
7
100
AcDbSymbolTable
 70
0
  0
ENDTAB
  0
TABLE
  2
APPID
  5
9
100
AcDbSymbolTable
 70
1
  0
APPID
  5
215
100
AcDbSymbolTableRecord
100
AcDbRegAppTableRecord
  2
ACAD
 70
0
  0
ENDTAB
  0
TABLE
  2
BLOCK_RECORD
  5
1
100
AcDbSymbolTable
 70
0
  0
BLOCK_RECORD
  5
216
100
AcDbSymbolTableRecord
100
AcDbBlockTableRecord
  2
*Model_Space
  0
BLOCK_RECORD
  5
217
100
AcDbSymbolTableRecord
100
AcDbBlockTableRecord
  2
*Paper_Space
  0
BLOCK_RECORD
  5
218
100
AcDbSymbolTableRecord
100
AcDbBlockTableRecord
  2
_CLOSED
  0
ENDTAB
  0
TABLE
  2
DIMSTYLE
  5
A
100
AcDbSymbolTable
 70
1
100
AcDbDimStyleTable
 71
0
  0
DIMSTYLE
105
219
100
AcDbSymbolTableRecord
100
AcDbDimStyleTableRecord
  2
STANDARD
 70
0
  3

  4

 40
1.0
 41
0.1875
 42
0.0625
 43
0.38
 44
0.125
 45
0.0
 46
0.0
 47
0.01
 48
0.01
140
0.15625
141
0.09
142
0.0
143
25.4
144
1.0
145
0.0
146
1.0
147
0.625
 71
0.0
 72
0.0
 73
1
 74
1
 75
0
 76
0
 77
0
 78
8
 79
2
170
0
171
1
172
0
173
0
174
0
175
0
176
0
177
0
178
0
270
2
179
2
271
2
272
2
273
2
274
2
275
0
280
0
281
0
282
0
283
1
284
8
285
0
286
0
287
3
288
0
340
11
278
46
341
218
342
218
343
218
344
218
  0
ENDTAB
  0
ENDSEC
  0
SECTION
  2
BLOCKS
  0
BLOCK
  5
20
100
AcDbEntity
  8
0
100
AcDbBlockBegin
  2
*Model_Space
 70
0
 10
0.0
 20
0.0
 30
0.0
  3
*Model_Space
  1

  0
ENDBLK
  5
21
100
AcDbEntity
  8
0
100
AcDbBlockEnd
  0
BLOCK
  5
1C
100
AcDbEntity
  8
0
100
AcDbBlockBegin
  2
*Paper_Space
 70
0
 10
0.0
 20
0.0
 30
0.0
  3
*Paper_Space
  1

  0
ENDBLK
  5
1D
100
AcDbEntity
  8
0
100
AcDbBlockEnd
  0
BLOCK
  5
21A
100
AcDbEntity
  8
0
100
AcDbBlockBegin
  2
_CLOSED
 70
64
 10
0.0
 20
0.0
  3
_CLOSED
  1

  0
LINE
  5
21B
100
AcDbEntity
  8
0
  6
BYBLOCK
 62
0
100
AcDbLine
 10
0.0
 20
0.0
 11
-1.0
 21
0.1666666667
  0
LINE
  5
21C
100
AcDbEntity
  8
0
  6
BYBLOCK
 62
0
100
AcDbLine
 10
-1.0
 20
0.1666666667
 11
-1.0
 21
-0.1666666667
  0
LINE
  5
21D
100
AcDbEntity
  8
0
  6
BYBLOCK
 62
0
100
AcDbLine
 10
-1.0
 20
-0.1666666667
 11
0.0
 21
0.0
  0
LINE
  5
21E
100
AcDbEntity
  8
0
  6
BYBLOCK
 62
0
100
AcDbLine
 10
-1.0
 20
0.0
 11
0.0
 21
0.0
  0
ENDBLK
  5
21F
100
AcDbEntity
  8
0
  6
BYBLOCK
 62
0
100
AcDbBlockEnd
  0
ENDSEC
  0
SECTION
  2
ENTITIES
  0
LWPOLYLINE
  5
220
100
AcDbEntity
  8
0
100
AcDbPolyline
 62
7
  6
CONTINUOUS
 90
10
 70
0
 10
-15.1113930914
 20
263.2141160341
 10
-15.3478396239
 20
263.0312402106
 10
-15.5498342229
 20
262.7743892011
 10
-15.671503763
 20
262.5040845328
 10
-15.7244146502
 20
262.2695871997
 10
-15.7420301467
 20
262.0998438397
 10
-15.7529809667
 20
261.9071745399
 10
-15.761269642
 20
261.6672392185
 10
-15.7674101056
 20
261.3664261003
 10
-15.7682518092
 20
261.3050674045
  0
LINE
  5
221
100
AcDbEntity
  8
0
100
AcDbLine
 62
7
  6
CONTINUOUS
 10
-15.0472682586
 20
263.2627812339
 11
-15.2347690557
 21
263.1271575651
  0
LINE
  5
222
100
AcDbEntity
  8
0
100
AcDbLine
 62
7
  6
CONTINUOUS
 10
-15.1121337184
 20
263.213671091
 11
-15.1113930914
 21
263.2141160341
  0
LWPOLYLINE
  5
223
100
AcDbEntity
  8
0
100
AcDbPolyline
 62
7
  6
CONTINUOUS
 90
4
 70
0
 10
-14.6508247146
 20
263.443824443
 10
-14.7187391674
 20
263.4187640867
 10
-14.8670594085
 20
263.3573410813
 10
-15.0472682586
 20
263.2627812339
  0
LINE
  5
224
100
AcDbEntity
  8
0
100
AcDbLine
 62
7
  6
CONTINUOUS
 10
-14.3577573982
 20
260.8494788142
 11
-14.5013781841
 21
260.7974019838
  0
LINE
  5
225
100
AcDbEntity
  8
0
100
AcDbLine
 62
7
  6
CONTINUOUS
 10
69.1597166634
 20
19.6071166171
 11
38.7837896737
 21
19.6071166179
  0
LINE
  5
226
100
AcDbEntity
  8
0
100
AcDbLine
 62
7
  6
CONTINUOUS
 10
38.7837720542
 20
19.9880985737
 11
69.1597336488
 21
19.9869938519
  0
LINE
  5
227
100
AcDbEntity
  8
0
100
AcDbLine
 62
7
  6
CONTINUOUS
 10
37.6397249765
 20
21.131048605
 11
37.259847697
 21
21.131048605
  0
LINE
  5
228
100
AcDbEntity
  8
0
100
AcDbLine
 62
7
  6
CONTINUOUS
 10
70.302674637
 20
21.1310376559
 11
70.6836586358
 21
21.1310415531
  0
LINE
  5
229
100
AcDbEntity
  8
0
100
AcDbLine
 62
7
  6
CONTINUOUS
 10
-15.9521043971
 20
253.6429913372
 11
-16.4259600332
 21
253.2836247974
  0
LINE
  5
22A
100
AcDbEntity
  8
0
100
AcDbLine
 62
7
  6
CONTINUOUS
 10
-15.4751481263
 20
253.9802585508
 11
-15.9521043971
 21
253.6429913372
  0
LINE
  5
22B
100
AcDbEntity
  8
0
100
AcDbLine
 62
7
  6
CONTINUOUS
 10
-14.9949200027
 20
254.2958202836
 11
-15.4751481263
 21
253.9802585508
  0
LINE
  5
22C
100
AcDbEntity
  8
0
100
AcDbLine
 62
7
  6
CONTINUOUS
 10
-15.3306499033
 20
254.2780161603
 11
-15.5627419754
 21
254.162005481
  0
LINE
  5
22D
100
AcDbEntity
  8
0
100
AcDbLine
 62
7
  6
CONTINUOUS
 10
-14.9949192475
 20
254.2958202829
 11
-14.7628278626
 21
254.4118306404
  0
LINE
  5
22E
100
AcDbEntity
  8
0
100
AcDbLine
 62
7
  6
CONTINUOUS
 10
-14.7192671851
 20
254.4118295968
 11
-14.9949192475
 21
254.2958202829
  0
LINE
  5
22F
100
AcDbEntity
  8
0
100
AcDbLine
 62
7
  6
CONTINUOUS
 10
-14.7299902674
 20
250.979995204
 11
-12.3083399132
 21
251.9991861412
  0
LINE
  5
230
100
AcDbEntity
  8
0
100
AcDbLine
 62
7
  6
CONTINUOUS
 10
37.640833191
 20
29.0611225837
 11
37.2598331906
 21
29.0611225837
  0
LINE
  5
231
100
AcDbEntity
  8
0
100
AcDbLine
 62
7
  6
CONTINUOUS
 10
70.6836586358
 20
29.0611322386
 11
70.302674637
 21
29.0611322386
  0
LINE
  5
232
100
AcDbEntity
  8
0
100
AcDbLine
 62
7
  6
CONTINUOUS
 10
9.521753167
 20
50.8457626661
 11
12.706538531
 21
50.8463897691
  0
LINE
  5
233
100
AcDbEntity
  8
0
100
AcDbLine
 62
7
  6
CONTINUOUS
 10
95.2369675675
 20
50.84638977
 11
98.4217531662
 21
50.8457626661
  0
LWPOLYLINE
  5
234
100
AcDbEntity
  8
0
100
AcDbPolyline
 62
7
  6
CONTINUOUS
 90
5
 70
0
 10
36.6763081618
 20
30.2610968037
 10
36.7599002904
 20
30.1905189523
 10
37.0638895426
 20
29.8091992262
 10
37.2317598243
 20
29.3524904616
 10
37.2598321507
 20
29.0609252061
  0
LINE
  5
235
100
AcDbEntity
  8
0
100
AcDbLine
 62
7
  6
CONTINUOUS
 10
-18.2098469401
 20
160.512005312
 11
-18.2098478828
 21
160.5120655598
  0
LINE
  5
236
100
AcDbEntity
  8
0
100
AcDbLine
 62
7
  6
CONTINUOUS
 10
-18.2444081985
 20
247.0436869257
 11
-18.244403315
 21
165.1842591798
  0
LWPOLYLINE
  5
237
100
AcDbEntity
  8
0
100
AcDbPolyline
 62
7
  6
CONTINUOUS
 90
4
 70
0
 10
-15.8707390006
 20
254.8500477867
 10
-15.8887910112
 20
254.4745762884
 10
-15.9051768732
 20
254.1885690355
 10
-15.9193671359
 20
253.9804809343
  0
LWPOLYLINE
  5
238
100
AcDbEntity
  8
0
100
AcDbPolyline
 62
7
  6
CONTINUOUS
 90
4
 70
0
 10
-18.2098483302
 20
160.5123095431
 10
-18.1790494916
 20
159.7442763903
 10
-18.0707400109
 20
158.6523796929
 10
-17.9711909008
 20
158.0059606743
  0
LINE
  5
239
100
AcDbEntity
  8
0
100
AcDbLine
 62
7
  6
CONTINUOUS
 10
-16.6114193611
 20
247.0436384633
 11
-16.6108723055
 21
165.1845608663
  0
LINE
  5
23A
100
AcDbEntity
  8
0
100
AcDbLine
 62
7
  6
CONTINUOUS
 10
-14.8904324351
 20
247.0438013695
 11
-14.890442127
 21
165.1845569555
  0
LINE
  5
23B
100
AcDbEntity
  8
0
100
AcDbLine
 62
7
  6
CONTINUOUS
 10
-13.6019459731
 20
155.7386163966
 11
-13.6019464991
 21
164.0039635623
  0
LINE
  5
23C
100
AcDbEntity
  8
0
100
AcDbLine
 62
7
  6
CONTINUOUS
 10
-11.0641268997
 20
155.7394279047
 11
-11.0641377753
 21
156.3280697798
  0
LINE
  5
23D
100
AcDbEntity
  8
0
100
AcDbLine
 62
7
  6
CONTINUOUS
 10
-14.5013781841
 20
260.7974019838
 11
-14.5013804217
 21
260.7608609325
  0
LINE
  5
23E
100
AcDbEntity
  8
0
100
AcDbLine
 62
7
  6
CONTINUOUS
 10
-14.3577573982
 20
260.8494788142
 11
-14.3579585435
 21
260.7608612774
  0
LWPOLYLINE
  5
23F
100
AcDbEntity
  8
0
100
AcDbPolyline
 62
7
  6
CONTINUOUS
 90
5
 70
0
 10
-15.77138071
 20
260.7977121027
 10
-15.7763797384
 20
259.2961280838
 10
-15.7983192189
 20
257.4308093856
 10
-15.8359854975
 20
255.8030701574
 10
-15.8707143055
 20
254.850552494
  0
LINE
  5
240
100
AcDbEntity
  8
0
100
AcDbLine
 62
7
  6
CONTINUOUS
 10
103.3523949395
 20
223.4343278821
 11
101.5551438138
 21
222.8122157214
  0
LINE
  5
241
100
AcDbEntity
  8
0
100
AcDbLine
 62
7
  6
CONTINUOUS
 10
-2.416246834
 20
89.7077626661
 11
-1.590746834
 21
89.7077626661
  0
LINE
  5
242
100
AcDbEntity
  8
0
100
AcDbLine
 62
7
  6
CONTINUOUS
 10
109.5342531664
 20
89.7077626661
 11
110.3597531664
 21
89.7077626661
  0
LINE
  5
243
100
AcDbEntity
  8
0
100
AcDbLine
 62
7
  6
CONTINUOUS
 10
-2.416246834
 20
96.7076175856
 11
-1.590746834
 21
96.7076175856
  0
LINE
  5
244
100
AcDbEntity
  8
0
100
AcDbLine
 62
7
  6
CONTINUOUS
 10
109.5342531664
 20
96.7076181237
 11
110.3597531664
 21
96.7076181237
  0
LINE
  5
245
100
AcDbEntity
  8
0
100
AcDbLine
 62
7
  6
CONTINUOUS
 10
-3.178246834
 20
97.0496267957
 11
-1.590746834
 21
97.0496267961
  0
LINE
  5
246
100
AcDbEntity
  8
0
100
AcDbLine
 62
7
  6
CONTINUOUS
 10
109.5342531664
 20
97.0496267962
 11
111.1217531664
 21
97.0496267962
  0
LINE
  5
247
100
AcDbEntity
  8
0
100
AcDbLine
 62
7
  6
CONTINUOUS
 10
-2.515257683
 20
107.9420821242
 11
-2.4162468341
 21
107.8430712975
  0
LINE
  5
248
100
AcDbEntity
  8
0
100
AcDbLine
 62
7
  6
CONTINUOUS
 10
-3.1819843638
 20
122.5104357851
 11
-7.3743039546
 21
132.7777018385
  0
LINE
  5
249
100
AcDbEntity
  8
0
100
AcDbLine
 62
7
  6
CONTINUOUS
 10
-1.7477832601
 20
115.3183263341
 11
-16.9537253691
 21
154.4203415987
  0
LINE
  5
24A
100
AcDbEntity
  8
0
100
AcDbLine
 62
7
  6
CONTINUOUS
 10
-1.590746834
 20
118.418568383
 11
-3.1819841965
 21
122.510435374
  0
LINE
  5
24B
100
AcDbEntity
  8
0
100
AcDbLine
 62
7
  6
CONTINUOUS
 10
-14.492994669
 20
153.3559899201
 11
-8.383857347
 21
137.6463527761
  0
LWPOLYLINE
  5
24C
100
AcDbEntity
  8
0
100
AcDbPolyline
 62
7
  6
CONTINUOUS
 90
4
 70
0
 10
-17.9712014631
 20
158.006013058
 10
-17.7731666038
 20
157.0370156812
 10
-17.4662959218
 20
155.8973344565
 10
-17.2299421052
 20
155.1714694797
  0
LINE
  5
24D
100
AcDbEntity
  8
0
100
AcDbLine
 62
7
  6
CONTINUOUS
 10
-1.2193754452
 20
193.719468074
 11
-1.2198456241
 21
193.7454008951
  0
LINE
  5
24E
100
AcDbEntity
  8
0
100
AcDbLine
 62
7
  6
CONTINUOUS
 10
-4.359346834
 20
106.8273626661
 11
-4.359346834
 21
97.9881626661
  0
LINE
  5
24F
100
AcDbEntity
  8
0
100
AcDbLine
 62
7
  6
CONTINUOUS
 10
-3.178246834
 20
90.4702355072
 11
-3.178246834
 21
114.3452887129
  0
LINE
  5
250
100
AcDbEntity
  8
0
100
AcDbLine
 62
7
  6
CONTINUOUS
 10
-2.416246834
 20
115.1077626661
 11
-2.416246834
 21
107.9631934792
  0
LINE
  5
251
100
AcDbEntity
  8
0
100
AcDbLine
 62
7
  6
CONTINUOUS
 10
-2.4162468342
 20
107.8430712975
 11
-2.416246834
 21
89.7077626661
  0
LINE
  5
252
100
AcDbEntity
  8
0
100
AcDbLine
 62
7
  6
CONTINUOUS
 10
-2.289246834
 20
111.3193149128
 11
-2.289246834
 21
115.1077626661
  0
LINE
  5
253
100
AcDbEntity
  8
0
100
AcDbLine
 62
7
  6
CONTINUOUS
 10
-1.590746834
 20
181.7827626659
 11
-1.590746834
 21
76.220941134
  0
LINE
  5
254
100
AcDbEntity
  8
0
100
AcDbLine
 62
7
  6
CONTINUOUS
 10
-1.527246834
 20
187.1102622613
 11
-1.527246834
 21
186.9676493546
  0
LINE
  5
255
100
AcDbEntity
  8
0
100
AcDbLine
 62
7
  6
CONTINUOUS
 10
-1.219993488
 20
193.7194729782
 11
-1.2197881501
 21
193.745418704
  0
LINE
  5
256
100
AcDbEntity
  8
0
100
AcDbLine
 62
7
  6
CONTINUOUS
 10
-4.6756198121
 20
155.2480902091
 11
-4.6913461391
 21
153.9788870481
  0
LINE
  5
257
100
AcDbEntity
  8
0
100
AcDbLine
 62
7
  6
CONTINUOUS
 10
4.5914684306
 20
223.4699939671
 11
4.5910675759
 21
223.4675405611
  0
LINE
  5
258
100
AcDbEntity
  8
0
100
AcDbLine
 62
7
  6
CONTINUOUS
 10
-10.2527344303
 20
157.3027794161
 11
-11.0641371573
 21
156.3280705223
  0
LINE
  5
259
100
AcDbEntity
  8
0
100
AcDbLine
 62
7
  6
CONTINUOUS
 10
-4.359346834
 20
97.9881626661
 11
-3.178246834
 21
97.9881626661
  0
LINE
  5
25A
100
AcDbEntity
  8
0
100
AcDbLine
 62
7
  6
CONTINUOUS
 10
111.1217531664
 20
97.9881626661
 11
112.3028531664
 21
97.9881626661
  0
LINE
  5
25B
100
AcDbEntity
  8
0
100
AcDbLine
 62
7
  6
CONTINUOUS
 10
-4.359346834
 20
106.8273626661
 11
-3.178246834
 21
106.8273626661
  0
LINE
  5
25C
100
AcDbEntity
  8
0
100
AcDbLine
 62
7
  6
CONTINUOUS
 10
111.1217531664
 20
106.8273626661
 11
112.3028531664
 21
106.8273626661
  0
LINE
  5
25D
100
AcDbEntity
  8
0
100
AcDbLine
 62
7
  6
CONTINUOUS
 10
110.3597531662
 20
107.8430712977
 11
109.5342531664
 21
107.8430712977
  0
LINE
  5
25E
100
AcDbEntity
  8
0
100
AcDbLine
 62
7
  6
CONTINUOUS
 10
-1.590746834
 20
107.8430712975
 11
-2.4162468342
 21
107.8430712975
  0
LINE
  5
25F
100
AcDbEntity
  8
0
100
AcDbLine
 62
7
  6
CONTINUOUS
 10
-2.4162387203
 20
107.963193945
 11
-1.590746834
 21
107.963193945
  0
LINE
  5
260
100
AcDbEntity
  8
0
100
AcDbLine
 62
7
  6
CONTINUOUS
 10
109.5342531664
 20
107.9631934115
 11
110.3597530103
 21
107.9631934115
  0
LINE
  5
261
100
AcDbEntity
  8
0
100
AcDbLine
 62
7
  6
CONTINUOUS
 10
-13.6019459731
 20
155.7386163966
 11
-14.8020533294
 21
158.8247329417
  0
LINE
  5
262
100
AcDbEntity
  8
0
100
AcDbLine
 62
7
  6
CONTINUOUS
 10
-1.590746834
 20
130.4136797368
 11
-10.7143972219
 21
153.8751078739
  0
LINE
  5
263
100
AcDbEntity
  8
0
100
AcDbLine
 62
7
  6
CONTINUOUS
 10
-14.0389265346
 20
155.4161115646
 11
-7.6911265507
 21
139.0926871657
  0
LINE
  5
264
100
AcDbEntity
  8
0
100
AcDbLine
 62
7
  6
CONTINUOUS
 10
4.5909989002
 20
223.434333136
 11
4.5909989002
 21
223.46734228
  0
LINE
  5
265
100
AcDbEntity
  8
0
100
AcDbLine
 62
7
  6
CONTINUOUS
 10
21.6818934142
 20
272.7726536502
 11
21.683118386
 21
272.7871492442
  0
LINE
  5
266
100
AcDbEntity
  8
0
100
AcDbLine
 62
7
  6
CONTINUOUS
 10
-2.416246834
 20
115.1077626661
 11
-2.289246834
 21
115.1077626661
  0
LINE
  5
267
100
AcDbEntity
  8
0
100
AcDbLine
 62
7
  6
CONTINUOUS
 10
110.2327531664
 20
115.1077626661
 11
110.3597531664
 21
115.1077626661
  0
LINE
  5
268
100
AcDbEntity
  8
0
100
AcDbLine
 62
7
  6
CONTINUOUS
 10
21.204961739
 20
267.9714742543
 11
21.204961739
 21
269.6526073883
  0
LINE
  5
269
100
AcDbEntity
  8
0
100
AcDbLine
 62
7
  6
CONTINUOUS
 10
22.0957909231
 20
270.0513434896
 11
22.0957909162
 21
269.6545240311
  0
LINE
  5
26A
100
AcDbEntity
  8
0
100
AcDbLine
 62
7
  6
CONTINUOUS
 10
-13.0816584862
 20
152.9544170418
 11
-10.7143584983
 21
153.875009659
  0
LINE
  5
26B
100
AcDbEntity
  8
0
100
AcDbLine
 62
7
  6
CONTINUOUS
 10
111.1255376675
 20
122.5104347959
 11
109.5342531664
 21
122.5104346817
  0
LINE
  5
26C
100
AcDbEntity
  8
0
100
AcDbLine
 62
7
  6
CONTINUOUS
 10
-3.1819841965
 20
122.510435374
 11
-1.590746834
 21
122.5104356545
  0
LINE
  5
26D
100
AcDbEntity
  8
0
100
AcDbLine
 62
7
  6
CONTINUOUS
 10
8.8546872521
 20
270.2897578781
 11
8.8586796319
 21
270.268527483
  0
LINE
  5
26E
100
AcDbEntity
  8
0
100
AcDbLine
 62
7
  6
CONTINUOUS
 10
37.2598476964
 20
21.1310645024
 11
37.2598476986
 21
29.0611311861
  0
LINE
  5
26F
100
AcDbEntity
  8
0
100
AcDbLine
 62
7
  6
CONTINUOUS
 10
38.7837710393
 20
19.9875456618
 11
38.7837743381
 21
19.6071166179
  0
LINE
  5
270
100
AcDbEntity
  8
0
100
AcDbLine
 62
7
  6
CONTINUOUS
 10
37.6408331909
 20
29.0611225561
 11
37.6397249711
 21
21.1310486056
  0
LINE
  5
271
100
AcDbEntity
  8
0
100
AcDbLine
 62
7
  6
CONTINUOUS
 10
-3.1819913252
 20
122.5104334738
 11
-4.3656413168
 21
122.0501371661
  0
LINE
  5
272
100
AcDbEntity
  8
0
100
AcDbLine
 62
7
  6
CONTINUOUS
 10
109.5342656504
 20
153.9418920824
 11
112.6348718287
 21
153.9792500161
  0
LINE
  5
273
100
AcDbEntity
  8
0
100
AcDbLine
 62
7
  6
CONTINUOUS
 10
109.5342863252
 20
155.2108484504
 11
112.6193547356
 21
155.2480241789
  0
LINE
  5
274
100
AcDbEntity
  8
0
100
AcDbLine
 62
7
  6
CONTINUOUS
 10
-11.064127815
 20
155.7386438679
 11
-13.6019462354
 21
155.7386438679
  0
LINE
  5
275
100
AcDbEntity
  8
0
100
AcDbLine
 62
7
  6
CONTINUOUS
 10
119.0076815217
 20
155.7387607146
 11
121.5454999421
 21
155.7385811429
  0
LINE
  5
276
100
AcDbEntity
  8
0
100
AcDbLine
 62
7
  6
CONTINUOUS
 10
-1.590746834
 20
155.2137159196
 11
-4.6757977701
 21
155.2482861801
  0
LINE
  5
277
100
AcDbEntity
  8
0
100
AcDbLine
 62
7
  6
CONTINUOUS
 10
-4.6913461392
 20
153.9788870473
 11
-1.590746834
 21
153.9428215271
  0
LINE
  5
278
100
AcDbEntity
  8
0
100
AcDbLine
 62
7
  6
CONTINUOUS
 10
112.3091950231
 20
122.0501371661
 11
111.1255450315
 21
122.5104334738
  0
LINE
  5
279
100
AcDbEntity
  8
0
100
AcDbLine
 62
7
  6
CONTINUOUS
 10
5.9734456635
 20
269.626977717
 11
5.9749180682
 21
269.6223969867
  0
LINE
  5
27A
100
AcDbEntity
  8
0
100
AcDbLine
 62
7
  6
CONTINUOUS
 10
53.9717697657
 20
272.4219588621
 11
53.9717733226
 21
275.2593335781
  0
LINE
  5
27B
100
AcDbEntity
  8
0
100
AcDbLine
 62
7
  6
CONTINUOUS
 10
101.9701144768
 20
269.6270061378
 11
101.9686422011
 21
269.6224249829
  0
LINE
  5
27C
100
AcDbEntity
  8
0
100
AcDbLine
 62
7
  6
CONTINUOUS
 10
-14.8901270449
 20
165.1845569571
 11
-18.2444085485
 21
165.1842657773
  0
LINE
  5
27D
100
AcDbEntity
  8
0
100
AcDbLine
 62
7
  6
CONTINUOUS
 10
126.1879624057
 20
165.1842657267
 11
122.8336807518
 21
165.1845569571
  0
LINE
  5
27E
100
AcDbEntity
  8
0
100
AcDbLine
 62
7
  6
CONTINUOUS
 10
69.1597166634
 20
19.6071166179
 11
69.159733635
 21
19.9875456618
  0
LINE
  5
27F
100
AcDbEntity
  8
0
100
AcDbLine
 62
7
  6
CONTINUOUS
 10
70.3026750193
 20
21.1310492572
 11
70.3026731418
 21
29.0611226063
  0
LINE
  5
280
100
AcDbEntity
  8
0
100
AcDbLine
 62
7
  6
CONTINUOUS
 10
70.6836586335
 20
29.0611357403
 11
70.6836585798
 21
21.1310656128
  0
LINE
  5
281
100
AcDbEntity
  8
0
100
AcDbLine
 62
7
  6
CONTINUOUS
 10
99.0888638356
 20
270.2897473591
 11
99.0848719066
 21
270.2685167298
  0
LINE
  5
282
100
AcDbEntity
  8
0
100
AcDbLine
 62
7
  6
CONTINUOUS
 10
121.0251983316
 20
152.9543813974
 11
118.6579399963
 21
153.8750811243
  0
LINE
  5
283
100
AcDbEntity
  8
0
100
AcDbLine
 62
7
  6
CONTINUOUS
 10
85.8477625301
 20
270.0513447106
 11
85.8477624643
 21
269.6542371703
  0
LINE
  5
284
100
AcDbEntity
  8
0
100
AcDbLine
 62
7
  6
CONTINUOUS
 10
86.7385919677
 20
269.6526073883
 11
86.7385919677
 21
267.9714742542
  0
LINE
  5
285
100
AcDbEntity
  8
0
100
AcDbLine
 62
7
  6
CONTINUOUS
 10
86.2616600864
 20
272.7726519627
 11
86.2604329431
 21
272.7871480078
  0
LINE
  5
286
100
AcDbEntity
  8
0
100
AcDbLine
 62
7
  6
CONTINUOUS
 10
103.3524566839
 20
223.4344802357
 11
103.3524566839
 21
223.4674888013
  0
LINE
  5
287
100
AcDbEntity
  8
0
100
AcDbLine
 62
7
  6
CONTINUOUS
 10
6.3928012299
 20
222.8109639246
 11
4.5909130099
 21
223.4337636352
  0
LINE
  5
288
100
AcDbEntity
  8
0
100
AcDbLine
 62
7
  6
CONTINUOUS
 10
112.6191765785
 20
155.2478535233
 11
112.6348996438
 21
153.978903453
  0
LINE
  5
289
100
AcDbEntity
  8
0
100
AcDbLine
 62
7
  6
CONTINUOUS
 10
109.4707531664
 20
186.9676460689
 11
109.4707531664
 21
187.1102628605
  0
LINE
  5
28A
100
AcDbEntity
  8
0
100
AcDbLine
 62
7
  6
CONTINUOUS
 10
109.5342531664
 20
76.220941134
 11
109.5342531664
 21
181.7827626649
  0
LINE
  5
28B
100
AcDbEntity
  8
0
100
AcDbLine
 62
7
  6
CONTINUOUS
 10
110.2327531664
 20
115.1077626661
 11
110.2327531664
 21
111.3193145217
  0
LINE
  5
28C
100
AcDbEntity
  8
0
100
AcDbLine
 62
7
  6
CONTINUOUS
 10
110.3597531664
 20
89.7077626661
 11
110.3597531662
 21
107.8430712977
  0
LINE
  5
28D
100
AcDbEntity
  8
0
100
AcDbLine
 62
7
  6
CONTINUOUS
 10
110.3597531664
 20
107.9631934101
 11
110.3597531664
 21
115.1077626661
  0
LINE
  5
28E
100
AcDbEntity
  8
0
100
AcDbLine
 62
7
  6
CONTINUOUS
 10
111.1217531664
 20
90.4702191056
 11
111.1217531664
 21
114.3402721807
  0
LINE
  5
28F
100
AcDbEntity
  8
0
100
AcDbLine
 62
7
  6
CONTINUOUS
 10
112.3028531664
 20
97.9881626661
 11
112.3028531664
 21
106.8273626661
  0
LINE
  5
290
100
AcDbEntity
  8
0
100
AcDbLine
 62
7
  6
CONTINUOUS
 10
118.6579629998
 20
153.875138179
 11
109.5342531664
 21
130.4135588661
  0
LINE
  5
291
100
AcDbEntity
  8
0
100
AcDbLine
 62
7
  6
CONTINUOUS
 10
122.7456070563
 20
158.8247329951
 11
121.5454996792
 21
155.7386163966
  0
LINE
  5
292
100
AcDbEntity
  8
0
100
AcDbLine
 62
7
  6
CONTINUOUS
 10
121.9824735816
 20
155.4160943425
 11
115.6346802577
 21
139.0926871671
  0
LINE
  5
293
100
AcDbEntity
  8
0
100
AcDbLine
 62
7
  6
CONTINUOUS
 10
122.4365457451
 20
153.3559915099
 11
116.3274010632
 21
137.6463566977
  0
LINE
  5
294
100
AcDbEntity
  8
0
100
AcDbLine
 62
7
  6
CONTINUOUS
 10
118.1962355461
 20
157.3028417498
 11
119.0077059975
 21
156.32804926
  0
LINE
  5
295
100
AcDbEntity
  8
0
100
AcDbLine
 62
7
  6
CONTINUOUS
 10
103.3520379022
 20
223.4699939665
 11
103.3524387569
 21
223.4675405605
  0
LINE
  5
296
100
AcDbEntity
  8
0
100
AcDbLine
 62
7
  6
CONTINUOUS
 10
119.8917710261
 20
260.8440876945
 11
119.89286574
 21
260.7555191067
  0
LINE
  5
297
100
AcDbEntity
  8
0
100
AcDbLine
 62
7
  6
CONTINUOUS
 10
122.3013111045
 20
260.8494788076
 11
122.3015122501
 21
260.7608612774
  0
LINE
  5
298
100
AcDbEntity
  8
0
100
AcDbLine
 62
7
  6
CONTINUOUS
 10
122.5431109752
 20
254.8016066656
 11
122.5428921877
 21
255.8130252986
  0
LINE
  5
299
100
AcDbEntity
  8
0
100
AcDbLine
 62
7
  6
CONTINUOUS
 10
119.0076790044
 20
155.7388419026
 11
119.007689932
 21
156.328036597
  0
LINE
  5
29A
100
AcDbEntity
  8
0
100
AcDbLine
 62
7
  6
CONTINUOUS
 10
121.5455002052
 20
164.0039635622
 11
121.5454996792
 21
155.7386163966
  0
LINE
  5
29B
100
AcDbEntity
  8
0
100
AcDbLine
 62
7
  6
CONTINUOUS
 10
122.4449341285
 20
260.7608609325
 11
122.444931891
 21
260.7974019837
  0
LINE
  5
29C
100
AcDbEntity
  8
0
100
AcDbLine
 62
7
  6
CONTINUOUS
 10
122.8339861413
 20
247.0438013692
 11
122.8339958331
 21
165.1845569569
  0
LINE
  5
29D
100
AcDbEntity
  8
0
100
AcDbLine
 62
7
  6
CONTINUOUS
 10
123.7199333697
 20
259.2961390222
 11
123.7149344171
 21
260.7976938441
  0
LINE
  5
29E
100
AcDbEntity
  8
0
100
AcDbLine
 62
7
  6
CONTINUOUS
 10
124.5544260122
 20
165.1845608663
 11
124.5549730678
 21
247.0436384633
  0
LINE
  5
29F
100
AcDbEntity
  8
0
100
AcDbLine
 62
7
  6
CONTINUOUS
 10
119.8907111872
 20
260.9300234731
 11
119.891545154
 21
260.9510100201
  0
LWPOLYLINE
  5
2A0
100
AcDbEntity
  8
0
100
AcDbPolyline
 62
7
  6
CONTINUOUS
 90
4
 70
0
 10
125.9147453214
 20
158.0059647716
 10
126.0142938045
 20
158.652380345
 10
126.1226032864
 20
159.7442777555
 10
126.1534020365
 20
160.5123095299
  0
LWPOLYLINE
  5
2A1
100
AcDbEntity
  8
0
100
AcDbPolyline
 62
7
  6
CONTINUOUS
 90
4
 70
0
 10
125.1734955893
 20
155.1714688385
 10
125.4098451001
 20
155.897319562
 10
125.7167159448
 20
157.0369970479
 10
125.9147559005
 20
158.0060172505
  0
LINE
  5
2A2
100
AcDbEntity
  8
0
100
AcDbLine
 62
7
  6
CONTINUOUS
 10
111.1255376675
 20
122.5104347959
 11
109.5342531664
 21
118.4184465789
  0
LINE
  5
2A3
100
AcDbEntity
  8
0
100
AcDbLine
 62
7
  6
CONTINUOUS
 10
109.6913307433
 20
115.3183103314
 11
124.8972790737
 21
154.4203415941
  0
LINE
  5
2A4
100
AcDbEntity
  8
0
100
AcDbLine
 62
7
  6
CONTINUOUS
 10
115.3178576651
 20
132.7777018439
 11
111.1255375994
 21
122.5104346285
  0
LINE
  5
2A5
100
AcDbEntity
  8
0
100
AcDbLine
 62
7
  6
CONTINUOUS
 10
110.3597531663
 20
107.8430713319
 11
110.458763896
 21
107.942082132
  0
LWPOLYLINE
  5
2A6
100
AcDbEntity
  8
0
100
AcDbPolyline
 62
7
  6
CONTINUOUS
 90
5
 70
0
 10
123.8628700197
 20
253.9805068118
 10
123.8612806299
 20
254.0007765079
 10
123.8456568914
 20
254.2385729094
 10
123.8301339507
 20
254.5169747679
 10
123.8142925108
 20
254.8500522545
  0
LWPOLYLINE
  5
2A7
100
AcDbEntity
  8
0
100
AcDbPolyline
 62
7
  6
CONTINUOUS
 90
4
 70
0
 10
123.8142680302
 20
254.850552077
 10
123.7795396836
 20
255.8030543486
 10
123.741873003
 20
257.4308048554
 10
123.7199333697
 20
259.2961390222
  0
LWPOLYLINE
  5
2A8
100
AcDbEntity
  8
0
100
AcDbPolyline
 62
7
  6
CONTINUOUS
 90
10
 70
0
 10
123.711805352
 20
261.3050802962
 10
123.7060528086
 20
261.6195843448
 10
123.6984324824
 20
261.8618081702
 10
123.689038051
 20
262.0495045949
 10
123.6768973855
 20
262.1975099526
 10
123.652177005
 20
262.3611967354
 10
123.5856231311
 20
262.5867157834
 10
123.4507236859
 20
262.8410775045
 10
123.244831376
 20
263.0747012832
 10
123.0553123701
 20
263.2138964968
  0
LINE
  5
2A9
100
AcDbEntity
  8
0
100
AcDbLine
 62
7
  6
CONTINUOUS
 10
123.7118340984
 20
261.3050772076
 11
123.7118292403
 21
261.3054296187
  0
LINE
  5
2AA
100
AcDbEntity
  8
0
100
AcDbLine
 62
7
  6
CONTINUOUS
 10
126.1879570219
 20
165.1842591798
 11
126.1879619051
 21
247.0436720571
  0
LINE
  5
2AB
100
AcDbEntity
  8
0
100
AcDbLine
 62
7
  6
CONTINUOUS
 10
126.1534016275
 20
160.5120680315
 11
126.1534006848
 21
160.512007784
  0
LINE
  5
2AC
100
AcDbEntity
  8
0
100
AcDbLine
 62
7
  6
CONTINUOUS
 10
-18.2444091639
 20
247.0436841262
 11
-18.1660539334
 21
247.0441656116
  0
LINE
  5
2AD
100
AcDbEntity
  8
0
100
AcDbLine
 62
7
  6
CONTINUOUS
 10
-18.2443924523
 20
247.0436841541
 11
-17.0215997381
 21
247.0441280651
  0
LINE
  5
2AE
100
AcDbEntity
  8
0
100
AcDbLine
 62
7
  6
CONTINUOUS
 10
124.5549730678
 20
247.0436384633
 11
122.8342278073
 21
247.0436345541
  0
LINE
  5
2AF
100
AcDbEntity
  8
0
100
AcDbLine
 62
7
  6
CONTINUOUS
 10
-16.6114193611
 20
247.0436384633
 11
-14.8906741004
 21
247.0436345541
  0
LINE
  5
2B0
100
AcDbEntity
  8
0
100
AcDbLine
 62
7
  6
CONTINUOUS
 10
124.9697704854
 20
247.0441416251
 11
126.1879461261
 21
247.043669283
  0
LINE
  5
2B1
100
AcDbEntity
  8
0
100
AcDbLine
 62
7
  6
CONTINUOUS
 10
126.1095732297
 20
247.0441555507
 11
126.1879628707
 21
247.0436692554
  0
LINE
  5
2B2
100
AcDbEntity
  8
0
100
AcDbLine
 62
7
  6
CONTINUOUS
 10
122.3013139363
 20
260.8494111133
 11
119.8917710261
 21
260.8440876945
  0
LINE
  5
2B3
100
AcDbEntity
  8
0
100
AcDbLine
 62
7
  6
CONTINUOUS
 10
122.6628215045
 20
254.4118295968
 11
122.7063815691
 21
254.4118306404
  0
LINE
  5
2B4
100
AcDbEntity
  8
0
100
AcDbLine
 62
7
  6
CONTINUOUS
 10
-14.7192671851
 20
254.4118295968
 11
-14.7628278626
 21
254.4118306404
  0
LINE
  5
2B5
100
AcDbEntity
  8
0
100
AcDbLine
 62
7
  6
CONTINUOUS
 10
119.89286574
 20
260.7555191067
 11
123.7149336247
 21
260.7608609588
  0
LINE
  5
2B6
100
AcDbEntity
  8
0
100
AcDbLine
 62
7
  6
CONTINUOUS
 10
122.4449344171
 20
260.7973342481
 11
123.7149344171
 21
260.7976938441
  0
LINE
  5
2B7
100
AcDbEntity
  8
0
100
AcDbLine
 62
7
  6
CONTINUOUS
 10
-15.77138071
 20
260.7976938451
 11
-14.50138071
 21
260.7973366559
  0
LINE
  5
2B8
100
AcDbEntity
  8
0
100
AcDbLine
 62
7
  6
CONTINUOUS
 10
-15.7713800522
 20
260.7608609588
 11
-11.9493118068
 21
260.7555191062
  0
LINE
  5
2B9
100
AcDbEntity
  8
0
100
AcDbLine
 62
7
  6
CONTINUOUS
 10
21.204957344
 20
269.6523294166
 11
22.0957764523
 21
269.6545239932
  0
LINE
  5
2BA
100
AcDbEntity
  8
0
100
AcDbLine
 62
7
  6
CONTINUOUS
 10
85.8477621632
 20
269.654093019
 11
86.7385964506
 21
269.6527478472
  0
LWPOLYLINE
  5
2BB
100
AcDbEntity
  8
0
100
AcDbPolyline
 62
7
  6
CONTINUOUS
 90
3
 70
0
 10
5.738384788
 20
269.5714468921
 10
5.0742434613
 20
269.4105947529
 10
4.8744213549
 20
269.3610917191
  0
LWPOLYLINE
  5
2BC
100
AcDbEntity
  8
0
100
AcDbPolyline
 62
7
  6
CONTINUOUS
 90
3
 70
0
 10
8.854687498
 20
270.289757937
 10
6.6376202503
 20
269.7811628681
 10
5.738384788
 20
269.5714468921
  0
LWPOLYLINE
  5
2BD
100
AcDbEntity
  8
0
100
AcDbPolyline
 62
7
  6
CONTINUOUS
 90
4
 70
0
 10
21.683121256
 20
272.7871480866
 10
17.4634236754
 20
272.0661870159
 10
12.8744975268
 20
271.171187735
 10
8.8546901471
 20
270.2897474229
  0
LINE
  5
2BE
100
AcDbEntity
  8
0
100
AcDbLine
 62
7
  6
CONTINUOUS
 10
22.0957912848
 20
270.0513459514
 11
22.0321041005
 21
270.04086134
  0
LINE
  5
2BF
100
AcDbEntity
  8
0
100
AcDbLine
 62
7
  6
CONTINUOUS
 10
22.0957912848
 20
270.0513459514
 11
22.031998341
 21
270.0415394767
  0
LWPOLYLINE
  5
2C0
100
AcDbEntity
  8
0
100
AcDbPolyline
 62
7
  6
CONTINUOUS
 90
4
 70
0
 10
53.9717615601
 20
275.2593335788
 10
42.8599436317
 20
274.9861756405
 10
31.8235955314
 20
274.1350108346
 10
21.683118386
 20
272.7871492442
  0
LWPOLYLINE
  5
2C1
100
AcDbEntity
  8
0
100
AcDbPolyline
 62
7
  6
CONTINUOUS
 90
4
 70
0
 10
86.2604354242
 20
272.7871492276
 10
76.1199572479
 20
274.1350109323
 10
65.0836080938
 20
274.9861757395
 10
53.9717733226
 20
275.2593335783
  0
LINE
  5
2C2
100
AcDbEntity
  8
0
100
AcDbLine
 62
7
  6
CONTINUOUS
 10
85.8477627836
 20
270.0513434897
 11
85.9115544328
 21
270.0416421669
  0
LINE
  5
2C3
100
AcDbEntity
  8
0
100
AcDbLine
 62
7
  6
CONTINUOUS
 10
85.8477627836
 20
270.0513434897
 11
85.9114341055
 21
270.0408615704
  0
LWPOLYLINE
  5
2C4
100
AcDbEntity
  8
0
100
AcDbPolyline
 62
7
  6
CONTINUOUS
 90
4
 70
0
 10
99.0888637177
 20
270.2897473863
 10
95.0690562493
 20
271.1711877205
 10
90.4801301265
 20
272.0661869985
 10
86.2604325487
 20
272.787148071
  0
LINE
  5
2C5
100
AcDbEntity
  8
0
100
AcDbLine
 62
7
  6
CONTINUOUS
 10
101.9701144768
 20
269.6270061378
 11
99.0888666439
 21
270.2897578365
  0
LWPOLYLINE
  5
2C6
100
AcDbEntity
  8
0
100
AcDbPolyline
 62
7
  6
CONTINUOUS
 90
4
 70
0
 10
103.0692295062
 20
269.3610675285
 10
102.8693143296
 20
269.4105937463
 10
102.2051679203
 20
269.5714471295
 10
101.9701034876
 20
269.6269787865
  0
LINE
  5
2C7
100
AcDbEntity
  8
0
100
AcDbLine
 62
7
  6
CONTINUOUS
 10
122.3013111045
 20
260.8494788076
 11
122.444931891
 21
260.7974019837
  0
LINE
  5
2C8
100
AcDbEntity
  8
0
100
AcDbLine
 62
7
  6
CONTINUOUS
 10
120.2518936194
 20
251.9991862845
 11
122.6735439735
 21
250.979995204
  0
LINE
  5
2C9
100
AcDbEntity
  8
0
100
AcDbLine
 62
7
  6
CONTINUOUS
 10
122.9384729551
 20
254.2958202824
 11
122.6628215045
 21
254.4118295968
  0
LINE
  5
2CA
100
AcDbEntity
  8
0
100
AcDbLine
 62
7
  6
CONTINUOUS
 10
122.7063815691
 20
254.4118306404
 11
122.9384729551
 21
254.2958202824
  0
LINE
  5
2CB
100
AcDbEntity
  8
0
100
AcDbLine
 62
7
  6
CONTINUOUS
 10
123.5062956822
 20
254.1620054809
 11
123.2742036099
 21
254.2780161603
  0
LINE
  5
2CC
100
AcDbEntity
  8
0
100
AcDbLine
 62
7
  6
CONTINUOUS
 10
122.9384736307
 20
254.2958202832
 11
123.4221746923
 21
253.9778886208
  0
LINE
  5
2CD
100
AcDbEntity
  8
0
100
AcDbLine
 62
7
  6
CONTINUOUS
 10
123.4221746923
 20
253.9778886208
 11
123.8991361611
 21
253.6404442079
  0
LINE
  5
2CE
100
AcDbEntity
  8
0
100
AcDbLine
 62
7
  6
CONTINUOUS
 10
123.8991361611
 20
253.6404442079
 11
124.3695138083
 21
253.2836248188
  0
LINE
  5
2CF
100
AcDbEntity
  8
0
100
AcDbLine
 62
7
  6
CONTINUOUS
 10
122.5953087782
 20
263.4434881119
 11
122.5956062427
 21
263.443381057
  0
LWPOLYLINE
  5
2D0
100
AcDbEntity
  8
0
100
AcDbPolyline
 62
7
  6
CONTINUOUS
 90
3
 70
0
 10
122.8106131554
 20
263.3573410629
 10
122.6622928905
 20
263.4187640804
 10
122.5956098764
 20
263.4433827286
  0
LINE
  5
2D1
100
AcDbEntity
  8
0
100
AcDbLine
 62
7
  6
CONTINUOUS
 10
123.0557022134
 20
263.2136958517
 11
123.0553284384
 21
263.2139204962
  0
LWPOLYLINE
  5
2D2
100
AcDbEntity
  8
0
100
AcDbPolyline
 62
7
  6
CONTINUOUS
 90
3
 70
0
 10
123.1783229551
 20
263.1271573994
 10
122.9908220547
 20
263.2627811795
 10
122.8106131554
 20
263.3573410629
  0
ARC
  5
2D3
100
AcDbEntity
  8
0
100
AcDbCircle
 62
7
  6
CONTINUOUS
 10
-1146.3394288682
 20
163.9272377856
 40
1270.8947703689
100
AcDbArc
 50
359.8246873702
 51
0.0566902119
  0
ARC
  5
2D4
100
AcDbEntity
  8
0
100
AcDbCircle
 62
7
  6
CONTINUOUS
 10
-184.6910765446
 20
165.1476798001
 40
310.8790418159
100
AcDbArc
 50
359.1456805877
 51
0.0067427844
  0
ARC
  5
2D5
100
AcDbEntity
  8
0
100
AcDbCircle
 62
7
  6
CONTINUOUS
 10
-134.1314565724
 20
165.1755828286
 40
256.9654525623
100
AcDbArc
 50
359.8078981169
 51
0.0020009681
  0
ARC
  5
2D6
100
AcDbEntity
  8
0
100
AcDbCircle
 62
7
  6
CONTINUOUS
 10
-116.7272026958
 20
165.0924210297
 40
239.5610248215
100
AcDbArc
 50
359.4073198038
 51
359.609309242
  0
ARC
  5
2D7
100
AcDbEntity
  8
0
100
AcDbCircle
 62
7
  6
CONTINUOUS
 10
-116.124049932
 20
165.0877491075
 40
238.9578542237
100
AcDbArc
 50
359.6094432858
 51
359.8144818008
  0
ARC
  5
2D8
100
AcDbEntity
  8
0
100
AcDbCircle
 62
7
  6
CONTINUOUS
 10
-110.0470209887
 20
165.0343714818
 40
232.8806003063
100
AcDbArc
 50
359.2000323796
 51
359.4046002787
  0
ARC
  5
2D9
100
AcDbEntity
  8
0
100
AcDbCircle
 62
7
  6
CONTINUOUS
 10
-9869.0444115524
 20
212.175000593
 40
9857.1941396992
100
AcDbArc
 50
359.7278955269
 51
0.2709569319
  0
ARC
  5
2DA
100
AcDbEntity
  8
0
100
AcDbCircle
 62
7
  6
CONTINUOUS
 10
-1341.3983658006
 20
287.6458300052
 40
1350.9019146048
100
AcDbArc
 50
357.5413348652
 51
357.8391789028
  0
ARC
  5
2DB
100
AcDbEntity
  8
0
100
AcDbCircle
 62
7
  6
CONTINUOUS
 10
-180.777772202
 20
300.6166528004
 40
337.9559969788
100
AcDbArc
 50
329.2075715134
 51
329.3642791581
  0
ARC
  5
2DC
100
AcDbEntity
  8
0
100
AcDbCircle
 62
7
  6
CONTINUOUS
 10
-111.6527168417
 20
259.6950774907
 40
257.6263740381
100
AcDbArc
 50
329.3610148851
 51
329.6474705877
  0
ARC
  5
2DD
100
AcDbEntity
  8
0
100
AcDbCircle
 62
7
  6
CONTINUOUS
 10
38.6946583519
 20
32.3581617934
 40
242.7847452729
100
AcDbArc
 50
74.7220487015
 51
75.7320431137
  0
ARC
  5
2DE
100
AcDbEntity
  8
0
100
AcDbCircle
 62
7
  6
CONTINUOUS
 10
53.7936487649
 20
34.598038229
 40
237.8239644203
100
AcDbArc
 50
89.9570860982
 51
92.5590328642
  0
ARC
  5
2DF
100
AcDbEntity
  8
0
100
AcDbCircle
 62
7
  6
CONTINUOUS
 10
53.8796104863
 20
46.5361720627
 40
228.6221979921
100
AcDbArc
 50
89.9769044652
 51
93.1016240278
  0
ARC
  5
2E0
100
AcDbEntity
  8
0
100
AcDbCircle
 62
7
  6
CONTINUOUS
 10
53.9204565753
 20
53.1832988814
 40
28.7589482355
100
AcDbArc
 50
304.9140870416
 51
324.8188886766
  0
ARC
  5
2E1
100
AcDbEntity
  8
0
100
AcDbCircle
 62
7
  6
CONTINUOUS
 10
12.7066935735
 20
35.1115154105
 40
15.7348743594
100
AcDbArc
 50
31.2168029208
 51
90.0005645596
  0
ARC
  5
2E2
100
AcDbEntity
  8
0
100
AcDbCircle
 62
7
  6
CONTINUOUS
 10
9.5218567184
 20
57.9579243089
 40
7.1121616435
100
AcDbArc
 50
204.7115194683
 51
269.9991657871
  0
ARC
  5
2E3
100
AcDbEntity
  8
0
100
AcDbCircle
 62
7
  6
CONTINUOUS
 10
35.7281584707
 20
29.0603587114
 40
1.9126748728
100
AcDbArc
 50
0.0228816196
 51
16.4078677384
  0
ARC
  5
2E4
100
AcDbEntity
  8
0
100
AcDbCircle
 62
7
  6
CONTINUOUS
 10
38.7854437
 20
21.1416526453
 40
1.5345369189
100
AcDbArc
 50
252.4579362987
 51
269.9382425512
  0
ARC
  5
2E5
100
AcDbEntity
  8
0
100
AcDbCircle
 62
7
  6
CONTINUOUS
 10
38.7769377041
 20
21.1281836478
 40
1.5165184454
100
AcDbArc
 50
179.9999930752
 51
252.4077841081
  0
ARC
  5
2E6
100
AcDbEntity
  8
0
100
AcDbCircle
 62
7
  6
CONTINUOUS
 10
38.8320962016
 20
21.1609909112
 40
1.1990170341
100
AcDbArc
 50
202.705065925
 51
213.5122323021
  0
ARC
  5
2E7
100
AcDbEntity
  8
0
100
AcDbCircle
 62
7
  6
CONTINUOUS
 10
38.812483145
 20
21.1475095461
 40
1.1752270436
100
AcDbArc
 50
213.4921622431
 51
219.0911430438
  0
ARC
  5
2E8
100
AcDbEntity
  8
0
100
AcDbCircle
 62
7
  6
CONTINUOUS
 10
38.7840550311
 20
21.1599292626
 40
1.1718351426
100
AcDbArc
 50
259.1195907739
 51
269.9861640714
  0
ARC
  5
2E9
100
AcDbEntity
  8
0
100
AcDbCircle
 62
7
  6
CONTINUOUS
 10
38.7992681445
 20
21.1543906068
 40
1.1704184136
100
AcDbArc
 50
225.385014242
 51
246.2843524264
  0
ARC
  5
2EA
100
AcDbEntity
  8
0
100
AcDbCircle
 62
7
  6
CONTINUOUS
 10
52.6547871306
 20
69.2306815433
 40
205.8947733286
100
AcDbArc
 50
93.102989287
 51
96.7411111118
  0
ARC
  5
2EB
100
AcDbEntity
  8
0
100
AcDbCircle
 62
7
  6
CONTINUOUS
 10
53.9717531664
 20
72.1817626661
 40
203.2
100
AcDbArc
 50
70.2623182999
 51
76.0177411776
  0
ARC
  5
2EC
100
AcDbEntity
  8
0
100
AcDbCircle
 62
7
  6
CONTINUOUS
 10
52.2640130358
 20
71.4878192236
 40
200.9027048859
100
AcDbArc
 50
92.5929623066
 51
94.3378232684
  0
ARC
  5
2ED
100
AcDbEntity
  8
0
100
AcDbCircle
 62
7
  6
CONTINUOUS
 10
51.5428836784
 20
79.0521582994
 40
196.0106826955
100
AcDbArc
 50
96.755335227
 51
98.002899825
  0
ARC
  5
2EE
100
AcDbEntity
  8
0
100
AcDbCircle
 62
7
  6
CONTINUOUS
 10
50.952347357
 20
82.6656592663
 40
189.5949042864
100
AcDbArc
 50
99.0397272613
 51
102.6559342843
  0
ARC
  5
2EF
100
AcDbEntity
  8
0
100
AcDbCircle
 62
7
  6
CONTINUOUS
 10
51.7203043218
 20
82.9930331547
 40
189.3896082185
100
AcDbArc
 50
94.4370734534
 51
98.9992192733
  0
ARC
  5
2F0
100
AcDbEntity
  8
0
100
AcDbCircle
 62
7
  6
CONTINUOUS
 10
50.0527903194
 20
87.9750054184
 40
184.2101723768
100
AcDbArc
 50
98.7494073578
 51
99.0228742554
  0
ARC
  5
2F1
100
AcDbEntity
  8
0
100
AcDbCircle
 62
7
  6
CONTINUOUS
 10
48.8704638641
 20
98.2318379366
 40
176.6457322243
100
AcDbArc
 50
98.0106400738
 51
98.8539220434
  0
ARC
  5
2F2
100
AcDbEntity
  8
0
100
AcDbCircle
 62
7
  6
CONTINUOUS
 10
48.9484506915
 20
99.0585747763
 40
175.8409732029
100
AcDbArc
 50
98.9204924084
 51
103.1786943518
  0
ARC
  5
2F3
100
AcDbEntity
  8
0
100
AcDbCircle
 62
7
  6
CONTINUOUS
 10
51.6385776513
 20
98.3578033563
 40
174.4779859742
100
AcDbArc
 50
105.4103732314
 51
106.7659382231
  0
ARC
  5
2F4
100
AcDbEntity
  8
0
100
AcDbCircle
 62
7
  6
CONTINUOUS
 10
-18.5951554554
 20
104.2042669504
 40
117.4249034807
100
AcDbArc
 50
324.8577224805
 51
328.7381572007
  0
ARC
  5
2F5
100
AcDbEntity
  8
0
100
AcDbCircle
 62
7
  6
CONTINUOUS
 10
49.4024387881
 20
76.2632579235
 40
50.9932031805
100
AcDbArc
 50
180.0475469978
 51
204.6631382481
  0
ARC
  5
2F6
100
AcDbEntity
  8
0
100
AcDbCircle
 62
7
  6
CONTINUOUS
 10
-2.416246834
 20
90.4697626661
 40
0.762
100
AcDbArc
 50
180.0
 51
270.0
  0
ARC
  5
2F7
100
AcDbEntity
  8
0
100
AcDbCircle
 62
7
  6
CONTINUOUS
 10
68.6226216211
 20
34.6706854417
 40
240.3891915507
100
AcDbArc
 50
104.2591258298
 51
105.2792356873
  0
ARC
  5
2F8
100
AcDbEntity
  8
0
100
AcDbCircle
 62
7
  6
CONTINUOUS
 10
54.1470363881
 20
34.4910586843
 40
237.930964731
100
AcDbArc
 50
87.4414272886
 51
90.0422056821
  0
ARC
  5
2F9
100
AcDbEntity
  8
0
100
AcDbCircle
 62
7
  6
CONTINUOUS
 10
54.0623609222
 20
46.4856273597
 40
228.6727600973
100
AcDbArc
 50
86.8986654034
 51
90.0226967351
  0
ARC
  5
2FA
100
AcDbEntity
  8
0
100
AcDbCircle
 62
7
  6
CONTINUOUS
 10
54.0230494304
 20
53.1832986052
 40
28.758947809
100
AcDbArc
 50
215.1811112498
 51
235.0859192006
  0
ARC
  5
2FB
100
AcDbEntity
  8
0
100
AcDbCircle
 62
7
  6
CONTINUOUS
 10
95.2368127473
 20
35.1115154649
 40
15.7348743058
100
AcDbArc
 50
89.9994362496
 51
148.782913363
  0
ARC
  5
2FC
100
AcDbEntity
  8
0
100
AcDbCircle
 62
7
  6
CONTINUOUS
 10
98.4216496145
 20
57.9579243081
 40
7.1121616427
100
AcDbArc
 50
270.0008342153
 51
335.2884805358
  0
ARC
  5
2FD
100
AcDbEntity
  8
0
100
AcDbCircle
 62
7
  6
CONTINUOUS
 10
72.2154071842
 20
29.0603434133
 40
1.9127342012
100
AcDbArc
 50
163.5921241649
 51
179.9766593424
  0
ARC
  5
2FE
100
AcDbEntity
  8
0
100
AcDbCircle
 62
7
  6
CONTINUOUS
 10
72.2119283765
 20
29.0690672247
 40
1.524684546
100
AcDbArc
 50
127.3401786592
 51
180.2975709639
  0
ARC
  5
2FF
100
AcDbEntity
  8
0
100
AcDbCircle
 62
7
  6
CONTINUOUS
 10
69.1618257277
 20
21.1301618443
 40
1.521662869
100
AcDbArc
 50
270.0408771123
 51
359.9603923478
  0
ARC
  5
300
100
AcDbEntity
  8
0
100
AcDbCircle
 62
7
  6
CONTINUOUS
 10
69.1336789382
 20
21.1721602898
 40
1.1908755824
100
AcDbArc
 50
292.6672900762
 51
303.5499542043
  0
ARC
  5
301
100
AcDbEntity
  8
0
100
AcDbCircle
 62
7
  6
CONTINUOUS
 10
69.1414211885
 20
21.162106695
 40
1.1782224672
100
AcDbArc
 50
303.5063744374
 51
309.0895704913
  0
ARC
  5
302
100
AcDbEntity
  8
0
100
AcDbCircle
 62
7
  6
CONTINUOUS
 10
69.131113279
 20
21.1313152845
 40
1.1715662227
100
AcDbArc
 50
349.1182295945
 51
359.9869898287
  0
ARC
  5
303
100
AcDbEntity
  8
0
100
AcDbCircle
 62
7
  6
CONTINUOUS
 10
69.1362063943
 20
21.146624641
 40
1.1706044965
100
AcDbArc
 50
315.3882601548
 51
336.3133522859
  0
ARC
  5
304
100
AcDbEntity
  8
0
100
AcDbCircle
 62
7
  6
CONTINUOUS
 10
55.5152014199
 20
71.4791758512
 40
203.6372390432
100
AcDbArc
 50
83.2669000063
 51
86.9263823528
  0
ARC
  5
305
100
AcDbEntity
  8
0
100
AcDbCircle
 62
7
  6
CONTINUOUS
 10
53.9718005402
 20
72.1817626661
 40
203.2
100
AcDbArc
 50
103.982258841
 51
109.7376816999
  0
ARC
  5
306
100
AcDbEntity
  8
0
100
AcDbCircle
 62
7
  6
CONTINUOUS
 10
55.6844051066
 20
71.5679984434
 40
200.8223819775
100
AcDbArc
 50
85.6618303661
 51
87.4073892255
  0
ARC
  5
307
100
AcDbEntity
  8
0
100
AcDbCircle
 62
7
  6
CONTINUOUS
 10
56.8608802597
 20
80.7734173609
 40
192.8213326596
100
AcDbArc
 50
106.7445052992
 51
108.8667734425
  0
ARC
  5
308
100
AcDbEntity
  8
0
100
AcDbCircle
 62
7
  6
CONTINUOUS
 10
56.7325587944
 20
82.2758903355
 40
192.7722685741
100
AcDbArc
 50
81.9240027818
 51
83.2499900374
  0
ARC
  5
309
100
AcDbEntity
  8
0
100
AcDbCircle
 62
7
  6
CONTINUOUS
 10
56.5849115229
 20
80.6289879035
 40
191.671115145
100
AcDbArc
 50
77.3589531981
 51
80.9359866183
  0
ARC
  5
30A
100
AcDbEntity
  8
0
100
AcDbCircle
 62
7
  6
CONTINUOUS
 10
57.2874175081
 20
86.2332968005
 40
188.7761592717
100
AcDbArc
 50
81.1710786059
 51
81.921997749
  0
ARC
  5
30B
100
AcDbEntity
  8
0
100
AcDbCircle
 62
7
  6
CONTINUOUS
 10
56.2955202398
 20
83.6084740298
 40
188.7704490432
100
AcDbArc
 50
80.9932274652
 51
85.5703449232
  0
ARC
  5
30C
100
AcDbEntity
  8
0
100
AcDbCircle
 62
7
  6
CONTINUOUS
 10
58.5446554561
 20
96.7543114405
 40
178.1872288553
100
AcDbArc
 50
76.8492029295
 51
81.051310424
  0
ARC
  5
30D
100
AcDbEntity
  8
0
100
AcDbCircle
 62
7
  6
CONTINUOUS
 10
57.9759987838
 20
104.1299500296
 40
168.4690718479
100
AcDbArc
 50
73.2119987373
 51
74.6159104776
  0
ARC
  5
30E
100
AcDbEntity
  8
0
100
AcDbCircle
 62
7
  6
CONTINUOUS
 10
126.5386860828
 20
104.2042836621
 40
117.4249329664
100
AcDbArc
 50
211.2618816553
 51
215.1422773642
  0
ARC
  5
30F
100
AcDbEntity
  8
0
100
AcDbCircle
 62
7
  6
CONTINUOUS
 10
58.5410675546
 20
76.2632579212
 40
50.9932031701
100
AcDbArc
 50
335.3368617493
 51
359.9524530048
  0
ARC
  5
310
100
AcDbEntity
  8
0
100
AcDbCircle
 62
7
  6
CONTINUOUS
 10
110.3597531664
 20
90.4697626661
 40
0.762
100
AcDbArc
 50
270.0
 51
360.0
  0
ARC
  5
311
100
AcDbEntity
  8
0
100
AcDbCircle
 62
7
  6
CONTINUOUS
 10
63.2149254906
 20
121.0513744037
 40
150.7091133724
100
AcDbArc
 50
81.0041019604
 51
81.3383638608
  0
ARC
  5
312
100
AcDbEntity
  8
0
100
AcDbCircle
 62
7
  6
CONTINUOUS
 10
53.9717526057
 20
151.4291262739
 40
92.2025843675
100
AcDbArc
 50
66.7221049666
 51
113.2778909137
  0
ARC
  5
313
100
AcDbEntity
  8
0
100
AcDbCircle
 62
7
  6
CONTINUOUS
 10
-2.289246834
 20
115.8697626661
 40
0.762
100
AcDbArc
 50
270.0
 51
336.7513381857
  0
ARC
  5
314
100
AcDbEntity
  8
0
100
AcDbCircle
 62
7
  6
CONTINUOUS
 10
-2.416246834
 20
114.3457626661
 40
0.762
100
AcDbArc
 50
90.0
 51
180.0
  0
ARC
  5
315
100
AcDbEntity
  8
0
100
AcDbCircle
 62
7
  6
CONTINUOUS
 10
-90.7775025892
 20
164.7735872349
 40
213.6093192611
100
AcDbArc
 50
358.9822907396
 51
359.1978128622
  0
ARC
  5
316
100
AcDbEntity
  8
0
100
AcDbCircle
 62
7
  6
CONTINUOUS
 10
-58.1879344856
 20
164.2049837751
 40
181.0147931363
100
AcDbArc
 50
358.7381764949
 51
358.9790229295
  0
ARC
  5
317
100
AcDbEntity
  8
0
100
AcDbCircle
 62
7
  6
CONTINUOUS
 10
-23.5604377606
 20
163.4427203338
 40
146.3789074868
100
AcDbArc
 50
358.1921227636
 51
358.7379963446
  0
ARC
  5
318
100
AcDbEntity
  8
0
100
AcDbCircle
 62
7
  6
CONTINUOUS
 10
-4.4483936564
 20
164.4627811544
 40
10.5032310726
100
AcDbArc
 50
244.9902708538
 51
249.7760477507
  0
ARC
  5
319
100
AcDbEntity
  8
0
100
AcDbCircle
 62
7
  6
CONTINUOUS
 10
-4.3647715962
 20
159.474426495
 40
10.4702628616
100
AcDbArc
 50
192.4939551352
 51
195.0639107405
  0
ARC
  5
31A
100
AcDbEntity
  8
0
100
AcDbCircle
 62
7
  6
CONTINUOUS
 10
-4.483741278
 20
164.3430269222
 40
10.3786437833
100
AcDbArc
 50
249.7306163597
 51
254.5737284298
  0
ARC
  5
31B
100
AcDbEntity
  8
0
100
AcDbCircle
 62
7
  6
CONTINUOUS
 10
-4.6187730033
 20
164.0938860907
 40
10.0967086074
100
AcDbArc
 50
240.0688232455
 51
244.9814487947
  0
ARC
  5
31C
100
AcDbEntity
  8
0
100
AcDbCircle
 62
7
  6
CONTINUOUS
 10
-4.6521033068
 20
164.0009410127
 40
9.9993569284
100
AcDbArc
 50
230.1153048529
 51
239.968601145
  0
ARC
  5
31D
100
AcDbEntity
  8
0
100
AcDbCircle
 62
7
  6
CONTINUOUS
 10
-4.5927710065
 20
163.8385443297
 40
9.8601500386
100
AcDbArc
 50
264.418324286
 51
269.4271858812
  0
ARC
  5
31E
100
AcDbEntity
  8
0
100
AcDbCircle
 62
7
  6
CONTINUOUS
 10
-4.6124703207
 20
163.8240181995
 40
9.8437935491
100
AcDbArc
 50
259.5316399652
 51
264.5242168551
  0
ARC
  5
31F
100
AcDbEntity
  8
0
100
AcDbCircle
 62
7
  6
CONTINUOUS
 10
-4.6289841099
 20
163.7679037265
 40
9.7856145137
100
AcDbArc
 50
254.4977791722
 51
259.5670243648
  0
ARC
  5
320
100
AcDbEntity
  8
0
100
AcDbCircle
 62
7
  6
CONTINUOUS
 10
-5.0424596535
 20
159.3273734101
 40
9.776810752
100
AcDbArc
 50
189.513753278
 51
192.5117591938
  0
ARC
  5
321
100
AcDbEntity
  8
0
100
AcDbCircle
 62
7
  6
CONTINUOUS
 10
-4.0836723477
 20
164.7217390058
 40
9.6487458385
100
AcDbArc
 50
220.2550854502
 51
230.2555713985
  0
ARC
  5
322
100
AcDbEntity
  8
0
100
AcDbCircle
 62
7
  6
CONTINUOUS
 10
-4.2943528173
 20
164.5420514389
 40
9.371847181
100
AcDbArc
 50
208.9688377945
 51
220.249013997
  0
ARC
  5
323
100
AcDbEntity
  8
0
100
AcDbCircle
 62
7
  6
CONTINUOUS
 10
-5.5633588848
 20
159.2423094978
 40
9.2490165209
100
AcDbArc
 50
186.1454251383
 51
189.527397634
  0
ARC
  5
324
100
AcDbEntity
  8
0
100
AcDbCircle
 62
7
  6
CONTINUOUS
 10
-4.5915383619
 20
164.3727411473
 40
9.029842789
100
AcDbArc
 50
196.2934108225
 51
208.9422533693
  0
ARC
  5
325
100
AcDbEntity
  8
0
100
AcDbCircle
 62
7
  6
CONTINUOUS
 10
-3.0643105203
 20
165.3773076308
 40
8.8972869648
100
AcDbArc
 50
180.0966056581
 51
269.1989705042
  0
ARC
  5
326
100
AcDbEntity
  8
0
100
AcDbCircle
 62
7
  6
CONTINUOUS
 10
-4.5694168988
 20
164.132411644
 40
8.8849692427
100
AcDbArc
 50
230.2342665302
 51
269.3150857604
  0
ARC
  5
327
100
AcDbEntity
  8
0
100
AcDbCircle
 62
7
  6
CONTINUOUS
 10
-6.0225075429
 20
159.1935960233
 40
8.7872915508
100
AcDbArc
 50
182.4058709283
 51
186.1501159324
  0
ARC
  5
328
100
AcDbEntity
  8
0
100
AcDbCircle
 62
7
  6
CONTINUOUS
 10
-4.8605716977
 20
164.287900606
 40
8.7478139632
100
AcDbArc
 50
189.26674329
 51
196.2544128769
  0
ARC
  5
329
100
AcDbEntity
  8
0
100
AcDbCircle
 62
7
  6
CONTINUOUS
 10
-5.0621023594
 20
164.2543746926
 40
8.5435147202
100
AcDbArc
 50
181.6796361949
 51
189.2624800807
  0
ARC
  5
32A
100
AcDbEntity
  8
0
100
AcDbCircle
 62
7
  6
CONTINUOUS
 10
-8.1630684551
 20
160.0765583852
 40
8.442810819
100
AcDbArc
 50
180.2581528101
 51
189.1281996327
  0
ARC
  5
32B
100
AcDbEntity
  8
0
100
AcDbCircle
 62
7
  6
CONTINUOUS
 10
-5.9216611168
 20
155.7391219486
 40
5.1424591627
100
AcDbArc
 50
179.9965911314
 51
201.2522942362
  0
ARC
  5
32C
100
AcDbEntity
  8
0
100
AcDbCircle
 62
7
  6
CONTINUOUS
 10
-16.9776316688
 20
163.0625689036
 40
3.0468125543
100
AcDbArc
 50
269.9454956163
 51
277.009914348
  0
ARC
  5
32D
100
AcDbEntity
  8
0
100
AcDbCircle
 62
7
  6
CONTINUOUS
 10
-16.1881110358
 20
156.3734904558
 40
1.7544630035
100
AcDbArc
 50
0.000257674
 51
12.50038739
  0
ARC
  5
32E
100
AcDbEntity
  8
0
100
AcDbCircle
 62
7
  6
CONTINUOUS
 10
-15.6413291681
 20
154.7614792502
 40
1.7306855387
100
AcDbArc
 50
11.7538972942
 51
21.289072
  0
ARC
  5
32F
100
AcDbEntity
  8
0
100
AcDbCircle
 62
7
  6
CONTINUOUS
 10
-4.3493094603
 20
186.9673644209
 40
113.8200626266
100
AcDbArc
 50
0.0001426453
 51
2.5760960449
  0
ARC
  5
330
100
AcDbEntity
  8
0
100
AcDbCircle
 62
7
  6
CONTINUOUS
 10
-1.935521133
 20
187.0231126123
 40
111.406220495
100
AcDbArc
 50
2.6032502535
 51
19.0767390764
  0
ARC
  5
331
100
AcDbEntity
  8
0
100
AcDbCircle
 62
7
  6
CONTINUOUS
 10
86.9748235688
 20
171.6637005614
 40
39.8593092013
100
AcDbArc
 50
334.0097495865
 51
335.0389894798
  0
ARC
  5
332
100
AcDbEntity
  8
0
100
AcDbCircle
 62
7
  6
CONTINUOUS
 10
20.9687255864
 20
171.6636983823
 40
39.8593041556
100
AcDbArc
 50
204.9610104414
 51
205.9902504631
  0
ARC
  5
333
100
AcDbEntity
  8
0
100
AcDbCircle
 62
7
  6
CONTINUOUS
 10
3.1870036411
 20
162.2517964735
 40
21.6097350855
100
AcDbArc
 50
199.1004716561
 51
201.2479429867
  0
ARC
  5
334
100
AcDbEntity
  8
0
100
AcDbCircle
 62
7
  6
CONTINUOUS
 10
-1.6486036086
 20
160.1988919449
 40
13.281381308
100
AcDbArc
 50
195.0365091724
 51
201.1070530489
  0
ARC
  5
335
100
AcDbEntity
  8
0
100
AcDbCircle
 62
7
  6
CONTINUOUS
 10
-1.7177824133
 20
181.7827536004
 40
111.2520355797
100
AcDbArc
 50
0.0000046683
 51
23.646565345
  0
ARC
  5
336
100
AcDbEntity
  8
0
100
AcDbCircle
 62
7
  6
CONTINUOUS
 10
-1.6093342842
 20
187.111255253
 40
111.0799409482
100
AcDbArc
 50
2.564569382
 51
19.1048520018
  0
ARC
  5
337
100
AcDbEntity
  8
0
100
AcDbCircle
 62
7
  6
CONTINUOUS
 10
-1.5800801189
 20
187.1086372213
 40
111.0508332967
100
AcDbArc
 50
0.0008378531
 51
2.5665941415
  0
ARC
  5
338
100
AcDbEntity
  8
0
100
AcDbCircle
 62
7
  6
CONTINUOUS
 10
47.2233895892
 20
193.1514920044
 40
48.4515349059
100
AcDbArc
 50
174.4706444023
 51
175.7066663658
  0
ARC
  5
339
100
AcDbEntity
  8
0
100
AcDbCircle
 62
7
  6
CONTINUOUS
 10
46.2458940128
 20
193.2271692956
 40
47.4711169766
100
AcDbArc
 50
175.7094266462
 51
176.1369791366
  0
ARC
  5
33A
100
AcDbEntity
  8
0
100
AcDbCircle
 62
7
  6
CONTINUOUS
 10
45.5198131295
 20
193.2753482459
 40
46.7434398981
100
AcDbArc
 50
176.1359402241
 51
176.9688432842
  0
ARC
  5
33B
100
AcDbEntity
  8
0
100
AcDbCircle
 62
7
  6
CONTINUOUS
 10
43.6345067971
 20
193.3660015549
 40
44.8559785271
100
AcDbArc
 50
176.9571345109
 51
179.5153850373
  0
ARC
  5
33C
100
AcDbEntity
  8
0
100
AcDbCircle
 62
7
  6
CONTINUOUS
 10
38.7149380939
 20
193.3918476968
 40
39.9362754746
100
AcDbArc
 50
179.5299572575
 51
181.8757920207
  0
ARC
  5
33D
100
AcDbEntity
  8
0
100
AcDbCircle
 62
7
  6
CONTINUOUS
 10
36.0028840057
 20
194.2437907926
 40
37.1779894178
100
AcDbArc
 50
174.4798848307
 51
176.0907211556
  0
ARC
  5
33E
100
AcDbEntity
  8
0
100
AcDbCircle
 62
7
  6
CONTINUOUS
 10
35.3372127119
 20
194.2915749768
 40
36.5106092702
100
AcDbArc
 50
176.0943142409
 51
176.5263998256
  0
ARC
  5
33F
100
AcDbEntity
  8
0
100
AcDbCircle
 62
7
  6
CONTINUOUS
 10
34.8191259168
 20
194.3218726905
 40
35.9916386145
100
AcDbArc
 50
176.5245721162
 51
177.7310672059
  0
ARC
  5
340
100
AcDbEntity
  8
0
100
AcDbCircle
 62
7
  6
CONTINUOUS
 10
34.2249323163
 20
194.3462930298
 40
35.3969440662
100
AcDbArc
 50
177.7324868884
 51
178.4392809863
  0
ARC
  5
341
100
AcDbEntity
  8
0
100
AcDbCircle
 62
7
  6
CONTINUOUS
 10
33.2092936157
 20
193.2190002181
 40
34.4279242875
100
AcDbArc
 50
181.8882085429
 51
183.9415015037
  0
ARC
  5
342
100
AcDbEntity
  8
0
100
AcDbCircle
 62
7
  6
CONTINUOUS
 10
32.4812734599
 20
194.3808517233
 40
33.6529933058
100
AcDbArc
 50
178.417241571
 51
181.1240303489
  0
ARC
  5
343
100
AcDbEntity
  8
0
100
AcDbCircle
 62
7
  6
CONTINUOUS
 10
28.03557025
 20
194.2766007859
 40
29.2061054637
100
AcDbArc
 50
181.0906399133
 51
184.7017084243
  0
ARC
  5
344
100
AcDbEntity
  8
0
100
AcDbCircle
 62
7
  6
CONTINUOUS
 10
110.3597531664
 20
114.3457626661
 40
0.762
100
AcDbArc
 50
0.0
 51
90.0
  0
ARC
  5
345
100
AcDbEntity
  8
0
100
AcDbCircle
 62
7
  6
CONTINUOUS
 10
110.2327531664
 20
115.8697626661
 40
0.762
100
AcDbArc
 50
203.2486618077
 51
270.0
  0
ARC
  5
346
100
AcDbEntity
  8
0
100
AcDbCircle
 62
7
  6
CONTINUOUS
 10
159.8889418439
 20
164.0806086582
 40
174.7710221832
100
AcDbArc
 50
181.0166749927
 51
181.2661251685
  0
ARC
  5
347
100
AcDbEntity
  8
0
100
AcDbCircle
 62
7
  6
CONTINUOUS
 10
131.5026026529
 20
163.4426849972
 40
146.3775182304
100
AcDbArc
 50
181.2620010643
 51
181.8078805829
  0
ARC
  5
348
100
AcDbEntity
  8
0
100
AcDbCircle
 62
7
  6
CONTINUOUS
 10
104.7566147607
 20
162.2517734725
 40
21.6096664529
100
AcDbArc
 50
338.7520556604
 51
340.8995223371
  0
ARC
  5
349
100
AcDbEntity
  8
0
100
AcDbCircle
 62
7
  6
CONTINUOUS
 10
109.5925716484
 20
160.1987568037
 40
13.2809461135
100
AcDbArc
 50
338.892767142
 51
344.9635888303
  0
ARC
  5
34A
100
AcDbEntity
  8
0
100
AcDbCircle
 62
7
  6
CONTINUOUS
 10
112.3736186155
 20
164.5101686242
 40
10.5540449879
100
AcDbArc
 50
285.4658601795
 51
290.228347933
  0
ARC
  5
34B
100
AcDbEntity
  8
0
100
AcDbCircle
 62
7
  6
CONTINUOUS
 10
112.3082509094
 20
159.4744444346
 40
10.4703393737
100
AcDbArc
 50
344.9360985969
 51
347.5060371372
  0
ARC
  5
34C
100
AcDbEntity
  8
0
100
AcDbCircle
 62
7
  6
CONTINUOUS
 10
112.4209811176
 20
164.3927771321
 40
10.4275184952
100
AcDbArc
 50
290.2071840755
 51
295.0277932569
  0
ARC
  5
34D
100
AcDbEntity
  8
0
100
AcDbCircle
 62
7
  6
CONTINUOUS
 10
112.5163485532
 20
164.2133168136
 40
10.2350999607
100
AcDbArc
 50
270.6635286305
 51
275.4889273524
  0
ARC
  5
34E
100
AcDbEntity
  8
0
100
AcDbCircle
 62
7
  6
CONTINUOUS
 10
112.5623267372
 20
164.0938860485
 40
10.0968018792
100
AcDbArc
 50
295.018569623
 51
299.9311767916
  0
ARC
  5
34F
100
AcDbEntity
  8
0
100
AcDbCircle
 62
7
  6
CONTINUOUS
 10
112.5151101583
 20
164.017238059
 40
10.041234161
100
AcDbArc
 50
280.4976107898
 51
285.4377798142
  0
ARC
  5
350
100
AcDbEntity
  8
0
100
AcDbCircle
 62
7
  6
CONTINUOUS
 10
112.5773442815
 20
164.02543628
 40
10.0299205912
100
AcDbArc
 50
300.0519334889
 51
309.8751101641
  0
ARC
  5
351
100
AcDbEntity
  8
0
100
AcDbCircle
 62
7
  6
CONTINUOUS
 10
112.5559390512
 20
163.8249359152
 40
9.8447131983
100
AcDbArc
 50
275.4757799846
 51
280.4678759322
  0
ARC
  5
352
100
AcDbEntity
  8
0
100
AcDbCircle
 62
7
  6
CONTINUOUS
 10
112.985920153
 20
159.3273915576
 40
9.7769056764
100
AcDbArc
 50
347.4882553656
 51
350.4862321167
  0
ARC
  5
353
100
AcDbEntity
  8
0
100
AcDbCircle
 62
7
  6
CONTINUOUS
 10
112.0274154512
 20
164.7215478088
 40
9.6484773245
100
AcDbArc
 50
309.7442812675
 51
319.7450542395
  0
ARC
  5
354
100
AcDbEntity
  8
0
100
AcDbCircle
 62
7
  6
CONTINUOUS
 10
112.2379780448
 20
164.5420039654
 40
9.3717614988
100
AcDbArc
 50
319.7509249687
 51
331.031204333
  0
ARC
  5
355
100
AcDbEntity
  8
0
100
AcDbCircle
 62
7
  6
CONTINUOUS
 10
113.5059186938
 20
159.2424462884
 40
9.2500193507
100
AcDbArc
 50
350.4727857455
 51
353.8543914822
  0
ARC
  5
356
100
AcDbEntity
  8
0
100
AcDbCircle
 62
7
  6
CONTINUOUS
 10
112.5330906101
 20
164.3735953805
 40
9.0320075541
100
AcDbArc
 50
331.059148652
 51
343.7048645016
  0
ARC
  5
357
100
AcDbEntity
  8
0
100
AcDbCircle
 62
7
  6
CONTINUOUS
 10
111.0078637779
 20
165.3773078982
 40
8.8972874101
100
AcDbArc
 50
270.8028060649
 51
359.9036312989
  0
ARC
  5
358
100
AcDbEntity
  8
0
100
AcDbCircle
 62
7
  6
CONTINUOUS
 10
112.5129659711
 20
164.1324154962
 40
8.8849692426
100
AcDbArc
 50
270.6849144396
 51
309.7657415255
  0
ARC
  5
359
100
AcDbEntity
  8
0
100
AcDbCircle
 62
7
  6
CONTINUOUS
 10
113.9658762545
 20
159.1936098616
 40
8.7874769635
100
AcDbArc
 50
353.8499235828
 51
357.5940895565
  0
ARC
  5
35A
100
AcDbEntity
  8
0
100
AcDbCircle
 62
7
  6
CONTINUOUS
 10
112.7977816676
 20
164.2893486768
 40
8.7543134736
100
AcDbArc
 50
343.7480215983
 51
350.7304129661
  0
ARC
  5
35B
100
AcDbEntity
  8
0
100
AcDbCircle
 62
7
  6
CONTINUOUS
 10
113.000593964
 20
164.2548186213
 40
8.5485876465
100
AcDbArc
 50
350.7398642528
 51
358.3186600791
  0
ARC
  5
35C
100
AcDbEntity
  8
0
100
AcDbCircle
 62
7
  6
CONTINUOUS
 10
116.0992410076
 20
160.0771768016
 40
8.4502038612
100
AcDbArc
 50
350.8757199863
 51
359.7380636764
  0
ARC
  5
35D
100
AcDbEntity
  8
0
100
AcDbCircle
 62
7
  6
CONTINUOUS
 10
113.8652148229
 20
155.7391219486
 40
5.142459164
100
AcDbArc
 50
338.7480692047
 51
359.9968798119
  0
ARC
  5
35E
100
AcDbEntity
  8
0
100
AcDbCircle
 62
7
  6
CONTINUOUS
 10
124.9211853868
 20
163.0625691005
 40
3.0468127529
100
AcDbArc
 50
262.9900881869
 51
270.0545041622
  0
ARC
  5
35F
100
AcDbEntity
  8
0
100
AcDbCircle
 62
7
  6
CONTINUOUS
 10
124.1316647671
 20
156.3734904554
 40
1.7544630284
100
AcDbArc
 50
167.4996291993
 51
179.9997423125
  0
ARC
  5
360
100
AcDbEntity
  8
0
100
AcDbCircle
 62
7
  6
CONTINUOUS
 10
123.5848830383
 20
154.7614792016
 40
1.730685709
100
AcDbArc
 50
158.7109284721
 51
168.246102233
  0
ARC
  5
361
100
AcDbEntity
  8
0
100
AcDbCircle
 62
7
  6
CONTINUOUS
 10
112.244624453
 20
186.9677994953
 40
113.7718711206
100
AcDbArc
 50
179.621502746
 51
179.9282549273
  0
ARC
  5
362
100
AcDbEntity
  8
0
100
AcDbCircle
 62
7
  6
CONTINUOUS
 10
111.5236987451
 20
186.9721587851
 40
113.0509323464
100
AcDbArc
 50
178.932933674
 51
179.6212983871
  0
ARC
  5
363
100
AcDbEntity
  8
0
100
AcDbCircle
 62
7
  6
CONTINUOUS
 10
110.7892499906
 20
186.9848850327
 40
112.3163739652
100
AcDbArc
 50
178.1898864311
 51
178.9324473121
  0
ARC
  5
364
100
AcDbEntity
  8
0
100
AcDbCircle
 62
7
  6
CONTINUOUS
 10
110.6523414324
 20
186.988465894
 40
112.1794206175
100
AcDbArc
 50
177.3979424538
 51
178.1895056754
  0
ARC
  5
365
100
AcDbEntity
  8
0
100
AcDbCircle
 62
7
  6
CONTINUOUS
 10
110.533556848
 20
186.9932233183
 40
112.0605473829
100
AcDbArc
 50
175.5188778708
 51
176.5598308212
  0
ARC
  5
366
100
AcDbEntity
  8
0
100
AcDbCircle
 62
7
  6
CONTINUOUS
 10
110.4930646482
 20
186.9963601254
 40
112.0199328106
100
AcDbArc
 50
174.4552354368
 51
174.9898370064
  0
ARC
  5
367
100
AcDbEntity
  8
0
100
AcDbCircle
 62
7
  6
CONTINUOUS
 10
110.4561810188
 20
186.9993057324
 40
111.9829328587
100
AcDbArc
 50
174.9896902736
 51
175.5188872846
  0
ARC
  5
368
100
AcDbEntity
  8
0
100
AcDbCircle
 62
7
  6
CONTINUOUS
 10
110.4351391656
 20
186.9987500645
 40
111.9619754103
100
AcDbArc
 50
176.5596318119
 51
177.3981537173
  0
ARC
  5
369
100
AcDbEntity
  8
0
100
AcDbCircle
 62
7
  6
CONTINUOUS
 10
109.8774728768
 20
187.0235904509
 40
111.4045950041
100
AcDbArc
 50
160.9233118795
 51
174.4385834886
  0
ARC
  5
36A
100
AcDbEntity
  8
0
100
AcDbCircle
 62
7
  6
CONTINUOUS
 10
109.6612887434
 20
181.7827535988
 40
111.2520355774
100
AcDbArc
 50
156.3534346551
 51
179.9999953306
  0
ARC
  5
36B
100
AcDbEntity
  8
0
100
AcDbCircle
 62
7
  6
CONTINUOUS
 10
109.6716842676
 20
187.1029577184
 40
111.1990369638
100
AcDbArc
 50
175.5390443055
 51
177.4348352237
  0
ARC
  5
36C
100
AcDbEntity
  8
0
100
AcDbCircle
 62
7
  6
CONTINUOUS
 10
109.6386416729
 20
187.105626718
 40
111.1658883843
100
AcDbArc
 50
175.0057082309
 51
175.5390274036
  0
ARC
  5
36D
100
AcDbEntity
  8
0
100
AcDbCircle
 62
7
  6
CONTINUOUS
 10
109.6233650285
 20
187.1051001813
 40
111.150670255
100
AcDbArc
 50
177.4348237588
 51
178.2345555218
  0
ARC
  5
36E
100
AcDbEntity
  8
0
100
AcDbCircle
 62
7
  6
CONTINUOUS
 10
109.5915395655
 20
187.1097515112
 40
111.1186060159
100
AcDbArc
 50
174.4670166973
 51
175.0057126593
  0
ARC
  5
36F
100
AcDbEntity
  8
0
100
AcDbCircle
 62
7
  6
CONTINUOUS
 10
109.5584135014
 20
187.1100318671
 40
111.0856072975
100
AcDbArc
 50
160.8955725117
 51
174.4655132366
  0
ARC
  5
370
100
AcDbEntity
  8
0
100
AcDbCircle
 62
7
  6
CONTINUOUS
 10
109.5402372942
 20
187.1076503444
 40
111.0675034143
100
AcDbArc
 50
178.2345493098
 51
178.9855159968
  0
ARC
  5
371
100
AcDbEntity
  8
0
100
AcDbCircle
 62
7
  6
CONTINUOUS
 10
109.4296170849
 20
187.1096061544
 40
110.9568659166
100
AcDbArc
 50
178.9855144244
 51
179.6859359465
  0
ARC
  5
372
100
AcDbEntity
  8
0
100
AcDbCircle
 62
7
  6
CONTINUOUS
 10
109.3337592425
 20
187.1102334021
 40
110.8610060761
100
AcDbArc
 50
179.6859885597
 51
179.999983502
  0
ARC
  5
373
100
AcDbEntity
  8
0
100
AcDbCircle
 62
7
  6
CONTINUOUS
 10
279.0691119866
 20
165.0473405951
 40
297.3135529284
100
AcDbArc
 50
179.9736130307
 51
180.8739635946
  0
ARC
  5
374
100
AcDbEntity
  8
0
100
AcDbCircle
 62
7
  6
CONTINUOUS
 10
242.0754962299
 20
165.1752928362
 40
256.9659385239
100
AcDbArc
 50
179.9979343763
 51
180.1920372743
  0
ARC
  5
375
100
AcDbEntity
  8
0
100
AcDbCircle
 62
7
  6
CONTINUOUS
 10
226.1727958019
 20
165.0983295808
 40
241.0630706249
100
AcDbArc
 50
180.1864132714
 51
180.3896616458
  0
ARC
  5
376
100
AcDbEntity
  8
0
100
AcDbCircle
 62
7
  6
CONTINUOUS
 10
224.6697959222
 20
165.0926950688
 40
239.560067228
100
AcDbArc
 50
180.3907587844
 51
180.592748111
  0
ARC
  5
377
100
AcDbEntity
  8
0
100
AcDbCircle
 62
7
  6
CONTINUOUS
 10
215.2811326162
 20
165.0013773078
 40
230.1709617107
100
AcDbArc
 50
180.594195604
 51
180.8011717378
  0
ARC
  5
378
100
AcDbEntity
  8
0
100
AcDbCircle
 62
7
  6
CONTINUOUS
 10
195.4813322134
 20
164.7221309318
 40
210.3691923857
100
AcDbArc
 50
180.8005273893
 51
181.0193690087
  0
ARC
  5
379
100
AcDbEntity
  8
0
100
AcDbCircle
 62
7
  6
CONTINUOUS
 10
1251.0268455868
 20
163.9242897007
 40
1267.6386395011
100
AcDbArc
 50
179.9430309202
 51
180.1756296982
  0
ARC
  5
37A
100
AcDbEntity
  8
0
100
AcDbCircle
 62
7
  6
CONTINUOUS
 10
-49.947396424
 20
223.6332358312
 40
186.1561167002
100
AcDbArc
 50
329.6284096142
 51
330.3780638273
  0
ARC
  5
37B
100
AcDbEntity
  8
0
100
AcDbCircle
 62
7
  6
CONTINUOUS
 10
157.8907541965
 20
223.6331425734
 40
186.1559004772
100
AcDbArc
 50
209.6219410359
 51
210.371596112
  0
ARC
  5
37C
100
AcDbEntity
  8
0
100
AcDbCircle
 62
7
  6
CONTINUOUS
 10
71.5522642927
 20
247.0821491877
 40
86.4427052338
100
AcDbArc
 50
179.0442812616
 51
180.0254176243
  0
ARC
  5
37D
100
AcDbEntity
  8
0
100
AcDbCircle
 62
7
  6
CONTINUOUS
 10
36.4292718553
 20
247.0824575488
 40
86.404722933
100
AcDbArc
 50
359.9743667251
 51
0.9559343923
  0
ARC
  5
37E
100
AcDbEntity
  8
0
100
AcDbCircle
 62
7
  6
CONTINUOUS
 10
58.6812360302
 20
247.4721675972
 40
64.1493566878
100
AcDbArc
 50
0.939485243
 51
1.5502043648
  0
ARC
  5
37F
100
AcDbEntity
  8
0
100
AcDbCircle
 62
7
  6
CONTINUOUS
 10
49.2617735216
 20
247.4721794223
 40
64.1488124127
100
AcDbArc
 50
178.449793047
 51
179.0605173483
  0
ARC
  5
380
100
AcDbEntity
  8
0
100
AcDbCircle
 62
7
  6
CONTINUOUS
 10
90.826548568
 20
220.2489408867
 40
50.6150591931
100
AcDbArc
 50
76.0026894727
 51
77.2831055989
  0
ARC
  5
381
100
AcDbEntity
  8
0
100
AcDbCircle
 62
7
  6
CONTINUOUS
 10
17.1169316847
 20
220.2492556205
 40
50.6147360105
100
AcDbArc
 50
102.7168917201
 51
103.9972021673
  0
ARC
  5
382
100
AcDbEntity
  8
0
100
AcDbCircle
 62
7
  6
CONTINUOUS
 10
5.2183691348
 20
212.5763457633
 40
46.4889098501
100
AcDbArc
 50
116.5513504102
 51
119.1419134209
  0
ARC
  5
383
100
AcDbEntity
  8
0
100
AcDbCircle
 62
7
  6
CONTINUOUS
 10
102.9768318932
 20
213.0526972418
 40
45.9503125424
100
AcDbArc
 50
60.8429015803
 51
63.4638346028
  0
ARC
  5
384
100
AcDbEntity
  8
0
100
AcDbCircle
 62
7
  6
CONTINUOUS
 10
27.7995476494
 20
248.0761188331
 40
42.678109584
100
AcDbArc
 50
177.6791099434
 51
178.4808085273
  0
ARC
  5
385
100
AcDbEntity
  8
0
100
AcDbCircle
 62
7
  6
CONTINUOUS
 10
80.1440887872
 20
248.0761216071
 40
42.678026809
100
AcDbArc
 50
1.5191906978
 51
2.3208908331
  0
ARC
  5
386
100
AcDbEntity
  8
0
100
AcDbCircle
 62
7
  6
CONTINUOUS
 10
85.3407968343
 20
217.2061865574
 40
19.0580763307
100
AcDbArc
 50
19.0749924231
 51
64.5798385699
  0
ARC
  5
387
100
AcDbEntity
  8
0
100
AcDbCircle
 62
7
  6
CONTINUOUS
 10
22.6027069464
 20
217.2061899332
 40
19.0580718171
100
AcDbArc
 50
115.4200622234
 51
160.9254823802
  0
ARC
  5
388
100
AcDbEntity
  8
0
100
AcDbCircle
 62
7
  6
CONTINUOUS
 10
22.5824308917
 20
217.2332964453
 40
19.0409657535
100
AcDbArc
 50
115.3768028528
 51
160.8887572618
  0
ARC
  5
389
100
AcDbEntity
  8
0
100
AcDbCircle
 62
7
  6
CONTINUOUS
 10
85.3610763346
 20
217.2332974816
 40
19.0409640028
100
AcDbArc
 50
19.1117072651
 51
64.6231015424
  0
ARC
  5
38A
100
AcDbEntity
  8
0
100
AcDbCircle
 62
7
  6
CONTINUOUS
 10
82.9864480888
 20
218.8714641196
 40
18.7837755529
100
AcDbArc
 50
23.6456362081
 51
66.7228796079
  0
ARC
  5
38B
100
AcDbEntity
  8
0
100
AcDbCircle
 62
7
  6
CONTINUOUS
 10
24.9570577636
 20
218.8714644424
 40
18.7837749829
100
AcDbArc
 50
113.2771023554
 51
156.3543641142
  0
ARC
  5
38C
100
AcDbEntity
  8
0
100
AcDbCircle
 62
7
  6
CONTINUOUS
 10
-98.3240193266
 20
254.9912304837
 40
121.3073993322
100
AcDbArc
 50
7.974780368
 51
8.2761278956
  0
ARC
  5
38D
100
AcDbEntity
  8
0
100
AcDbCircle
 62
7
  6
CONTINUOUS
 10
42.0689866514
 20
261.0029111309
 40
56.7288172032
100
AcDbArc
 50
179.0218956738
 51
179.2735017192
  0
ARC
  5
38E
100
AcDbEntity
  8
0
100
AcDbCircle
 62
7
  6
CONTINUOUS
 10
25.0022601431
 20
260.8046319923
 40
40.7736118204
100
AcDbArc
 50
179.2967481319
 51
180.0097485972
  0
ARC
  5
38F
100
AcDbEntity
  8
0
100
AcDbCircle
 62
7
  6
CONTINUOUS
 10
-17.1446068356
 20
250.9784297533
 40
2.4146175198
100
AcDbArc
 50
0.0374522408
 51
72.6850815524
  0
ARC
  5
390
100
AcDbEntity
  8
0
100
AcDbCircle
 62
7
  6
CONTINUOUS
 10
-14.7222776734
 20
251.9980129261
 40
2.413887878
100
AcDbArc
 50
0.0274587592
 51
89.9285417463
  0
ARC
  5
391
100
AcDbEntity
  8
0
100
AcDbCircle
 62
7
  6
CONTINUOUS
 10
-14.3552446351
 20
260.9869911616
 40
2.4128342025
100
AcDbArc
 50
359.9239812414
 51
95.301376921
  0
ARC
  5
392
100
AcDbEntity
  8
0
100
AcDbCircle
 62
7
  6
CONTINUOUS
 10
-14.0649643349
 20
260.8396586293
 40
2.1157101536
100
AcDbArc
 50
2.9266863017
 51
5.6336318653
  0
ARC
  5
393
100
AcDbEntity
  8
0
100
AcDbCircle
 62
7
  6
CONTINUOUS
 10
-13.2539696824
 20
260.8692848645
 40
1.309700664
100
AcDbArc
 50
8.7245692637
 51
10.0845639097
  0
ARC
  5
394
100
AcDbEntity
  8
0
100
AcDbCircle
 62
7
  6
CONTINUOUS
 10
-13.2403491147
 20
260.8713270726
 40
1.29592793
100
AcDbArc
 50
5.987198823
 51
8.7266673028
  0
ARC
  5
395
100
AcDbEntity
  8
0
100
AcDbCircle
 62
7
  6
CONTINUOUS
 10
-14.392872476
 20
262.1464711777
 40
1.2922742428
100
AcDbArc
 50
127.764426649
 51
130.2525640411
  0
ARC
  5
396
100
AcDbEntity
  8
0
100
AcDbCircle
 62
7
  6
CONTINUOUS
 10
-14.9939817704
 20
253.018701897
 40
1.2771189236
100
AcDbArc
 50
90.0420391056
 51
105.1102681229
  0
ARC
  5
397
100
AcDbEntity
  8
0
100
AcDbCircle
 62
7
  6
CONTINUOUS
 10
-16.8041743704
 20
252.0648006645
 40
1.2760442129
100
AcDbArc
 50
72.7592407244
 51
89.9516051159
  0
ARC
  5
398
100
AcDbEntity
  8
0
100
AcDbCircle
 62
7
  6
CONTINUOUS
 10
-14.4083196536
 20
262.164682287
 40
1.2686551764
100
AcDbArc
 50
99.98407084
 51
127.7871809083
  0
ARC
  5
399
100
AcDbEntity
  8
0
100
AcDbCircle
 62
7
  6
CONTINUOUS
 10
-14.9974292218
 20
253.0298866018
 40
1.2654223137
100
AcDbArc
 50
105.0915838115
 51
116.5060735036
  0
ARC
  5
39A
100
AcDbEntity
  8
0
100
AcDbCircle
 62
7
  6
CONTINUOUS
 10
-14.4608600506
 20
262.1346192144
 40
1.2601788449
100
AcDbArc
 50
95.3409501913
 51
121.0742471101
  0
ARC
  5
39B
100
AcDbEntity
  8
0
100
AcDbCircle
 62
7
  6
CONTINUOUS
 10
-12.9981537427
 20
260.7995127858
 40
1.0565809299
100
AcDbArc
 50
5.9801401508
 51
8.0614647036
  0
ARC
  5
39C
100
AcDbEntity
  8
0
100
AcDbCircle
 62
7
  6
CONTINUOUS
 10
-12.8764512269
 20
260.8101510619
 40
0.9278827673
100
AcDbArc
 50
4.7633692236
 51
8.7695443938
  0
ARC
  5
39D
100
AcDbEntity
  8
0
100
AcDbCircle
 62
7
  6
CONTINUOUS
 10
-12.0949878998
 20
261.6827399267
 40
0.7186958968
100
AcDbArc
 50
282.3181101806
 51
283.601973275
  0
ARC
  5
39E
100
AcDbEntity
  8
0
100
AcDbCircle
 62
7
  6
CONTINUOUS
 10
15.8767777182
 20
283.1131934676
 40
71.1634011189
100
AcDbArc
 50
350.1809095413
 51
350.5406144642
  0
ARC
  5
39F
100
AcDbEntity
  8
0
100
AcDbCircle
 62
7
  6
CONTINUOUS
 10
48.8442692725
 20
267.2076051491
 40
61.1148638813
100
AcDbArc
 50
185.571563984
 51
185.736818064
  0
ARC
  5
3A0
100
AcDbEntity
  8
0
100
AcDbCircle
 62
7
  6
CONTINUOUS
 10
42.1967994573
 20
274.6855768689
 40
20.586815522
100
AcDbArc
 50
187.9982176963
 51
189.1329178852
  0
ARC
  5
3A1
100
AcDbEntity
  8
0
100
AcDbCircle
 62
7
  6
CONTINUOUS
 10
220.6628731999
 20
260.318561965
 40
258.8618387862
100
AcDbArc
 50
210.3523192592
 51
210.637399713
  0
ARC
  5
3A2
100
AcDbEntity
  8
0
100
AcDbCircle
 62
7
  6
CONTINUOUS
 10
199.6637789013
 20
255.9340863001
 40
114.636663176
100
AcDbArc
 50
171.7151474988
 51
172.034015378
  0
ARC
  5
3A3
100
AcDbEntity
  8
0
100
AcDbCircle
 62
7
  6
CONTINUOUS
 10
65.8745832962
 20
261.0029113647
 40
56.7288009592
100
AcDbArc
 50
0.7264995921
 51
0.9781043701
  0
ARC
  5
3A4
100
AcDbEntity
  8
0
100
AcDbCircle
 62
7
  6
CONTINUOUS
 10
84.1505787632
 20
260.8119506245
 40
39.5643285994
100
AcDbArc
 50
359.9793548304
 51
0.7141484405
  0
ARC
  5
3A5
100
AcDbEntity
  8
0
100
AcDbCircle
 62
7
  6
CONTINUOUS
 10
125.0881605426
 20
250.9784297528
 40
2.4146175203
100
AcDbArc
 50
107.3149167522
 51
179.962547748
  0
ARC
  5
3A6
100
AcDbEntity
  8
0
100
AcDbCircle
 62
7
  6
CONTINUOUS
 10
122.6658019132
 20
251.9980423672
 40
2.4138519501
100
AcDbArc
 50
90.0707524153
 51
179.9732397087
  0
ARC
  5
3A7
100
AcDbEntity
  8
0
100
AcDbCircle
 62
7
  6
CONTINUOUS
 10
122.2987504234
 20
260.9870589906
 40
2.4127660918
100
AcDbArc
 50
84.6974245673
 51
180.0761272564
  0
ARC
  5
3A8
100
AcDbEntity
  8
0
100
AcDbCircle
 62
7
  6
CONTINUOUS
 10
121.1887111321
 20
260.8707189678
 40
1.3007734458
100
AcDbArc
 50
169.9096617832
 51
174.0082533207
  0
ARC
  5
3A9
100
AcDbEntity
  8
0
100
AcDbCircle
 62
7
  6
CONTINUOUS
 10
122.3368659215
 20
262.1467491351
 40
1.2917874447
100
AcDbArc
 50
49.7534673634
 51
52.2359656649
  0
ARC
  5
3AA
100
AcDbEntity
  8
0
100
AcDbCircle
 62
7
  6
CONTINUOUS
 10
124.747803788
 20
252.0643426882
 40
1.2766110909
100
AcDbArc
 50
90.0445202307
 51
107.2368946014
  0
ARC
  5
3AB
100
AcDbEntity
  8
0
100
AcDbCircle
 62
7
  6
CONTINUOUS
 10
122.3522306061
 20
262.1657245348
 40
1.2675685384
100
AcDbArc
 50
52.2150714474
 51
80.0236658354
  0
ARC
  5
3AC
100
AcDbEntity
  8
0
100
AcDbCircle
 62
7
  6
CONTINUOUS
 10
122.7079556366
 20
253.1481227171
 40
1.2637070214
100
AcDbArc
 50
63.3150279897
 51
90.0714024278
  0
ARC
  5
3AD
100
AcDbEntity
  8
0
100
AcDbCircle
 62
7
  6
CONTINUOUS
 10
122.4044201373
 20
262.1346760628
 40
1.2601554884
100
AcDbArc
 50
58.905208389
 51
84.6592310862
  0
ARC
  5
3AE
100
AcDbEntity
  8
0
100
AcDbCircle
 62
7
  6
CONTINUOUS
 10
122.9449509423
 20
253.0397300461
 40
1.2548437624
100
AcDbArc
 50
63.4554762128
 51
67.5014225678
  0
ARC
  5
3AF
100
AcDbEntity
  8
0
100
AcDbCircle
 62
7
  6
CONTINUOUS
 10
89.9800334788
 20
282.7592467131
 40
69.046870871
100
AcDbArc
 50
189.4539799064
 51
189.8248941019
  0
ARC
  5
3B0
100
AcDbEntity
  8
0
100
AcDbCircle
 62
7
  6
CONTINUOUS
 10
65.8821985486
 20
274.665561216
 40
20.4499017442
100
AcDbArc
 50
350.8612832343
 51
352.0043661832
  0
ARC
  5
3B1
100
AcDbEntity
  8
0
100
AcDbCircle
 62
7
  6
CONTINUOUS
 10
1451.0367038058
 20
287.7409184833
 40
1352.599288975
100
AcDbArc
 50
182.1621505189
 51
182.459607808
  0
ARC
  5
3B2
100
AcDbEntity
  8
0
100
AcDbCircle
 62
7
  6
CONTINUOUS
 10
287.6805828006
 20
299.9902010865
 40
336.7413103136
100
AcDbArc
 50
210.6342386428
 51
210.7915176809
  0
ARC
  5
3B3
100
AcDbEntity
  8
0
100
AcDbCircle
 62
7
  6
CONTINUOUS
 10
-18.2713658871
 20
386.216990733
 40
119.0801641748
100
AcDbArc
 50
282.4469546436
 51
283.1693541508
  0
ARC
  5
3B4
100
AcDbEntity
  8
0
100
AcDbCircle
 62
7
  6
CONTINUOUS
 10
125.7338891698
 20
384.1069125031
 40
116.9160115303
100
AcDbArc
 50
256.8245871275
 51
257.5603809505
  0
ARC
  5
3B5
100
AcDbEntity
  8
0
100
AcDbCircle
 62
7
  6
CONTINUOUS
 10
9660.9288406981
 20
212.1718353795
 40
9541.1386818891
100
AcDbArc
 50
179.7200484264
 51
180.2810991466
  0
SPLINE
  5
3B6
100
AcDbEntity
  8
0
100
AcDbSpline
 62
7
  6
CONTINUOUS
 70
0
 71
3
 72
9
 73
5
 74
0
 42
0.0000001
 43
0.0000001
 44
0.0000000001
 40
0.0
 40
0.0
 40
0.0
 40
0.0
 40
0.2530467054
 40
1.0
 40
1.0
 40
1.0
 40
1.0
 10
-1.591496868
 20
108.7945482596
 30
0.0
 10
-1.6117605528
 20
108.8352327123
 30
0.0
 10
-1.6899671705
 20
108.9969432018
 30
0.0
 10
-1.7614964987
 20
109.1618327527
 30
0.0
 10
-1.8120915276
 20
109.2860927986
 30
0.0
  0
SPLINE
  5
3B7
100
AcDbEntity
  8
0
100
AcDbSpline
 62
7
  6
CONTINUOUS
 70
0
 71
3
 72
9
 73
5
 74
0
 42
0.0000001
 43
0.0000001
 44
0.0000000001
 40
0.0
 40
0.0
 40
0.0
 40
0.0
 40
0.2567926628
 40
1.0
 40
1.0
 40
1.0
 40
1.0
 10
-1.8120915276
 20
109.2860927986
 30
0.0
 10
-1.843838228
 20
109.3640618506
 30
0.0
 10
-1.9630946332
 20
109.6694351856
 30
0.0
 10
-2.0636825877
 20
109.9822130885
 30
0.0
 10
-2.1258943363
 20
110.217782825
 30
0.0
  0
SPLINE
  5
3B8
100
AcDbEntity
  8
0
100
AcDbSpline
 62
7
  6
CONTINUOUS
 70
0
 71
3
 72
10
 73
6
 74
0
 42
0.0000001
 43
0.0000001
 44
0.0000000001
 40
0.0
 40
0.0
 40
0.0
 40
0.0
 40
0.3660267941
 40
0.6545647649
 40
1.0
 40
1.0
 40
1.0
 40
1.0
 10
-1.280325897
 20
187.8627542741
 30
0.0
 10
-1.315185669
 20
187.8546091498
 30
0.0
 10
-1.3779945797
 20
187.8366824187
 30
0.0
 10
-1.4645628169
 20
187.8015157575
 30
0.0
 10
-1.5245176204
 20
187.7534252027
 30
0.0
 10
-1.5247617049
 20
187.719641313
 30
0.0
  0
SPLINE
  5
3B9
100
AcDbEntity
  8
0
100
AcDbSpline
 62
7
  6
CONTINUOUS
 70
0
 71
3
 72
9
 73
5
 74
0
 42
0.0000001
 43
0.0000001
 44
0.0000000001
 40
0.0
 40
0.0
 40
0.0
 40
0.0
 40
0.2610549064
 40
1.0
 40
1.0
 40
1.0
 40
1.0
 10
-2.1258943363
 20
110.217782825
 30
0.0
 10
-2.1506705472
 20
110.3115999192
 30
0.0
 10
-2.2376411906
 20
110.6727285295
 30
0.0
 10
-2.2892225022
 20
111.0446506341
 30
0.0
 10
-2.289246834
 20
111.3193149128
 30
0.0
  0
SPLINE
  5
3BA
100
AcDbEntity
  8
0
100
AcDbSpline
 62
7
  6
CONTINUOUS
 70
0
 71
3
 72
9
 73
5
 74
0
 42
0.0000001
 43
0.0000001
 44
0.0000000001
 40
0.0
 40
0.0
 40
0.0
 40
0.0
 40
0.5304190682
 40
1.0
 40
1.0
 40
1.0
 40
1.0
 10
-2.289246834
 20
111.3193126419
 30
0.0
 10
-2.1490412951
 20
111.31931316
 30
0.0
 10
-1.8822591149
 20
111.3677205656
 30
0.0
 10
-1.6556205656
 20
111.5359706011
 30
0.0
 10
-1.5901337342
 20
111.641413924
 30
0.0
  0
SPLINE
  5
3BB
100
AcDbEntity
  8
0
100
AcDbSpline
 62
7
  6
CONTINUOUS
 70
0
 71
3
 72
10
 73
6
 74
0
 42
0.0000001
 43
0.0000001
 44
0.0000000001
 40
0.0
 40
0.0
 40
0.0
 40
0.0
 40
0.1082045359
 40
0.3136211944
 40
1.0
 40
1.0
 40
1.0
 40
1.0
 10
-1.3250656393
 20
193.7175545408
 30
0.0
 10
-1.3247173632
 20
193.7215545273
 30
0.0
 10
-1.3132643455
 20
193.7294575257
 30
0.0
 10
-1.2790986742
 20
193.7386882809
 30
0.0
 10
-1.2451488743
 20
193.7430566547
 30
0.0
 10
-1.2197883608
 20
193.7454081106
 30
0.0
  0
SPLINE
  5
3BC
100
AcDbEntity
  8
0
100
AcDbSpline
 62
7
  6
CONTINUOUS
 70
0
 71
3
 72
8
 73
4
 74
0
 42
0.0000001
 43
0.0000001
 44
0.0000000001
 40
0.0
 40
0.0
 40
0.0
 40
0.0
 40
1.0
 40
1.0
 40
1.0
 40
1.0
 10
-2.4162387203
 20
107.963193945
 30
0.0
 10
-2.4499868971
 20
107.963193945
 30
0.0
 10
-2.4840542242
 20
107.9549385059
 30
0.0
 10
-2.5152576393
 20
107.9420821331
 30
0.0
  0
SPLINE
  5
3BD
100
AcDbEntity
  8
0
100
AcDbSpline
 62
7
  6
CONTINUOUS
 70
0
 71
3
 72
11
 73
7
 74
0
 42
0.0000001
 43
0.0000001
 44
0.0000000001
 40
0.0
 40
0.0
 40
0.0
 40
0.0
 40
0.3322993292
 40
0.4861304302
 40
0.6257867193
 40
1.0
 40
1.0
 40
1.0
 40
1.0
 10
-2.416246834
 20
96.7076181237
 30
0.0
 10
-2.5137560617
 20
96.7076181237
 30
0.0
 10
-2.6564703644
 20
96.7186344528
 30
0.0
 10
-2.8367794502
 20
96.7626084349
 30
0.0
 10
-3.0156879648
 20
96.8243557002
 30
0.0
 10
-3.1782468341
 20
96.9398184244
 30
0.0
 10
-3.178246834
 20
97.0496267954
 30
0.0
  0
SPLINE
  5
3BE
100
AcDbEntity
  8
0
100
AcDbSpline
 62
7
  6
CONTINUOUS
 70
0
 71
3
 72
12
 73
8
 74
0
 42
0.0000001
 43
0.0000001
 44
0.0000000001
 40
0.0
 40
0.0
 40
0.0
 40
0.0
 40
0.1109904602
 40
0.2031177177
 40
0.3214707211
 40
0.6282690967
 40
1.0
 40
1.0
 40
1.0
 40
1.0
 10
-3.178246834
 20
107.7658985355
 30
0.0
 10
-3.1782468341
 20
107.7921277842
 30
0.0
 10
-3.1339373802
 20
107.8307883731
 30
0.0
 10
-3.0671990435
 20
107.8603672301
 30
0.0
 10
-2.9490817442
 20
107.8976333987
 30
0.0
 10
-2.7633839768
 20
107.927705119
 30
0.0
 10
-2.6030653793
 20
107.9394415624
 30
0.0
 10
-2.515257683
 20
107.9420821242
 30
0.0
  0
SPLINE
  5
3BF
100
AcDbEntity
  8
0
100
AcDbSpline
 62
7
  6
CONTINUOUS
 70
0
 71
3
 72
9
 73
5
 74
0
 42
0.0000001
 43
0.0000001
 44
0.0000000001
 40
0.0
 40
0.0
 40
0.0
 40
0.0
 40
0.4850454405
 40
1.0
 40
1.0
 40
1.0
 40
1.0
 10
109.3556253058
 20
192.083145814
 30
0.0
 10
109.3679329602
 20
191.7994776456
 30
0.0
 10
109.3279958314
 20
191.2107200721
 30
0.0
 10
109.1854310002
 20
190.6411509224
 30
0.0
 10
109.1000063307
 20
190.3520650836
 30
0.0
  0
SPLINE
  5
3C0
100
AcDbEntity
  8
0
100
AcDbSpline
 62
7
  6
CONTINUOUS
 70
0
 71
3
 72
9
 73
5
 74
0
 42
0.0000001
 43
0.0000001
 44
0.0000000001
 40
0.0
 40
0.0
 40
0.0
 40
0.0
 40
0.4691373367
 40
1.0
 40
1.0
 40
1.0
 40
1.0
 10
109.532079904
 20
111.643939768
 30
0.0
 10
109.5970664812
 20
111.5378050664
 30
0.0
 10
109.8241617971
 20
111.3680576969
 30
0.0
 10
110.0919289085
 20
111.3193139711
 30
0.0
 10
110.2327531664
 20
111.3193139732
 30
0.0
  0
SPLINE
  5
3C1
100
AcDbEntity
  8
0
100
AcDbSpline
 62
7
  6
CONTINUOUS
 70
0
 71
3
 72
9
 73
5
 74
0
 42
0.0000001
 43
0.0000001
 44
0.0000000001
 40
0.0
 40
0.0
 40
0.0
 40
0.0
 40
0.2393875901
 40
1.0
 40
1.0
 40
1.0
 40
1.0
 10
110.2327531664
 20
111.3193145217
 30
0.0
 10
110.2327494949
 20
111.2303541649
 30
0.0
 10
110.2149402421
 20
110.8587302422
 30
0.0
 10
110.1417237911
 20
110.4916507228
 30
0.0
 10
110.0695417386
 20
110.2183666292
 30
0.0
  0
SPLINE
  5
3C2
100
AcDbEntity
  8
0
100
AcDbSpline
 62
7
  6
CONTINUOUS
 70
0
 71
3
 72
9
 73
5
 74
0
 42
0.0000001
 43
0.0000001
 44
0.0000000001
 40
0.0
 40
0.0
 40
0.0
 40
0.0
 40
0.2431459148
 40
1.0
 40
1.0
 40
1.0
 40
1.0
 10
110.0695417386
 20
110.2183666292
 30
0.0
 10
110.0492014189
 20
110.1413573776
 30
0.0
 10
109.9599305942
 20
109.8261339347
 30
0.0
 10
109.8495443614
 20
109.5169994684
 30
0.0
 10
109.7561155586
 20
109.2873449968
 30
0.0
  0
SPLINE
  5
3C3
100
AcDbEntity
  8
0
100
AcDbSpline
 62
7
  6
CONTINUOUS
 70
0
 71
3
 72
9
 73
5
 74
0
 42
0.0000001
 43
0.0000001
 44
0.0000000001
 40
0.0
 40
0.0
 40
0.0
 40
0.0
 40
0.2469811047
 40
1.0
 40
1.0
 40
1.0
 40
1.0
 10
109.7561155586
 20
109.2873449968
 30
0.0
 10
109.7393486661
 20
109.2461308131
 30
0.0
 10
109.6701687181
 20
109.0797945354
 30
0.0
 10
109.5954208643
 20
108.9157192533
 30
0.0
 10
109.5349353059
 20
108.7942917559
 30
0.0
  0
SPLINE
  5
3C4
100
AcDbEntity
  8
0
100
AcDbSpline
 62
7
  6
CONTINUOUS
 70
0
 71
3
 72
12
 73
8
 74
0
 42
0.0000001
 43
0.0000001
 44
0.0000000001
 40
0.0
 40
0.0
 40
0.0
 40
0.0
 40
0.1110786917
 40
0.2031732716
 40
0.3215099015
 40
0.6283042997
 40
1.0
 40
1.0
 40
1.0
 40
1.0
 10
111.1217531664
 20
107.7658985362
 30
0.0
 10
111.1217531664
 20
107.7921513458
 30
0.0
 10
111.077502093
 20
107.8308971785
 30
0.0
 10
111.010686787
 20
107.8603970934
 30
0.0
 10
110.8925794163
 20
107.8976260223
 30
0.0
 10
110.7069461094
 20
107.9282067862
 30
0.0
 10
110.5465723401
 20
107.9394415182
 30
0.0
 10
110.458763896
 20
107.942082132
 30
0.0
  0
SPLINE
  5
3C5
100
AcDbEntity
  8
0
100
AcDbSpline
 62
7
  6
CONTINUOUS
 70
0
 71
3
 72
8
 73
4
 74
0
 42
0.0000001
 43
0.0000001
 44
0.0000000001
 40
0.0
 40
0.0
 40
0.0
 40
0.0
 40
1.0
 40
1.0
 40
1.0
 40
1.0
 10
110.4587640724
 20
107.942082098
 30
0.0
 10
110.4275630571
 20
107.9549374806
 30
0.0
 10
110.3934985911
 20
107.9631934115
 30
0.0
 10
110.3597530103
 20
107.9631934115
 30
0.0
  0
SPLINE
  5
3C6
100
AcDbEntity
  8
0
100
AcDbSpline
 62
7
  6
CONTINUOUS
 70
0
 71
3
 72
11
 73
7
 74
0
 42
0.0000001
 43
0.0000001
 44
0.0000000001
 40
0.0
 40
0.0
 40
0.0
 40
0.0
 40
0.3325432909
 40
0.4864940851
 40
0.6262023723
 40
1.0
 40
1.0
 40
1.0
 40
1.0
 10
110.3597531664
 20
96.7076181237
 30
0.0
 10
110.4573413641
 20
96.7076181237
 30
0.0
 10
110.6000805444
 20
96.7191144932
 30
0.0
 10
110.780718883
 20
96.7623344131
 30
0.0
 10
110.9593869848
 20
96.824670888
 30
0.0
 10
111.1217531664
 20
96.9399320955
 30
0.0
 10
111.1217531664
 20
97.0496267962
 30
0.0
  0
SPLINE
  5
3C7
100
AcDbEntity
  8
0
100
AcDbSpline
 62
7
  6
CONTINUOUS
 70
0
 71
3
 72
9
 73
5
 74
0
 42
0.0000001
 43
0.0000001
 44
0.0000000001
 40
0.0
 40
0.0
 40
0.0
 40
0.0
 40
0.4914317637
 40
1.0
 40
1.0
 40
1.0
 40
1.0
 10
109.3557266188
 20
192.0831528767
 30
0.0
 10
109.3717896425
 20
191.7212996413
 30
0.0
 10
109.3441120801
 20
190.9815852169
 30
0.0
 10
109.2224465625
 20
190.2534225974
 30
0.0
 10
109.1478491574
 20
189.8860804332
 30
0.0
  0
SPLINE
  5
3C8
100
AcDbEntity
  8
0
100
AcDbSpline
 62
7
  6
CONTINUOUS
 70
0
 71
3
 72
8
 73
4
 74
0
 42
0.0000001
 43
0.0000001
 44
0.0000000001
 40
0.0
 40
0.0
 40
0.0
 40
0.0
 40
1.0
 40
1.0
 40
1.0
 40
1.0
 10
37.7259982334
 20
20.6981851932
 30
0.0
 10
37.6654525935
 20
20.8429734636
 30
0.0
 10
37.6391432986
 20
20.9936274738
 30
0.0
 10
37.6397249711
 20
21.1310486056
 30
0.0
  0
SPLINE
  5
3C9
100
AcDbEntity
  8
0
100
AcDbSpline
 62
7
  6
CONTINUOUS
 70
0
 71
3
 72
13
 73
9
 74
0
 42
0.0000001
 43
0.0000001
 44
0.0000000001
 40
0.0
 40
0.0
 40
0.0
 40
0.0
 40
0.0836105234
 40
0.1721614568
 40
0.7736481992
 40
0.8802319287
 40
0.9881373028
 40
1.0
 40
1.0
 40
1.0
 40
1.0
 10
37.9772363395
 20
20.3212361698
 30
0.0
 10
37.9763541179
 20
20.3221065276
 30
0.0
 10
37.9737975826
 20
20.3246350882
 30
0.0
 10
37.9575787471
 20
20.3410354722
 30
0.0
 10
37.9332126502
 20
20.3673039419
 30
0.0
 10
37.9104808865
 20
20.3941290912
 30
0.0
 10
37.9038742425
 20
20.4021224702
 30
0.0
 10
37.9006570045
 20
20.406079001
 30
0.0
 10
37.9003421497
 20
20.4064667616
 30
0.0
  0
SPLINE
  5
3CA
100
AcDbEntity
  8
0
100
AcDbSpline
 62
7
  6
CONTINUOUS
 70
0
 71
3
 72
12
 73
8
 74
0
 42
0.0000001
 43
0.0000001
 44
0.0000000001
 40
0.0
 40
0.0
 40
0.0
 40
0.0
 40
0.5749191122
 40
0.8857660597
 40
0.9384517843
 40
0.9911375089
 40
1.0
 40
1.0
 40
1.0
 40
1.0
 10
38.5628606609
 20
20.0091642555
 30
0.0
 10
38.5295082611
 20
20.0156119384
 30
0.0
 10
38.4559206333
 20
20.0333871104
 30
0.0
 10
38.3780197013
 20
20.0620330142
 30
0.0
 10
38.3439630275
 20
20.0761149685
 30
0.0
 10
38.3340439662
 20
20.0803940739
 30
0.0
 10
38.3291647241
 20
20.0825285531
 30
0.0
 10
38.3285275106
 20
20.0828087489
 30
0.0
  0
SPLINE
  5
3CB
100
AcDbEntity
  8
0
100
AcDbSpline
 62
7
  6
CONTINUOUS
 70
0
 71
3
 72
8
 73
4
 74
0
 42
0.0000001
 43
0.0000001
 44
0.0000000001
 40
0.0
 40
0.0
 40
0.0
 40
0.0
 40
1.0
 40
1.0
 40
1.0
 40
1.0
 10
69.592617744
 20
20.0732700199
 30
0.0
 10
69.4480059041
 20
20.0127869191
 30
0.0
 10
69.2974499836
 20
19.9864196501
 30
0.0
 10
69.1597336488
 20
19.9869938519
 30
0.0
  0
SPLINE
  5
3CC
100
AcDbEntity
  8
0
100
AcDbSpline
 62
7
  6
CONTINUOUS
 70
0
 71
3
 72
13
 73
9
 74
0
 42
0.0000001
 43
0.0000001
 44
0.0000000001
 40
0.0
 40
0.0
 40
0.0
 40
0.0
 40
0.0832450943
 40
0.1718312748
 40
0.7735577452
 40
0.8801841658
 40
0.9881324189
 40
1.0
 40
1.0
 40
1.0
 40
1.0
 10
69.9695414513
 20
20.32450779
 30
0.0
 10
69.968671853
 20
20.3236262316
 30
0.0
 10
69.9661467066
 20
20.3210729753
 30
0.0
 10
69.9497559368
 20
20.3048615321
 30
0.0
 10
69.9234886716
 20
20.2804939608
 30
0.0
 10
69.8966647159
 20
20.2577599434
 30
0.0
 10
69.8886716627
 20
20.2511532341
 30
0.0
 10
69.8847153549
 20
20.2479354127
 30
0.0
 10
69.8843276088
 20
20.2476204868
 30
0.0
  0
SPLINE
  5
3CD
100
AcDbEntity
  8
0
100
AcDbSpline
 62
7
  6
CONTINUOUS
 70
0
 71
3
 72
12
 73
8
 74
0
 42
0.0000001
 43
0.0000001
 44
0.0000000001
 40
0.0
 40
0.0
 40
0.0
 40
0.0
 40
0.5748295756
 40
0.8857174698
 40
0.9384134848
 40
0.9911094998
 40
1.0
 40
1.0
 40
1.0
 40
1.0
 10
70.2816089167
 20
20.9101443488
 30
0.0
 10
70.2751935455
 20
20.8769641272
 30
0.0
 10
70.2574708724
 20
20.8035268835
 30
0.0
 10
70.2289161193
 20
20.725777017
 30
0.0
 10
70.2148741363
 20
20.6917709034
 30
0.0
 10
70.2106071287
 20
20.6818659721
 30
0.0
 10
70.2084772168
 20
20.6769903831
 30
0.0
 10
70.2081967634
 20
20.676351694
 30
0.0
  0
SPLINE
  5
3CE
100
AcDbEntity
  8
0
100
AcDbSpline
 62
7
  6
CONTINUOUS
 70
0
 71
3
 72
8
 73
4
 74
0
 42
0.0000001
 43
0.0000001
 44
0.0000000001
 40
0.0
 40
0.0
 40
0.0
 40
0.0
 40
1.0
 40
1.0
 40
1.0
 40
1.0
 10
53.9717768539
 20
272.66287372
 30
0.0
 10
57.5741891886
 20
272.6628315786
 30
0.0
 10
61.1815213557
 20
272.5186196741
 30
0.0
 10
64.7684354436
 20
272.1848203971
 30
0.0
  0
SPLINE
  5
3CF
100
AcDbEntity
  8
0
100
AcDbSpline
 62
7
  6
CONTINUOUS
 70
0
 71
3
 72
8
 73
4
 74
0
 42
0.0000001
 43
0.0000001
 44
0.0000000001
 40
0.0
 40
0.0
 40
0.0
 40
0.0
 40
1.0
 40
1.0
 40
1.0
 40
1.0
 10
77.8446809219
 20
269.6616561975
 30
0.0
 10
80.5123732402
 20
269.6579173391
 30
0.0
 10
83.1800673982
 20
269.6550545782
 30
0.0
 10
85.8477621632
 20
269.654093019
 30
0.0
  0
SPLINE
  5
3D0
100
AcDbEntity
  8
0
100
AcDbSpline
 62
7
  6
CONTINUOUS
 70
0
 71
3
 72
8
 73
4
 74
0
 42
0.0000001
 43
0.0000001
 44
0.0000000001
 40
0.0
 40
0.0
 40
0.0
 40
0.0
 40
1.0
 40
1.0
 40
1.0
 40
1.0
 10
53.9717768539
 20
272.66287372
 30
0.0
 10
50.369364518
 20
272.6628315448
 30
0.0
 10
46.7620322535
 20
272.5186207081
 30
0.0
 10
43.1751182607
 20
272.1848203972
 30
0.0
  0
SPLINE
  5
3D1
100
AcDbEntity
  8
0
100
AcDbSpline
 62
7
  6
CONTINUOUS
 70
0
 71
3
 72
8
 73
4
 74
0
 42
0.0000001
 43
0.0000001
 44
0.0000000001
 40
0.0
 40
0.0
 40
0.0
 40
0.0
 40
1.0
 40
1.0
 40
1.0
 40
1.0
 10
22.0957765119
 20
269.6540929194
 30
0.0
 10
24.7634826534
 20
269.6550544728
 30
0.0
 10
27.4311881878
 20
269.6579172684
 30
0.0
 10
30.0988918825
 20
269.6616561313
 30
0.0
  0
SPLINE
  5
3D2
100
AcDbEntity
  8
0
100
AcDbSpline
 62
7
  6
CONTINUOUS
 70
0
 71
3
 72
16
 73
12
 74
0
 42
0.0000001
 43
0.0000001
 44
0.0000000001
 40
0.0
 40
0.0
 40
0.0
 40
0.0
 40
0.1678992667
 40
0.3282947988
 40
0.4742205961
 40
0.5995969515
 40
0.6999772706
 40
0.7748879618
 40
0.8484450794
 40
0.9183337853
 40
1.0
 40
1.0
 40
1.0
 40
1.0
 10
-18.2444095803
 20
247.0436828411
 30
0.0
 10
-18.2444059367
 20
247.4011544837
 30
0.0
 10
-18.2418453297
 20
248.1001274381
 30
0.0
 10
-18.2304807881
 20
249.1097173241
 30
0.0
 10
-18.212077563
 20
250.0287063734
 30
0.0
 10
-18.1877637742
 20
250.8195813684
 30
0.0
 10
-18.1574781507
 20
251.4593685575
 30
0.0
 10
-18.1196727946
 20
251.9870643756
 30
0.0
 10
-18.0474785535
 20
252.4504995992
 30
0.0
 10
-17.820222427
 20
252.8831517861
 30
0.0
 10
-17.5667434282
 20
253.0999973458
 30
0.0
 10
-17.4144011092
 20
253.1838070477
 30
0.0
  0
SPLINE
  5
3D3
100
AcDbEntity
  8
0
100
AcDbSpline
 62
7
  6
CONTINUOUS
 70
0
 71
3
 72
16
 73
12
 74
0
 42
0.0000001
 43
0.0000001
 44
0.0000000001
 40
0.0
 40
0.0
 40
0.0
 40
0.0
 40
0.0817112013
 40
0.1514266477
 40
0.2251607749
 40
0.3000739745
 40
0.4004560401
 40
0.5258207993
 40
0.6717284795
 40
0.832121035
 40
1.0
 40
1.0
 40
1.0
 40
1.0
 10
125.3581158235
 20
253.1837184564
 30
0.0
 10
125.5105212591
 20
253.099845637
 30
0.0
 10
125.7634343686
 20
252.8827614388
 30
0.0
 10
125.9907977251
 20
252.4502415805
 30
0.0
 10
126.0633545857
 20
251.9868298292
 30
0.0
 10
126.1010243036
 20
251.458771489
 30
0.0
 10
126.1313494772
 20
250.8190392111
 30
0.0
 10
126.1556376013
 20
250.0282683328
 30
0.0
 10
126.1740409618
 20
249.1094022412
 30
0.0
 10
126.1853982129
 20
248.0999586883
 30
0.0
 10
126.1879596805
 20
247.4010757218
 30
0.0
 10
126.1879632875
 20
247.0436679603
 30
0.0
  0
SPLINE
  5
3D4
100
AcDbEntity
  8
0
100
AcDbSpline
 62
7
  6
CONTINUOUS
 70
0
 71
3
 72
8
 73
4
 74
0
 42
0.0000001
 43
0.0000001
 44
0.0000000001
 40
0.0
 40
0.0
 40
0.0
 40
0.0
 40
1.0
 40
1.0
 40
1.0
 40
1.0
 10
-11.9469464268
 20
260.944690516
 30
0.0
 10
-11.9468536944
 20
260.9596302535
 30
0.0
 10
-11.9453501475
 20
260.9745280451
 30
0.0
 10
-11.9446332807
 20
260.9894508618
 30
0.0
  0
SPLINE
  5
3D5
100
AcDbEntity
  8
0
100
AcDbSpline
 62
7
  6
CONTINUOUS
 70
0
 71
3
 72
8
 73
4
 74
0
 42
0.0000001
 43
0.0000001
 44
0.0000000001
 40
0.0
 40
0.0
 40
0.0
 40
0.0
 40
1.0
 40
1.0
 40
1.0
 40
1.0
 10
-11.9446332807
 20
260.9894508618
 30
0.0
 10
-11.9437043009
 20
261.0087891767
 30
0.0
 10
-11.9444591716
 20
261.0281724438
 30
0.0
 10
-11.9445798266
 20
261.0475326832
 30
0.0
  0
SPLINE
  5
3D6
100
AcDbEntity
  8
0
100
AcDbSpline
 62
7
  6
CONTINUOUS
 70
0
 71
3
 72
9
 73
5
 74
0
 42
0.0000001
 43
0.0000001
 44
0.0000000001
 40
0.0
 40
0.0
 40
0.0
 40
0.0
 40
0.7942857611
 40
1.0
 40
1.0
 40
1.0
 40
1.0
 10
-11.9445798266
 20
261.0475326832
 30
0.0
 10
-11.9446480149
 20
261.0584741487
 30
0.0
 10
-11.9445559423
 20
261.0722534218
 30
0.0
 10
-11.9440740179
 20
261.0860209783
 30
0.0
 10
-11.9439478873
 20
261.0888519849
 30
0.0
  0
SPLINE
  5
3D7
100
AcDbEntity
  8
0
100
AcDbSpline
 62
7
  6
CONTINUOUS
 70
0
 71
3
 72
11
 73
7
 74
0
 42
0.0000001
 43
0.0000001
 44
0.0000000001
 40
0.0
 40
0.0
 40
0.0
 40
0.0
 40
0.1150975495
 40
0.5431421065
 40
0.8714097205
 40
1.0
 40
1.0
 40
1.0
 40
1.0
 10
-11.9469464268
 20
260.944690516
 30
0.0
 10
-11.9479713385
 20
260.9423478237
 30
0.0
 10
-11.9536767835
 20
260.9267548247
 30
0.0
 10
-11.9485456607
 20
260.9699606663
 30
0.0
 10
-11.9473393205
 20
260.9818913241
 30
0.0
 10
-11.9485017353
 20
260.9946984255
 30
0.0
 10
-11.9462058314
 20
260.9963985341
 30
0.0
  0
SPLINE
  5
3D8
100
AcDbEntity
  8
0
100
AcDbSpline
 62
7
  6
CONTINUOUS
 70
0
 71
3
 72
10
 73
6
 74
0
 42
0.0000001
 43
0.0000001
 44
0.0000000001
 40
0.0
 40
0.0
 40
0.0
 40
0.0
 40
0.4658461647
 40
0.7038045526
 40
1.0
 40
1.0
 40
1.0
 40
1.0
 10
-11.9462058314
 20
260.9963985341
 30
0.0
 10
-11.9412962438
 20
261.0000340662
 30
0.0
 10
-11.9448977045
 20
260.9819753269
 30
0.0
 10
-11.9425328655
 20
260.963151759
 30
0.0
 10
-11.9419838
 20
260.9766466678
 30
0.0
 10
-11.9416631964
 20
260.9805177193
 30
0.0
  0
SPLINE
  5
3D9
100
AcDbEntity
  8
0
100
AcDbSpline
 62
7
  6
CONTINUOUS
 70
0
 71
3
 72
10
 73
6
 74
0
 42
0.0000001
 43
0.0000001
 44
0.0000000001
 40
0.0
 40
0.0
 40
0.0
 40
0.0
 40
0.2697893262
 40
0.6520472442
 40
1.0
 40
1.0
 40
1.0
 40
1.0
 10
106.6351416986
 20
265.4188708521
 30
0.0
 10
107.2496036479
 20
265.2317902207
 30
0.0
 10
108.7342594101
 20
264.7781761031
 30
0.0
 10
111.0017065904
 20
264.052154874
 30
0.0
 10
112.6517939516
 20
263.5046318315
 30
0.0
 10
113.4351038075
 20
263.2350517275
 30
0.0
  0
SPLINE
  5
3DA
100
AcDbEntity
  8
0
100
AcDbSpline
 62
7
  6
CONTINUOUS
 70
0
 71
3
 72
9
 73
5
 74
0
 42
0.0000001
 43
0.0000001
 44
0.0000000001
 40
0.0
 40
0.0
 40
0.0
 40
0.0
 40
0.562768691
 40
1.0
 40
1.0
 40
1.0
 40
1.0
 10
113.4351038075
 20
263.2350517275
 30
0.0
 10
114.2907733236
 20
262.9401538304
 30
0.0
 10
115.8089853758
 20
262.4096620542
 30
0.0
 10
117.3252226269
 20
261.8734110745
 30
0.0
 10
117.985771212
 20
261.6323285469
 30
0.0
  0
SPLINE
  5
3DB
100
AcDbEntity
  8
0
100
AcDbSpline
 62
7
  6
CONTINUOUS
 70
0
 71
3
 72
11
 73
7
 74
0
 42
0.0000001
 43
0.0000001
 44
0.0000000001
 40
0.0
 40
0.0
 40
0.0
 40
0.0
 40
0.3857406214
 40
0.6818811651
 40
0.8870283934
 40
1.0
 40
1.0
 40
1.0
 40
1.0
 10
117.985771212
 20
261.6323285469
 30
0.0
 10
118.2285868145
 20
261.544401466
 30
0.0
 10
118.6582672758
 20
261.390364392
 30
0.0
 10
119.2182558884
 20
261.1922017871
 30
0.0
 10
119.6079776066
 20
261.0618946696
 30
0.0
 10
119.8111601248
 20
260.9965063358
 30
0.0
 10
119.8850828353
 20
260.9805173213
 30
0.0
  0
SPLINE
  5
3DC
100
AcDbEntity
  8
0
100
AcDbSpline
 62
7
  6
CONTINUOUS
 70
0
 71
3
 72
9
 73
5
 74
0
 42
0.0000001
 43
0.0000001
 44
0.0000000001
 40
0.0
 40
0.0
 40
0.0
 40
0.0
 40
0.0996717695
 40
1.0
 40
1.0
 40
1.0
 40
1.0
 10
119.8850828353
 20
260.9805173213
 30
0.0
 10
119.885158317
 20
260.9810925785
 30
0.0
 10
119.8920184144
 20
260.9847186403
 30
0.0
 10
119.8871009514
 20
260.9711754221
 30
0.0
 10
119.887037305
 20
260.9659350083
 30
0.0
  0
SPLINE
  5
3DD
100
AcDbEntity
  8
0
100
AcDbSpline
 62
7
  6
CONTINUOUS
 70
0
 71
3
 72
8
 73
4
 74
0
 42
0.0000001
 43
0.0000001
 44
0.0000000001
 40
0.0
 40
0.0
 40
0.0
 40
0.0
 40
1.0
 40
1.0
 40
1.0
 40
1.0
 10
119.8876148716
 20
260.9640987488
 30
0.0
 10
119.8888499046
 20
260.946004122
 30
0.0
 10
119.8897614366
 20
260.9278886614
 30
0.0
 10
119.8907292914
 20
260.9097777784
 30
0.0
  0
SPLINE
  5
3DE
100
AcDbEntity
  8
0
100
AcDbSpline
 62
7
  6
CONTINUOUS
 70
0
 71
3
 72
9
 73
5
 74
0
 42
0.0000001
 43
0.0000001
 44
0.0000000001
 40
0.0
 40
0.0
 40
0.0
 40
0.0
 40
0.2514244406
 40
1.0
 40
1.0
 40
1.0
 40
1.0
 10
119.8927876004
 20
260.75554838
 30
0.0
 10
119.893035959
 20
260.5912219127
 30
0.0
 10
119.894945517
 20
259.9376409875
 30
0.0
 10
119.9000703761
 20
259.2840752639
 30
0.0
 10
119.9040707465
 20
258.7948356122
 30
0.0
  0
SPLINE
  5
3DF
100
AcDbEntity
  8
0
100
AcDbSpline
 62
7
  6
CONTINUOUS
 70
0
 71
3
 72
11
 73
7
 74
0
 42
0.0000001
 43
0.0000001
 44
0.0000000001
 40
0.0
 40
0.0
 40
0.0
 40
0.0
 40
0.1835599373
 40
0.4131188624
 40
0.6868354453
 40
1.0
 40
1.0
 40
1.0
 40
1.0
 10
118.2258600462
 20
165.0496952274
 30
0.0
 10
117.8567559447
 20
165.0012968665
 30
0.0
 10
117.0123207207
 20
165.0089152136
 30
0.0
 10
115.6327480493
 20
165.2091579929
 30
0.0
 10
114.0180149638
 20
165.5827886988
 30
0.0
 10
112.8748356887
 20
165.9153844611
 30
0.0
 10
112.2684489707
 20
166.1042049508
 30
0.0
  0
SPLINE
  5
3E0
100
AcDbEntity
  8
0
100
AcDbSpline
 62
7
  6
CONTINUOUS
 70
0
 71
3
 72
9
 73
5
 74
0
 42
0.0000001
 43
0.0000001
 44
0.0000000001
 40
0.0
 40
0.0
 40
0.0
 40
0.0
 40
0.2390799421
 40
1.0
 40
1.0
 40
1.0
 40
1.0
 10
112.2684566246
 20
166.1042378077
 30
0.0
 10
112.049325015
 20
166.1724723121
 30
0.0
 10
111.1348225538
 20
166.4644895202
 30
0.0
 10
110.2279400553
 20
166.7800379777
 30
0.0
 10
109.5412631786
 20
167.0291302542
 30
0.0
  0
SPLINE
  5
3E1
100
AcDbEntity
  8
0
100
AcDbSpline
 62
7
  6
CONTINUOUS
 70
0
 71
3
 72
8
 73
4
 74
0
 42
0.0000001
 43
0.0000001
 44
0.0000000001
 40
0.0
 40
0.0
 40
0.0
 40
0.0
 40
1.0
 40
1.0
 40
1.0
 40
1.0
 10
98.5306657066
 20
267.6540399336
 30
0.0
 10
98.552846191
 20
266.4457084424
 30
0.0
 10
98.5739241598
 20
265.2373176919
 30
0.0
 10
98.6074815365
 20
264.0292486256
 30
0.0
  0
SPLINE
  5
3E2
100
AcDbEntity
  8
0
100
AcDbSpline
 62
7
  6
CONTINUOUS
 70
0
 71
3
 72
11
 73
7
 74
0
 42
0.0000001
 43
0.0000001
 44
0.0000000001
 40
0.0
 40
0.0
 40
0.0
 40
0.0
 40
0.2499779272
 40
0.5000369752
 40
0.750002654
 40
1.0
 40
1.0
 40
1.0
 40
1.0
 10
98.6074824483
 20
264.0292545159
 30
0.0
 10
97.6337252171
 20
264.4007256631
 30
0.0
 10
95.6466779269
 20
265.0372119757
 30
0.0
 10
92.6562078848
 20
265.9486813904
 30
0.0
 10
89.6840437782
 20
266.9220610522
 30
0.0
 10
87.7191659379
 20
267.618163312
 30
0.0
 10
86.7385874869
 20
267.9714742536
 30
0.0
  0
SPLINE
  5
3E3
100
AcDbEntity
  8
0
100
AcDbSpline
 62
7
  6
CONTINUOUS
 70
0
 71
3
 72
11
 73
7
 74
0
 42
0.0000001
 43
0.0000001
 44
0.0000000001
 40
0.0
 40
0.0
 40
0.0
 40
0.0
 40
0.2220094178
 40
0.4606536495
 40
0.7222347734
 40
1.0
 40
1.0
 40
1.0
 40
1.0
 10
-15.870677661
 20
254.8505340768
 30
0.0
 10
-15.8648197796
 20
254.9785196724
 30
0.0
 10
-15.7834870859
 20
255.2443968432
 30
0.0
 10
-15.4883372235
 20
255.555219251
 30
0.0
 10
-15.0750467076
 20
255.750158555
 30
0.0
 10
-14.761740089
 20
255.7941872873
 30
0.0
 10
-14.6014448981
 20
255.7937660643
 30
0.0
  0
SPLINE
  5
3E4
100
AcDbEntity
  8
0
100
AcDbSpline
 62
7
  6
CONTINUOUS
 70
0
 71
3
 72
9
 73
5
 74
0
 42
0.0000001
 43
0.0000001
 44
0.0000000001
 40
0.0
 40
0.0
 40
0.0
 40
0.0
 40
0.1468568094
 40
1.0
 40
1.0
 40
1.0
 40
1.0
 10
86.2616599256
 20
272.7726534674
 30
0.0
 10
86.2611714527
 20
272.7568796655
 30
0.0
 10
86.2521946005
 20
272.6497202722
 30
0.0
 10
86.2366615374
 20
272.5433354253
 30
0.0
 10
86.2234732879
 20
272.4526094329
 30
0.0
  0
SPLINE
  5
3E5
100
AcDbEntity
  8
0
100
AcDbSpline
 62
7
  6
CONTINUOUS
 70
0
 71
3
 72
9
 73
5
 74
0
 42
0.0000001
 43
0.0000001
 44
0.0000000001
 40
0.0
 40
0.0
 40
0.0
 40
0.0
 40
0.2471087727
 40
1.0
 40
1.0
 40
1.0
 40
1.0
 10
85.9977155287
 20
270.9771422403
 30
0.0
 10
85.9847061975
 20
270.9009943933
 30
0.0
 10
85.9328489662
 20
270.5927040184
 30
0.0
 10
85.8839131943
 20
270.2839298019
 30
0.0
 10
85.847762771
 20
270.0513537366
 30
0.0
  0
SPLINE
  5
3E6
100
AcDbEntity
  8
0
100
AcDbSpline
 62
7
  6
CONTINUOUS
 70
0
 71
3
 72
11
 73
7
 74
0
 42
0.0000001
 43
0.0000001
 44
0.0000000001
 40
0.0
 40
0.0
 40
0.0
 40
0.0
 40
0.250013893
 40
0.5000608914
 40
0.7500201266
 40
1.0
 40
1.0
 40
1.0
 40
1.0
 10
43.1751182607
 20
272.1848203972
 30
0.0
 10
42.0680133968
 20
272.0818815221
 30
0.0
 10
39.8570798346
 20
271.8360609365
 30
0.0
 10
36.5606116711
 20
271.3166273249
 30
0.0
 10
33.3021433791
 20
270.5928109256
 30
0.0
 10
31.1646149888
 20
269.9781611681
 30
0.0
 10
30.0988918698
 20
269.6616561834
 30
0.0
  0
SPLINE
  5
3E7
100
AcDbEntity
  8
0
100
AcDbSpline
 62
7
  6
CONTINUOUS
 70
0
 71
3
 72
8
 73
4
 74
0
 42
0.0000001
 43
0.0000001
 44
0.0000000001
 40
0.0
 40
0.0
 40
0.0
 40
0.0
 40
1.0
 40
1.0
 40
1.0
 40
1.0
 10
11.0493918004
 20
232.3226449921
 30
0.0
 10
10.2044491067
 20
233.7798777877
 30
0.0
 10
9.3582035317
 20
235.2366326393
 30
0.0
 10
8.5429902381
 20
236.7107028079
 30
0.0
  0
SPLINE
  5
3E8
100
AcDbEntity
  8
0
100
AcDbSpline
 62
7
  6
CONTINUOUS
 70
0
 71
3
 72
24
 73
20
 74
0
 42
0.0000001
 43
0.0000001
 44
0.0000000001
 40
0.0
 40
0.0
 40
0.0
 40
0.0
 40
0.0312689185
 40
0.0469116104
 40
0.0625679893
 40
0.0938298123
 40
0.1251015193
 40
0.2501193756
 40
0.3751545073
 40
0.5001921794
 40
0.6252281952
 40
0.6877526321
 40
0.7502775264
 40
0.812802676
 40
0.8753253608
 40
0.9065942965
 40
0.9378629007
 40
0.9691147358
 40
1.0
 40
1.0
 40
1.0
 40
1.0
 10
8.5429902381
 20
236.7107028079
 30
0.0
 10
8.4023371755
 20
236.968112411
 30
0.0
 10
8.192051476
 20
237.3569914259
 30
0.0
 10
8.0001125884
 20
237.9125405625
 30
0.0
 10
7.8267499767
 20
238.4730883176
 30
0.0
 10
7.6285481493
 20
239.1796724942
 30
0.0
 10
7.2416562308
 20
240.8964979052
 30
0.0
 10
6.8570592483
 20
243.5121288841
 30
0.0
 10
6.5943853365
 20
247.0226209533
 30
0.0
 10
6.528383165
 20
250.5425672384
 30
0.0
 10
6.6283945289
 20
253.4749736353
 30
0.0
 10
6.8139696649
 20
255.8139866218
 30
0.0
 10
7.0144572225
 20
257.5626625246
 30
0.0
 10
7.2903474809
 20
259.3009179835
 30
0.0
 10
7.6053253654
 20
260.7352135096
 30
0.0
 10
7.9389341327
 20
261.8596391277
 30
0.0
 10
8.2522154862
 20
262.6861469983
 30
0.0
 10
8.6477425467
 20
263.458699662
 30
0.0
 10
9.0663157852
 20
263.9234393073
 30
0.0
 10
9.3360379765
 20
264.0292432279
 30
0.0
  0
SPLINE
  5
3E9
100
AcDbEntity
  8
0
100
AcDbSpline
 62
7
  6
CONTINUOUS
 70
0
 71
3
 72
11
 73
7
 74
0
 42
0.0000001
 43
0.0000001
 44
0.0000000001
 40
0.0
 40
0.0
 40
0.0
 40
0.0
 40
0.2499780655
 40
0.5000368552
 40
0.7500025952
 40
1.0
 40
1.0
 40
1.0
 40
1.0
 10
9.3360379765
 20
264.0292432279
 30
0.0
 10
10.3097979613
 20
264.4007168144
 30
0.0
 10
12.2968598513
 20
265.0371757841
 30
0.0
 10
15.2873235778
 20
265.9486931077
 30
0.0
 10
18.2594956126
 20
266.9220733614
 30
0.0
 10
20.2243848418
 20
267.6181622575
 30
0.0
 10
21.2049662197
 20
267.9714742536
 30
0.0
  0
SPLINE
  5
3EA
100
AcDbEntity
  8
0
100
AcDbSpline
 62
7
  6
CONTINUOUS
 70
0
 71
3
 72
8
 73
4
 74
0
 42
0.0000001
 43
0.0000001
 44
0.0000000001
 40
0.0
 40
0.0
 40
0.0
 40
0.0
 40
1.0
 40
1.0
 40
1.0
 40
1.0
 10
121.0480317033
 20
153.0138256261
 30
0.0
 10
121.3754982011
 20
153.8770908875
 30
0.0
 10
121.5468154592
 20
154.8153642798
 30
0.0
 10
121.5454996377
 20
155.7386516064
 30
0.0
  0
SPLINE
  5
3EB
100
AcDbEntity
  8
0
100
AcDbSpline
 62
7
  6
CONTINUOUS
 70
0
 71
3
 72
8
 73
4
 74
0
 42
0.0000001
 43
0.0000001
 44
0.0000000001
 40
0.0
 40
0.0
 40
0.0
 40
0.0
 40
1.0
 40
1.0
 40
1.0
 40
1.0
 10
9.4128842784
 20
267.6538832359
 30
0.0
 10
9.3907253863
 20
266.4456075029
 30
0.0
 10
9.3696718906
 20
265.2372718074
 30
0.0
 10
9.3360364552
 20
264.0292610786
 30
0.0
  0
SPLINE
  5
3EC
100
AcDbEntity
  8
0
100
AcDbSpline
 62
7
  6
CONTINUOUS
 70
0
 71
3
 72
9
 73
5
 74
0
 42
0.0000001
 43
0.0000001
 44
0.0000000001
 40
0.0
 40
0.0
 40
0.0
 40
0.0
 40
0.2605112292
 40
1.0
 40
1.0
 40
1.0
 40
1.0
 10
-1.597759649
 20
167.0291124442
 30
0.0
 10
-1.8328470493
 20
166.9438345827
 30
0.0
 10
-2.7367563659
 20
166.6206835148
 30
0.0
 10
-3.6471321826
 20
166.3152864852
 30
0.0
 10
-4.3249030255
 20
166.1042381701
 30
0.0
  0
SPLINE
  5
3ED
100
AcDbEntity
  8
0
100
AcDbSpline
 62
7
  6
CONTINUOUS
 70
0
 71
3
 72
11
 73
7
 74
0
 42
0.0000001
 43
0.0000001
 44
0.0000000001
 40
0.0
 40
0.0
 40
0.0
 40
0.0
 40
0.3131645537
 40
0.5868811362
 40
0.8164400618
 40
1.0
 40
1.0
 40
1.0
 40
1.0
 10
-4.3248952703
 20
166.1042048782
 30
0.0
 10
-4.9312819825
 20
165.9153843903
 30
0.0
 10
-6.0744612476
 20
165.5827886308
 30
0.0
 10
-7.6891943209
 20
165.2091579263
 30
0.0
 10
-9.0687669851
 20
165.0089151446
 30
0.0
 10
-9.9132022066
 20
165.0012967929
 30
0.0
 10
-10.2823063079
 20
165.0496951511
 30
0.0
  0
SPLINE
  5
3EE
100
AcDbEntity
  8
0
100
AcDbSpline
 62
7
  6
CONTINUOUS
 70
0
 71
3
 72
9
 73
5
 74
0
 42
0.0000001
 43
0.0000001
 44
0.0000000001
 40
0.0
 40
0.0
 40
0.0
 40
0.0
 40
0.6215515072
 40
1.0
 40
1.0
 40
1.0
 40
1.0
 10
-10.282471027
 20
165.0499174274
 30
0.0
 10
-10.5972178224
 20
165.0904514125
 30
0.0
 10
-11.102478559
 20
165.1616265322
 30
0.0
 10
-11.6066941551
 20
165.2480115769
 30
0.0
 10
-11.7936571132
 20
165.296803673
 30
0.0
  0
SPLINE
  5
3EF
100
AcDbEntity
  8
0
100
AcDbSpline
 62
7
  6
CONTINUOUS
 70
0
 71
3
 72
9
 73
5
 74
0
 42
0.0000001
 43
0.0000001
 44
0.0000000001
 40
0.0
 40
0.0
 40
0.0
 40
0.0
 40
0.6125172082
 40
1.0
 40
1.0
 40
1.0
 40
1.0
 10
-11.7936571132
 20
165.296803673
 30
0.0
 10
-11.8293081804
 20
165.3063195135
 30
0.0
 10
-11.8866830686
 20
165.3236504918
 30
0.0
 10
-11.943039713
 20
165.3479123679
 30
0.0
 10
-11.9614313771
 20
165.3622869233
 30
0.0
  0
SPLINE
  5
3F0
100
AcDbEntity
  8
0
100
AcDbSpline
 62
7
  6
CONTINUOUS
 70
0
 71
3
 72
13
 73
9
 74
0
 42
0.0000001
 43
0.0000001
 44
0.0000000001
 40
0.0
 40
0.0
 40
0.0
 40
0.0
 40
0.2333556274
 40
0.3596489963
 40
0.4897366142
 40
0.621513116
 40
0.7524268966
 40
1.0
 40
1.0
 40
1.0
 40
1.0
 10
-2.2831946284
 20
156.6268251165
 30
0.0
 10
-3.2750230271
 20
156.6514822065
 30
0.0
 10
-4.8165506229
 20
156.9942958001
 30
0.0
 10
-6.6361989397
 20
158.0262295389
 30
0.0
 10
-7.8975943432
 20
159.1085506321
 30
0.0
 10
-8.9236531965
 20
160.4402811076
 30
0.0
 10
-9.9153082602
 20
162.3799715998
 30
0.0
 10
-10.246329803
 20
163.9977276803
 30
0.0
 10
-10.2823026194
 20
165.0496946675
 30
0.0
  0
SPLINE
  5
3F1
100
AcDbEntity
  8
0
100
AcDbSpline
 62
7
  6
CONTINUOUS
 70
0
 71
3
 72
12
 73
8
 74
0
 42
0.0000001
 43
0.0000001
 44
0.0000000001
 40
0.0
 40
0.0
 40
0.0
 40
0.0
 40
0.2503049379
 40
0.5005285423
 40
0.7506018822
 40
0.8763110175
 40
1.0
 40
1.0
 40
1.0
 40
1.0
 10
-4.6713242035
 20
155.2477988751
 30
0.0
 10
-4.5474430851
 20
155.3505703461
 30
0.0
 10
-4.2996575806
 20
155.5560106419
 30
0.0
 10
-3.9282462971
 20
155.8642566829
 30
0.0
 10
-3.6186264725
 20
156.1216314411
 30
0.0
 10
-3.371714609
 20
156.3268472665
 30
0.0
 10
-3.2454583697
 20
156.4262466452
 30
0.0
 10
-3.187885912
 20
156.4811278101
 30
0.0
  0
SPLINE
  5
3F2
100
AcDbEntity
  8
0
100
AcDbSpline
 62
7
  6
CONTINUOUS
 70
0
 71
3
 72
11
 73
7
 74
0
 42
0.0000001
 43
0.0000001
 44
0.0000000001
 40
0.0
 40
0.0
 40
0.0
 40
0.0
 40
0.1056183323
 40
0.3081157082
 40
0.6071342957
 40
1.0
 40
1.0
 40
1.0
 40
1.0
 10
-3.1886956658
 20
156.4811385224
 30
0.0
 10
-3.165233888
 20
156.5035513087
 30
0.0
 10
-3.0682187222
 20
156.5286624184
 30
0.0
 10
-2.8891496674
 20
156.565071301
 30
0.0
 10
-2.6141561925
 20
156.5974097787
 30
0.0
 10
-2.4031322458
 20
156.617026328
 30
0.0
 10
-2.2828395708
 20
156.6268251091
 30
0.0
  0
LINE
  5
3F3
100
AcDbEntity
  8
0
100
AcDbLine
 62
7
  6
CONTINUOUS
 10
-2.2829257739
 20
156.6268349936
 11
-1.5985244705
 21
156.6271485948
  0
SPLINE
  5
3F4
100
AcDbEntity
  8
0
100
AcDbSpline
 62
7
  6
CONTINUOUS
 70
0
 71
3
 72
10
 73
6
 74
0
 42
0.0000001
 43
0.0000001
 44
0.0000000001
 40
0.0
 40
0.0
 40
0.0
 40
0.0
 40
0.2471208859
 40
0.6214437175
 40
1.0
 40
1.0
 40
1.0
 40
1.0
 10
-13.6019462467
 20
164.0039264427
 30
0.0
 10
-13.5902262736
 20
163.3279570304
 30
0.0
 10
-13.4451703981
 20
161.6280395581
 30
0.0
 10
-12.7301998716
 20
158.9662214655
 30
0.0
 10
-11.7114972127
 20
157.1364405223
 30
0.0
 10
-11.0641264919
 20
156.3280572042
 30
0.0
  0
SPLINE
  5
3F5
100
AcDbEntity
  8
0
100
AcDbSpline
 62
7
  6
CONTINUOUS
 70
0
 71
3
 72
13
 73
9
 74
0
 42
0.0000001
 43
0.0000001
 44
0.0000000001
 40
0.0
 40
0.0
 40
0.0
 40
0.0
 40
0.1242384638
 40
0.2494942014
 40
0.3744587429
 40
0.4996456653
 40
0.7498739022
 40
1.0
 40
1.0
 40
1.0
 40
1.0
 10
-11.9614769011
 20
165.3623596539
 30
0.0
 10
-12.0335266277
 20
165.3114781177
 30
0.0
 10
-12.1659332907
 20
165.1930666658
 30
0.0
 10
-12.3715935928
 20
165.0248304356
 30
0.0
 10
-12.5768361886
 20
164.8547335707
 30
0.0
 10
-12.8499301652
 20
164.6275463562
 30
0.0
 10
-13.1917455634
 20
164.3439912527
 30
0.0
 10
-13.4652682641
 20
164.1173307832
 30
0.0
 10
-13.6019464874
 20
164.0039557042
 30
0.0
  0
SPLINE
  5
3F6
100
AcDbEntity
  8
0
100
AcDbSpline
 62
7
  6
CONTINUOUS
 70
0
 71
3
 72
9
 73
5
 74
0
 42
0.0000001
 43
0.0000001
 44
0.0000000001
 40
0.0
 40
0.0
 40
0.0
 40
0.0
 40
0.5149077425
 40
1.0
 40
1.0
 40
1.0
 40
1.0
 10
-15.1675714211
 20
154.8430508366
 30
0.0
 10
-14.9445938339
 20
155.0406805738
 30
0.0
 10
-14.5759015518
 20
155.5085960417
 30
0.0
 10
-14.4336930926
 20
156.0927786129
 30
0.0
 10
-14.433742589
 20
156.373479617
 30
0.0
  0
SPLINE
  5
3F7
100
AcDbEntity
  8
0
100
AcDbSpline
 62
7
  6
CONTINUOUS
 70
0
 71
3
 72
9
 73
5
 74
0
 42
0.0000001
 43
0.0000001
 44
0.0000000001
 40
0.0
 40
0.0
 40
0.0
 40
0.0
 40
0.2577896633
 40
1.0
 40
1.0
 40
1.0
 40
1.0
 10
-14.4930132263
 20
153.3559691295
 30
0.0
 10
-14.5215781987
 20
153.4294257227
 30
0.0
 10
-14.6351731546
 20
153.7132780119
 30
0.0
 10
-14.7601299514
 20
153.9926112657
 30
0.0
 10
-14.8595916721
 20
154.1965712802
 30
0.0
  0
SPLINE
  5
3F8
100
AcDbEntity
  8
0
100
AcDbSpline
 62
7
  6
CONTINUOUS
 70
0
 71
3
 72
11
 73
7
 74
0
 42
0.0000001
 43
0.0000001
 44
0.0000000001
 40
0.0
 40
0.0
 40
0.0
 40
0.0
 40
0.2980418251
 40
0.5642460477
 40
0.7953742086
 40
1.0
 40
1.0
 40
1.0
 40
1.0
 10
-16.2106788737
 20
157.5210856246
 30
0.0
 10
-16.0170380006
 20
157.5776200963
 30
0.0
 10
-15.6585506472
 20
157.7176934921
 30
0.0
 10
-15.207794549
 20
158.0216729339
 30
0.0
 10
-14.8988493317
 20
158.3937692957
 30
0.0
 10
-14.8094885456
 20
158.6864350961
 30
0.0
 10
-14.8020512848
 20
158.8247329951
 30
0.0
  0
SPLINE
  5
3F9
100
AcDbEntity
  8
0
100
AcDbSpline
 62
7
  6
CONTINUOUS
 70
0
 71
3
 72
9
 73
5
 74
0
 42
0.0000001
 43
0.0000001
 44
0.0000000001
 40
0.0
 40
0.0
 40
0.0
 40
0.0
 40
0.2906613586
 40
1.0
 40
1.0
 40
1.0
 40
1.0
 10
-16.2106793293
 20
157.5210862535
 30
0.0
 10
-16.1242735053
 20
157.2562751739
 30
0.0
 10
-15.8108545487
 20
156.3504210784
 30
0.0
 10
-15.4434650213
 20
155.4641915152
 30
0.0
 10
-15.1674941158
 20
154.8429445078
 30
0.0
  0
SPLINE
  5
3FA
100
AcDbEntity
  8
0
100
AcDbSpline
 62
7
  6
CONTINUOUS
 70
0
 71
3
 72
11
 73
7
 74
0
 42
0.0000001
 43
0.0000001
 44
0.0000000001
 40
0.0
 40
0.0
 40
0.0
 40
0.0
 40
0.2306985286
 40
0.4768292684
 40
0.7379526414
 40
1.0
 40
1.0
 40
1.0
 40
1.0
 10
-16.9537347549
 20
154.4203487031
 30
0.0
 10
-16.8852757322
 20
154.2443049877
 30
0.0
 10
-16.6237265787
 20
153.9193738778
 30
0.0
 10
-16.0273541917
 20
153.7154819917
 30
0.0
 10
-15.3832272413
 20
153.8012128787
 30
0.0
 10
-15.0081347546
 20
154.0418318968
 30
0.0
 10
-14.8595540435
 20
154.1966121579
 30
0.0
  0
SPLINE
  5
3FB
100
AcDbEntity
  8
0
100
AcDbSpline
 62
7
  6
CONTINUOUS
 70
0
 71
3
 72
11
 73
7
 74
0
 42
0.0000001
 43
0.0000001
 44
0.0000000001
 40
0.0
 40
0.0
 40
0.0
 40
0.0
 40
0.2115173542
 40
0.4745617451
 40
0.756578933
 40
1.0
 40
1.0
 40
1.0
 40
1.0
 10
-16.6093510249
 20
153.5347747347
 30
0.0
 10
-16.5459417085
 20
153.3717204619
 30
0.0
 10
-16.2887158489
 20
153.0436735576
 30
0.0
 10
-15.6638839867
 20
152.8341284298
 30
0.0
 10
-14.9979263753
 20
152.9511719353
 30
0.0
 10
-14.6289688831
 20
153.2075042587
 30
0.0
 10
-14.4929951643
 20
153.3559903442
 30
0.0
  0
SPLINE
  5
3FC
100
AcDbEntity
  8
0
100
AcDbSpline
 62
7
  6
CONTINUOUS
 70
0
 71
3
 72
8
 73
4
 74
0
 42
0.0000001
 43
0.0000001
 44
0.0000000001
 40
0.0
 40
0.0
 40
0.0
 40
0.0
 40
1.0
 40
1.0
 40
1.0
 40
1.0
 10
-14.4929920386
 20
153.3559915099
 30
0.0
 10
-14.4153581918
 20
153.440017236
 30
0.0
 10
-14.3412093562
 20
153.5279776731
 30
0.0
 10
-14.2766820106
 20
153.6224422617
 30
0.0
  0
SPLINE
  5
3FD
100
AcDbEntity
  8
0
100
AcDbSpline
 62
7
  6
CONTINUOUS
 70
0
 71
3
 72
9
 73
5
 74
0
 42
0.0000001
 43
0.0000001
 44
0.0000000001
 40
0.0
 40
0.0
 40
0.0
 40
0.0
 40
0.2539363083
 40
1.0
 40
1.0
 40
1.0
 40
1.0
 10
-14.2766820106
 20
153.6224422617
 30
0.0
 10
-14.2543535438
 20
153.655129945
 30
0.0
 10
-14.1675125065
 20
153.7845210771
 30
0.0
 10
-14.0937219997
 20
153.9232041307
 30
0.0
 10
-14.0503192795
 20
154.0311052411
 30
0.0
  0
SPLINE
  5
3FE
100
AcDbEntity
  8
0
100
AcDbSpline
 62
7
  6
CONTINUOUS
 70
0
 71
3
 72
8
 73
4
 74
0
 42
0.0000001
 43
0.0000001
 44
0.0000000001
 40
0.0
 40
0.0
 40
0.0
 40
0.0
 40
1.0
 40
1.0
 40
1.0
 40
1.0
 10
-14.0503192795
 20
154.0311052411
 30
0.0
 10
-14.0099113753
 20
154.1315611044
 30
0.0
 10
-13.9758467748
 20
154.2351026421
 30
0.0
 10
-13.9522058911
 20
154.3407685676
 30
0.0
  0
SPLINE
  5
3FF
100
AcDbEntity
  8
0
100
AcDbSpline
 62
7
  6
CONTINUOUS
 70
0
 71
3
 72
8
 73
4
 74
0
 42
0.0000001
 43
0.0000001
 44
0.0000000001
 40
0.0
 40
0.0
 40
0.0
 40
0.0
 40
1.0
 40
1.0
 40
1.0
 40
1.0
 10
-13.9522058911
 20
154.3407685676
 30
0.0
 10
-13.9220956019
 20
154.4753503213
 30
0.0
 10
-13.9080069316
 20
154.6142217193
 30
0.0
 10
-13.9080343324
 20
154.7521306646
 30
0.0
  0
SPLINE
  5
400
100
AcDbEntity
  8
0
100
AcDbSpline
 62
7
  6
CONTINUOUS
 70
0
 71
3
 72
8
 73
4
 74
0
 42
0.0000001
 43
0.0000001
 44
0.0000000001
 40
0.0
 40
0.0
 40
0.0
 40
0.0
 40
1.0
 40
1.0
 40
1.0
 40
1.0
 10
-13.9080343324
 20
154.7521306646
 30
0.0
 10
-13.9080584391
 20
154.8734600574
 30
0.0
 10
-13.9223311
 20
154.9952254429
 30
0.0
 10
-13.9469333042
 20
155.1140343386
 30
0.0
  0
SPLINE
  5
401
100
AcDbEntity
  8
0
100
AcDbSpline
 62
7
  6
CONTINUOUS
 70
0
 71
3
 72
11
 73
7
 74
0
 42
0.0000001
 43
0.0000001
 44
0.0000000001
 40
0.0
 40
0.0
 40
0.0
 40
0.0
 40
0.2500139096
 40
0.5000608887
 40
0.7500201569
 40
1.0
 40
1.0
 40
1.0
 40
1.0
 10
64.7684354436
 20
272.1848203971
 30
0.0
 10
65.8755403349
 20
272.0818812765
 30
0.0
 10
68.0864744569
 20
271.8360654267
 30
0.0
 10
71.3829411197
 20
271.3166215765
 30
0.0
 10
74.6414096333
 20
270.5928080744
 30
0.0
 10
76.778938876
 20
269.9781611456
 30
0.0
 10
77.8446618365
 20
269.6616561834
 30
0.0
  0
SPLINE
  5
402
100
AcDbEntity
  8
0
100
AcDbSpline
 62
7
  6
CONTINUOUS
 70
0
 71
3
 72
9
 73
5
 74
0
 42
0.0000001
 43
0.0000001
 44
0.0000000001
 40
0.0
 40
0.0
 40
0.0
 40
0.0
 40
0.5224148132
 40
1.0
 40
1.0
 40
1.0
 40
1.0
 10
-11.3834806624
 20
145.3598979715
 30
0.0
 10
-11.1282145226
 20
145.6386569576
 30
0.0
 10
-10.7499299902
 20
146.2995824259
 30
0.0
 10
-10.7939968536
 20
147.0717049936
 30
0.0
 10
-10.9192349741
 20
147.3937535404
 30
0.0
  0
SPLINE
  5
403
100
AcDbEntity
  8
0
100
AcDbSpline
 62
7
  6
CONTINUOUS
 70
0
 71
3
 72
11
 73
7
 74
0
 42
0.0000001
 43
0.0000001
 44
0.0000000001
 40
0.0
 40
0.0
 40
0.0
 40
0.0
 40
0.2115178269
 40
0.4745626401
 40
0.756579748
 40
1.0
 40
1.0
 40
1.0
 40
1.0
 10
-13.499838027
 20
145.5386850731
 30
0.0
 10
-13.4364301661
 20
145.3756289097
 30
0.0
 10
-13.179205982
 20
145.0475767567
 30
0.0
 10
-12.5543708642
 20
144.8380266782
 30
0.0
 10
-11.8884098986
 20
144.955070886
 30
0.0
 10
-11.5194522267
 20
145.211405812
 30
0.0
 10
-11.3834792347
 20
145.3598929653
 30
0.0
  0
SPLINE
  5
404
100
AcDbEntity
  8
0
100
AcDbSpline
 62
7
  6
CONTINUOUS
 70
0
 71
3
 72
14
 73
10
 74
0
 42
0.0000001
 43
0.0000001
 44
0.0000000001
 40
0.0
 40
0.0
 40
0.0
 40
0.0
 40
0.0725548044
 40
0.162409114
 40
0.2783172358
 40
0.4179607196
 40
0.5737795608
 40
0.7314860761
 40
1.0
 40
1.0
 40
1.0
 40
1.0
 10
-10.376734274
 20
137.5074967303
 30
0.0
 10
-10.3573587174
 20
137.4576668881
 30
0.0
 10
-10.2881447182
 20
137.3550797812
 30
0.0
 10
-10.110734176
 20
137.2431266348
 30
0.0
 10
-9.8605746753
 20
137.1820497764
 30
0.0
 10
-9.5555751622
 20
137.1743704091
 30
0.0
 10
-9.2248172667
 20
137.2322035544
 30
0.0
 10
-8.8162304221
 20
137.3648480096
 30
0.0
 10
-8.538328007
 20
137.5227446888
 30
0.0
 10
-8.3838132414
 20
137.6463361906
 30
0.0
  0
SPLINE
  5
405
100
AcDbEntity
  8
0
100
AcDbSpline
 62
7
  6
CONTINUOUS
 70
0
 71
3
 72
10
 73
6
 74
0
 42
0.0000001
 43
0.0000001
 44
0.0000000001
 40
0.0
 40
0.0
 40
0.0
 40
0.0
 40
0.5197484147
 40
0.7698300413
 40
1.0
 40
1.0
 40
1.0
 40
1.0
 10
-7.373696887
 20
132.7774935237
 30
0.0
 10
-7.4707883779
 20
133.6353474883
 30
0.0
 10
-7.6531381912
 20
134.9029660216
 30
0.0
 10
-8.010265449
 20
136.52573072
 30
0.0
 10
-8.2447285164
 20
137.2903716517
 30
0.0
 10
-8.3833955977
 20
137.6466634857
 30
0.0
  0
SPLINE
  5
406
100
AcDbEntity
  8
0
100
AcDbSpline
 62
7
  6
CONTINUOUS
 70
0
 71
3
 72
11
 73
7
 74
0
 42
0.0000001
 43
0.0000001
 44
0.0000000001
 40
0.0
 40
0.0
 40
0.0
 40
0.0
 40
0.3249359217
 40
0.600374086
 40
0.8196710661
 40
1.0
 40
1.0
 40
1.0
 40
1.0
 10
-8.3838525723
 20
137.6463468562
 30
0.0
 10
-8.2399351155
 20
137.7614503231
 30
0.0
 10
-7.9928809475
 20
137.9990999606
 30
0.0
 10
-7.7290622831
 20
138.3882410845
 30
0.0
 10
-7.6225262162
 20
138.7646946177
 30
0.0
 10
-7.6540410165
 20
138.9973782385
 30
0.0
 10
-7.6911097707
 20
139.0926963331
 30
0.0
  0
SPLINE
  5
407
100
AcDbEntity
  8
0
100
AcDbSpline
 62
7
  6
CONTINUOUS
 70
0
 71
3
 72
10
 73
6
 74
0
 42
0.0000001
 43
0.0000001
 44
0.0000000001
 40
0.0
 40
0.0
 40
0.0
 40
0.0
 40
0.2456975429
 40
0.4950529746
 40
1.0
 40
1.0
 40
1.0
 40
1.0
 10
-7.6911263301
 20
139.0926865982
 30
0.0
 10
-7.4427540564
 20
138.4539184236
 30
0.0
 10
-6.8874655554
 20
137.1882243118
 30
0.0
 10
-5.6473914202
 20
134.6892203552
 30
0.0
 10
-4.6312776483
 20
132.8457153104
 30
0.0
 10
-3.9356337866
 20
131.620972537
 30
0.0
  0
SPLINE
  5
408
100
AcDbEntity
  8
0
100
AcDbSpline
 62
7
  6
CONTINUOUS
 70
0
 71
3
 72
9
 73
5
 74
0
 42
0.0000001
 43
0.0000001
 44
0.0000000001
 40
0.0
 40
0.0
 40
0.0
 40
0.0
 40
0.4933695894
 40
1.0
 40
1.0
 40
1.0
 40
1.0
 10
-7.3743373786
 20
132.7776906232
 30
0.0
 10
-6.4967340516
 20
131.5863536135
 30
0.0
 10
-4.6003094692
 20
129.2590641077
 30
0.0
 10
-2.6119249399
 20
127.0139710391
 30
0.0
 10
-1.5947649533
 20
125.8851945791
 30
0.0
  0
SPLINE
  5
409
100
AcDbEntity
  8
0
100
AcDbSpline
 62
7
  6
CONTINUOUS
 70
0
 71
3
 72
10
 73
6
 74
0
 42
0.0000001
 43
0.0000001
 44
0.0000000001
 40
0.0
 40
0.0
 40
0.0
 40
0.0
 40
0.3641243107
 40
0.6699016694
 40
1.0
 40
1.0
 40
1.0
 40
1.0
 10
-8.5580325831
 20
132.8308535554
 30
0.0
 10
-8.5036887715
 20
132.6909956769
 30
0.0
 10
-8.1490902288
 20
132.6248855775
 30
0.0
 10
-7.7643815597
 20
132.6707370086
 30
0.0
 10
-7.5037108728
 20
132.7356563643
 30
0.0
 10
-7.3743604656
 20
132.7777390042
 30
0.0
  0
SPLINE
  5
40A
100
AcDbEntity
  8
0
100
AcDbSpline
 62
7
  6
CONTINUOUS
 70
0
 71
3
 72
8
 73
4
 74
0
 42
0.0000001
 43
0.0000001
 44
0.0000000001
 40
0.0
 40
0.0
 40
0.0
 40
0.0
 40
1.0
 40
1.0
 40
1.0
 40
1.0
 10
-17.4143980182
 20
253.1838014223
 30
0.0
 10
-17.2301019782
 20
253.2852721098
 30
0.0
 10
-17.01348033
 20
253.340844584
 30
0.0
 10
-16.8030965597
 20
253.3408444223
 30
0.0
  0
SPLINE
  5
40B
100
AcDbEntity
  8
0
100
AcDbSpline
 62
7
  6
CONTINUOUS
 70
0
 71
3
 72
12
 73
8
 74
0
 42
0.0000001
 43
0.0000001
 44
0.0000000001
 40
0.0
 40
0.0
 40
0.0
 40
0.0
 40
0.1389900634
 40
0.2365890726
 40
0.3555858494
 40
0.6513058041
 40
1.0
 40
1.0
 40
1.0
 40
1.0
 10
-15.7682589549
 20
261.3054178306
 30
0.0
 10
-15.7672905121
 20
261.3633833636
 30
0.0
 10
-15.7015441231
 20
261.4553821088
 30
0.0
 10
-15.5777952554
 20
261.53383064
 30
0.0
 10
-15.3808935758
 20
261.6208810651
 30
0.0
 10
-15.0690445291
 20
261.6930562484
 30
0.0
 10
-14.8006512069
 20
261.7176441281
 30
0.0
 10
-14.6552807864
 20
261.7222232922
 30
0.0
  0
SPLINE
  5
40C
100
AcDbEntity
  8
0
100
AcDbSpline
 62
7
  6
CONTINUOUS
 70
0
 71
3
 72
11
 73
7
 74
0
 42
0.0000001
 43
0.0000001
 44
0.0000000001
 40
0.0
 40
0.0
 40
0.0
 40
0.0
 40
0.266169785
 40
0.3735718461
 40
0.5865129622
 40
1.0
 40
1.0
 40
1.0
 40
1.0
 10
122.5956027306
 20
263.4433852972
 30
0.0
 10
122.6015973872
 20
263.4412213706
 30
0.0
 10
122.612168686
 20
263.4402350225
 30
0.0
 10
122.6166903105
 20
263.4236114343
 30
0.0
 10
122.5935898466
 20
263.419425887
 30
0.0
 10
122.5815504212
 20
263.4158118023
 30
0.0
 10
122.5717931937
 20
263.4141325248
 30
0.0
  0
SPLINE
  5
40D
100
AcDbEntity
  8
0
100
AcDbSpline
 62
7
  6
CONTINUOUS
 70
0
 71
3
 72
12
 73
8
 74
0
 42
0.0000001
 43
0.0000001
 44
0.0000000001
 40
0.0
 40
0.0
 40
0.0
 40
0.0
 40
0.1389963197
 40
0.236595338
 40
0.3555892478
 40
0.6513012572
 40
1.0
 40
1.0
 40
1.0
 40
1.0
 10
123.7118123046
 20
261.3054293969
 30
0.0
 10
123.7108381984
 20
261.363396951
 30
0.0
 10
123.645086284
 20
261.4553918815
 30
0.0
 10
123.5213358967
 20
261.5338385895
 30
0.0
 10
123.3244382682
 20
261.6208821232
 30
0.0
 10
123.0125949994
 20
261.6930564244
 30
0.0
 10
122.7442052168
 20
261.7176441328
 30
0.0
 10
122.5988341386
 20
261.7222233033
 30
0.0
  0
SPLINE
  5
40E
100
AcDbEntity
  8
0
100
AcDbSpline
 62
7
  6
CONTINUOUS
 70
0
 71
3
 72
11
 73
7
 74
0
 42
0.0000001
 43
0.0000001
 44
0.0000000001
 40
0.0
 40
0.0
 40
0.0
 40
0.0
 40
0.2220000966
 40
0.4606485159
 40
0.722234862
 40
1.0
 40
1.0
 40
1.0
 40
1.0
 10
123.8142283845
 20
254.8505485519
 30
0.0
 10
123.8083657255
 20
254.9785829271
 30
0.0
 10
123.7269629058
 20
255.2445667526
 30
0.0
 10
123.4316046961
 20
255.5554523565
 30
0.0
 10
123.0180580147
 20
255.7503225896
 30
0.0
 10
122.7045985777
 20
255.7942538525
 30
0.0
 10
122.5442356565
 20
255.7937651132
 30
0.0
  0
SPLINE
  5
40F
100
AcDbEntity
  8
0
100
AcDbSpline
 62
7
  6
CONTINUOUS
 70
0
 71
3
 72
8
 73
4
 74
0
 42
0.0000001
 43
0.0000001
 44
0.0000000001
 40
0.0
 40
0.0
 40
0.0
 40
0.0
 40
1.0
 40
1.0
 40
1.0
 40
1.0
 10
125.3581504711
 20
253.1837992845
 30
0.0
 10
125.1738541872
 20
253.2853135232
 30
0.0
 10
124.9572168207
 20
253.3409255378
 30
0.0
 10
124.7468118299
 20
253.3409533938
 30
0.0
  0
SPLINE
  5
410
100
AcDbEntity
  8
0
100
AcDbSpline
 62
7
  6
CONTINUOUS
 70
0
 71
3
 72
11
 73
7
 74
0
 42
0.0000001
 43
0.0000001
 44
0.0000000001
 40
0.0
 40
0.0
 40
0.0
 40
0.0
 40
0.3472824843
 40
0.4939964495
 40
0.6573308595
 40
1.0
 40
1.0
 40
1.0
 40
1.0
 10
126.1533895164
 20
160.512021846
 30
0.0
 10
126.1507949051
 20
160.3510783124
 30
0.0
 10
125.8946671429
 20
160.1876498756
 30
0.0
 10
125.6162308713
 20
160.0977194037
 30
0.0
 10
125.3170981476
 20
160.0321210377
 30
0.0
 10
125.082909942
 20
160.0157604032
 30
0.0
 10
124.9240837674
 20
160.0157588771
 30
0.0
  0
SPLINE
  5
411
100
AcDbEntity
  8
0
100
AcDbSpline
 62
7
  6
CONTINUOUS
 70
0
 71
3
 72
11
 73
7
 74
0
 42
0.0000001
 43
0.0000001
 44
0.0000000001
 40
0.0
 40
0.0
 40
0.0
 40
0.0
 40
0.194596942
 40
0.431087115
 40
0.7091257279
 40
1.0
 40
1.0
 40
1.0
 40
1.0
 10
125.9147354876
 20
158.0059664936
 30
0.0
 10
125.892048218
 20
157.876538722
 30
0.0
 10
125.7203860149
 20
157.6102548289
 30
0.0
 10
125.2688959944
 20
157.4089365877
 30
0.0
 10
124.7193670297
 20
157.3658084926
 30
0.0
 10
124.3371994301
 20
157.4496622468
 30
0.0
 10
124.1542350817
 20
157.5210891038
 30
0.0
  0
SPLINE
  5
412
100
AcDbEntity
  8
0
100
AcDbSpline
 62
7
  6
CONTINUOUS
 70
0
 71
3
 72
9
 73
5
 74
0
 42
0.0000001
 43
0.0000001
 44
0.0000000001
 40
0.0
 40
0.0
 40
0.0
 40
0.0
 40
0.7460541693
 40
1.0
 40
1.0
 40
1.0
 40
1.0
 10
125.1734943435
 20
155.1714692709
 30
0.0
 10
125.137146638
 20
155.0667968022
 30
0.0
 10
125.0625638822
 20
154.9338220402
 30
0.0
 10
124.9631981442
 20
154.823309015
 30
0.0
 10
124.9364725986
 20
154.7966962329
 30
0.0
  0
SPLINE
  5
413
100
AcDbEntity
  8
0
100
AcDbSpline
 62
7
  6
CONTINUOUS
 70
0
 71
3
 72
11
 73
7
 74
0
 42
0.0000001
 43
0.0000001
 44
0.0000000001
 40
0.0
 40
0.0
 40
0.0
 40
0.0
 40
0.2362403886
 40
0.4857913196
 40
0.7436070217
 40
1.0
 40
1.0
 40
1.0
 40
1.0
 10
124.9364725986
 20
154.7966962329
 30
0.0
 10
124.8251744559
 20
154.6858676922
 30
0.0
 10
124.5402790438
 20
154.5102196807
 30
0.0
 10
124.0402952883
 20
154.4344049888
 30
0.0
 10
123.5334285384
 20
154.5411463576
 30
0.0
 10
123.2361881539
 20
154.7271918569
 30
0.0
 10
123.1110478209
 20
154.8429445089
 30
0.0
  0
SPLINE
  5
414
100
AcDbEntity
  8
0
100
AcDbSpline
 62
7
  6
CONTINUOUS
 70
0
 71
3
 72
8
 73
4
 74
0
 42
0.0000001
 43
0.0000001
 44
0.0000000001
 40
0.0
 40
0.0
 40
0.0
 40
0.0
 40
1.0
 40
1.0
 40
1.0
 40
1.0
 10
-13.1044778909
 20
153.0138257371
 30
0.0
 10
-13.431942753
 20
153.8770915868
 30
0.0
 10
-13.6032655417
 20
154.8153643152
 30
0.0
 10
-13.6019459312
 20
155.7386516063
 30
0.0
  0
SPLINE
  5
415
100
AcDbEntity
  8
0
100
AcDbSpline
 62
7
  6
CONTINUOUS
 70
0
 71
3
 72
9
 73
5
 74
0
 42
0.0000001
 43
0.0000001
 44
0.0000000001
 40
0.0
 40
0.0
 40
0.0
 40
0.0
 40
0.746054638
 40
1.0
 40
1.0
 40
1.0
 40
1.0
 10
-17.2299379967
 20
155.1714708059
 30
0.0
 10
-17.1935919607
 20
155.0668048709
 30
0.0
 10
-17.1190147474
 20
154.9338382142
 30
0.0
 10
-17.0196569964
 20
154.8233302641
 30
0.0
 10
-16.9929336751
 20
154.7967186221
 30
0.0
  0
SPLINE
  5
416
100
AcDbEntity
  8
0
100
AcDbSpline
 62
7
  6
CONTINUOUS
 70
0
 71
3
 72
11
 73
7
 74
0
 42
0.0000001
 43
0.0000001
 44
0.0000000001
 40
0.0
 40
0.0
 40
0.0
 40
0.0
 40
0.2362399319
 40
0.4857906674
 40
0.743606577
 40
1.0
 40
1.0
 40
1.0
 40
1.0
 10
-16.9929336751
 20
154.7967186221
 30
0.0
 10
-16.8816370424
 20
154.685887109
 30
0.0
 10
-16.5967422847
 20
154.5102328529
 30
0.0
 10
-16.0967551208
 20
154.4344119651
 30
0.0
 10
-15.5898828917
 20
154.5411506289
 30
0.0
 10
-15.2926383797
 20
154.7271963285
 30
0.0
 10
-15.167496507
 20
154.8429498788
 30
0.0
  0
SPLINE
  5
417
100
AcDbEntity
  8
0
100
AcDbSpline
 62
7
  6
CONTINUOUS
 70
0
 71
3
 72
9
 73
5
 74
0
 42
0.0000001
 43
0.0000001
 44
0.0000000001
 40
0.0
 40
0.0
 40
0.0
 40
0.0
 40
0.6124802164
 40
1.0
 40
1.0
 40
1.0
 40
1.0
 10
119.7381856713
 20
165.2968081905
 30
0.0
 10
119.7736497908
 20
165.3063415659
 30
0.0
 10
119.8307458802
 20
165.3236378457
 30
0.0
 10
119.8867567541
 20
165.347967669
 30
0.0
 10
119.9050305111
 20
165.3623180142
 30
0.0
  0
SPLINE
  5
418
100
AcDbEntity
  8
0
100
AcDbSpline
 62
7
  6
CONTINUOUS
 70
0
 71
3
 72
9
 73
5
 74
0
 42
0.0000001
 43
0.0000001
 44
0.0000000001
 40
0.0
 40
0.0
 40
0.0
 40
0.0
 40
0.6216527025
 40
1.0
 40
1.0
 40
1.0
 40
1.0
 10
118.2258720903
 20
165.050084633
 30
0.0
 10
118.5408162991
 20
165.0912582936
 30
0.0
 10
119.0462803113
 20
165.1624877379
 30
0.0
 10
119.5515237504
 20
165.2465445111
 30
0.0
 10
119.7381856713
 20
165.2968081905
 30
0.0
  0
SPLINE
  5
419
100
AcDbEntity
  8
0
100
AcDbSpline
 62
7
  6
CONTINUOUS
 70
0
 71
3
 72
13
 73
9
 74
0
 42
0.0000001
 43
0.0000001
 44
0.0000000001
 40
0.0
 40
0.0
 40
0.0
 40
0.0
 40
0.2315316436
 40
0.3572760232
 40
0.4871354226
 40
0.6190728508
 40
0.7505045098
 40
1.0
 40
1.0
 40
1.0
 40
1.0
 10
110.2264875025
 20
156.626817431
 30
0.0
 10
111.2106183022
 20
156.6512497436
 30
0.0
 10
112.7418127742
 20
156.9892703497
 30
0.0
 10
114.555438152
 20
158.0094058531
 30
0.0
 10
115.8189991646
 20
159.0852445672
 30
0.0
 10
116.8512533583
 20
160.4147896754
 30
0.0
 10
117.8542927962
 20
162.3613348121
 30
0.0
 10
118.1896504212
 20
163.9898889012
 30
0.0
 10
118.2258560149
 20
165.0500841944
 30
0.0
  0
SPLINE
  5
41A
100
AcDbEntity
  8
0
100
AcDbSpline
 62
7
  6
CONTINUOUS
 70
0
 71
3
 72
9
 73
5
 74
0
 42
0.0000001
 43
0.0000001
 44
0.0000000001
 40
0.0
 40
0.0
 40
0.0
 40
0.0
 40
0.2233011623
 40
1.0
 40
1.0
 40
1.0
 40
1.0
 10
109.9481177974
 20
157.9012782377
 30
0.0
 10
109.9207399184
 20
157.9817968793
 30
0.0
 10
109.7945499416
 20
158.3411601576
 30
0.0
 10
109.6560536283
 20
158.6961201063
 30
0.0
 10
109.5441420825
 20
158.9699452078
 30
0.0
  0
SPLINE
  5
41B
100
AcDbEntity
  8
0
100
AcDbSpline
 62
7
  6
CONTINUOUS
 70
0
 71
3
 72
9
 73
5
 74
0
 42
0.0000001
 43
0.0000001
 44
0.0000000001
 40
0.0
 40
0.0
 40
0.0
 40
0.0
 40
0.1948466099
 40
1.0
 40
1.0
 40
1.0
 40
1.0
 10
110.2097012097
 20
156.9962845407
 30
0.0
 10
110.1973310767
 20
157.0562265206
 30
0.0
 10
110.1245431864
 20
157.3619185305
 30
0.0
 10
110.0288196129
 20
157.6615850874
 30
0.0
 10
109.9481177974
 20
157.9012782377
 30
0.0
  0
SPLINE
  5
41C
100
AcDbEntity
  8
0
100
AcDbSpline
 62
7
  6
CONTINUOUS
 70
0
 71
3
 72
10
 73
6
 74
0
 42
0.0000001
 43
0.0000001
 44
0.0000000001
 40
0.0
 40
0.0
 40
0.0
 40
0.0
 40
0.1239023663
 40
0.3270656369
 40
1.0
 40
1.0
 40
1.0
 40
1.0
 10
110.2267481676
 20
156.6268249615
 30
0.0
 10
110.2377748867
 20
156.6377699476
 30
0.0
 10
110.2497422033
 20
156.6802580443
 30
0.0
 10
110.2484719397
 20
156.8042600537
 30
0.0
 10
110.2273069323
 20
156.9137606141
 30
0.0
 10
110.2097012097
 20
156.9962845407
 30
0.0
  0
SPLINE
  5
41D
100
AcDbEntity
  8
0
100
AcDbSpline
 62
7
  6
CONTINUOUS
 70
0
 71
3
 72
11
 73
7
 74
0
 42
0.0000001
 43
0.0000001
 44
0.0000000001
 40
0.0
 40
0.0
 40
0.0
 40
0.0
 40
0.3928657055
 40
0.6918842932
 40
0.8943816686
 40
1.0
 40
1.0
 40
1.0
 40
1.0
 10
110.2263932781
 20
156.626825109
 30
0.0
 10
110.3466859534
 20
156.6170263282
 30
0.0
 10
110.5577099005
 20
156.597409779
 30
0.0
 10
110.8327033757
 20
156.5650713014
 30
0.0
 10
111.0117724297
 20
156.5286624186
 30
0.0
 10
111.1087875952
 20
156.5035513089
 30
0.0
 10
111.1322493725
 20
156.4811385224
 30
0.0
  0
LINE
  5
41E
100
AcDbEntity
  8
0
100
AcDbLine
 62
7
  6
CONTINUOUS
 10
109.5420337529
 20
156.6271486119
 11
110.2264794774
 21
156.6268349936
  0
SPLINE
  5
41F
100
AcDbEntity
  8
0
100
AcDbSpline
 62
7
  6
CONTINUOUS
 70
0
 71
3
 72
12
 73
8
 74
0
 42
0.0000001
 43
0.0000001
 44
0.0000000001
 40
0.0
 40
0.0
 40
0.0
 40
0.0
 40
0.1236889807
 40
0.2493981216
 40
0.499471456
 40
0.7496950588
 40
1.0
 40
1.0
 40
1.0
 40
1.0
 10
111.13143323
 20
156.481127726
 30
0.0
 10
111.1890056842
 20
156.426246559
 30
0.0
 10
111.3152619231
 20
156.3268471753
 30
0.0
 10
111.5621737991
 20
156.1216313671
 30
0.0
 10
111.8717936094
 20
155.8642565927
 30
0.0
 10
112.243204891
 20
155.556010553
 30
0.0
 10
112.490990402
 20
155.3505702631
 30
0.0
 10
112.6148715214
 20
155.2477987899
 30
0.0
  0
SPLINE
  5
420
100
AcDbEntity
  8
0
100
AcDbSpline
 62
7
  6
CONTINUOUS
 70
0
 71
3
 72
8
 73
4
 74
0
 42
0.0000001
 43
0.0000001
 44
0.0000000001
 40
0.0
 40
0.0
 40
0.0
 40
0.0
 40
1.0
 40
1.0
 40
1.0
 40
1.0
 10
96.894145867
 20
232.3226201892
 30
0.0
 10
97.7390915017
 20
233.7798598595
 30
0.0
 10
98.585340494
 20
235.2366212563
 30
0.0
 10
99.4005598563
 20
236.7106965507
 30
0.0
  0
SPLINE
  5
421
100
AcDbEntity
  8
0
100
AcDbSpline
 62
7
  6
CONTINUOUS
 70
0
 71
3
 72
9
 73
5
 74
0
 42
0.0000001
 43
0.0000001
 44
0.0000000001
 40
0.0
 40
0.0
 40
0.0
 40
0.0
 40
0.5066304264
 40
1.0
 40
1.0
 40
1.0
 40
1.0
 10
109.5382706592
 20
125.8851412786
 30
0.0
 10
110.5554391106
 20
127.0139264797
 30
0.0
 10
112.5438402846
 20
129.2590367256
 30
0.0
 10
114.4402808152
 20
131.5863441476
 30
0.0
 10
115.3178911096
 20
132.7776906159
 30
0.0
  0
SPLINE
  5
422
100
AcDbEntity
  8
0
100
AcDbSpline
 62
7
  6
CONTINUOUS
 70
0
 71
3
 72
10
 73
6
 74
0
 42
0.0000001
 43
0.0000001
 44
0.0000000001
 40
0.0
 40
0.0
 40
0.0
 40
0.0
 40
0.2301699692
 40
0.480251596
 40
1.0
 40
1.0
 40
1.0
 40
1.0
 10
116.3269502905
 20
137.6466618878
 30
0.0
 10
116.1882832764
 20
137.2903701322
 30
0.0
 10
115.9538203626
 20
136.5257293847
 30
0.0
 10
115.5966934155
 20
134.9029651296
 30
0.0
 10
115.4143437412
 20
133.6353469882
 30
0.0
 10
115.317252262
 20
132.7774933013
 30
0.0
  0
SPLINE
  5
423
100
AcDbEntity
  8
0
100
AcDbSpline
 62
7
  6
CONTINUOUS
 70
0
 71
3
 72
9
 73
5
 74
0
 42
0.0000001
 43
0.0000001
 44
0.0000000001
 40
0.0
 40
0.0
 40
0.0
 40
0.0
 40
0.4775851868
 40
1.0
 40
1.0
 40
1.0
 40
1.0
 10
118.8627886806
 20
147.3937535404
 30
0.0
 10
118.7375505601
 20
147.0717049936
 30
0.0
 10
118.6934836966
 20
146.2995824259
 30
0.0
 10
119.071768229
 20
145.6386569576
 30
0.0
 10
119.3270343688
 20
145.3598979715
 30
0.0
  0
SPLINE
  5
424
100
AcDbEntity
  8
0
100
AcDbSpline
 62
7
  6
CONTINUOUS
 70
0
 71
3
 72
11
 73
7
 74
0
 42
0.0000001
 43
0.0000001
 44
0.0000000001
 40
0.0
 40
0.0
 40
0.0
 40
0.0
 40
0.300632505
 40
0.572342861
 40
0.8025718544
 40
1.0
 40
1.0
 40
1.0
 40
1.0
 10
116.3274108228
 20
137.6463521852
 30
0.0
 10
116.1943105004
 20
137.7528044065
 30
0.0
 10
115.9572695716
 20
137.9769288976
 30
0.0
 10
115.6909630947
 20
138.3517374442
 30
0.0
 10
115.568073758
 20
138.7370640606
 30
0.0
 10
115.5941146456
 20
138.9883728047
 30
0.0
 10
115.6346807628
 20
139.0926883658
 30
0.0
  0
SPLINE
  5
425
100
AcDbEntity
  8
0
100
AcDbSpline
 62
7
  6
CONTINUOUS
 70
0
 71
3
 72
9
 73
5
 74
0
 42
0.0000001
 43
0.0000001
 44
0.0000000001
 40
0.0
 40
0.0
 40
0.0
 40
0.0
 40
0.2427122336
 40
1.0
 40
1.0
 40
1.0
 40
1.0
 10
122.803145378
 20
154.1965712791
 30
0.0
 10
122.7706200677
 20
154.1298736317
 30
0.0
 10
122.6395757885
 20
153.8536330433
 30
0.0
 10
122.5204800905
 20
153.5717570038
 30
0.0
 10
122.4365669328
 20
153.3559691295
 30
0.0
  0
SPLINE
  5
426
100
AcDbEntity
  8
0
100
AcDbSpline
 62
7
  6
CONTINUOUS
 70
0
 71
3
 72
8
 73
4
 74
0
 42
0.0000001
 43
0.0000001
 44
0.0000000001
 40
0.0
 40
0.0
 40
0.0
 40
0.0
 40
1.0
 40
1.0
 40
1.0
 40
1.0
 10
122.4365457451
 20
153.3559915099
 30
0.0
 10
122.3589118982
 20
153.440017236
 30
0.0
 10
122.2847630626
 20
153.5279776731
 30
0.0
 10
122.2202357171
 20
153.6224422617
 30
0.0
  0
SPLINE
  5
427
100
AcDbEntity
  8
0
100
AcDbSpline
 62
7
  6
CONTINUOUS
 70
0
 71
3
 72
9
 73
5
 74
0
 42
0.0000001
 43
0.0000001
 44
0.0000000001
 40
0.0
 40
0.0
 40
0.0
 40
0.0
 40
0.2538505343
 40
1.0
 40
1.0
 40
1.0
 40
1.0
 10
119.0076802001
 20
156.3280572063
 30
0.0
 10
119.4398693357
 20
156.8677394619
 30
0.0
 10
120.9010500864
 20
159.1849563765
 30
0.0
 10
121.5102695815
 20
161.9719591401
 30
0.0
 10
121.5454999436
 20
164.0039258808
 30
0.0
  0
SPLINE
  5
428
100
AcDbEntity
  8
0
100
AcDbSpline
 62
7
  6
CONTINUOUS
 70
0
 71
3
 72
10
 73
6
 74
0
 42
0.0000001
 43
0.0000001
 44
0.0000000001
 40
0.0
 40
0.0
 40
0.0
 40
0.0
 40
0.2456913544
 40
0.4950497336
 40
1.0
 40
1.0
 40
1.0
 40
1.0
 10
115.6346800373
 20
139.0926865998
 30
0.0
 10
115.3863141484
 20
138.4539348795
 30
0.0
 10
114.8309575323
 20
137.1882808035
 30
0.0
 10
113.5909242822
 20
134.6892612764
 30
0.0
 10
112.5748352833
 20
132.8457225897
 30
0.0
 10
111.8791873329
 20
131.6209726569
 30
0.0
  0
SPLINE
  5
429
100
AcDbEntity
  8
0
100
AcDbSpline
 62
7
  6
CONTINUOUS
 70
0
 71
3
 72
9
 73
5
 74
0
 42
0.0000001
 43
0.0000001
 44
0.0000000001
 40
0.0
 40
0.0
 40
0.0
 40
0.0
 40
0.2539361278
 40
1.0
 40
1.0
 40
1.0
 40
1.0
 10
122.2202357171
 20
153.6224422617
 30
0.0
 10
122.1979072656
 20
153.6551299225
 30
0.0
 10
122.1110660114
 20
153.7845209168
 30
0.0
 10
122.0372757175
 20
153.9232041023
 30
0.0
 10
121.9938729859
 20
154.0311052411
 30
0.0
  0
SPLINE
  5
42A
100
AcDbEntity
  8
0
100
AcDbSpline
 62
7
  6
CONTINUOUS
 70
0
 71
3
 72
8
 73
4
 74
0
 42
0.0000001
 43
0.0000001
 44
0.0000000001
 40
0.0
 40
0.0
 40
0.0
 40
0.0
 40
1.0
 40
1.0
 40
1.0
 40
1.0
 10
121.9938729859
 20
154.0311052411
 30
0.0
 10
121.9534650822
 20
154.1315611035
 30
0.0
 10
121.9194004816
 20
154.2351026401
 30
0.0
 10
121.8957595982
 20
154.3407685646
 30
0.0
  0
SPLINE
  5
42B
100
AcDbEntity
  8
0
100
AcDbSpline
 62
7
  6
CONTINUOUS
 70
0
 71
3
 72
8
 73
4
 74
0
 42
0.0000001
 43
0.0000001
 44
0.0000000001
 40
0.0
 40
0.0
 40
0.0
 40
0.0
 40
1.0
 40
1.0
 40
1.0
 40
1.0
 10
121.8957595982
 20
154.3407685646
 30
0.0
 10
121.8656493088
 20
154.4753503195
 30
0.0
 10
121.851560638
 20
154.6142217188
 30
0.0
 10
121.8515880388
 20
154.7521306653
 30
0.0
  0
SPLINE
  5
42C
100
AcDbEntity
  8
0
100
AcDbSpline
 62
7
  6
CONTINUOUS
 70
0
 71
3
 72
8
 73
4
 74
0
 42
0.0000001
 43
0.0000001
 44
0.0000000001
 40
0.0
 40
0.0
 40
0.0
 40
0.0
 40
1.0
 40
1.0
 40
1.0
 40
1.0
 10
121.8515880388
 20
154.7521306653
 30
0.0
 10
121.8516121455
 20
154.8734600579
 30
0.0
 10
121.8658848064
 20
154.9952254433
 30
0.0
 10
121.8904870106
 20
155.1140343387
 30
0.0
  0
SPLINE
  5
42D
100
AcDbEntity
  8
0
100
AcDbSpline
 62
7
  6
CONTINUOUS
 70
0
 71
3
 72
9
 73
5
 74
0
 42
0.0000001
 43
0.0000001
 44
0.0000000001
 40
0.0
 40
0.0
 40
0.0
 40
0.0
 40
0.2906670936
 40
1.0
 40
1.0
 40
1.0
 40
1.0
 10
124.1542325628
 20
157.5210856278
 30
0.0
 10
124.068050149
 20
157.2562032854
 30
0.0
 10
123.7541934538
 20
156.3505232143
 30
0.0
 10
123.387430183
 20
155.4640652315
 30
0.0
 10
123.1110817993
 20
154.8430106276
 30
0.0
  0
SPLINE
  5
42E
100
AcDbEntity
  8
0
100
AcDbSpline
 62
7
  6
CONTINUOUS
 70
0
 71
3
 72
9
 73
5
 74
0
 42
0.0000001
 43
0.0000001
 44
0.0000000001
 40
0.0
 40
0.0
 40
0.0
 40
0.0
 40
0.2285116674
 40
1.0
 40
1.0
 40
1.0
 40
1.0
 10
122.7635817259
 20
250.2820551629
 30
0.0
 10
122.7657624011
 20
250.2456939984
 30
0.0
 10
122.774825051
 20
250.0865434181
 30
0.0
 10
122.7820937048
 20
249.9272945649
 30
0.0
 10
122.787106644
 20
249.8044156729
 30
0.0
  0
SPLINE
  5
42F
100
AcDbEntity
  8
0
100
AcDbSpline
 62
7
  6
CONTINUOUS
 70
0
 71
3
 72
9
 73
5
 74
0
 42
0.0000001
 43
0.0000001
 44
0.0000000001
 40
0.0
 40
0.0
 40
0.0
 40
0.0
 40
0.225513741
 40
1.0
 40
1.0
 40
1.0
 40
1.0
 10
122.7419305998
 20
250.5854167599
 30
0.0
 10
122.7438788377
 20
250.5626374926
 30
0.0
 10
122.7521132105
 20
250.4615923402
 30
0.0
 10
122.758881306
 20
250.3604312283
 30
0.0
 10
122.7635817259
 20
250.2820551629
 30
0.0
  0
SPLINE
  5
430
100
AcDbEntity
  8
0
100
AcDbSpline
 62
7
  6
CONTINUOUS
 70
0
 71
3
 72
9
 73
5
 74
0
 42
0.0000001
 43
0.0000001
 44
0.0000000001
 40
0.0
 40
0.0
 40
0.0
 40
0.0
 40
0.514907286
 40
1.0
 40
1.0
 40
1.0
 40
1.0
 10
123.1111251263
 20
154.8430508378
 30
0.0
 10
122.8881477332
 20
155.0406804033
 30
0.0
 10
122.5194552629
 20
155.5085957009
 30
0.0
 10
122.3772468
 20
156.092778344
 30
0.0
 10
122.3772962956
 20
156.373479617
 30
0.0
  0
SPLINE
  5
431
100
AcDbEntity
  8
0
100
AcDbSpline
 62
7
  6
CONTINUOUS
 70
0
 71
3
 72
9
 73
5
 74
0
 42
0.0000001
 43
0.0000001
 44
0.0000000001
 40
0.0
 40
0.0
 40
0.0
 40
0.0
 40
0.2274399487
 40
1.0
 40
1.0
 40
1.0
 40
1.0
 10
122.7262749669
 20
250.7449173969
 30
0.0
 10
122.7276578047
 20
250.7328457254
 30
0.0
 10
122.7334537662
 20
250.6797370121
 30
0.0
 10
122.7384135101
 20
250.6265394215
 30
0.0
 10
122.7419305998
 20
250.5854167599
 30
0.0
  0
SPLINE
  5
432
100
AcDbEntity
  8
0
100
AcDbSpline
 62
7
  6
CONTINUOUS
 70
0
 71
3
 72
9
 73
5
 74
0
 42
0.0000001
 43
0.0000001
 44
0.0000000001
 40
0.0
 40
0.0
 40
0.0
 40
0.0
 40
0.2063353455
 40
1.0
 40
1.0
 40
1.0
 40
1.0
 10
122.7048996512
 20
250.8938788319
 30
0.0
 10
122.7068675294
 20
250.8837158648
 30
0.0
 10
122.7154738846
 20
250.8342823503
 30
0.0
 10
122.7217433881
 20
250.7844764318
 30
0.0
 10
122.7262749669
 20
250.7449173969
 30
0.0
  0
SPLINE
  5
433
100
AcDbEntity
  8
0
100
AcDbSpline
 62
7
  6
CONTINUOUS
 70
0
 71
3
 72
9
 73
5
 74
0
 42
0.0000001
 43
0.0000001
 44
0.0000000001
 40
0.0
 40
0.0
 40
0.0
 40
0.0
 40
0.3190024942
 40
1.0
 40
1.0
 40
1.0
 40
1.0
 10
122.6735439735
 20
250.979995204
 30
0.0
 10
122.6826222305
 20
250.9761740212
 30
0.0
 10
122.6937264542
 20
250.9418838141
 30
0.0
 10
122.7009024265
 20
250.9145222146
 30
0.0
 10
122.7048996512
 20
250.8938788319
 30
0.0
  0
SPLINE
  5
434
100
AcDbEntity
  8
0
100
AcDbSpline
 62
7
  6
CONTINUOUS
 70
0
 71
3
 72
11
 73
7
 74
0
 42
0.0000001
 43
0.0000001
 44
0.0000000001
 40
0.0
 40
0.0
 40
0.0
 40
0.0
 40
0.4064314952
 40
0.7079603693
 40
0.9039591722
 40
1.0
 40
1.0
 40
1.0
 40
1.0
 10
120.1345932352
 20
252.5206961435
 30
0.0
 10
120.1429210635
 20
252.448048824
 30
0.0
 10
120.1589362951
 20
252.3225575515
 30
0.0
 10
120.1865105515
 20
252.1593430747
 30
0.0
 10
120.2131319498
 20
252.0612564048
 30
0.0
 10
120.2359674883
 20
252.0058891426
 30
0.0
 10
120.2518936194
 20
251.9991862845
 30
0.0
  0
SPLINE
  5
435
100
AcDbEntity
  8
0
100
AcDbSpline
 62
7
  6
CONTINUOUS
 70
0
 71
3
 72
11
 73
7
 74
0
 42
0.0000001
 43
0.0000001
 44
0.0000000001
 40
0.0
 40
0.0
 40
0.0
 40
0.0
 40
0.325980837
 40
0.6124567226
 40
0.8418045502
 40
1.0
 40
1.0
 40
1.0
 40
1.0
 10
119.904100681
 20
258.7902474159
 30
0.0
 10
119.9106267234
 20
258.1083942252
 30
0.0
 10
119.9295770837
 20
256.8273926611
 30
0.0
 10
119.9770971896
 20
255.0670122887
 30
0.0
 10
120.0404357256
 20
253.6586291511
 30
0.0
 10
120.0969054371
 20
252.8494551231
 30
0.0
 10
120.1345932352
 20
252.5206961435
 30
0.0
  0
SPLINE
  5
436
100
AcDbEntity
  8
0
100
AcDbSpline
 62
7
  6
CONTINUOUS
 70
0
 71
3
 72
13
 73
9
 74
0
 42
0.0000001
 43
0.0000001
 44
0.0000000001
 40
0.0
 40
0.0
 40
0.0
 40
0.0
 40
0.2501260973
 40
0.5003543347
 40
0.6255412572
 40
0.7505057987
 40
0.8757615361
 40
1.0
 40
1.0
 40
1.0
 40
1.0
 10
121.545500194
 20
164.0039557042
 30
0.0
 10
121.4088219715
 20
164.1173307837
 30
0.0
 10
121.135299271
 20
164.3439912534
 30
0.0
 10
120.7934838721
 20
164.6275463561
 30
0.0
 10
120.5203898948
 20
164.8547335705
 30
0.0
 10
120.3151472992
 20
165.0248304355
 30
0.0
 10
120.1094869974
 20
165.1930666659
 30
0.0
 10
119.9770803344
 20
165.3114781177
 30
0.0
 10
119.9050306078
 20
165.362359654
 30
0.0
  0
SPLINE
  5
437
100
AcDbEntity
  8
0
100
AcDbSpline
 62
7
  6
CONTINUOUS
 70
0
 71
3
 72
11
 73
7
 74
0
 42
0.0000001
 43
0.0000001
 44
0.0000000001
 40
0.0
 40
0.0
 40
0.0
 40
0.0
 40
0.2564510836
 40
0.5097372617
 40
0.7573166441
 40
1.0
 40
1.0
 40
1.0
 40
1.0
 10
122.545073515
 20
254.7925085802
 30
0.0
 10
122.2341502362
 20
254.7870816536
 30
0.0
 10
121.6123679723
 20
254.6626944957
 30
0.0
 10
120.8181026813
 20
254.1618709079
 30
0.0
 10
120.2747196017
 20
253.4141549236
 30
0.0
 10
120.139011091
 20
252.8150033141
 30
0.0
 10
120.134588182
 20
252.5207605592
 30
0.0
  0
SPLINE
  5
438
100
AcDbEntity
  8
0
100
AcDbSpline
 62
7
  6
CONTINUOUS
 70
0
 71
3
 72
12
 73
8
 74
0
 42
0.0000001
 43
0.0000001
 44
0.0000000001
 40
0.0
 40
0.0
 40
0.0
 40
0.0
 40
0.3557110454
 40
0.6630820087
 40
0.8825688943
 40
0.9528425538
 40
1.0
 40
1.0
 40
1.0
 40
1.0
 10
122.3150491818
 20
259.3312862012
 30
0.0
 10
122.0143617719
 20
259.3285240469
 30
0.0
 10
121.4530391714
 20
259.3008928526
 30
0.0
 10
120.7155327145
 20
259.19456438
 30
0.0
 10
120.2224553779
 20
259.058024046
 30
0.0
 10
119.9760358263
 20
258.9146989547
 30
0.0
 10
119.9112548257
 20
258.8295809747
 30
0.0
 10
119.9041011169
 20
258.7903635796
 30
0.0
  0
SPLINE
  5
439
100
AcDbEntity
  8
0
100
AcDbSpline
 62
7
  6
CONTINUOUS
 70
0
 71
3
 72
9
 73
5
 74
0
 42
0.0000001
 43
0.0000001
 44
0.0000000001
 40
0.0
 40
0.0
 40
0.0
 40
0.0
 40
0.2233387845
 40
1.0
 40
1.0
 40
1.0
 40
1.0
 10
-2.0045760009
 20
157.9012855753
 30
0.0
 10
-1.9770474755
 20
157.9817346787
 30
0.0
 10
-1.8506782439
 20
158.3408808409
 30
0.0
 10
-1.7125070597
 20
158.6958123429
 30
0.0
 10
-1.600666865
 20
158.9695327539
 30
0.0
  0
SPLINE
  5
43A
100
AcDbEntity
  8
0
100
AcDbSpline
 62
7
  6
CONTINUOUS
 70
0
 71
3
 72
9
 73
5
 74
0
 42
0.0000001
 43
0.0000001
 44
0.0000000001
 40
0.0
 40
0.0
 40
0.0
 40
0.0
 40
0.1948830362
 40
1.0
 40
1.0
 40
1.0
 40
1.0
 10
-2.2662482072
 20
156.9963175447
 30
0.0
 10
-2.2535957848
 20
157.0562109316
 30
0.0
 10
-2.1805101002
 20
157.3617883769
 30
0.0
 10
-2.0864374135
 20
157.6620037867
 30
0.0
 10
-2.0045760009
 20
157.9012855753
 30
0.0
  0
SPLINE
  5
43B
100
AcDbEntity
  8
0
100
AcDbSpline
 62
7
  6
CONTINUOUS
 70
0
 71
3
 72
10
 73
6
 74
0
 42
0.0000001
 43
0.0000001
 44
0.0000000001
 40
0.0
 40
0.0
 40
0.0
 40
0.0
 40
0.1238811139
 40
0.3270327627
 40
1.0
 40
1.0
 40
1.0
 40
1.0
 10
-2.2832013814
 20
156.626834847
 30
0.0
 10
-2.2941007341
 20
156.6379018218
 30
0.0
 10
-2.3061791739
 20
156.6802102625
 30
0.0
 10
-2.3048387097
 20
156.8043547178
 30
0.0
 10
-2.2841609018
 20
156.9138598943
 30
0.0
 10
-2.2662482072
 20
156.9963175447
 30
0.0
  0
SPLINE
  5
43C
100
AcDbEntity
  8
0
100
AcDbSpline
 62
7
  6
CONTINUOUS
 70
0
 71
3
 72
9
 73
5
 74
0
 42
0.0000001
 43
0.0000001
 44
0.0000000001
 40
0.0
 40
0.0
 40
0.0
 40
0.0
 40
0.261199634
 40
1.0
 40
1.0
 40
1.0
 40
1.0
 10
124.4425218709
 20
158.7371731705
 30
0.0
 10
124.4248596507
 20
158.6297425402
 30
0.0
 10
124.3517065543
 20
158.2194390997
 30
0.0
 10
124.2501738881
 20
157.8137049521
 30
0.0
 10
124.154232847
 20
157.5210860201
 30
0.0
  0
SPLINE
  5
43D
100
AcDbEntity
  8
0
100
AcDbSpline
 62
7
  6
CONTINUOUS
 70
0
 71
3
 72
11
 73
7
 74
0
 42
0.0000001
 43
0.0000001
 44
0.0000000001
 40
0.0
 40
0.0
 40
0.0
 40
0.0
 40
0.2980415311
 40
0.5642456685
 40
0.7953740216
 40
1.0
 40
1.0
 40
1.0
 40
1.0
 10
124.154232847
 20
157.5210860201
 30
0.0
 10
123.9605916388
 20
157.5776187959
 30
0.0
 10
123.6021051073
 20
157.7176943572
 30
0.0
 10
123.15134854
 20
158.0216726078
 30
0.0
 10
122.8424028083
 20
158.3937690244
 30
0.0
 10
122.7530413485
 20
158.6864349473
 30
0.0
 10
122.7456039169
 20
158.8247329951
 30
0.0
  0
SPLINE
  5
43E
100
AcDbEntity
  8
0
100
AcDbSpline
 62
7
  6
CONTINUOUS
 70
0
 71
3
 72
8
 73
4
 74
0
 42
0.0000001
 43
0.0000001
 44
0.0000000001
 40
0.0
 40
0.0
 40
0.0
 40
0.0
 40
1.0
 40
1.0
 40
1.0
 40
1.0
 10
7.3946547867
 20
269.9356900752
 30
0.0
 10
6.9214305988
 20
269.8311616019
 30
0.0
 10
6.4476789126
 20
269.7290003651
 30
0.0
 10
5.974911505
 20
269.6224249828
 30
0.0
  0
SPLINE
  5
43F
100
AcDbEntity
  8
0
100
AcDbSpline
 62
7
  6
CONTINUOUS
 70
0
 71
3
 72
9
 73
5
 74
0
 42
0.0000001
 43
0.0000001
 44
0.0000000001
 40
0.0
 40
0.0
 40
0.0
 40
0.0
 40
0.2611969959
 40
1.0
 40
1.0
 40
1.0
 40
1.0
 10
-16.4989582134
 20
158.7371568533
 30
0.0
 10
-16.4816437098
 20
158.62967181
 30
0.0
 10
-16.4081345248
 20
158.2193989499
 30
0.0
 10
-16.3057870074
 20
157.8139786619
 30
0.0
 10
-16.2106813926
 20
157.5210891007
 30
0.0
  0
LINE
  5
440
100
AcDbEntity
  8
0
100
AcDbLine
 62
7
  6
CONTINUOUS
 10
124.5547300203
 20
247.0436692749
 11
124.9697704854
 21
247.0441416251
  0
SPLINE
  5
441
100
AcDbEntity
  8
0
100
AcDbSpline
 62
7
  6
CONTINUOUS
 70
0
 71
3
 72
11
 73
7
 74
0
 42
0.0000001
 43
0.0000001
 44
0.0000000001
 40
0.0
 40
0.0
 40
0.0
 40
0.0
 40
0.1945967463
 40
0.431085745
 40
0.7091249258
 40
1.0
 40
1.0
 40
1.0
 40
1.0
 10
-17.9711891414
 20
158.0060003913
 30
0.0
 10
-17.948511097
 20
157.87656846
 30
0.0
 10
-17.7768610212
 20
157.6102671495
 30
0.0
 10
-17.3253641192
 20
157.4089354663
 30
0.0
 10
-16.7758243398
 20
157.3658018402
 30
0.0
 10
-16.3936476766
 20
157.4496573122
 30
0.0
 10
-16.2106793293
 20
157.5210862535
 30
0.0
  0
SPLINE
  5
442
100
AcDbEntity
  8
0
100
AcDbSpline
 62
7
  6
CONTINUOUS
 70
0
 71
3
 72
19
 73
15
 74
0
 42
0.0000001
 43
0.0000001
 44
0.0000000001
 40
0.0
 40
0.0
 40
0.0
 40
0.0
 40
0.0073016316
 40
0.0235335523
 40
0.0488158187
 40
0.082983046
 40
0.1257026747
 40
0.1766104677
 40
0.2352260319
 40
0.3009942494
 40
0.4515195879
 40
0.6225024619
 40
0.8077258059
 40
1.0
 40
1.0
 40
1.0
 40
1.0
 10
124.3695234591
 20
253.2835093407
 30
0.0
 10
124.3820932813
 20
253.274946895
 30
0.0
 10
124.3913771167
 20
253.2199462683
 30
0.0
 10
124.4110006861
 20
253.1256026972
 30
0.0
 10
124.4259126553
 20
252.9656551061
 30
0.0
 10
124.4432386255
 20
252.7547969874
 30
0.0
 10
124.4590301179
 20
252.4885843682
 30
0.0
 10
124.4744424679
 20
252.1720046857
 30
0.0
 10
124.4887911153
 20
251.8071003131
 30
0.0
 10
124.5073445149
 20
251.2347928377
 30
0.0
 10
124.5263479493
 20
250.4283041751
 30
0.0
 10
124.5427806353
 20
249.372922769
 30
0.0
 10
124.5526527012
 20
248.2304877315
 30
0.0
 10
124.554678828
 20
247.4441704793
 30
0.0
 10
124.5547300203
 20
247.0436692749
 30
0.0
  0
SPLINE
  5
443
100
AcDbEntity
  8
0
100
AcDbSpline
 62
7
  6
CONTINUOUS
 70
0
 71
3
 72
9
 73
5
 74
0
 42
0.0000001
 43
0.0000001
 44
0.0000000001
 40
0.0
 40
0.0
 40
0.0
 40
0.0
 40
0.2239416458
 40
1.0
 40
1.0
 40
1.0
 40
1.0
 10
-11.9475542385
 20
260.8768389287
 30
0.0
 10
-11.9485824337
 20
260.8717165249
 30
0.0
 10
-11.9470021871
 20
260.848126298
 30
0.0
 10
-11.9484400273
 20
260.8249636468
 30
0.0
 10
-11.9486674462
 20
260.8068595693
 30
0.0
  0
LINE
  5
444
100
AcDbEntity
  8
0
100
AcDbLine
 62
7
  6
CONTINUOUS
 10
-11.9486674462
 20
260.8068595693
 11
-11.9493118068
 21
260.7555191062
  0
SPLINE
  5
445
100
AcDbEntity
  8
0
100
AcDbSpline
 62
7
  6
CONTINUOUS
 70
0
 71
3
 72
15
 73
11
 74
0
 42
0.0000001
 43
0.0000001
 44
0.0000000001
 40
0.0
 40
0.0
 40
0.0
 40
0.0
 40
0.3710891717
 40
0.5397756191
 40
0.6889622919
 40
0.8133409634
 40
0.9083212628
 40
0.9706264551
 40
0.9892162162
 40
1.0
 40
1.0
 40
1.0
 40
1.0
 10
-14.3577602299
 20
260.8494111133
 30
0.0
 10
-14.0589310681
 20
260.8487517552
 30
0.0
 10
-13.6242845657
 20
260.8479067793
 30
0.0
 10
-13.0694272397
 20
260.846188188
 30
0.0
 10
-12.7134194535
 20
260.8465536694
 30
0.0
 10
-12.4162738635
 20
260.8455916198
 30
0.0
 10
-12.1903814536
 20
260.840994288
 30
0.0
 10
-12.0470257301
 20
260.8445053169
 30
0.0
 10
-11.9757862787
 20
260.8594645185
 30
0.0
 10
-11.9526782287
 20
260.8698278249
 30
0.0
 10
-11.9475542385
 20
260.8768389287
 30
0.0
  0
SPLINE
  5
446
100
AcDbEntity
  8
0
100
AcDbSpline
 62
7
  6
CONTINUOUS
 70
0
 71
3
 72
11
 73
7
 74
0
 42
0.0000001
 43
0.0000001
 44
0.0000000001
 40
0.0
 40
0.0
 40
0.0
 40
0.0
 40
0.2564512914
 40
0.5097357125
 40
0.7573150106
 40
1.0
 40
1.0
 40
1.0
 40
1.0
 10
-14.600579811
 20
254.7924920372
 30
0.0
 10
-14.289735459
 20
254.7869467215
 30
0.0
 10
-13.6681591173
 20
254.6623949148
 30
0.0
 10
-12.8742107047
 20
254.161523046
 30
0.0
 10
-12.3310901938
 20
253.4139113965
 30
0.0
 10
-12.1954525461
 20
252.8149083941
 30
0.0
 10
-12.1910338564
 20
252.520736543
 30
0.0
  0
SPLINE
  5
447
100
AcDbEntity
  8
0
100
AcDbSpline
 62
7
  6
CONTINUOUS
 70
0
 71
3
 72
11
 73
7
 74
0
 42
0.0000001
 43
0.0000001
 44
0.0000000001
 40
0.0
 40
0.0
 40
0.0
 40
0.0
 40
0.4064325309
 40
0.7079634543
 40
0.9039615144
 40
1.0
 40
1.0
 40
1.0
 40
1.0
 10
-12.1910397484
 20
252.5206943151
 30
0.0
 10
-12.1993675757
 20
252.4480470012
 30
0.0
 10
-12.2153827212
 20
252.3225554095
 30
0.0
 10
-12.2429571116
 20
252.1593412249
 30
0.0
 10
-12.2695775233
 20
252.0612542781
 30
0.0
 10
-12.2924142126
 20
252.005888819
 30
0.0
 10
-12.3083399132
 20
251.9991861412
 30
0.0
  0
SPLINE
  5
448
100
AcDbEntity
  8
0
100
AcDbSpline
 62
7
  6
CONTINUOUS
 70
0
 71
3
 72
12
 73
8
 74
0
 42
0.0000001
 43
0.0000001
 44
0.0000000001
 40
0.0
 40
0.0
 40
0.0
 40
0.0
 40
0.3557145507
 40
0.6630854053
 40
0.8825687746
 40
0.9528404642
 40
1.0
 40
1.0
 40
1.0
 40
1.0
 10
-14.371503002
 20
259.3312862188
 30
0.0
 10
-14.0708102099
 20
259.3285246963
 30
0.0
 10
-13.5094799606
 20
259.3008961745
 30
0.0
 10
-12.7719685116
 20
259.1945555742
 30
0.0
 10
-12.2788925868
 20
259.0580233393
 30
0.0
 10
-12.0324686801
 20
258.9147013879
 30
0.0
 10
-11.9676956791
 20
258.8295745581
 30
0.0
 10
-11.9605454302
 20
258.7903544113
 30
0.0
  0
SPLINE
  5
449
100
AcDbEntity
  8
0
100
AcDbSpline
 62
7
  6
CONTINUOUS
 70
0
 71
3
 72
11
 73
7
 74
0
 42
0.0000001
 43
0.0000001
 44
0.0000000001
 40
0.0
 40
0.0
 40
0.0
 40
0.0
 40
0.32598349
 40
0.6124620906
 40
0.8418091866
 40
1.0
 40
1.0
 40
1.0
 40
1.0
 10
-11.960546992
 20
258.7902530069
 30
0.0
 10
-11.9670730968
 20
258.1083934387
 30
0.0
 10
-11.9860216113
 20
256.8273790503
 30
0.0
 10
-12.033541371
 20
255.0669868713
 30
0.0
 10
-12.0968781722
 20
253.6586073725
 30
0.0
 10
-12.15335301
 20
252.8494440587
 30
0.0
 10
-12.1910397484
 20
252.5206943151
 30
0.0
  0
SPLINE
  5
44A
100
AcDbEntity
  8
0
100
AcDbSpline
 62
7
  6
CONTINUOUS
 70
0
 71
3
 72
9
 73
5
 74
0
 42
0.0000001
 43
0.0000001
 44
0.0000000001
 40
0.0
 40
0.0
 40
0.0
 40
0.0
 40
0.251428532
 40
1.0
 40
1.0
 40
1.0
 40
1.0
 10
-11.9493120684
 20
260.7555191068
 30
0.0
 10
-11.9495545363
 20
260.5908176274
 30
0.0
 10
-11.9514394778
 20
259.9357557749
 30
0.0
 10
-11.9565470875
 20
259.2807089878
 30
0.0
 10
-11.9605474428
 20
258.7903634489
 30
0.0
  0
SPLINE
  5
44B
100
AcDbEntity
  8
0
100
AcDbSpline
 62
7
  6
CONTINUOUS
 70
0
 71
3
 72
9
 73
5
 74
0
 42
0.0000001
 43
0.0000001
 44
0.0000000001
 40
0.0
 40
0.0
 40
0.0
 40
0.0
 40
0.195514511
 40
1.0
 40
1.0
 40
1.0
 40
1.0
 10
-14.6005290829
 20
254.7993649634
 30
0.0
 10
-14.5997907187
 20
254.8643076285
 30
0.0
 10
-14.5975672337
 20
255.1964871699
 30
0.0
 10
-14.5991011541
 20
255.5286818623
 30
0.0
 10
-14.6014580936
 20
255.7959089641
 30
0.0
  0
SPLINE
  5
44C
100
AcDbEntity
  8
0
100
AcDbSpline
 62
7
  6
CONTINUOUS
 70
0
 71
3
 72
11
 73
7
 74
0
 42
0.0000001
 43
0.0000001
 44
0.0000000001
 40
0.0
 40
0.0
 40
0.0
 40
0.0
 40
0.3250273367
 40
0.6111020046
 40
0.840431393
 40
1.0
 40
1.0
 40
1.0
 40
1.0
 10
-14.3715030009
 20
259.3312863053
 30
0.0
 10
-14.3780072905
 20
258.8394721221
 30
0.0
 10
-14.3969927981
 20
257.9148866512
 30
0.0
 10
-14.4439903569
 20
256.6437595846
 30
0.0
 10
-14.5072163555
 20
255.6244221485
 30
0.0
 10
-14.5632286211
 20
255.0379508051
 30
0.0
 10
-14.6004450981
 20
254.7993641127
 30
0.0
  0
SPLINE
  5
44D
100
AcDbEntity
  8
0
100
AcDbSpline
 62
7
  6
CONTINUOUS
 70
0
 71
3
 72
9
 73
5
 74
0
 42
0.0000001
 43
0.0000001
 44
0.0000000001
 40
0.0
 40
0.0
 40
0.0
 40
0.0
 40
0.2517121113
 40
1.0
 40
1.0
 40
1.0
 40
1.0
 10
-14.3579580997
 20
260.7608609166
 30
0.0
 10
-14.3583188973
 20
260.6409086194
 30
0.0
 10
-14.3608535351
 20
260.1643658747
 30
0.0
 10
-14.3667817219
 20
259.6878500135
 30
0.0
 10
-14.3714954742
 20
259.3312862618
 30
0.0
  0
SPLINE
  5
44E
100
AcDbEntity
  8
0
100
AcDbSpline
 62
7
  6
CONTINUOUS
 70
0
 71
3
 72
9
 73
5
 74
0
 42
0.0000001
 43
0.0000001
 44
0.0000000001
 40
0.0
 40
0.0
 40
0.0
 40
0.0
 40
0.4450575271
 40
1.0
 40
1.0
 40
1.0
 40
1.0
 10
-14.6016055014
 20
255.795915244
 30
0.0
 10
-14.5629358679
 20
256.5316636103
 30
0.0
 10
-14.5164142063
 20
258.1867952138
 30
0.0
 10
-14.5014104302
 20
259.8421896626
 30
0.0
 10
-14.5014045808
 20
260.7608609323
 30
0.0
  0
SPLINE
  5
44F
100
AcDbEntity
  8
0
100
AcDbSpline
 62
7
  6
CONTINUOUS
 70
0
 71
3
 72
9
 73
5
 74
0
 42
0.0000001
 43
0.0000001
 44
0.0000000001
 40
0.0
 40
0.0
 40
0.0
 40
0.0
 40
0.2378353505
 40
1.0
 40
1.0
 40
1.0
 40
1.0
 10
-14.7628270893
 20
254.4118287572
 30
0.0
 10
-14.8092981784
 20
254.4118570327
 30
0.0
 10
-15.0045174532
 20
254.4011750687
 30
0.0
 10
-15.1974803269
 20
254.3446743639
 30
0.0
 10
-15.330547696
 20
254.2778127421
 30
0.0
  0
SPLINE
  5
450
100
AcDbEntity
  8
0
100
AcDbSpline
 62
7
  6
CONTINUOUS
 70
0
 71
3
 72
11
 73
7
 74
0
 42
0.0000001
 43
0.0000001
 44
0.0000000001
 40
0.0
 40
0.0
 40
0.0
 40
0.0
 40
0.3984561568
 40
0.6960967897
 40
0.8934801875
 40
1.0
 40
1.0
 40
1.0
 40
1.0
 10
-14.6005794995
 20
254.7934009833
 30
0.0
 10
-14.6094531655
 20
254.7402742983
 30
0.0
 10
-14.6261619052
 20
254.6480646629
 30
0.0
 10
-14.6549010646
 20
254.5292642939
 30
0.0
 10
-14.6805334982
 20
254.4547685855
 30
0.0
 10
-14.7055672981
 20
254.4162836829
 30
0.0
 10
-14.7192671868
 20
254.4118509229
 30
0.0
  0
SPLINE
  5
451
100
AcDbEntity
  8
0
100
AcDbSpline
 62
7
  6
CONTINUOUS
 70
0
 71
3
 72
14
 73
10
 74
0
 42
0.0000001
 43
0.0000001
 44
0.0000000001
 40
0.0
 40
0.0
 40
0.0
 40
0.0
 40
0.026928143
 40
0.0818400944
 40
0.1657668299
 40
0.2782939606
 40
0.4187488265
 40
0.5863787097
 40
1.0
 40
1.0
 40
1.0
 40
1.0
 10
-14.7627933231
 20
254.411828387
 30
0.0
 10
-14.7512256924
 20
254.4166938005
 30
0.0
 10
-14.7349624477
 20
254.4571151755
 30
0.0
 10
-14.7156396955
 20
254.527947671
 30
0.0
 10
-14.6956894978
 20
254.6454947338
 30
0.0
 10
-14.6756114165
 20
254.8003876657
 30
0.0
 10
-14.655848897
 20
254.9957382244
 30
0.0
 10
-14.6282451381
 20
255.3308021199
 30
0.0
 10
-14.6118940066
 20
255.6012845325
 30
0.0
 10
-14.6016555652
 20
255.7937704228
 30
0.0
  0
SPLINE
  5
452
100
AcDbEntity
  8
0
100
AcDbSpline
 62
7
  6
CONTINUOUS
 70
0
 71
3
 72
19
 73
15
 74
0
 42
0.0000001
 43
0.0000001
 44
0.0000000001
 40
0.0
 40
0.0
 40
0.0
 40
0.0
 40
0.0073016947
 40
0.0235336524
 40
0.0488159422
 40
0.0829830771
 40
0.125702582
 40
0.1766102743
 40
0.2352256352
 40
0.3009937215
 40
0.4515187525
 40
0.6225014888
 40
0.807725461
 40
1.0
 40
1.0
 40
1.0
 40
1.0
 10
-16.4259707595
 20
253.2835093508
 30
0.0
 10
-16.4385403946
 20
253.2749463965
 30
0.0
 10
-16.4478247837
 20
253.2199464065
 30
0.0
 10
-16.4674491815
 20
253.1256021086
 30
0.0
 10
-16.4823616484
 20
252.9656549349
 30
0.0
 10
-16.499687455
 20
252.7547970623
 30
0.0
 10
-16.5154785079
 20
252.4885851218
 30
0.0
 10
-16.5308903837
 20
252.1720062829
 30
0.0
 10
-16.5452386868
 20
251.8071028005
 30
0.0
 10
-16.5637914967
 20
251.2347966265
 30
0.0
 10
-16.5827944053
 20
250.4283091345
 30
0.0
 10
-16.5992269829
 20
249.3729273172
 30
0.0
 10
-16.6090986627
 20
248.2304905068
 30
0.0
 10
-16.6111250795
 20
247.4441712082
 30
0.0
 10
-16.6111762721
 20
247.0436692749
 30
0.0
  0
SPLINE
  5
453
100
AcDbEntity
  8
0
100
AcDbSpline
 62
7
  6
CONTINUOUS
 70
0
 71
3
 72
9
 73
5
 74
0
 42
0.0000001
 43
0.0000001
 44
0.0000000001
 40
0.0
 40
0.0
 40
0.0
 40
0.0
 40
0.2285121975
 40
1.0
 40
1.0
 40
1.0
 40
1.0
 10
-14.8200280198
 20
250.2820551629
 30
0.0
 10
-14.8222087001
 20
250.245693914
 30
0.0
 10
-14.831271384
 20
250.0865433357
 30
0.0
 10
-14.8385400021
 20
249.9272944805
 30
0.0
 10
-14.8435529378
 20
249.804415673
 30
0.0
  0
SPLINE
  5
454
100
AcDbEntity
  8
0
100
AcDbSpline
 62
7
  6
CONTINUOUS
 70
0
 71
3
 72
9
 73
5
 74
0
 42
0.0000001
 43
0.0000001
 44
0.0000000001
 40
0.0
 40
0.0
 40
0.0
 40
0.0
 40
0.2255151843
 40
1.0
 40
1.0
 40
1.0
 40
1.0
 10
-14.7983768937
 20
250.5854167599
 30
0.0
 10
-14.800325144
 20
250.5626373468
 30
0.0
 10
-14.8085593854
 20
250.4615921839
 30
0.0
 10
-14.8153276086
 20
250.360431082
 30
0.0
 10
-14.8200280198
 20
250.2820551629
 30
0.0
  0
SPLINE
  5
455
100
AcDbEntity
  8
0
100
AcDbSpline
 62
7
  6
CONTINUOUS
 70
0
 71
3
 72
9
 73
5
 74
0
 42
0.0000001
 43
0.0000001
 44
0.0000000001
 40
0.0
 40
0.0
 40
0.0
 40
0.0
 40
0.2274400407
 40
1.0
 40
1.0
 40
1.0
 40
1.0
 10
-14.7827212608
 20
250.7449173969
 30
0.0
 10
-14.7841040992
 20
250.7328457205
 30
0.0
 10
-14.7899000554
 20
250.6797370066
 30
0.0
 10
-14.7948598045
 20
250.6265394166
 30
0.0
 10
-14.7983768937
 20
250.5854167599
 30
0.0
  0
SPLINE
  5
456
100
AcDbEntity
  8
0
100
AcDbSpline
 62
7
  6
CONTINUOUS
 70
0
 71
3
 72
9
 73
5
 74
0
 42
0.0000001
 43
0.0000001
 44
0.0000000001
 40
0.0
 40
0.0
 40
0.0
 40
0.0
 40
0.2063264111
 40
1.0
 40
1.0
 40
1.0
 40
1.0
 10
-14.7613459451
 20
250.8938788319
 30
0.0
 10
-14.7633137383
 20
250.8837163043
 30
0.0
 10
-14.7719208444
 20
250.8342829188
 30
0.0
 10
-14.7781896307
 20
250.7844768796
 30
0.0
 10
-14.7827212608
 20
250.7449173969
 30
0.0
  0
SPLINE
  5
457
100
AcDbEntity
  8
0
100
AcDbSpline
 62
7
  6
CONTINUOUS
 70
0
 71
3
 72
9
 73
5
 74
0
 42
0.0000001
 43
0.0000001
 44
0.0000000001
 40
0.0
 40
0.0
 40
0.0
 40
0.0
 40
0.3189972068
 40
1.0
 40
1.0
 40
1.0
 40
1.0
 10
-14.7299902674
 20
250.979995204
 30
0.0
 10
-14.739068381
 20
250.9761740823
 30
0.0
 10
-14.7501731557
 20
250.9418842039
 30
0.0
 10
-14.7573486863
 20
250.9145223903
 30
0.0
 10
-14.7613459451
 20
250.8938788319
 30
0.0
  0
LINE
  5
458
100
AcDbEntity
  8
0
100
AcDbLine
 62
7
  6
CONTINUOUS
 10
-17.0215997381
 20
247.0441280651
 11
-16.6111762721
 21
247.0436692749
  0
SPLINE
  5
459
100
AcDbEntity
  8
0
100
AcDbSpline
 62
7
  6
CONTINUOUS
 70
0
 71
3
 72
11
 73
7
 74
0
 42
0.0000001
 43
0.0000001
 44
0.0000000001
 40
0.0
 40
0.0
 40
0.0
 40
0.0
 40
0.3426691147
 40
0.5060035141
 40
0.6527174692
 40
1.0
 40
1.0
 40
1.0
 40
1.0
 10
-16.9805300193
 20
160.0157561883
 30
0.0
 10
-17.1393561956
 20
160.0157576974
 30
0.0
 10
-17.3735444096
 20
160.0321183066
 30
0.0
 10
-17.6726771333
 20
160.0977166806
 30
0.0
 10
-17.95111345
 20
160.1876471743
 30
0.0
 10
-18.2072411583
 20
160.3510757271
 30
0.0
 10
-18.2098357703
 20
160.512019296
 30
0.0
  0
LINE
  5
45A
100
AcDbEntity
  8
0
100
AcDbLine
 62
7
  6
CONTINUOUS
 10
-14.5451783939
 20
261.058501932
 11
-14.5013727377
 21
260.7973366568
  0
LINE
  5
45B
100
AcDbEntity
  8
0
100
AcDbLine
 62
7
  6
CONTINUOUS
 10
-14.6552807864
 20
261.7222232922
 11
-14.5451783939
 21
261.058501932
  0
LINE
  5
45C
100
AcDbEntity
  8
0
100
AcDbLine
 62
7
  6
CONTINUOUS
 10
-14.6552850524
 20
261.7222074438
 11
-14.502636029
 21
261.2739234766
  0
LINE
  5
45D
100
AcDbEntity
  8
0
100
AcDbLine
 62
7
  6
CONTINUOUS
 10
-14.3941745403
 20
260.9560728191
 11
-14.3577627622
 21
260.8494767513
  0
LINE
  5
45E
100
AcDbEntity
  8
0
100
AcDbLine
 62
7
  6
CONTINUOUS
 10
-14.5026315349
 20
261.2739250117
 11
-14.3941739727
 21
260.9560730129
  0
SPLINE
  5
45F
100
AcDbEntity
  8
0
100
AcDbSpline
 62
7
  6
CONTINUOUS
 70
0
 71
3
 72
9
 73
5
 74
0
 42
0.0000001
 43
0.0000001
 44
0.0000000001
 40
0.0
 40
0.0
 40
0.0
 40
0.0
 40
0.220670101
 40
1.0
 40
1.0
 40
1.0
 40
1.0
 10
-11.9645194821
 20
260.9854882283
 30
0.0
 10
-11.9724290032
 20
261.0126463608
 30
0.0
 10
-12.0186241266
 20
261.1327511679
 30
0.0
 10
-12.1013084696
 20
261.2361466947
 30
0.0
 10
-12.1732405733
 20
261.305467526
 30
0.0
  0
SPLINE
  5
460
100
AcDbEntity
  8
0
100
AcDbSpline
 62
7
  6
CONTINUOUS
 70
0
 71
3
 72
10
 73
6
 74
0
 42
0.0000001
 43
0.0000001
 44
0.0000000001
 40
0.0
 40
0.0
 40
0.0
 40
0.0
 40
0.204952052
 40
0.4616847401
 40
1.0
 40
1.0
 40
1.0
 40
1.0
 10
-12.1732405733
 20
261.305467526
 30
0.0
 10
-12.3018036569
 20
261.4293635247
 30
0.0
 10
-12.6528907738
 20
261.6419968255
 30
0.0
 10
-13.4809707053
 20
261.919118714
 30
0.0
 10
-14.1827953643
 20
261.9843880913
 30
0.0
 10
-14.6515710747
 20
261.9712877922
 30
0.0
  0
SPLINE
  5
461
100
AcDbEntity
  8
0
100
AcDbSpline
 62
7
  6
CONTINUOUS
 70
0
 71
3
 72
9
 73
5
 74
0
 42
0.0000001
 43
0.0000001
 44
0.0000000001
 40
0.0
 40
0.0
 40
0.0
 40
0.0
 40
0.3020747603
 40
1.0
 40
1.0
 40
1.0
 40
1.0
 10
-11.9520136739
 20
260.9476827747
 30
0.0
 10
-11.9560287298
 20
260.9480657661
 30
0.0
 10
-11.9585927336
 20
260.9663895172
 30
0.0
 10
-11.9619589958
 20
260.9765282543
 30
0.0
 10
-11.9645194821
 20
260.9854882283
 30
0.0
  0
SPLINE
  5
462
100
AcDbEntity
  8
0
100
AcDbSpline
 62
7
  6
CONTINUOUS
 70
0
 71
3
 72
9
 73
5
 74
0
 42
0.0000001
 43
0.0000001
 44
0.0000000001
 40
0.0
 40
0.0
 40
0.0
 40
0.0
 40
0.286992734
 40
1.0
 40
1.0
 40
1.0
 40
1.0
 10
-11.9500926024
 20
261.0573714448
 30
0.0
 10
-11.950678875
 20
261.0711301526
 30
0.0
 10
-11.9526960288
 20
261.1190713968
 30
0.0
 10
-11.9546971829
 20
261.1670189392
 30
0.0
 10
-11.9554865995
 20
261.2012231034
 30
0.0
  0
SPLINE
  5
463
100
AcDbEntity
  8
0
100
AcDbSpline
 62
7
  6
CONTINUOUS
 70
0
 71
3
 72
9
 73
5
 74
0
 42
0.0000001
 43
0.0000001
 44
0.0000000001
 40
0.0
 40
0.0
 40
0.0
 40
0.0
 40
0.3104734985
 40
1.0
 40
1.0
 40
1.0
 40
1.0
 10
-11.9554865995
 20
261.2012231034
 30
0.0
 10
-11.9555860745
 20
261.205533196
 30
0.0
 10
-11.9558422071
 20
261.219414557
 30
0.0
 10
-11.9560103097
 20
261.2333127447
 30
0.0
 10
-11.955591857
 20
261.2428783733
 30
0.0
  0
SPLINE
  5
464
100
AcDbEntity
  8
0
100
AcDbSpline
 62
7
  6
CONTINUOUS
 70
0
 71
3
 72
9
 73
5
 74
0
 42
0.0000001
 43
0.0000001
 44
0.0000000001
 40
0.0
 40
0.0
 40
0.0
 40
0.0
 40
0.6348640601
 40
1.0
 40
1.0
 40
1.0
 40
1.0
 10
-11.9818701468
 20
261.2740269223
 30
0.0
 10
-11.9865551125
 20
261.3226935053
 30
0.0
 10
-11.9927076743
 20
261.3993236352
 30
0.0
 10
-11.9996001079
 20
261.4763247267
 30
0.0
 10
-11.9983961585
 20
261.5044184535
 30
0.0
  0
SPLINE
  5
465
100
AcDbEntity
  8
0
100
AcDbSpline
 62
7
  6
CONTINUOUS
 70
0
 71
3
 72
9
 73
5
 74
0
 42
0.0000001
 43
0.0000001
 44
0.0000000001
 40
0.0
 40
0.0
 40
0.0
 40
0.0
 40
0.2891167922
 40
1.0
 40
1.0
 40
1.0
 40
1.0
 10
-11.950092603
 20
261.0573714441
 30
0.0
 10
-11.9498385417
 20
261.0513938666
 30
0.0
 10
-11.9488819157
 20
261.0307240451
 30
0.0
 10
-11.9462678253
 20
261.01012091
 30
0.0
 10
-11.9462456493
 20
260.9954099311
 30
0.0
  0
SPLINE
  5
466
100
AcDbEntity
  8
0
100
AcDbSpline
 62
7
  6
CONTINUOUS
 70
0
 71
3
 72
8
 73
4
 74
0
 42
0.0000001
 43
0.0000001
 44
0.0000000001
 40
0.0
 40
0.0
 40
0.0
 40
0.0
 40
1.0
 40
1.0
 40
1.0
 40
1.0
 10
-11.9462456493
 20
260.9954099311
 30
0.0
 10
-11.9462025255
 20
260.9668027519
 30
0.0
 10
-11.9468999841
 20
260.9381984485
 30
0.0
 10
-11.9474892908
 20
260.9095973072
 30
0.0
  0
LINE
  5
467
100
AcDbEntity
  8
0
100
AcDbLine
 62
7
  6
CONTINUOUS
 10
-11.9594731699
 20
261.0473516923
 11
-11.964503383
 21
261.0986153945
  0
LINE
  5
468
100
AcDbEntity
  8
0
100
AcDbLine
 62
7
  6
CONTINUOUS
 10
-11.9514901798
 20
261.0065004671
 11
-11.9485836512
 21
260.9769349265
  0
SPLINE
  5
469
100
AcDbEntity
  8
0
100
AcDbSpline
 62
7
  6
CONTINUOUS
 70
0
 71
3
 72
9
 73
5
 74
0
 42
0.0000001
 43
0.0000001
 44
0.0000000001
 40
0.0
 40
0.0
 40
0.0
 40
0.0
 40
0.2194525041
 40
1.0
 40
1.0
 40
1.0
 40
1.0
 10
-11.9485836512
 20
260.9769349265
 30
0.0
 10
-11.9481765218
 20
260.9720239223
 30
0.0
 10
-11.9471748017
 20
260.9495776794
 30
0.0
 10
-11.9479305053
 20
260.9271081459
 30
0.0
 10
-11.9473226551
 20
260.9095913346
 30
0.0
  0
LINE
  5
46A
100
AcDbEntity
  8
0
100
AcDbLine
 62
7
  6
CONTINUOUS
 10
-11.959415816
 20
260.9516165524
 11
-11.964519763
 21
260.9854891977
  0
SPLINE
  5
46B
100
AcDbEntity
  8
0
100
AcDbSpline
 62
7
  6
CONTINUOUS
 70
0
 71
3
 72
9
 73
5
 74
0
 42
0.0000001
 43
0.0000001
 44
0.0000000001
 40
0.0
 40
0.0
 40
0.0
 40
0.0
 40
0.5980666341
 40
1.0
 40
1.0
 40
1.0
 40
1.0
 10
-11.9483371728
 20
260.9095352154
 30
0.0
 10
-11.9489141431
 20
260.9129306525
 30
0.0
 10
-11.9502497245
 20
260.9186132866
 30
0.0
 10
-11.9543636874
 20
260.9232949102
 30
0.0
 10
-11.9564939477
 20
260.9242001718
 30
0.0
  0
SPLINE
  5
46C
100
AcDbEntity
  8
0
100
AcDbSpline
 62
7
  6
CONTINUOUS
 70
0
 71
3
 72
9
 73
5
 74
0
 42
0.0000001
 43
0.0000001
 44
0.0000000001
 40
0.0
 40
0.0
 40
0.0
 40
0.0
 40
0.4269781053
 40
1.0
 40
1.0
 40
1.0
 40
1.0
 10
-11.9564939477
 20
260.9242001718
 30
0.0
 10
-11.958657905
 20
260.925119753
 30
0.0
 10
-11.9646295339
 20
260.9247030051
 30
0.0
 10
-11.9694416108
 20
260.9220332788
 30
0.0
 10
-11.9721673947
 20
260.9204436104
 30
0.0
  0
SPLINE
  5
46D
100
AcDbEntity
  8
0
100
AcDbSpline
 62
7
  6
CONTINUOUS
 70
0
 71
3
 72
11
 73
7
 74
0
 42
0.0000001
 43
0.0000001
 44
0.0000000001
 40
0.0
 40
0.0
 40
0.0
 40
0.0
 40
0.197932541
 40
0.3573000881
 40
0.6722314694
 40
1.0
 40
1.0
 40
1.0
 40
1.0
 10
-11.9517727614
 20
260.8872031286
 30
0.0
 10
-11.9515578142
 20
260.8847711209
 30
0.0
 10
-11.9505309155
 20
260.8761074055
 30
0.0
 10
-11.9486753447
 20
260.8894193006
 30
0.0
 10
-11.9485046256
 20
260.8969048192
 30
0.0
 10
-11.9482404804
 20
260.9054933634
 30
0.0
 10
-11.9483371728
 20
260.9095352154
 30
0.0
  0
SPLINE
  5
46E
100
AcDbEntity
  8
0
100
AcDbSpline
 62
7
  6
CONTINUOUS
 70
0
 71
3
 72
14
 73
10
 74
0
 42
0.0000001
 43
0.0000001
 44
0.0000000001
 40
0.0
 40
0.0
 40
0.0
 40
0.0
 40
0.4141357427
 40
0.5824145616
 40
0.7230673471
 40
0.835369914
 40
0.9187432308
 40
0.9731112159
 40
1.0
 40
1.0
 40
1.0
 40
1.0
 10
122.5424493476
 20
255.7937567088
 30
0.0
 10
122.5538218177
 20
255.6010666693
 30
0.0
 10
122.5712872986
 20
255.3300851975
 30
0.0
 10
122.5994833229
 20
254.9943776079
 30
0.0
 10
122.6194299098
 20
254.79874814
 30
0.0
 10
122.6394617271
 20
254.6440406411
 30
0.0
 10
122.6593337948
 20
254.5272409551
 30
0.0
 10
122.6785009179
 20
254.4565920495
 30
0.0
 10
122.6949091504
 20
254.4168846364
 30
0.0
 10
122.7063815726
 20
254.411839762
 30
0.0
  0
SPLINE
  5
46F
100
AcDbEntity
  8
0
100
AcDbSpline
 62
7
  6
CONTINUOUS
 70
0
 71
3
 72
10
 73
6
 74
0
 42
0.0000001
 43
0.0000001
 44
0.0000000001
 40
0.0
 40
0.0
 40
0.0
 40
0.0
 40
0.167650677
 40
0.3987621054
 40
1.0
 40
1.0
 40
1.0
 40
1.0
 10
-11.9721673947
 20
260.9204436104
 30
0.0
 10
-11.9826066914
 20
260.9193070228
 30
0.0
 10
-12.0053388663
 20
260.9073110927
 30
0.0
 10
-12.0624845862
 20
260.8820626724
 30
0.0
 10
-12.1164134662
 20
260.8800417545
 30
0.0
 10
-12.1540726712
 20
260.8800584224
 30
0.0
  0
SPLINE
  5
470
100
AcDbEntity
  8
0
100
AcDbSpline
 62
7
  6
CONTINUOUS
 70
0
 71
3
 72
11
 73
7
 74
0
 42
0.0000001
 43
0.0000001
 44
0.0000000001
 40
0.0
 40
0.0
 40
0.0
 40
0.0
 40
0.1679225232
 40
0.4043715454
 40
0.6896577847
 40
1.0
 40
1.0
 40
1.0
 40
1.0
 10
-12.1540726712
 20
260.8800584224
 30
0.0
 10
-12.279573716
 20
260.8801139692
 30
0.0
 10
-12.5796808982
 20
260.9273809347
 30
0.0
 10
-13.0955406179
 20
260.9336984513
 30
0.0
 10
-13.7170187878
 20
260.9512854401
 30
0.0
 10
-14.1622283089
 20
260.955385645
 30
0.0
 10
-14.3941692273
 20
260.9560746337
 30
0.0
  0
SPLINE
  5
471
100
AcDbEntity
  8
0
100
AcDbSpline
 62
7
  6
CONTINUOUS
 70
0
 71
3
 72
9
 73
5
 74
0
 42
0.0000001
 43
0.0000001
 44
0.0000000001
 40
0.0
 40
0.0
 40
0.0
 40
0.0
 40
0.4112521044
 40
1.0
 40
1.0
 40
1.0
 40
1.0
 10
-11.9721665903
 20
260.9204436242
 30
0.0
 10
-11.9918600188
 20
260.9426213474
 30
0.0
 10
-12.0580085078
 20
260.9777915091
 30
0.0
 10
-12.1261653802
 20
260.998986272
 30
0.0
 10
-12.1666255994
 20
261.0118648344
 30
0.0
  0
SPLINE
  5
472
100
AcDbEntity
  8
0
100
AcDbSpline
 62
7
  6
CONTINUOUS
 70
0
 71
3
 72
10
 73
6
 74
0
 42
0.0000001
 43
0.0000001
 44
0.0000000001
 40
0.0
 40
0.0
 40
0.0
 40
0.0
 40
0.173817546
 40
0.4122816042
 40
1.0
 40
1.0
 40
1.0
 40
1.0
 10
-12.1666255994
 20
261.0118648344
 30
0.0
 10
-12.2968149669
 20
261.0533043502
 30
0.0
 10
-12.6101898202
 20
261.1389684343
 30
0.0
 10
-13.390932405
 20
261.241721494
 30
0.0
 10
-14.0406725323
 20
261.2728408132
 30
0.0
 10
-14.5026342424
 20
261.273924087
 30
0.0
  0
SPLINE
  5
473
100
AcDbEntity
  8
0
100
AcDbSpline
 62
7
  6
CONTINUOUS
 70
0
 71
3
 72
8
 73
4
 74
0
 42
0.0000001
 43
0.0000001
 44
0.0000000001
 40
0.0
 40
0.0
 40
0.0
 40
0.0
 40
1.0
 40
1.0
 40
1.0
 40
1.0
 10
-11.9517685983
 20
260.887203139
 30
0.0
 10
-11.9562980847
 20
260.8993885661
 30
0.0
 10
-11.9634509747
 20
260.9107979554
 30
0.0
 10
-11.9721665903
 20
260.9204436242
 30
0.0
  0
SPLINE
  5
474
100
AcDbEntity
  8
0
100
AcDbSpline
 62
7
  6
CONTINUOUS
 70
0
 71
3
 72
14
 73
10
 74
0
 42
0.0000001
 43
0.0000001
 44
0.0000000001
 40
0.0
 40
0.0
 40
0.0
 40
0.0
 40
0.0232444653
 40
0.0784790093
 40
0.1653899469
 40
0.2823141443
 40
0.4271675642
 40
0.5973030444
 40
1.0
 40
1.0
 40
1.0
 40
1.0
 10
-14.5781606041
 20
263.389326716
 30
0.0
 10
-14.5875385911
 20
263.3835402466
 30
0.0
 10
-14.5907901761
 20
263.3395682356
 30
0.0
 10
-14.6050356195
 20
263.2680937088
 30
0.0
 10
-14.6127582425
 20
263.1423406432
 30
0.0
 10
-14.6233385354
 20
262.9786996854
 30
0.0
 10
-14.6318366877
 20
262.7736167397
 30
0.0
 10
-14.6431362864
 20
262.4337907469
 30
0.0
 10
-14.6486094423
 20
262.1621733808
 30
0.0
 10
-14.6515665415
 20
261.9712894187
 30
0.0
  0
SPLINE
  5
475
100
AcDbEntity
  8
0
100
AcDbSpline
 62
7
  6
CONTINUOUS
 70
0
 71
3
 72
9
 73
5
 74
0
 42
0.0000001
 43
0.0000001
 44
0.0000000001
 40
0.0
 40
0.0
 40
0.0
 40
0.0
 40
0.3252641765
 40
1.0
 40
1.0
 40
1.0
 40
1.0
 10
-14.628271914
 20
263.4141249752
 30
0.0
 10
-14.6232787753
 20
263.4132832174
 30
0.0
 10
-14.608160111
 20
263.4100157164
 30
0.0
 10
-14.59275246
 20
263.4049432016
 30
0.0
 10
-14.5844905335
 20
263.3984566405
 30
0.0
  0
SPLINE
  5
476
100
AcDbEntity
  8
0
100
AcDbSpline
 62
7
  6
CONTINUOUS
 70
0
 71
3
 72
9
 73
5
 74
0
 42
0.0000001
 43
0.0000001
 44
0.0000000001
 40
0.0
 40
0.0
 40
0.0
 40
0.0
 40
0.572103323
 40
1.0
 40
1.0
 40
1.0
 40
1.0
 10
-14.5844905335
 20
263.3984566405
 30
0.0
 10
-14.5827975683
 20
263.3971274684
 30
0.0
 10
-14.580016943
 20
263.3945236546
 30
0.0
 10
-14.5783559199
 20
263.3909588301
 30
0.0
 10
-14.5781605167
 20
263.3893608748
 30
0.0
  0
SPLINE
  5
477
100
AcDbEntity
  8
0
100
AcDbSpline
 62
7
  6
CONTINUOUS
 70
0
 71
3
 72
11
 73
7
 74
0
 42
0.0000001
 43
0.0000001
 44
0.0000000001
 40
0.0
 40
0.0
 40
0.0
 40
0.0
 40
0.3788009866
 40
0.6733196468
 40
0.8808123539
 40
1.0
 40
1.0
 40
1.0
 40
1.0
 10
-10.0427192043
 20
261.6323874973
 30
0.0
 10
-10.2792960864
 20
261.5469770003
 30
0.0
 10
-10.6999490169
 20
261.3956229401
 30
0.0
 10
-11.2514150941
 20
261.2005276035
 30
0.0
 10
-11.6422957853
 20
261.0693580383
 30
0.0
 10
-11.8490329575
 20
261.002752383
 30
0.0
 10
-11.9259681701
 20
260.9842013644
 30
0.0
  0
SPLINE
  5
478
100
AcDbEntity
  8
0
100
AcDbSpline
 62
7
  6
CONTINUOUS
 70
0
 71
3
 72
9
 73
5
 74
0
 42
0.0000001
 43
0.0000001
 44
0.0000000001
 40
0.0
 40
0.0
 40
0.0
 40
0.0
 40
0.2962157385
 40
1.0
 40
1.0
 40
1.0
 40
1.0
 10
-5.49150664
 20
263.2350466875
 30
0.0
 10
-5.942347831
 20
263.0810008933
 30
0.0
 10
-7.4629532017
 20
262.5568492938
 30
0.0
 10
-8.9779056343
 20
262.0164648593
 30
0.0
 10
-10.0427192043
 20
261.6323874973
 30
0.0
  0
SPLINE
  5
479
100
AcDbEntity
  8
0
100
AcDbSpline
 62
7
  6
CONTINUOUS
 70
0
 71
3
 72
11
 73
7
 74
0
 42
0.0000001
 43
0.0000001
 44
0.0000000001
 40
0.0
 40
0.0
 40
0.0
 40
0.0
 40
0.1064767994
 40
0.3035948729
 40
0.6012262012
 40
1.0
 40
1.0
 40
1.0
 40
1.0
 10
122.6628208896
 20
254.4118509223
 30
0.0
 10
122.6491149986
 20
254.4162856635
 30
0.0
 10
122.6240341495
 20
254.454731928
 30
0.0
 10
122.5986623461
 20
254.5293642874
 30
0.0
 10
122.5695033249
 20
254.648132767
 30
0.0
 10
122.5518130573
 20
254.7402813682
 30
0.0
 10
122.5423740594
 20
254.793400303
 30
0.0
  0
SPLINE
  5
47A
100
AcDbEntity
  8
0
100
AcDbSpline
 62
7
  6
CONTINUOUS
 70
0
 71
3
 72
11
 73
7
 74
0
 42
0.0000001
 43
0.0000001
 44
0.0000000001
 40
0.0
 40
0.0
 40
0.0
 40
0.0
 40
0.1159836378
 40
0.352624345
 40
0.6716278137
 40
1.0
 40
1.0
 40
1.0
 40
1.0
 10
8.8586893113
 20
270.2685039781
 30
0.0
 10
8.8704854112
 20
270.1658359558
 30
0.0
 10
8.9323362259
 20
269.8573068536
 30
0.0
 10
9.0507450402
 20
269.2710422993
 30
0.0
 10
9.2201255345
 20
268.5016144544
 30
0.0
 10
9.3472276047
 20
267.9390075399
 30
0.0
 10
9.4129211801
 20
267.6538925364
 30
0.0
  0
SPLINE
  5
47B
100
AcDbEntity
  8
0
100
AcDbSpline
 62
7
  6
CONTINUOUS
 70
0
 71
3
 72
11
 73
7
 74
0
 42
0.0000001
 43
0.0000001
 44
0.0000000001
 40
0.0
 40
0.0
 40
0.0
 40
0.0
 40
0.4126084161
 40
0.6244195238
 40
0.7321184668
 40
1.0
 40
1.0
 40
1.0
 40
1.0
 10
-14.6282394872
 20
263.4141325248
 30
0.0
 10
-14.6380184627
 20
263.4158155453
 30
0.0
 10
-14.6500355998
 20
263.4193990346
 30
0.0
 10
-14.6732554516
 20
263.4236898578
 30
0.0
 10
-14.6684160486
 20
263.440353482
 30
0.0
 10
-14.6578151557
 20
263.4413162853
 30
0.0
 10
-14.6517515667
 20
263.4434923587
 30
0.0
  0
SPLINE
  5
47C
100
AcDbEntity
  8
0
100
AcDbSpline
 62
7
  6
CONTINUOUS
 70
0
 71
3
 72
9
 73
5
 74
0
 42
0.0000001
 43
0.0000001
 44
0.0000000001
 40
0.0
 40
0.0
 40
0.0
 40
0.0
 40
0.3633148595
 40
1.0
 40
1.0
 40
1.0
 40
1.0
 10
21.681893646
 20
272.7726579842
 30
0.0
 10
21.6830718269
 20
272.7336433922
 30
0.0
 10
21.6959914655
 20
272.6267791783
 30
0.0
 10
21.7102438211
 20
272.5203840398
 30
0.0
 10
21.720066399
 20
272.452691335
 30
0.0
  0
SPLINE
  5
47D
100
AcDbEntity
  8
0
100
AcDbSpline
 62
7
  6
CONTINUOUS
 70
0
 71
3
 72
9
 73
5
 74
0
 42
0.0000001
 43
0.0000001
 44
0.0000000001
 40
0.0
 40
0.0
 40
0.0
 40
0.0
 40
0.2471803411
 40
1.0
 40
1.0
 40
1.0
 40
1.0
 10
21.9458142236
 20
270.9772525095
 30
0.0
 10
21.9588327045
 20
270.9010734545
 30
0.0
 10
22.0107186947
 20
270.5927471492
 30
0.0
 10
22.0596396298
 20
270.2839297876
 30
0.0
 10
22.0957912848
 20
270.0513459514
 30
0.0
  0
SPLINE
  5
47E
100
AcDbEntity
  8
0
100
AcDbSpline
 62
7
  6
CONTINUOUS
 70
0
 71
3
 72
11
 73
7
 74
0
 42
0.0000001
 43
0.0000001
 44
0.0000000001
 40
0.0
 40
0.0
 40
0.0
 40
0.0
 40
0.1180946775
 40
0.3571626717
 40
0.675571585
 40
1.0
 40
1.0
 40
1.0
 40
1.0
 10
99.0848733096
 20
270.2685162294
 30
0.0
 10
99.0728628127
 20
270.1639849778
 30
0.0
 10
99.0100211616
 20
269.8515339794
 30
0.0
 10
98.8908636241
 20
269.2618741592
 30
0.0
 10
98.7217920968
 20
268.4943453564
 30
0.0
 10
98.5955667835
 20
267.9357163129
 30
0.0
 10
98.5306660515
 20
267.6540400341
 30
0.0
  0
SPLINE
  5
47F
100
AcDbEntity
  8
0
100
AcDbSpline
 62
7
  6
CONTINUOUS
 70
0
 71
3
 72
9
 73
5
 74
0
 42
0.0000001
 43
0.0000001
 44
0.0000000001
 40
0.0
 40
0.0
 40
0.0
 40
0.0
 40
0.5543574233
 40
1.0
 40
1.0
 40
1.0
 40
1.0
 10
122.4445925074
 20
260.7608609179
 30
0.0
 10
122.4448568055
 20
259.8463301557
 30
0.0
 10
122.4600170006
 20
258.1966716935
 30
0.0
 10
122.5048336587
 20
256.5472220158
 30
0.0
 10
122.5428921877
 20
255.8130252986
 30
0.0
  0
SPLINE
  5
480
100
AcDbEntity
  8
0
100
AcDbSpline
 62
7
  6
CONTINUOUS
 70
0
 71
3
 72
11
 73
7
 74
0
 42
0.0000001
 43
0.0000001
 44
0.0000000001
 40
0.0
 40
0.0
 40
0.0
 40
0.0
 40
0.1597583496
 40
0.3891314869
 40
0.6751298578
 40
1.0
 40
1.0
 40
1.0
 40
1.0
 10
122.5436478325
 20
254.8016177702
 30
0.0
 10
122.5065234837
 20
255.0403865667
 30
0.0
 10
122.4505772781
 20
255.6269155722
 30
0.0
 10
122.3874502648
 20
256.6459867375
 30
0.0
 10
122.3405157883
 20
257.9161880757
 30
0.0
 10
122.3215545865
 20
258.8399567762
 30
0.0
 10
122.3150567074
 20
259.3312863053
 30
0.0
  0
SPLINE
  5
481
100
AcDbEntity
  8
0
100
AcDbSpline
 62
7
  6
CONTINUOUS
 70
0
 71
3
 72
9
 73
5
 74
0
 42
0.0000001
 43
0.0000001
 44
0.0000000001
 40
0.0
 40
0.0
 40
0.0
 40
0.0
 40
0.2475353509
 40
1.0
 40
1.0
 40
1.0
 40
1.0
 10
122.315049181
 20
259.3312862618
 30
0.0
 10
122.3134898629
 20
259.4492382135
 30
0.0
 10
122.307309564
 20
259.9257441937
 30
0.0
 10
122.3025903689
 20
260.4022776778
 30
0.0
 10
122.3015118067
 20
260.7608609166
 30
0.0
  0
LINE
  5
482
100
AcDbEntity
  8
0
100
AcDbLine
 62
7
  6
CONTINUOUS
 10
122.3013164682
 20
260.8494767514
 11
122.3377282468
 21
260.956072819
  0
LINE
  5
483
100
AcDbEntity
  8
0
100
AcDbLine
 62
7
  6
CONTINUOUS
 10
122.3377276791
 20
260.9560730129
 11
122.4461852416
 21
261.2739250116
  0
LINE
  5
484
100
AcDbEntity
  8
0
100
AcDbLine
 62
7
  6
CONTINUOUS
 10
122.4461893103
 20
261.2739236217
 11
122.5988384941
 21
261.7222080642
  0
LINE
  5
485
100
AcDbEntity
  8
0
100
AcDbLine
 62
7
  6
CONTINUOUS
 10
122.5988301295
 20
261.722211468
 11
122.4887289459
 21
261.0584753481
  0
LINE
  5
486
100
AcDbEntity
  8
0
100
AcDbLine
 62
7
  6
CONTINUOUS
 10
122.4887289459
 20
261.0584753481
 11
122.4449371653
 21
260.79740007
  0
SPLINE
  5
487
100
AcDbEntity
  8
0
100
AcDbSpline
 62
7
  6
CONTINUOUS
 70
0
 71
3
 72
8
 73
4
 74
0
 42
0.0000001
 43
0.0000001
 44
0.0000000001
 40
0.0
 40
0.0
 40
0.0
 40
0.0
 40
1.0
 40
1.0
 40
1.0
 40
1.0
 10
119.8953264979
 20
260.8872017527
 30
0.0
 10
119.8991551553
 20
260.8974454307
 30
0.0
 10
119.9048308613
 20
260.9071339027
 30
0.0
 10
119.9117507112
 20
260.915601915
 30
0.0
  0
SPLINE
  5
488
100
AcDbEntity
  8
0
100
AcDbSpline
 62
7
  6
CONTINUOUS
 70
0
 71
3
 72
9
 73
5
 74
0
 42
0.0000001
 43
0.0000001
 44
0.0000000001
 40
0.0
 40
0.0
 40
0.0
 40
0.0
 40
0.5076170903
 40
1.0
 40
1.0
 40
1.0
 40
1.0
 10
119.9117507112
 20
260.915601915
 30
0.0
 10
119.9081080712
 20
260.9182717519
 30
0.0
 10
119.8981904949
 20
260.9252356466
 30
0.0
 10
119.8927032737
 20
260.9140265077
 30
0.0
 10
119.8918957276
 20
260.9097208338
 30
0.0
  0
SPLINE
  5
489
100
AcDbEntity
  8
0
100
AcDbSpline
 62
7
  6
CONTINUOUS
 70
0
 71
3
 72
18
 73
14
 74
0
 42
0.0000001
 43
0.0000001
 44
0.0000000001
 40
0.0
 40
0.0
 40
0.0
 40
0.0
 40
0.1788149332
 40
0.3523703192
 40
0.5147042101
 40
0.6607196411
 40
0.7857411801
 40
0.8391587975
 40
0.8857527702
 40
0.9251485185
 40
0.9570457526
 40
0.9820369292
 40
1.0
 40
1.0
 40
1.0
 40
1.0
 10
122.3377229336
 20
260.9560746337
 30
0.0
 10
122.1926094688
 20
260.9555827638
 30
0.0
 10
121.9066486308
 20
260.9537383281
 30
0.0
 10
121.4890142968
 20
260.9461596061
 30
0.0
 10
121.0980383893
 20
260.9365582339
 30
0.0
 10
120.7464754832
 20
260.92842962
 30
0.0
 10
120.4833280367
 20
260.91512619
 30
0.0
 10
120.3017587368
 20
260.8955783637
 30
0.0
 10
120.1890181959
 20
260.8854509862
 30
0.0
 10
120.093544534
 20
260.8810126903
 30
0.0
 10
120.0152606605
 20
260.876314425
 30
0.0
 10
119.9548229688
 20
260.8902668427
 30
0.0
 10
119.9261608705
 20
260.9133985801
 30
0.0
 10
119.9117507112
 20
260.915601915
 30
0.0
  0
SPLINE
  5
48A
100
AcDbEntity
  8
0
100
AcDbSpline
 62
7
  6
CONTINUOUS
 70
0
 71
3
 72
14
 73
10
 74
0
 42
0.0000001
 43
0.0000001
 44
0.0000000001
 40
0.0
 40
0.0
 40
0.0
 40
0.0
 40
0.0470373366
 40
0.1216892145
 40
0.224146223
 40
0.3500836343
 40
0.4955319101
 40
0.6559593267
 40
1.0
 40
1.0
 40
1.0
 40
1.0
 10
119.9117507112
 20
260.915601915
 30
0.0
 10
119.9371716779
 20
260.9470791161
 30
0.0
 10
120.0392395924
 20
260.9903229911
 30
0.0
 10
120.219824565
 20
261.0469899954
 30
0.0
 10
120.4730167219
 20
261.1159918336
 30
0.0
 10
120.7898605732
 20
261.1700286718
 30
0.0
 10
121.158920219
 20
261.2139229418
 30
0.0
 10
121.7161281319
 20
261.2596009782
 30
0.0
 10
122.1502535263
 20
261.2732305267
 30
0.0
 10
122.4461879483
 20
261.273924087
 30
0.0
  0
SPLINE
  5
48B
100
AcDbEntity
  8
0
100
AcDbSpline
 62
7
  6
CONTINUOUS
 70
0
 71
3
 72
10
 73
6
 74
0
 42
0.0000001
 43
0.0000001
 44
0.0000000001
 40
0.0
 40
0.0
 40
0.0
 40
0.0
 40
0.2440875433
 40
0.440484127
 40
1.0
 40
1.0
 40
1.0
 40
1.0
 10
119.8953269541
 20
260.8872017584
 30
0.0
 10
119.8951210183
 20
260.8836065724
 30
0.0
 10
119.8940899579
 20
260.8707005694
 30
0.0
 10
119.8920302437
 20
260.8944485232
 30
0.0
 10
119.8920558574
 20
260.9016099838
 30
0.0
 10
119.8908650645
 20
260.9097783077
 30
0.0
  0
SPLINE
  5
48C
100
AcDbEntity
  8
0
100
AcDbSpline
 62
7
  6
CONTINUOUS
 70
0
 71
3
 72
8
 73
4
 74
0
 42
0.0000001
 43
0.0000001
 44
0.0000000001
 40
0.0
 40
0.0
 40
0.0
 40
0.0
 40
1.0
 40
1.0
 40
1.0
 40
1.0
 10
100.5489377126
 20
269.9356728135
 30
0.0
 10
101.0221560362
 20
269.8311827838
 30
0.0
 10
101.4958710359
 20
269.7289212809
 30
0.0
 10
101.9686343721
 20
269.6223915853
 30
0.0
  0
SPLINE
  5
48D
100
AcDbEntity
  8
0
100
AcDbSpline
 62
7
  6
CONTINUOUS
 70
0
 71
3
 72
9
 73
5
 74
0
 42
0.0000001
 43
0.0000001
 44
0.0000000001
 40
0.0
 40
0.0
 40
0.0
 40
0.0
 40
0.3244825772
 40
1.0
 40
1.0
 40
1.0
 40
1.0
 10
122.5718252004
 20
263.4141226007
 30
0.0
 10
122.5668450368
 20
263.4132795613
 30
0.0
 10
122.5517274226
 20
263.4099973658
 30
0.0
 10
122.5363473838
 20
263.4048823679
 30
0.0
 10
122.5280665572
 20
263.3984015876
 30
0.0
  0
SPLINE
  5
48E
100
AcDbEntity
  8
0
100
AcDbSpline
 62
7
  6
CONTINUOUS
 70
0
 71
3
 72
9
 73
5
 74
0
 42
0.0000001
 43
0.0000001
 44
0.0000000001
 40
0.0
 40
0.0
 40
0.0
 40
0.0
 40
0.5734194236
 40
1.0
 40
1.0
 40
1.0
 40
1.0
 10
122.5280665572
 20
263.3984015876
 30
0.0
 10
122.5263698396
 20
263.3970736943
 30
0.0
 10
122.5235830099
 20
263.3944870993
 30
0.0
 10
122.5219061376
 20
263.3909317001
 30
0.0
 10
122.5217122654
 20
263.3893406351
 30
0.0
  0
SPLINE
  5
48F
100
AcDbEntity
  8
0
100
AcDbSpline
 62
7
  6
CONTINUOUS
 70
0
 71
3
 72
9
 73
5
 74
0
 42
0.0000001
 43
0.0000001
 44
0.0000000001
 40
0.0
 40
0.0
 40
0.0
 40
0.0
 40
0.6799024707
 40
1.0
 40
1.0
 40
1.0
 40
1.0
 10
119.895597026
 20
260.947087084
 30
0.0
 10
119.8945230603
 20
260.9386258896
 30
0.0
 10
119.8917823332
 20
260.9263324965
 30
0.0
 10
119.8910636141
 20
260.9137888839
 30
0.0
 10
119.89086497
 20
260.9097783162
 30
0.0
  0
SPLINE
  5
490
100
AcDbEntity
  8
0
100
AcDbSpline
 62
7
  6
CONTINUOUS
 70
0
 71
3
 72
9
 73
5
 74
0
 42
0.0000001
 43
0.0000001
 44
0.0000000001
 40
0.0
 40
0.0
 40
0.0
 40
0.0
 40
0.6893370177
 40
1.0
 40
1.0
 40
1.0
 40
1.0
 10
119.9080734744
 20
260.9854892124
 30
0.0
 10
119.9053227688
 20
260.9765786592
 30
0.0
 10
119.9020544533
 20
260.9657035268
 30
0.0
 10
119.8996908279
 20
260.9480376205
 30
0.0
 10
119.8955970305
 20
260.9470870839
 30
0.0
  0
SPLINE
  5
491
100
AcDbEntity
  8
0
100
AcDbSpline
 62
7
  6
CONTINUOUS
 70
0
 71
3
 72
14
 73
10
 74
0
 42
0.0000001
 43
0.0000001
 44
0.0000000001
 40
0.0
 40
0.0
 40
0.0
 40
0.0
 40
0.0232588108
 40
0.0784865937
 40
0.1653941345
 40
0.282318429
 40
0.4271685284
 40
0.5972928225
 40
1.0
 40
1.0
 40
1.0
 40
1.0
 10
122.5217120133
 20
263.389337372
 30
0.0
 10
122.5310924365
 20
263.3835416859
 30
0.0
 10
122.5343724892
 20
263.339583385
 30
0.0
 10
122.5485651336
 20
263.2680844533
 30
0.0
 10
122.5562744043
 20
263.1423427505
 30
0.0
 10
122.5668902509
 20
262.9787023197
 30
0.0
 10
122.5755506647
 20
262.7736324885
 30
0.0
 10
122.5866986566
 20
262.4337962066
 30
0.0
 10
122.5914134075
 20
262.1621658792
 30
0.0
 10
122.5951147388
 20
261.9712880727
 30
0.0
  0
SPLINE
  5
492
100
AcDbEntity
  8
0
100
AcDbSpline
 62
7
  6
CONTINUOUS
 70
0
 71
3
 72
9
 73
5
 74
0
 42
0.0000001
 43
0.0000001
 44
0.0000000001
 40
0.0
 40
0.0
 40
0.0
 40
0.0
 40
0.6231551138
 40
1.0
 40
1.0
 40
1.0
 40
1.0
 10
119.9080570212
 20
261.0986147062
 30
0.0
 10
119.9164064611
 20
261.1828008079
 30
0.0
 10
119.9279362243
 20
261.3177473737
 30
0.0
 10
119.9441403245
 20
261.4533052219
 30
0.0
 10
119.9419498775
 20
261.504418523
 30
0.0
  0
SPLINE
  5
493
100
AcDbEntity
  8
0
100
AcDbSpline
 62
7
  6
CONTINUOUS
 70
0
 71
3
 72
8
 73
4
 74
0
 42
0.0000001
 43
0.0000001
 44
0.0000000001
 40
0.0
 40
0.0
 40
0.0
 40
0.0
 40
1.0
 40
1.0
 40
1.0
 40
1.0
 10
119.8955970305
 20
260.9470870839
 30
0.0
 10
119.898158218
 20
260.9977020077
 30
0.0
 10
119.902957257
 20
261.0481922649
 30
0.0
 10
119.9080570212
 20
261.0986147062
 30
0.0
  0
SPLINE
  5
494
100
AcDbEntity
  8
0
100
AcDbSpline
 62
7
  6
CONTINUOUS
 70
0
 71
3
 72
12
 73
8
 74
0
 42
0.0000001
 43
0.0000001
 44
0.0000000001
 40
0.0
 40
0.0
 40
0.0
 40
0.0
 40
0.165784261
 40
0.2800867241
 40
0.4131670493
 40
0.7110249479
 40
1.0
 40
1.0
 40
1.0
 40
1.0
 10
119.9080734674
 20
260.9854891855
 30
0.0
 10
119.954375312
 20
261.1444700773
 30
0.0
 10
120.1562675387
 20
261.3699786138
 30
0.0
 10
120.5065773866
 20
261.583399673
 30
0.0
 10
121.0111081093
 20
261.7965265523
 30
0.0
 10
121.7188536739
 20
261.9489578612
 30
0.0
 10
122.3065975629
 20
261.9793503682
 30
0.0
 10
122.5951147294
 20
261.9712880732
 30
0.0
  0
SPLINE
  5
495
100
AcDbEntity
  8
0
100
AcDbSpline
 62
7
  6
CONTINUOUS
 70
0
 71
3
 72
8
 73
4
 74
0
 42
0.0000001
 43
0.0000001
 44
0.0000000001
 40
0.0
 40
0.0
 40
0.0
 40
0.0
 40
1.0
 40
1.0
 40
1.0
 40
1.0
 10
119.8953223355
 20
260.8872017631
 30
0.0
 10
119.8981108111
 20
260.9201209038
 30
0.0
 10
119.903063084
 20
260.9528343011
 30
0.0
 10
119.9080734674
 20
260.9854891855
 30
0.0
  0
SPLINE
  5
496
100
AcDbEntity
  8
0
100
AcDbSpline
 62
7
  6
CONTINUOUS
 70
0
 71
3
 72
8
 73
4
 74
0
 42
0.0000001
 43
0.0000001
 44
0.0000000001
 40
0.0
 40
0.0
 40
0.0
 40
0.0
 40
1.0
 40
1.0
 40
1.0
 40
1.0
 10
119.89086497
 20
260.9097783162
 30
0.0
 10
119.8917454858
 20
260.9420370969
 30
0.0
 10
119.8924271301
 20
260.9743359414
 30
0.0
 10
119.8950438869
 20
261.0065004688
 30
0.0
  0
SPLINE
  5
497
100
AcDbEntity
  8
0
100
AcDbSpline
 62
7
  6
CONTINUOUS
 70
0
 71
3
 72
8
 73
4
 74
0
 42
0.0000001
 43
0.0000001
 44
0.0000000001
 40
0.0
 40
0.0
 40
0.0
 40
0.0
 40
1.0
 40
1.0
 40
1.0
 40
1.0
 10
122.938472525
 20
254.2958204772
 30
0.0
 10
123.1038666082
 20
254.2959211818
 30
0.0
 10
123.2723194795
 20
254.2623446681
 30
0.0
 10
123.425130076
 20
254.1990664372
 30
0.0
  0
SPLINE
  5
498
100
AcDbEntity
  8
0
100
AcDbSpline
 62
7
  6
CONTINUOUS
 70
0
 71
3
 72
11
 73
7
 74
0
 42
0.0000001
 43
0.0000001
 44
0.0000000001
 40
0.0
 40
0.0
 40
0.0
 40
0.0
 40
0.2306988872
 40
0.4768298815
 40
0.7379531688
 40
1.0
 40
1.0
 40
1.0
 40
1.0
 10
124.8972824023
 20
154.4203484351
 30
0.0
 10
124.8288224459
 20
154.24430527
 30
0.0
 10
124.5672714358
 20
153.9193761509
 30
0.0
 10
123.9708986649
 20
153.7154888424
 30
0.0
 10
123.3267741516
 20
153.8012238445
 30
0.0
 10
122.9516848725
 20
154.0418449132
 30
0.0
 10
122.803106012
 20
154.1966256152
 30
0.0
  0
SPLINE
  5
499
100
AcDbEntity
  8
0
100
AcDbSpline
 62
7
  6
CONTINUOUS
 70
0
 71
3
 72
11
 73
7
 74
0
 42
0.0000001
 43
0.0000001
 44
0.0000000001
 40
0.0
 40
0.0
 40
0.0
 40
0.0
 40
0.2115173542
 40
0.4745617448
 40
0.756578933
 40
1.0
 40
1.0
 40
1.0
 40
1.0
 10
124.5529047315
 20
153.5347747348
 30
0.0
 10
124.4894954149
 20
153.371720462
 30
0.0
 10
124.2322695552
 20
153.0436735583
 30
0.0
 10
123.6074376935
 20
152.8341284298
 30
0.0
 10
122.9414800819
 20
152.9511719351
 30
0.0
 10
122.5725225897
 20
153.2075042587
 30
0.0
 10
122.4365488709
 20
153.3559903442
 30
0.0
  0
SPLINE
  5
49A
100
AcDbEntity
  8
0
100
AcDbSpline
 62
7
  6
CONTINUOUS
 70
0
 71
3
 72
11
 73
7
 74
0
 42
0.0000001
 43
0.0000001
 44
0.0000000001
 40
0.0
 40
0.0
 40
0.0
 40
0.0
 40
0.2434202521
 40
0.52543736
 40
0.7884821731
 40
1.0
 40
1.0
 40
1.0
 40
1.0
 10
119.3270329414
 20
145.3598929656
 30
0.0
 10
119.4630059333
 20
145.2114058124
 30
0.0
 10
119.8319636053
 20
144.9550708863
 30
0.0
 10
120.4979245708
 20
144.8380266786
 30
0.0
 10
121.1227596885
 20
145.0475767571
 30
0.0
 10
121.3799838725
 20
145.3756289101
 30
0.0
 10
121.4433917334
 20
145.5386850735
 30
0.0
  0
SPLINE
  5
49B
100
AcDbEntity
  8
0
100
AcDbSpline
 62
7
  6
CONTINUOUS
 70
0
 71
3
 72
14
 73
10
 74
0
 42
0.0000001
 43
0.0000001
 44
0.0000000001
 40
0.0
 40
0.0
 40
0.0
 40
0.0
 40
0.0725576188
 40
0.1624171728
 40
0.2783318702
 40
0.4179803261
 40
0.5737995039
 40
0.7315018849
 40
1.0
 40
1.0
 40
1.0
 40
1.0
 10
118.3202448394
 20
137.5075260273
 30
0.0
 10
118.3008676207
 20
137.4576972135
 30
0.0
 10
118.2316469614
 20
137.3551135697
 30
0.0
 10
118.0542295669
 20
137.2431694518
 30
0.0
 10
117.8040678943
 20
137.1821003387
 30
0.0
 10
117.499073793
 20
137.1744234862
 30
0.0
 10
117.1683297758
 20
137.2322508911
 30
0.0
 10
116.7597728646
 20
137.3648770361
 30
0.0
 10
116.4818910533
 20
137.5227486605
 30
0.0
 10
116.3273869821
 20
137.6463204863
 30
0.0
  0
SPLINE
  5
49C
100
AcDbEntity
  8
0
100
AcDbSpline
 62
7
  6
CONTINUOUS
 70
0
 71
3
 72
9
 73
5
 74
0
 42
0.0000001
 43
0.0000001
 44
0.0000000001
 40
0.0
 40
0.0
 40
0.0
 40
0.0
 40
0.329325618
 40
1.0
 40
1.0
 40
1.0
 40
1.0
 10
119.8934339605
 20
261.0523785049
 30
0.0
 10
119.8943211519
 20
261.0732819685
 30
0.0
 10
119.8966120069
 20
261.1367390185
 30
0.0
 10
119.9010077071
 20
261.2003106952
 30
0.0
 10
119.8991455658
 20
261.2428783882
 30
0.0
  0
SPLINE
  5
49D
100
AcDbEntity
  8
0
100
AcDbSpline
 62
7
  6
CONTINUOUS
 70
0
 71
3
 72
9
 73
5
 74
0
 42
0.0000001
 43
0.0000001
 44
0.0000000001
 40
0.0
 40
0.0
 40
0.0
 40
0.0
 40
0.2333738231
 40
1.0
 40
1.0
 40
1.0
 40
1.0
 10
119.8934339605
 20
261.0523785048
 30
0.0
 10
119.8928098123
 20
261.0428740802
 30
0.0
 10
119.8893872293
 20
261.0022795902
 30
0.0
 10
119.886259139
 20
260.9609941225
 30
0.0
 10
119.8907111872
 20
260.9300234731
 30
0.0
  0
SPLINE
  5
49E
100
AcDbEntity
  8
0
100
AcDbSpline
 62
7
  6
CONTINUOUS
 70
0
 71
3
 72
10
 73
6
 74
0
 42
0.0000001
 43
0.0000001
 44
0.0000000001
 40
0.0
 40
0.0
 40
0.0
 40
0.0
 40
0.0781504997
 40
0.3519991922
 40
1.0
 40
1.0
 40
1.0
 40
1.0
 10
119.891545154
 20
260.9510100201
 30
0.0
 10
119.8914760563
 20
260.9517809927
 30
0.0
 10
119.8880738183
 20
260.9555987816
 30
0.0
 10
119.8895571043
 20
260.9316751223
 30
0.0
 10
119.887485575
 20
260.9576858899
 30
0.0
 10
119.8877436635
 20
260.9640989988
 30
0.0
  0
SPLINE
  5
49F
100
AcDbEntity
  8
0
100
AcDbSpline
 62
7
  6
CONTINUOUS
 70
0
 71
3
 72
9
 73
5
 74
0
 42
0.0000001
 43
0.0000001
 44
0.0000000001
 40
0.0
 40
0.0
 40
0.0
 40
0.0
 40
0.3235526302
 40
1.0
 40
1.0
 40
1.0
 40
1.0
 10
119.8877436703
 20
260.9640989805
 30
0.0
 10
119.8878150505
 20
260.9775537182
 30
0.0
 10
119.8879356221
 20
261.0191314628
 30
0.0
 10
119.8887536355
 20
261.0607498377
 30
0.0
 10
119.8875015957
 20
261.0888520052
 30
0.0
  0
SPLINE
  5
4A0
100
AcDbEntity
  8
0
100
AcDbSpline
 62
7
  6
CONTINUOUS
 70
0
 71
3
 72
23
 73
19
 74
0
 42
0.0000001
 43
0.0000001
 44
0.0000000001
 40
0.0
 40
0.0
 40
0.0
 40
0.0
 40
0.0312721781
 40
0.0625613108
 40
0.0938254284
 40
0.1250956573
 40
0.2501148387
 40
0.375150322
 40
0.5001883277
 40
0.6252245532
 40
0.6877490621
 40
0.7502740561
 40
0.8127992995
 40
0.8753221173
 40
0.9065911825
 40
0.9378599266
 40
0.9691126284
 40
1.0
 40
1.0
 40
1.0
 40
1.0
 10
99.4005598563
 20
236.7106965507
 30
0.0
 10
99.5412372089
 20
236.9681252567
 30
0.0
 10
99.818049265
 20
237.4885568295
 30
0.0
 10
100.0753568407
 20
238.3331336033
 30
0.0
 10
100.3152840346
 20
239.179473497
 30
0.0
 10
100.7017849458
 20
240.896866689
 30
0.0
 10
101.0865489516
 20
243.5120710916
 30
0.0
 10
101.3491529939
 20
247.022703074
 30
0.0
 10
101.415168726
 20
250.542592013
 30
0.0
 10
101.3151629173
 20
253.4749925918
 30
0.0
 10
101.1295801061
 20
255.813989906
 30
0.0
 10
100.9290976316
 20
257.5626559006
 30
0.0
 10
100.6532077478
 20
259.3009017894
 30
0.0
 10
100.3382282007
 20
260.7351880916
 30
0.0
 10
100.0046341902
 20
261.8596143357
 30
0.0
 10
99.6913367437
 20
262.6861178956
 30
0.0
 10
99.2958502425
 20
263.458720163
 30
0.0
 10
98.8772257281
 20
263.9234560816
 30
0.0
 10
98.6074824483
 20
264.0292545159
 30
0.0
  0
SPLINE
  5
4A1
100
AcDbEntity
  8
0
100
AcDbSpline
 62
7
  6
CONTINUOUS
 70
0
 71
3
 72
10
 73
6
 74
0
 42
0.0000001
 43
0.0000001
 44
0.0000000001
 40
0.0
 40
0.0
 40
0.0
 40
0.0
 40
0.3641252425
 40
0.6699039495
 40
1.0
 40
1.0
 40
1.0
 40
1.0
 10
116.5015835331
 20
132.8308464678
 30
0.0
 10
116.4472383985
 20
132.6909837703
 30
0.0
 10
116.0926239171
 20
132.6248770845
 30
0.0
 10
115.7079052411
 20
132.6707342135
 30
0.0
 10
115.4472274658
 20
132.7356584301
 30
0.0
 10
115.3178745114
 20
132.7777436444
 30
0.0
  0
ENDSEC
  0
SECTION
  2
OBJECTS
  0
DICTIONARY
  5
C
100
AcDbDictionary
280
0
281
1
  3
ACAD_GROUP
350
D
  3
ACAD_MLINESTYLE
350
17
  3
ACAD_LAYOUT
350
1A
  3
ACAD_PLOTSETTINGS
350
19
  3
ACAD_PLOTSTYLENAME
350
E
  0
DICTIONARY
  5
D
102
{ACAD_REACTORS
330
C
102
}
100
AcDbDictionary
280
0
281
1
  0
ACDBDICTIONARYWDFLT
  5
E
102
{ACAD_REACTORS
330
C
102
}
100
AcDbDictionary
281
1
  3
Normal
350
F
100
AcDbDictionaryWithDefault
340
F
  0
DICTIONARY
  5
17
102
{ACAD_REACTORS
330
C
102
}
100
AcDbDictionary
280
0
281
1
  3
Standard
350
18
  0
DICTIONARY
  5
19
102
{ACAD_REACTORS
330
C
102
}
100
AcDbDictionary
281
1
  0
DICTIONARY
  5
1A
102
{ACAD_REACTORS
330
C
102
}
100
AcDbDictionary
281
1
  3
Model
350
4A2
  3
Layout1
350
4A3
  0
ACDBPLACEHOLDER
  5
F
102
{ACAD_REACTORS
330
E
102
}
  0
MLINESTYLE
  5
18
102
{ACAD_REACTORS
330
17
102
}
100
AcDbMlineStyle
  2
STANDARD
 70
0
  3

 62
256
 51
90.0
 52
90.0
 71
2
 49
0.5
 62
256
  6
BYLAYER
 49
-0.5
 62
256
  6
BYLAYER
  0
LAYOUT
  5
4A2
102
{ACAD_REACTORS
330
1A
102
}
100
AcDbPlotSettings
  1

  2
none_device
  4
ANSI_C_(22.00_x_17.00_Inches)
  6

 40
0.0
 41
0.0
 42
0.0
 43
0.0
 44
558.8
 45
431.8
 46
0.0
 47
0.0
 48
0.0
 49
0.0
140
0.0
141
0.0
142
1.0
143
1.0
 70
1024
 72
1
 73
0
 74
0
  7

 75
0
147
1.0
148
0.0
149
0.0
100
AcDbLayout
  1
Model
 70
0
 71
0
 10
0.0
 20
0.0
 11
558.8
 21
431.8
 12
0.0
 22
0.0
 32
0.0
 14
0.0
 24
0.0
 34
0.0
 15
0.0
 25
0.0
 35
0.0
146
0.0
 13
0.0
 23
0.0
 33
0.0
 16
1.0
 26
0.0
 36
0.0
 17
0.0
 27
1.0
 37
0.0
 76
0
330
216
345
0
346
0
  0
LAYOUT
  5
4A3
102
{ACAD_REACTORS
330
1A
102
}
100
AcDbPlotSettings
  1

  2
none_device
  4
ANSI_C_(22.00_x_17.00_Inches)
  6

 40
0.0
 41
0.0
 42
0.0
 43
0.0
 44
558.8
 45
431.8
 46
0.0
 47
0.0
 48
0.0
 49
0.0
140
0.0
141
0.0
142
1.0
143
1.0
 70
0
 72
1
 73
0
 74
0
  7

 75
0
147
1.0
148
0.0
149
0.0
100
AcDbLayout
  1
Layout1
 70
0
 71
1
 10
0.0
 20
0.0
 11
558.8
 21
431.8
 12
0.0
 22
0.0
 32
0.0
 14
0.0
 24
0.0
 34
0.0
 15
0.0
 25
0.0
 35
0.0
146
0.0
 13
0.0
 23
0.0
 33
0.0
 16
1.0
 26
0.0
 36
0.0
 17
0.0
 27
1.0
 37
0.0
 76
0
330
217
345
0
346
0
  0
ENDSEC
  0
EOF
