999
DXF file: C:\Users\sesa63760\Dev\_Creo\CAD\MCADID0005636_3D-CAD\mcadid0005636_3d-simplified_7.dxf
999
Pro/ENGINEER 2019471 by Parametric Technology Corporation
  0
SECTION
  2
HEADER
  9
$ACADVER
  1
AC1024
  9
$DWGCODEPAGE
  3
ANSI_1252
  9
$EXTMAX
 10
63.7006826249
 20
90.0909654267
 30
0.0
  9
$EXTMIN
 10
0.0
 20
0.0
 30
0.0
  9
$LIMMIN
 10
0.0
 20
0.0
  9
$LIMMAX
 10
63.7006826249
 20
90.0909654267
  9
$VIEWCTR
 10
31.8503413125
 20
45.0454827133
  9
$VIEWSIZE
 40
90.0909654267
  9
$CLAYER
  8
0
  9
$LTSCALE
 40
5.8725962649
  9
$CELTYPE
  6
BYLAYER
  9
$DIMSCALE
 40
1.0
  9
$DIMASZ
 40
0.7583414598
  9
$DIMEXO
 40
1.0
  9
$DIMDLI
 40
4.0574301466
  9
$DIMEXE
 40
1.0
  9
$DIMCEN
 40
0.9609702979
  9
$DIMLFAC
 40
1.0
  9
$DIMBLK
  1
_FILLED
  9
$DIMALT
 70
0
  9
$DIMALTF
 40
0.0393700787
  9
$DIMTXT
 40
1.0616780437
  9
$DIMTOL
 70
1
  9
$DIMLIM
 70
0
  9
$DIMTFAC
 40
1.0
  9
$DIMTP
 40
0.01
  9
$DIMTM
 40
0.01
  9
$DIMGAP
 40
0.625
  9
$DIMDSEP
 70
46
  9
$AUNITS
 70
0
  9
$PDMODE
 70
3
  9
$PDSIZE
 40
0.3125
  9
$HANDSEED
  5
324
  9
$TILEMODE
 70
1
  9
$MEASUREMENT
 70
1
  9
$INSUNITS
 70
4
  0
ENDSEC
  0
SECTION
  2
CLASSES
  0
CLASS
  1
ACDBDICTIONARYWDFLT
  2
AcDbDictionaryWithDefault
  3
AutoCAD 2000
 90
0
 91
1
280
0
281
0
  0
CLASS
  1
ACDBPLACEHOLDER
  2
AcDbPlaceHolder
  3
AutoCAD 2000
 90
0
 91
1
280
0
281
0
  0
CLASS
  1
LAYOUT
  2
AcDbLayout
  3
AutoCAD 2000
 90
0
 91
0
280
0
281
0
  0
ENDSEC
  0
SECTION
  2
TABLES
  0
TABLE
  2
VPORT
  5
8
100
AcDbSymbolTable
 70
2
  0
VPORT
  5
1F4
100
AcDbSymbolTableRecord
100
AcDbViewportTableRecord
  2
*ACTIVE
 70
0
 10
0.0
 20
0.0
 11
1.0
 21
1.0
 12
31.8503413125
 22
45.0454827133
 13
0.0
 23
0.0
 14
1.0
 24
1.0
 15
0.0
 25
0.0
 16
0.0
 26
0.0
 36
1.0
 17
0.0
 27
0.0
 37
0.0
 40
90.0909654267
 41
0.7070707071
 42
50.0
 43
0.0
 44
0.0
 50
0.0
 51
0.0
 71
0
 72
100
 73
1
 74
1
 75
0
 76
0
 77
0
 78
0
  0
ENDTAB
  0
TABLE
  2
LTYPE
  5
5
100
AcDbSymbolTable
 70
6
  0
LTYPE
  5
14
100
AcDbSymbolTableRecord
100
AcDbLinetypeTableRecord
  2
BYBLOCK
 70
0
  3

 72
65
 73
0
 40
0.0
  0
LTYPE
  5
15
100
AcDbSymbolTableRecord
100
AcDbLinetypeTableRecord
  2
BYLAYER
 70
0
  3

 72
65
 73
0
 40
0.0
  0
LTYPE
  5
16
100
AcDbSymbolTableRecord
100
AcDbLinetypeTableRecord
  2
CONTINUOUS
 70
64
  3
Solid line
 72
65
 73
0
 40
0.0
  0
LTYPE
  5
1F5
100
AcDbSymbolTableRecord
100
AcDbLinetypeTableRecord
  2
CENTER
 70
64
  3
____ _ ____ _ ____ _ ____ _ ____ _ ____ _ ____
 72
65
 73
4
 40
0.6
 49
0.375
 74
0
 49
-0.075
 74
0
 49
0.075
 74
0
 49
-0.075
 74
0
  0
LTYPE
  5
1F6
100
AcDbSymbolTableRecord
100
AcDbLinetypeTableRecord
  2
HIDDEN
 70
64
  3
- - - - - - - - - - - - - - - - - - - -
 72
65
 73
2
 40
0.2
 49
0.1
 74
0
 49
-0.1
 74
0
  0
LTYPE
  5
1F7
100
AcDbSymbolTableRecord
100
AcDbLinetypeTableRecord
  2
PHANTOM
 70
64
  3
_____ _ _ _____ _ _ _____ _ _ _____
 72
65
 73
6
 40
0.8
 49
0.45
 74
0
 49
-0.05
 74
0
 49
0.1
 74
0
 49
-0.05
 74
0
 49
0.1
 74
0
 49
-0.05
 74
0
  0
LTYPE
  5
1F8
100
AcDbSymbolTableRecord
100
AcDbLinetypeTableRecord
  2
DOT
 70
64
  3
. . . . . . . . . . . . . . . . . . . .
 72
65
 73
2
 40
0.2
 49
0.1
 74
0
 49
-0.1
 74
0
  0
LTYPE
  5
1F9
100
AcDbSymbolTableRecord
100
AcDbLinetypeTableRecord
  2
DASHED
 70
64
  3
- - - - - - - - - - - - - - - - - - - -
 72
65
 73
2
 40
0.2
 49
0.1
 74
0
 49
-0.1
 74
0
  0
ENDTAB
  0
TABLE
  2
LAYER
  5
2
100
AcDbSymbolTable
 70
36
  0
LAYER
  5
10
100
AcDbSymbolTableRecord
100
AcDbLayerTableRecord
  2
0
 70
0
 62
7
  6
CONTINUOUS
370
-3
390
F
  0
LAYER
  5
1FA
100
AcDbSymbolTableRecord
100
AcDbLayerTableRecord
  2
DEFAULT_1
 70
0
 62
7
  6
CENTER
370
-3
390
F
  0
LAYER
  5
1FB
100
AcDbSymbolTableRecord
100
AcDbLayerTableRecord
  2
DEFAULT_2
 70
0
 62
7
  6
HIDDEN
370
-3
390
F
  0
LAYER
  5
1FC
100
AcDbSymbolTableRecord
100
AcDbLayerTableRecord
  2
DEFAULT_3
 70
0
 62
7
  6
PHANTOM
370
-3
390
F
  0
LAYER
  5
1FD
100
AcDbSymbolTableRecord
100
AcDbLayerTableRecord
  2
00_COMPONENTS
 70
0
 62
7
  6
CONTINUOUS
370
-3
390
F
  0
LAYER
  5
1FE
100
AcDbSymbolTableRecord
100
AcDbLayerTableRecord
  2
00_COMPONENTS_1
 70
0
 62
7
  6
CONTINUOUS
370
-3
390
F
  0
LAYER
  5
1FF
100
AcDbSymbolTableRecord
100
AcDbLayerTableRecord
  2
00_COMPONENTS_2
 70
0
 62
7
  6
CONTINUOUS
370
-3
390
F
  0
LAYER
  5
200
100
AcDbSymbolTableRecord
100
AcDbLayerTableRecord
  2
00_COMPONENTS_3
 70
0
 62
7
  6
CONTINUOUS
370
-3
390
F
  0
LAYER
  5
201
100
AcDbSymbolTableRecord
100
AcDbLayerTableRecord
  2
00_COMPONENTS_5
 70
0
 62
7
  6
CONTINUOUS
370
-3
390
F
  0
LAYER
  5
202
100
AcDbSymbolTableRecord
100
AcDbLayerTableRecord
  2
01_1_DEFAULT_DATUMS
 70
0
 62
7
  6
CONTINUOUS
370
-3
390
F
  0
LAYER
  5
203
100
AcDbSymbolTableRecord
100
AcDbLayerTableRecord
  2
01_PLANES
 70
0
 62
7
  6
CONTINUOUS
370
-3
390
F
  0
LAYER
  5
204
100
AcDbSymbolTableRecord
100
AcDbLayerTableRecord
  2
02_COORD_SYS
 70
0
 62
7
  6
CONTINUOUS
370
-3
390
F
  0
LAYER
  5
205
100
AcDbSymbolTableRecord
100
AcDbLayerTableRecord
  2
03_AXES
 70
0
 62
7
  6
CONTINUOUS
370
-3
390
F
  0
LAYER
  5
206
100
AcDbSymbolTableRecord
100
AcDbLayerTableRecord
  2
04_POINTS
 70
0
 62
7
  6
CONTINUOUS
370
-3
390
F
  0
LAYER
  5
207
100
AcDbSymbolTableRecord
100
AcDbLayerTableRecord
  2
05_CURVES
 70
0
 62
7
  6
CONTINUOUS
370
-3
390
F
  0
LAYER
  5
208
100
AcDbSymbolTableRecord
100
AcDbLayerTableRecord
  2
06_SURFS
 70
0
 62
7
  6
CONTINUOUS
370
-3
390
F
  0
LAYER
  5
209
100
AcDbSymbolTableRecord
100
AcDbLayerTableRecord
  2
07_COSMETICS
 70
0
 62
7
  6
CONTINUOUS
370
-3
390
F
  0
LAYER
  5
20A
100
AcDbSymbolTableRecord
100
AcDbLayerTableRecord
  2
10_NOTES
 70
0
 62
7
  6
CONTINUOUS
370
-3
390
F
  0
LAYER
  5
20B
100
AcDbSymbolTableRecord
100
AcDbLayerTableRecord
  2
11_NOTES_PUB
 70
0
 62
7
  6
CONTINUOUS
370
-3
390
F
  0
LAYER
  5
20C
100
AcDbSymbolTableRecord
100
AcDbLayerTableRecord
  2
13_REF_GTOL
 70
0
 62
7
  6
CONTINUOUS
370
-3
390
F
  0
LAYER
  5
20D
100
AcDbSymbolTableRecord
100
AcDbLayerTableRecord
  2
16_MISC
 70
0
 62
7
  6
CONTINUOUS
370
-3
390
F
  0
LAYER
  5
20E
100
AcDbSymbolTableRecord
100
AcDbLayerTableRecord
  2
17_NO_PRINT
 70
0
 62
7
  6
CONTINUOUS
370
-3
390
F
  0
LAYER
  5
20F
100
AcDbSymbolTableRecord
100
AcDbLayerTableRecord
  2
18_DATUM_CAMS_JOINTS
 70
0
 62
7
  6
CONTINUOUS
370
-3
390
F
  0
LAYER
  5
210
100
AcDbSymbolTableRecord
100
AcDbLayerTableRecord
  2
19_DATUM_FUNCTIONAL
 70
0
 62
7
  6
CONTINUOUS
370
-3
390
F
  0
LAYER
  5
211
100
AcDbSymbolTableRecord
100
AcDbLayerTableRecord
  2
20_DATUM_KINEMATIC_SCHEME
 70
0
 62
7
  6
CONTINUOUS
370
-3
390
F
  0
LAYER
  5
212
100
AcDbSymbolTableRecord
100
AcDbLayerTableRecord
  2
INTF_BLANK
 70
0
 62
7
  6
CONTINUOUS
370
-3
390
F
  0
LAYER
  5
213
100
AcDbSymbolTableRecord
100
AcDbLayerTableRecord
  2
SHELL1
 70
0
 62
7
  6
CONTINUOUS
370
-3
390
F
  0
LAYER
  5
214
100
AcDbSymbolTableRecord
100
AcDbLayerTableRecord
  2
SHELL2
 70
0
 62
7
  6
CONTINUOUS
370
-3
390
F
  0
LAYER
  5
215
100
AcDbSymbolTableRecord
100
AcDbLayerTableRecord
  2
SHELL980
 70
0
 62
7
  6
CONTINUOUS
370
-3
390
F
  0
LAYER
  5
216
100
AcDbSymbolTableRecord
100
AcDbLayerTableRecord
  2
_BLACK_HOLE
 70
0
 62
7
  6
CONTINUOUS
370
-3
390
F
  0
LAYER
  5
217
100
AcDbSymbolTableRecord
100
AcDbLayerTableRecord
  2
black
 70
0
 62
7
  6
CONTINUOUS
370
-3
390
F
  0
ENDTAB
  0
TABLE
  2
STYLE
  5
3
100
AcDbSymbolTable
 70
1
  0
STYLE
  5
11
100
AcDbSymbolTableRecord
100
AcDbTextStyleTableRecord
  2
STANDARD
 70
0
 40
0.0
 41
1.0
 50
0.0
 71
0
 42
0.2
  3
ARIAL.TTF
  4

  0
STYLE
  5
218
100
AcDbSymbolTableRecord
100
AcDbTextStyleTableRecord
  2
TEXTSTYLE_1
 70
0
 40
0.0
 41
0.8
 50
0.0
 71
0
 42
0.2
  3
gdt
  4

  0
ENDTAB
  0
TABLE
  2
VIEW
  5
6
100
AcDbSymbolTable
 70
0
  0
ENDTAB
  0
TABLE
  2
UCS
  5
7
100
AcDbSymbolTable
 70
0
  0
ENDTAB
  0
TABLE
  2
APPID
  5
9
100
AcDbSymbolTable
 70
1
  0
APPID
  5
219
100
AcDbSymbolTableRecord
100
AcDbRegAppTableRecord
  2
ACAD
 70
0
  0
ENDTAB
  0
TABLE
  2
BLOCK_RECORD
  5
1
100
AcDbSymbolTable
 70
0
  0
BLOCK_RECORD
  5
21A
100
AcDbSymbolTableRecord
100
AcDbBlockTableRecord
  2
*Model_Space
  0
BLOCK_RECORD
  5
21B
100
AcDbSymbolTableRecord
100
AcDbBlockTableRecord
  2
*Paper_Space
  0
BLOCK_RECORD
  5
21C
100
AcDbSymbolTableRecord
100
AcDbBlockTableRecord
  2
_FILLED
  0
ENDTAB
  0
TABLE
  2
DIMSTYLE
  5
A
100
AcDbSymbolTable
 70
1
100
AcDbDimStyleTable
 71
0
  0
DIMSTYLE
105
21D
100
AcDbSymbolTableRecord
100
AcDbDimStyleTableRecord
  2
STANDARD
 70
0
  3

  4

 40
1.0
 41
0.7583414598
 42
1.0
 43
0.38
 44
1.0
 45
0.0
 46
0.0
 47
0.01
 48
0.01
140
1.0616780437
141
0.09
142
0.0
143
25.4
144
1.0
145
0.0
146
1.0
147
0.625
 71
1
 72
0
 73
0
 74
0
 75
0
 76
0
 77
1
 78
8
 79
2
170
0
171
1
172
0
173
0
174
0
175
0
176
0
177
0
178
0
270
2
179
2
271
2
272
2
273
2
274
2
275
0
280
0
281
0
282
0
283
1
284
8
285
0
286
0
287
3
288
0
340
11
278
46
341
21C
342
21C
343
21C
344
21C
  0
ENDTAB
  0
ENDSEC
  0
SECTION
  2
BLOCKS
  0
BLOCK
  5
20
100
AcDbEntity
  8
0
100
AcDbBlockBegin
  2
*Model_Space
 70
0
 10
0.0
 20
0.0
 30
0.0
  3
*Model_Space
  1

  0
ENDBLK
  5
21
100
AcDbEntity
  8
0
100
AcDbBlockEnd
  0
BLOCK
  5
1C
100
AcDbEntity
  8
0
100
AcDbBlockBegin
  2
*Paper_Space
 70
0
 10
0.0
 20
0.0
 30
0.0
  3
*Paper_Space
  1

  0
ENDBLK
  5
1D
100
AcDbEntity
  8
0
100
AcDbBlockEnd
  0
BLOCK
  5
21E
100
AcDbEntity
  8
0
100
AcDbBlockBegin
  2
_FILLED
 70
64
 10
0.0
 20
0.0
  3
_FILLED
  1

  0
SOLID
  5
21F
100
AcDbEntity
  8
0
  6
BYBLOCK
 62
0
100
AcDbTrace
 10
0.0
 20
0.0
 11
-1.0
 21
0.25
 12
-1.0
 22
-0.25
 13
-1.0
 23
-0.25
  0
ENDBLK
  5
220
100
AcDbEntity
  8
0
  6
BYBLOCK
 62
0
100
AcDbBlockEnd
  0
ENDSEC
  0
SECTION
  2
ENTITIES
  0
LINE
  5
221
100
AcDbEntity
  8
00_COMPONENTS_3
100
AcDbLine
 62
7
  6
BYLAYER
 10
6.763811772
 20
26.436847733
 11
6.763811772
 21
64.9267995318
  0
LINE
  5
222
100
AcDbEntity
  8
00_COMPONENTS_3
100
AcDbLine
 62
7
  6
BYLAYER
 10
57.157411772
 20
26.436847733
 11
52.0990473725
 21
25.1349976274
  0
LINE
  5
223
100
AcDbEntity
  8
00_COMPONENTS_3
100
AcDbLine
 62
7
  6
BYLAYER
 10
11.8221761715
 20
25.1349976274
 11
6.763811772
 21
26.436847733
  0
LINE
  5
224
100
AcDbEntity
  8
00_COMPONENTS_3
100
AcDbLine
 62
7
  6
BYLAYER
 10
8.033811772
 20
29.6879874808
 11
8.033811772
 21
31.0561542858
  0
LINE
  5
225
100
AcDbEntity
  8
00_COMPONENTS_3
100
AcDbLine
 62
7
  6
BYLAYER
 10
8.033811772
 20
33.5854186373
 11
8.033811772
 21
34.9535854424
  0
LINE
  5
226
100
AcDbEntity
  8
00_COMPONENTS_3
100
AcDbLine
 62
7
  6
BYLAYER
 10
8.033811772
 20
56.4100618224
 11
8.033811772
 21
57.7782286275
  0
LINE
  5
227
100
AcDbEntity
  8
00_COMPONENTS_3
100
AcDbLine
 62
7
  6
BYLAYER
 10
8.033811772
 20
60.307492979
 11
8.033811772
 21
61.675659784
  0
LINE
  5
228
100
AcDbEntity
  8
00_COMPONENTS_3
100
AcDbLine
 62
7
  6
BYLAYER
 10
8.287811772
 20
42.4433236324
 11
8.287811772
 21
48.9203236324
  0
LINE
  5
229
100
AcDbEntity
  8
00_COMPONENTS_3
100
AcDbLine
 62
7
  6
BYLAYER
 10
9.557811772
 20
47.6503236324
 11
9.557811772
 21
43.7133236324
  0
LINE
  5
22A
100
AcDbEntity
  8
00_COMPONENTS_3
100
AcDbLine
 62
7
  6
BYLAYER
 10
57.157411772
 20
28.8505766521
 11
54.8525643762
 21
28.2573877103
  0
LINE
  5
22B
100
AcDbEntity
  8
00_COMPONENTS_1
100
AcDbLine
 62
7
  6
BYLAYER
 10
33.557311772
 20
23.1680236324
 11
30.382311772
 21
23.1680236324
  0
LINE
  5
22C
100
AcDbEntity
  8
00_COMPONENTS_3
100
AcDbLine
 62
7
  6
BYLAYER
 10
9.0686591677
 20
28.2573877103
 11
6.763811772
 21
28.8505766521
  0
LINE
  5
22D
100
AcDbEntity
  8
00_COMPONENTS_3
100
AcDbLine
 62
7
  6
BYLAYER
 10
10.3235503029
 20
56.517585714
 11
10.3235503029
 21
57.1641641547
  0
LINE
  5
22E
100
AcDbEntity
  8
00_COMPONENTS_3
100
AcDbLine
 62
7
  6
BYLAYER
 10
10.3235503029
 20
60.8339316225
 11
10.3235503029
 21
61.0615953113
  0
LINE
  5
22F
100
AcDbEntity
  8
00_COMPONENTS_1
100
AcDbLine
 62
7
  6
BYLAYER
 10
10.532211772
 20
24.4888236324
 11
10.532211772
 21
25.4669903739
  0
LINE
  5
230
100
AcDbEntity
  8
00_COMPONENTS_1
100
AcDbLine
 62
7
  6
BYLAYER
 10
10.532211772
 20
65.8966568909
 11
10.532211772
 21
67.3640236324
  0
LINE
  5
231
100
AcDbEntity
  8
00_COMPONENTS_3
100
AcDbLine
 62
7
  6
BYLAYER
 10
11.742211772
 20
48.9203236324
 11
11.742211772
 21
47.6503236324
  0
LINE
  5
232
100
AcDbEntity
  8
00_COMPONENTS_3
100
AcDbLine
 62
7
  6
BYLAYER
 10
11.742211772
 20
43.7133236324
 11
11.742211772
 21
42.4433236324
  0
LINE
  5
233
100
AcDbEntity
  8
00_COMPONENTS_1
100
AcDbLine
 62
7
  6
BYLAYER
 10
53.407411772
 20
24.4888236324
 11
37.8681391737
 21
24.4888236324
  0
LINE
  5
234
100
AcDbEntity
  8
00_COMPONENTS_1
100
AcDbLine
 62
7
  6
BYLAYER
 10
26.0714843703
 20
24.4888236324
 11
10.532211772
 21
24.4888236324
  0
LINE
  5
235
100
AcDbEntity
  8
00_COMPONENTS_3
100
AcDbLine
 62
7
  6
BYLAYER
 10
22.003811772
 20
25.1349976274
 11
11.8221761715
 21
25.1349976274
  0
LINE
  5
236
100
AcDbEntity
  8
00_COMPONENTS_3
100
AcDbLine
 62
7
  6
BYLAYER
 10
41.917411772
 20
25.1349976274
 11
52.0990473725
 21
25.1349976274
  0
LINE
  5
237
100
AcDbEntity
  8
00_COMPONENTS_1
100
AcDbLine
 62
7
  6
BYLAYER
 10
30.382311772
 20
23.1680236324
 11
26.0714843703
 21
24.4888236324
  0
LINE
  5
238
100
AcDbEntity
  8
00_COMPONENTS_3
100
AcDbLine
 62
7
  6
BYLAYER
 10
54.8525643762
 20
30.7898199364
 11
57.157411772
 21
31.3830088782
  0
LINE
  5
239
100
AcDbEntity
  8
00_COMPONENTS_3
100
AcDbLine
 62
7
  6
BYLAYER
 10
57.157411772
 20
31.4458706711
 11
49.385011772
 21
29.4455205655
  0
LINE
  5
23A
100
AcDbEntity
  8
00_COMPONENTS_3
100
AcDbLine
 62
7
  6
BYLAYER
 10
57.157411772
 20
32.7480078086
 11
54.8525643762
 21
32.1548188668
  0
LINE
  5
23B
100
AcDbEntity
  8
00_COMPONENTS_3
100
AcDbLine
 62
7
  6
BYLAYER
 10
44.457411772
 20
25.4888236324
 11
41.917411772
 21
25.4888236324
  0
LINE
  5
23C
100
AcDbEntity
  8
00_COMPONENTS_3
100
AcDbLine
 62
7
  6
BYLAYER
 10
41.892011772
 20
25.4888236324
 11
28.658611772
 21
25.4888236324
  0
LINE
  5
23D
100
AcDbEntity
  8
00_COMPONENTS_3
100
AcDbLine
 62
7
  6
BYLAYER
 10
28.645911772
 20
25.4888236324
 11
22.029211772
 21
25.4888236324
  0
LINE
  5
23E
100
AcDbEntity
  8
00_COMPONENTS_3
100
AcDbLine
 62
7
  6
BYLAYER
 10
19.463811772
 20
25.4888236324
 11
22.003811772
 21
25.4888236324
  0
LINE
  5
23F
100
AcDbEntity
  8
00_COMPONENTS_3
100
AcDbLine
 62
7
  6
BYLAYER
 10
41.917411772
 20
25.5142236324
 11
41.892011772
 21
25.5142236324
  0
LINE
  5
240
100
AcDbEntity
  8
00_COMPONENTS_3
100
AcDbLine
 62
7
  6
BYLAYER
 10
22.029211772
 20
25.5142236324
 11
22.003811772
 21
25.5142236324
  0
LINE
  5
241
100
AcDbEntity
  8
00_COMPONENTS_3
100
AcDbLine
 62
7
  6
BYLAYER
 10
6.763811772
 20
31.3830088782
 11
9.0686591677
 21
30.7898199364
  0
LINE
  5
242
100
AcDbEntity
  8
00_COMPONENTS_3
100
AcDbLine
 62
7
  6
BYLAYER
 10
14.536211772
 20
29.4455205655
 11
6.763811772
 21
31.4458706711
  0
LINE
  5
243
100
AcDbEntity
  8
00_COMPONENTS_3
100
AcDbLine
 62
7
  6
BYLAYER
 10
9.0686591677
 20
32.1548188668
 11
6.763811772
 21
32.7480078086
  0
LINE
  5
244
100
AcDbEntity
  8
00_COMPONENTS_3
100
AcDbLine
 62
7
  6
BYLAYER
 10
14.536211772
 20
66.2286496374
 11
14.536211772
 21
63.6931431149
  0
LINE
  5
245
100
AcDbEntity
  8
00_COMPONENTS_3
100
AcDbLine
 62
7
  6
BYLAYER
 10
14.536211772
 20
62.8012660955
 11
14.536211772
 21
59.7957119583
  0
LINE
  5
246
100
AcDbEntity
  8
00_COMPONENTS_3
100
AcDbLine
 62
7
  6
BYLAYER
 10
14.536211772
 20
58.903834939
 11
14.536211772
 21
55.8474735614
  0
LINE
  5
247
100
AcDbEntity
  8
00_COMPONENTS_3
100
AcDbLine
 62
7
  6
BYLAYER
 10
14.536211772
 20
35.5161737033
 11
14.536211772
 21
32.4598123258
  0
LINE
  5
248
100
AcDbEntity
  8
00_COMPONENTS_3
100
AcDbLine
 62
7
  6
BYLAYER
 10
14.536211772
 20
31.5679353065
 11
14.536211772
 21
28.5623811692
  0
LINE
  5
249
100
AcDbEntity
  8
00_COMPONENTS_3
100
AcDbLine
 62
7
  6
BYLAYER
 10
14.536211772
 20
27.6705041499
 11
14.536211772
 21
25.1349976274
  0
LINE
  5
24A
100
AcDbEntity
  8
00_COMPONENTS_3
100
AcDbLine
 62
7
  6
BYLAYER
 10
6.763811772
 20
51.8467733503
 11
14.536211772
 21
55.8474735614
  0
LINE
  5
24B
100
AcDbEntity
  8
00_COMPONENTS_3
100
AcDbLine
 62
7
  6
BYLAYER
 10
54.8525643762
 20
34.687251093
 11
57.157411772
 21
35.2804400348
  0
LINE
  5
24C
100
AcDbEntity
  8
00_COMPONENTS_3
100
AcDbLine
 62
7
  6
BYLAYER
 10
19.463811772
 20
29.4455205655
 11
14.536211772
 21
29.4455205655
  0
LINE
  5
24D
100
AcDbEntity
  8
00_COMPONENTS_3
100
AcDbLine
 62
7
  6
BYLAYER
 10
44.457411772
 20
29.4455205655
 11
49.385011772
 21
29.4455205655
  0
LINE
  5
24E
100
AcDbEntity
  8
00_COMPONENTS_3
100
AcDbLine
 62
7
  6
BYLAYER
 10
55.887411772
 20
29.6879874808
 11
54.1161894079
 21
29.6879874808
  0
LINE
  5
24F
100
AcDbEntity
  8
00_COMPONENTS_3
100
AcDbLine
 62
7
  6
BYLAYER
 10
9.8050341361
 20
29.6879874808
 11
8.033811772
 21
29.6879874808
  0
LINE
  5
250
100
AcDbEntity
  8
00_COMPONENTS_3
100
AcDbLine
 62
7
  6
BYLAYER
 10
6.763811772
 20
35.2804400348
 11
9.0686591677
 21
34.687251093
  0
LINE
  5
251
100
AcDbEntity
  8
00_COMPONENTS_3
100
AcDbLine
 62
7
  6
BYLAYER
 10
14.536211772
 20
35.5161737033
 11
6.763811772
 21
39.5168739145
  0
LINE
  5
252
100
AcDbEntity
  8
00_COMPONENTS_3
100
AcDbLine
 62
7
  6
BYLAYER
 10
9.8050341361
 20
33.5854186373
 11
9.0686591677
 21
32.1548188668
  0
LINE
  5
253
100
AcDbEntity
  8
00_COMPONENTS_3
100
AcDbLine
 62
7
  6
BYLAYER
 10
9.0686591677
 20
59.208828398
 11
9.8050341361
 21
57.7782286275
  0
LINE
  5
254
100
AcDbEntity
  8
00_COMPONENTS_3
100
AcDbLine
 62
7
  6
BYLAYER
 10
19.463811772
 20
25.4888236324
 11
19.463811772
 21
35.5161737033
  0
LINE
  5
255
100
AcDbEntity
  8
00_COMPONENTS_3
100
AcDbLine
 62
7
  6
BYLAYER
 10
19.463811772
 20
55.8474735614
 11
19.463811772
 21
65.8748236324
  0
LINE
  5
256
100
AcDbEntity
  8
00_COMPONENTS_3
100
AcDbLine
 62
7
  6
BYLAYER
 10
14.4323536173
 20
31.3053763722
 11
14.536211772
 21
31.5679353065
  0
LINE
  5
257
100
AcDbEntity
  8
00_COMPONENTS_3
100
AcDbLine
 62
7
  6
BYLAYER
 10
9.8050341361
 20
29.6879874808
 11
9.0686591677
 21
28.2573877103
  0
LINE
  5
258
100
AcDbEntity
  8
00_COMPONENTS_3
100
AcDbLine
 62
7
  6
BYLAYER
 10
55.887411772
 20
33.5854186373
 11
54.1161894079
 21
33.5854186373
  0
LINE
  5
259
100
AcDbEntity
  8
00_COMPONENTS_3
100
AcDbLine
 62
7
  6
BYLAYER
 10
9.8050341361
 20
33.5854186373
 11
8.033811772
 21
33.5854186373
  0
LINE
  5
25A
100
AcDbEntity
  8
00_COMPONENTS_3
100
AcDbLine
 62
7
  6
BYLAYER
 10
9.0686591677
 20
63.1062595545
 11
9.8050341361
 21
61.675659784
  0
LINE
  5
25B
100
AcDbEntity
  8
00_COMPONENTS_3
100
AcDbLine
 62
7
  6
BYLAYER
 10
22.003811772
 20
25.1349976274
 11
22.003811772
 21
43.3323236324
  0
LINE
  5
25C
100
AcDbEntity
  8
00_COMPONENTS_3
100
AcDbLine
 62
7
  6
BYLAYER
 10
22.003811772
 20
48.0313236324
 11
22.003811772
 21
66.2286496374
  0
LINE
  5
25D
100
AcDbEntity
  8
00_COMPONENTS_3
100
AcDbLine
 62
7
  6
BYLAYER
 10
22.029211772
 20
25.4888236324
 11
22.029211772
 21
43.2942236324
  0
LINE
  5
25E
100
AcDbEntity
  8
00_COMPONENTS_3
100
AcDbLine
 62
7
  6
BYLAYER
 10
22.029211772
 20
48.0694236324
 11
22.029211772
 21
65.8748236324
  0
LINE
  5
25F
100
AcDbEntity
  8
00_COMPONENTS_3
100
AcDbLine
 62
7
  6
BYLAYER
 10
22.816611772
 20
43.2942236324
 11
22.816611772
 21
48.0694236324
  0
LINE
  5
260
100
AcDbEntity
  8
00_COMPONENTS_3
100
AcDbLine
 62
7
  6
BYLAYER
 10
14.4323536173
 20
27.4079452156
 11
14.536211772
 21
27.6705041499
  0
LINE
  5
261
100
AcDbEntity
  8
00_COMPONENTS_3
100
AcDbLine
 62
7
  6
BYLAYER
 10
14.4847169496
 20
31.6456833152
 11
14.5940195752
 21
31.8580320749
  0
LINE
  5
262
100
AcDbEntity
  8
00_COMPONENTS_3
100
AcDbLine
 62
7
  6
BYLAYER
 10
19.463811772
 20
35.5161737033
 11
14.536211772
 21
35.5161737033
  0
LINE
  5
263
100
AcDbEntity
  8
00_COMPONENTS_3
100
AcDbLine
 62
7
  6
BYLAYER
 10
44.457411772
 20
35.5161737033
 11
49.385011772
 21
35.5161737033
  0
LINE
  5
264
100
AcDbEntity
  8
00_COMPONENTS_3
100
AcDbLine
 62
7
  6
BYLAYER
 10
14.5940195752
 20
59.5056151899
 11
14.4847169496
 21
59.7179639496
  0
LINE
  5
265
100
AcDbEntity
  8
00_COMPONENTS_3
100
AcDbLine
 62
7
  6
BYLAYER
 10
14.536211772
 20
59.7957119583
 11
14.4323536173
 21
60.0582708926
  0
LINE
  5
266
100
AcDbEntity
  8
00_COMPONENTS_3
100
AcDbLine
 62
7
  6
BYLAYER
 10
14.536211772
 20
63.6931431149
 11
14.4323536173
 21
63.9557020491
  0
LINE
  5
267
100
AcDbEntity
  8
00_COMPONENTS_3
100
AcDbLine
 62
7
  6
BYLAYER
 10
14.4847169496
 20
27.7482521586
 11
14.5940195752
 21
27.9606009183
  0
LINE
  5
268
100
AcDbEntity
  8
00_COMPONENTS_3
100
AcDbLine
 62
7
  6
BYLAYER
 10
14.5940195752
 20
63.4030463465
 11
14.4847169496
 21
63.6153951062
  0
LINE
  5
269
100
AcDbEntity
  8
00_COMPONENTS_3
100
AcDbLine
 62
7
  6
BYLAYER
 10
53.597673241
 20
30.3020519535
 11
53.2556376909
 21
30.4416873821
  0
LINE
  5
26A
100
AcDbEntity
  8
00_COMPONENTS_3
100
AcDbLine
 62
7
  6
BYLAYER
 10
28.645911772
 20
25.4888236324
 11
28.645911772
 21
30.2132236324
  0
LINE
  5
26B
100
AcDbEntity
  8
00_COMPONENTS_3
100
AcDbLine
 62
7
  6
BYLAYER
 10
28.658611772
 20
25.4888236324
 11
28.658611772
 21
30.2132236324
  0
LINE
  5
26C
100
AcDbEntity
  8
00_COMPONENTS_3
100
AcDbLine
 62
7
  6
BYLAYER
 10
55.633411772
 20
42.4433236324
 11
52.179011772
 21
42.4433236324
  0
LINE
  5
26D
100
AcDbEntity
  8
00_COMPONENTS_3
100
AcDbLine
 62
7
  6
BYLAYER
 10
11.742211772
 20
42.4433236324
 11
8.287811772
 21
42.4433236324
  0
LINE
  5
26E
100
AcDbEntity
  8
00_COMPONENTS_3
100
AcDbLine
 62
7
  6
BYLAYER
 10
41.917411772
 20
43.2942236324
 11
39.682211772
 21
43.2942236324
  0
LINE
  5
26F
100
AcDbEntity
  8
00_COMPONENTS_3
100
AcDbLine
 62
7
  6
BYLAYER
 10
24.239011772
 20
43.2942236324
 11
22.003811772
 21
43.2942236324
  0
LINE
  5
270
100
AcDbEntity
  8
00_COMPONENTS_3
100
AcDbLine
 62
7
  6
BYLAYER
 10
53.597673241
 20
34.1994831101
 11
51.8899004723
 21
34.8966784234
  0
LINE
  5
271
100
AcDbEntity
  8
00_COMPONENTS_3
100
AcDbLine
 62
7
  6
BYLAYER
 10
31.960611772
 20
33.5152236324
 11
31.960611772
 21
57.8484236324
  0
LINE
  5
272
100
AcDbEntity
  8
00_COMPONENTS_3
100
AcDbLine
 62
7
  6
BYLAYER
 10
41.917411772
 20
43.3323236324
 11
41.104611772
 21
43.3323236324
  0
LINE
  5
273
100
AcDbEntity
  8
00_COMPONENTS_3
100
AcDbLine
 62
7
  6
BYLAYER
 10
22.003811772
 20
43.3323236324
 11
22.816611772
 21
43.3323236324
  0
LINE
  5
274
100
AcDbEntity
  8
00_COMPONENTS_3
100
AcDbLine
 62
7
  6
BYLAYER
 10
9.557811772
 20
43.7133236324
 11
11.742211772
 21
43.7133236324
  0
LINE
  5
275
100
AcDbEntity
  8
00_COMPONENTS_3
100
AcDbLine
 62
7
  6
BYLAYER
 10
52.179011772
 20
43.7133236324
 11
54.363411772
 21
43.7133236324
  0
LINE
  5
276
100
AcDbEntity
  8
00_COMPONENTS_3
100
AcDbLine
 62
7
  6
BYLAYER
 10
53.597673241
 20
34.8460615508
 11
52.9448767654
 21
35.112564596
  0
LINE
  5
277
100
AcDbEntity
  8
00_COMPONENTS_3
100
AcDbLine
 62
7
  6
BYLAYER
 10
53.2993128324
 20
35.1508487631
 11
54.105673241
 21
34.8216535047
  0
LINE
  5
278
100
AcDbEntity
  8
00_COMPONENTS_3
100
AcDbLine
 62
7
  6
BYLAYER
 10
54.363411772
 20
47.6503236324
 11
52.179011772
 21
47.6503236324
  0
LINE
  5
279
100
AcDbEntity
  8
00_COMPONENTS_3
100
AcDbLine
 62
7
  6
BYLAYER
 10
11.742211772
 20
47.6503236324
 11
9.557811772
 21
47.6503236324
  0
LINE
  5
27A
100
AcDbEntity
  8
00_COMPONENTS_3
100
AcDbLine
 62
7
  6
BYLAYER
 10
10.6219107116
 20
56.2127985017
 11
9.8155503029
 21
56.54199376
  0
LINE
  5
27B
100
AcDbEntity
  8
00_COMPONENTS_3
100
AcDbLine
 62
7
  6
BYLAYER
 10
10.3235503029
 20
56.517585714
 11
10.9763467786
 21
56.2510826688
  0
LINE
  5
27C
100
AcDbEntity
  8
00_COMPONENTS_3
100
AcDbLine
 62
7
  6
BYLAYER
 10
35.262611772
 20
65.8748236324
 11
35.262611772
 21
61.1504236324
  0
LINE
  5
27D
100
AcDbEntity
  8
00_COMPONENTS_3
100
AcDbLine
 62
7
  6
BYLAYER
 10
35.275311772
 20
65.8748236324
 11
35.275311772
 21
61.1504236324
  0
LINE
  5
27E
100
AcDbEntity
  8
00_COMPONENTS_3
100
AcDbLine
 62
7
  6
BYLAYER
 10
41.917411772
 20
48.0313236324
 11
41.104611772
 21
48.0313236324
  0
LINE
  5
27F
100
AcDbEntity
  8
00_COMPONENTS_3
100
AcDbLine
 62
7
  6
BYLAYER
 10
22.003811772
 20
48.0313236324
 11
22.816611772
 21
48.0313236324
  0
LINE
  5
280
100
AcDbEntity
  8
00_COMPONENTS_3
100
AcDbLine
 62
7
  6
BYLAYER
 10
22.003811772
 20
48.0694236324
 11
24.239011772
 21
48.0694236324
  0
LINE
  5
281
100
AcDbEntity
  8
00_COMPONENTS_3
100
AcDbLine
 62
7
  6
BYLAYER
 10
39.682211772
 20
48.0694236324
 11
41.917411772
 21
48.0694236324
  0
LINE
  5
282
100
AcDbEntity
  8
00_COMPONENTS_3
100
AcDbLine
 62
7
  6
BYLAYER
 10
8.287811772
 20
48.9203236324
 11
11.742211772
 21
48.9203236324
  0
LINE
  5
283
100
AcDbEntity
  8
00_COMPONENTS_3
100
AcDbLine
 62
7
  6
BYLAYER
 10
52.179011772
 20
48.9203236324
 11
55.633411772
 21
48.9203236324
  0
LINE
  5
284
100
AcDbEntity
  8
00_COMPONENTS_3
100
AcDbLine
 62
7
  6
BYLAYER
 10
10.3235503029
 20
57.1641641547
 11
12.0313230717
 21
56.4669688414
  0
LINE
  5
285
100
AcDbEntity
  8
00_COMPONENTS_3
100
AcDbLine
 62
7
  6
BYLAYER
 10
10.3235503029
 20
61.0615953113
 11
10.665585853
 21
60.9219598826
  0
LINE
  5
286
100
AcDbEntity
  8
00_COMPONENTS_3
100
AcDbLine
 62
7
  6
BYLAYER
 10
41.104611772
 20
43.2942236324
 11
41.104611772
 21
48.0694236324
  0
LINE
  5
287
100
AcDbEntity
  8
00_COMPONENTS_3
100
AcDbLine
 62
7
  6
BYLAYER
 10
49.4365065944
 20
63.6153951062
 11
49.3272039687
 21
63.4030463465
  0
LINE
  5
288
100
AcDbEntity
  8
00_COMPONENTS_3
100
AcDbLine
 62
7
  6
BYLAYER
 10
49.4365065944
 20
59.7179639496
 11
49.3272039687
 21
59.5056151899
  0
LINE
  5
289
100
AcDbEntity
  8
00_COMPONENTS_3
100
AcDbLine
 62
7
  6
BYLAYER
 10
49.3272039687
 20
27.9606009183
 11
49.4365065944
 21
27.7482521586
  0
LINE
  5
28A
100
AcDbEntity
  8
00_COMPONENTS_3
100
AcDbLine
 62
7
  6
BYLAYER
 10
41.892011772
 20
65.8748236324
 11
41.892011772
 21
48.0694236324
  0
LINE
  5
28B
100
AcDbEntity
  8
00_COMPONENTS_3
100
AcDbLine
 62
7
  6
BYLAYER
 10
41.892011772
 20
43.2942236324
 11
41.892011772
 21
25.4888236324
  0
LINE
  5
28C
100
AcDbEntity
  8
00_COMPONENTS_3
100
AcDbLine
 62
7
  6
BYLAYER
 10
41.917411772
 20
25.1349976274
 11
41.917411772
 21
43.3323236324
  0
LINE
  5
28D
100
AcDbEntity
  8
00_COMPONENTS_3
100
AcDbLine
 62
7
  6
BYLAYER
 10
41.917411772
 20
48.0313236324
 11
41.917411772
 21
66.2286496374
  0
LINE
  5
28E
100
AcDbEntity
  8
00_COMPONENTS_3
100
AcDbLine
 62
7
  6
BYLAYER
 10
49.4888699267
 20
63.9557020491
 11
49.385011772
 21
63.6931431149
  0
LINE
  5
28F
100
AcDbEntity
  8
00_COMPONENTS_3
100
AcDbLine
 62
7
  6
BYLAYER
 10
49.4888699267
 20
60.0582708926
 11
49.385011772
 21
59.7957119583
  0
LINE
  5
290
100
AcDbEntity
  8
00_COMPONENTS_3
100
AcDbLine
 62
7
  6
BYLAYER
 10
19.463811772
 20
55.8474735614
 11
14.536211772
 21
55.8474735614
  0
LINE
  5
291
100
AcDbEntity
  8
00_COMPONENTS_3
100
AcDbLine
 62
7
  6
BYLAYER
 10
44.457411772
 20
55.8474735614
 11
49.385011772
 21
55.8474735614
  0
LINE
  5
292
100
AcDbEntity
  8
00_COMPONENTS_3
100
AcDbLine
 62
7
  6
BYLAYER
 10
49.3272039687
 20
31.8580320749
 11
49.4365065944
 21
31.6456833152
  0
LINE
  5
293
100
AcDbEntity
  8
00_COMPONENTS_3
100
AcDbLine
 62
7
  6
BYLAYER
 10
49.385011772
 20
27.6705041499
 11
49.4888699267
 21
27.4079452157
  0
LINE
  5
294
100
AcDbEntity
  8
00_COMPONENTS_3
100
AcDbLine
 62
7
  6
BYLAYER
 10
49.385011772
 20
31.5679353065
 11
49.4888699267
 21
31.3053763722
  0
LINE
  5
295
100
AcDbEntity
  8
00_COMPONENTS_3
100
AcDbLine
 62
7
  6
BYLAYER
 10
44.457411772
 20
65.8748236324
 11
44.457411772
 21
55.8474735614
  0
LINE
  5
296
100
AcDbEntity
  8
00_COMPONENTS_3
100
AcDbLine
 62
7
  6
BYLAYER
 10
44.457411772
 20
35.5161737033
 11
44.457411772
 21
25.4888236324
  0
LINE
  5
297
100
AcDbEntity
  8
00_COMPONENTS_3
100
AcDbLine
 62
7
  6
BYLAYER
 10
54.1161894079
 20
61.675659784
 11
54.8525643762
 21
63.1062595545
  0
LINE
  5
298
100
AcDbEntity
  8
00_COMPONENTS_3
100
AcDbLine
 62
7
  6
BYLAYER
 10
8.033811772
 20
57.7782286275
 11
9.8050341361
 21
57.7782286275
  0
LINE
  5
299
100
AcDbEntity
  8
00_COMPONENTS_3
100
AcDbLine
 62
7
  6
BYLAYER
 10
54.1161894079
 20
57.7782286275
 11
55.887411772
 21
57.7782286275
  0
LINE
  5
29A
100
AcDbEntity
  8
00_COMPONENTS_3
100
AcDbLine
 62
7
  6
BYLAYER
 10
54.8525643762
 20
28.2573877103
 11
54.1161894079
 21
29.6879874808
  0
LINE
  5
29B
100
AcDbEntity
  8
00_COMPONENTS_3
100
AcDbLine
 62
7
  6
BYLAYER
 10
54.1161894079
 20
57.7782286275
 11
54.8525643762
 21
59.208828398
  0
LINE
  5
29C
100
AcDbEntity
  8
00_COMPONENTS_3
100
AcDbLine
 62
7
  6
BYLAYER
 10
54.8525643762
 20
32.1548188668
 11
54.1161894079
 21
33.5854186373
  0
LINE
  5
29D
100
AcDbEntity
  8
00_COMPONENTS_3
100
AcDbLine
 62
7
  6
BYLAYER
 10
49.385011772
 20
25.1349976274
 11
49.385011772
 21
27.6705041499
  0
LINE
  5
29E
100
AcDbEntity
  8
00_COMPONENTS_3
100
AcDbLine
 62
7
  6
BYLAYER
 10
49.385011772
 20
28.5623811692
 11
49.385011772
 21
31.5679353065
  0
LINE
  5
29F
100
AcDbEntity
  8
00_COMPONENTS_3
100
AcDbLine
 62
7
  6
BYLAYER
 10
49.385011772
 20
32.4598123258
 11
49.385011772
 21
35.5161737033
  0
LINE
  5
2A0
100
AcDbEntity
  8
00_COMPONENTS_3
100
AcDbLine
 62
7
  6
BYLAYER
 10
49.385011772
 20
55.8474735614
 11
49.385011772
 21
58.903834939
  0
LINE
  5
2A1
100
AcDbEntity
  8
00_COMPONENTS_3
100
AcDbLine
 62
7
  6
BYLAYER
 10
49.385011772
 20
59.7957119583
 11
49.385011772
 21
62.8012660955
  0
LINE
  5
2A2
100
AcDbEntity
  8
00_COMPONENTS_3
100
AcDbLine
 62
7
  6
BYLAYER
 10
49.385011772
 20
63.6931431149
 11
49.385011772
 21
66.2286496374
  0
LINE
  5
2A3
100
AcDbEntity
  8
00_COMPONENTS_3
100
AcDbLine
 62
7
  6
BYLAYER
 10
57.157411772
 20
39.5168739145
 11
49.385011772
 21
35.5161737033
  0
LINE
  5
2A4
100
AcDbEntity
  8
00_COMPONENTS_3
100
AcDbLine
 62
7
  6
BYLAYER
 10
9.0686591677
 20
56.6763961718
 11
6.763811772
 21
56.08320723
  0
LINE
  5
2A5
100
AcDbEntity
  8
00_COMPONENTS_3
100
AcDbLine
 62
7
  6
BYLAYER
 10
8.033811772
 20
61.675659784
 11
9.8050341361
 21
61.675659784
  0
LINE
  5
2A6
100
AcDbEntity
  8
00_COMPONENTS_3
100
AcDbLine
 62
7
  6
BYLAYER
 10
54.1161894079
 20
61.675659784
 11
55.887411772
 21
61.675659784
  0
LINE
  5
2A7
100
AcDbEntity
  8
00_COMPONENTS_3
100
AcDbLine
 62
7
  6
BYLAYER
 10
19.463811772
 20
61.9181266993
 11
14.536211772
 21
61.9181266993
  0
LINE
  5
2A8
100
AcDbEntity
  8
00_COMPONENTS_3
100
AcDbLine
 62
7
  6
BYLAYER
 10
44.457411772
 20
61.9181266993
 11
49.385011772
 21
61.9181266993
  0
LINE
  5
2A9
100
AcDbEntity
  8
00_COMPONENTS_3
100
AcDbLine
 62
7
  6
BYLAYER
 10
57.157411772
 20
56.08320723
 11
54.8525643762
 21
56.6763961718
  0
LINE
  5
2AA
100
AcDbEntity
  8
00_COMPONENTS_3
100
AcDbLine
 62
7
  6
BYLAYER
 10
49.385011772
 20
55.8474735614
 11
57.157411772
 21
51.8467733503
  0
LINE
  5
2AB
100
AcDbEntity
  8
00_COMPONENTS_3
100
AcDbLine
 62
7
  6
BYLAYER
 10
52.179011772
 20
42.4433236324
 11
52.179011772
 21
43.7133236324
  0
LINE
  5
2AC
100
AcDbEntity
  8
00_COMPONENTS_3
100
AcDbLine
 62
7
  6
BYLAYER
 10
52.179011772
 20
47.6503236324
 11
52.179011772
 21
48.9203236324
  0
LINE
  5
2AD
100
AcDbEntity
  8
00_COMPONENTS_3
100
AcDbLine
 62
7
  6
BYLAYER
 10
6.763811772
 20
58.6156394561
 11
9.0686591677
 21
59.208828398
  0
LINE
  5
2AE
100
AcDbEntity
  8
00_COMPONENTS_3
100
AcDbLine
 62
7
  6
BYLAYER
 10
54.8525643762
 20
59.208828398
 11
57.157411772
 21
58.6156394561
  0
LINE
  5
2AF
100
AcDbEntity
  8
00_COMPONENTS_1
100
AcDbLine
 62
7
  6
BYLAYER
 10
53.407411772
 20
67.3640236324
 11
53.407411772
 21
65.8919213598
  0
LINE
  5
2B0
100
AcDbEntity
  8
00_COMPONENTS_1
100
AcDbLine
 62
7
  6
BYLAYER
 10
53.407411772
 20
25.471725905
 11
53.407411772
 21
24.4888236324
  0
LINE
  5
2B1
100
AcDbEntity
  8
00_COMPONENTS_3
100
AcDbLine
 62
7
  6
BYLAYER
 10
53.597673241
 20
34.8460615508
 11
53.597673241
 21
34.1994831101
  0
LINE
  5
2B2
100
AcDbEntity
  8
00_COMPONENTS_3
100
AcDbLine
 62
7
  6
BYLAYER
 10
53.597673241
 20
30.5297156422
 11
53.597673241
 21
30.3020519535
  0
LINE
  5
2B3
100
AcDbEntity
  8
00_COMPONENTS_3
100
AcDbLine
 62
7
  6
BYLAYER
 10
54.363411772
 20
43.7133236324
 11
54.363411772
 21
47.6503236324
  0
LINE
  5
2B4
100
AcDbEntity
  8
00_COMPONENTS_1
100
AcDbLine
 62
7
  6
BYLAYER
 10
37.8681391737
 20
24.4888236324
 11
33.557311772
 21
23.1680236324
  0
LINE
  5
2B5
100
AcDbEntity
  8
00_COMPONENTS_3
100
AcDbLine
 62
7
  6
BYLAYER
 10
6.763811772
 20
59.9177765937
 11
14.536211772
 21
61.9181266993
  0
LINE
  5
2B6
100
AcDbEntity
  8
00_COMPONENTS_3
100
AcDbLine
 62
7
  6
BYLAYER
 10
9.0686591677
 20
60.5738273284
 11
6.763811772
 21
59.9806383865
  0
LINE
  5
2B7
100
AcDbEntity
  8
00_COMPONENTS_3
100
AcDbLine
 62
7
  6
BYLAYER
 10
22.003811772
 20
65.8494236324
 11
22.029211772
 21
65.8494236324
  0
LINE
  5
2B8
100
AcDbEntity
  8
00_COMPONENTS_3
100
AcDbLine
 62
7
  6
BYLAYER
 10
41.892011772
 20
65.8494236324
 11
41.917411772
 21
65.8494236324
  0
LINE
  5
2B9
100
AcDbEntity
  8
00_COMPONENTS_3
100
AcDbLine
 62
7
  6
BYLAYER
 10
44.457411772
 20
65.8748236324
 11
41.917411772
 21
65.8748236324
  0
LINE
  5
2BA
100
AcDbEntity
  8
00_COMPONENTS_3
100
AcDbLine
 62
7
  6
BYLAYER
 10
19.463811772
 20
65.8748236324
 11
22.003811772
 21
65.8748236324
  0
LINE
  5
2BB
100
AcDbEntity
  8
00_COMPONENTS_3
100
AcDbLine
 62
7
  6
BYLAYER
 10
22.029211772
 20
65.8748236324
 11
35.262611772
 21
65.8748236324
  0
LINE
  5
2BC
100
AcDbEntity
  8
00_COMPONENTS_3
100
AcDbLine
 62
7
  6
BYLAYER
 10
35.275311772
 20
65.8748236324
 11
41.892011772
 21
65.8748236324
  0
LINE
  5
2BD
100
AcDbEntity
  8
00_COMPONENTS_3
100
AcDbLine
 62
7
  6
BYLAYER
 10
11.8221761715
 20
66.2286496374
 11
22.003811772
 21
66.2286496374
  0
LINE
  5
2BE
100
AcDbEntity
  8
00_COMPONENTS_3
100
AcDbLine
 62
7
  6
BYLAYER
 10
41.917411772
 20
66.2286496374
 11
52.0990473725
 21
66.2286496374
  0
LINE
  5
2BF
100
AcDbEntity
  8
00_COMPONENTS_1
100
AcDbLine
 62
7
  6
BYLAYER
 10
10.532211772
 20
67.3640236324
 11
53.407411772
 21
67.3640236324
  0
LINE
  5
2C0
100
AcDbEntity
  8
00_COMPONENTS_3
100
AcDbLine
 62
7
  6
BYLAYER
 10
49.385011772
 20
61.9181266993
 11
57.157411772
 21
59.9177765937
  0
LINE
  5
2C1
100
AcDbEntity
  8
00_COMPONENTS_3
100
AcDbLine
 62
7
  6
BYLAYER
 10
57.157411772
 20
59.9806383865
 11
54.8525643762
 21
60.5738273284
  0
LINE
  5
2C2
100
AcDbEntity
  8
00_COMPONENTS_3
100
AcDbLine
 62
7
  6
BYLAYER
 10
55.633411772
 20
48.9203236324
 11
55.633411772
 21
42.4433236324
  0
LINE
  5
2C3
100
AcDbEntity
  8
00_COMPONENTS_3
100
AcDbLine
 62
7
  6
BYLAYER
 10
55.887411772
 20
61.675659784
 11
55.887411772
 21
60.307492979
  0
LINE
  5
2C4
100
AcDbEntity
  8
00_COMPONENTS_3
100
AcDbLine
 62
7
  6
BYLAYER
 10
55.887411772
 20
57.7782286275
 11
55.887411772
 21
56.4100618224
  0
LINE
  5
2C5
100
AcDbEntity
  8
00_COMPONENTS_3
100
AcDbLine
 62
7
  6
BYLAYER
 10
55.887411772
 20
34.9535854424
 11
55.887411772
 21
33.5854186373
  0
LINE
  5
2C6
100
AcDbEntity
  8
00_COMPONENTS_3
100
AcDbLine
 62
7
  6
BYLAYER
 10
55.887411772
 20
31.0561542858
 11
55.887411772
 21
29.6879874808
  0
LINE
  5
2C7
100
AcDbEntity
  8
00_COMPONENTS_3
100
AcDbLine
 62
7
  6
BYLAYER
 10
6.763811772
 20
62.5130706127
 11
9.0686591677
 21
63.1062595545
  0
LINE
  5
2C8
100
AcDbEntity
  8
00_COMPONENTS_3
100
AcDbLine
 62
7
  6
BYLAYER
 10
54.8525643762
 20
63.1062595545
 11
57.157411772
 21
62.5130706127
  0
LINE
  5
2C9
100
AcDbEntity
  8
00_COMPONENTS_3
100
AcDbLine
 62
7
  6
BYLAYER
 10
57.157411772
 20
26.436847733
 11
57.157411772
 21
64.9267995318
  0
LINE
  5
2CA
100
AcDbEntity
  8
00_COMPONENTS_3
100
AcDbLine
 62
7
  6
BYLAYER
 10
6.763811772
 20
64.9267995318
 11
11.8221761715
 21
66.2286496374
  0
LINE
  5
2CB
100
AcDbEntity
  8
00_COMPONENTS_3
100
AcDbLine
 62
7
  6
BYLAYER
 10
52.0990473725
 20
66.2286496374
 11
57.157411772
 21
64.9267995318
  0
ARC
  5
2CC
100
AcDbEntity
  8
00_COMPONENTS_3
100
AcDbCircle
 62
7
  6
BYLAYER
 10
31.960611772
 20
30.2132236324
 40
3.3147
100
AcDbArc
 50
90.0
 51
180.0
  0
ARC
  5
2CD
100
AcDbEntity
  8
00_COMPONENTS_3
100
AcDbCircle
 62
7
  6
BYLAYER
 10
31.960611772
 20
61.1504236324
 40
3.3147
100
AcDbArc
 50
270.0
 51
360.0
  0
ARC
  5
2CE
100
AcDbEntity
  8
00_COMPONENTS_3
100
AcDbCircle
 62
7
  6
BYLAYER
 10
31.960611772
 20
61.1504236324
 40
3.302
100
AcDbArc
 50
270.0
 51
360.0
  0
ARC
  5
2CF
100
AcDbEntity
  8
00_COMPONENTS_3
100
AcDbCircle
 62
7
  6
BYLAYER
 10
31.960611772
 20
30.2132236324
 40
3.302
100
AcDbArc
 50
90.0
 51
180.0
  0
ARC
  5
2D0
100
AcDbEntity
  8
00_COMPONENTS_3
100
AcDbCircle
 62
7
  6
BYLAYER
 10
24.239011772
 20
45.6818236324
 40
2.3876
100
AcDbArc
 50
270.0
 51
90.0
  0
ARC
  5
2D1
100
AcDbEntity
  8
00_COMPONENTS_3
100
AcDbCircle
 62
7
  6
BYLAYER
 10
39.682211772
 20
45.6818236324
 40
2.3876
100
AcDbArc
 50
90.0
 51
270.0
  0
ARC
  5
2D2
100
AcDbEntity
  8
00_COMPONENTS_3
100
AcDbCircle
 62
7
  6
BYLAYER
 10
11.6193181512
 20
54.890936161
 40
2.079664176
100
AcDbArc
 50
128.5403706278
 51
133.7507702358
  0
ARC
  5
2D3
100
AcDbEntity
  8
00_COMPONENTS_3
100
AcDbCircle
 62
7
  6
BYLAYER
 10
52.3019053928
 20
36.4727111038
 40
2.079664176
100
AcDbArc
 50
308.5403706278
 51
313.7507702358
  0
CIRCLE
  5
2D4
100
AcDbEntity
  8
00_COMPONENTS_3
100
AcDbCircle
 62
7
  6
BYLAYER
 10
16.466611772
 20
45.6818236324
 40
1.8161
  0
CIRCLE
  5
2D5
100
AcDbEntity
  8
00_COMPONENTS_3
100
AcDbCircle
 62
7
  6
BYLAYER
 10
47.454611772
 20
45.6818236324
 40
1.8161
  0
ARC
  5
2D6
100
AcDbEntity
  8
00_COMPONENTS_3
100
AcDbCircle
 62
7
  6
BYLAYER
 10
10.1344290245
 20
29.5551917869
 40
1.631003389
100
AcDbArc
 50
127.7594899214
 51
130.8017930229
  0
ARC
  5
2D7
100
AcDbEntity
  8
00_COMPONENTS_3
100
AcDbCircle
 62
7
  6
BYLAYER
 10
53.7867945195
 20
61.8084554779
 40
1.631003389
100
AcDbArc
 50
307.7594899215
 51
310.8017930229
  0
ARC
  5
2D8
100
AcDbEntity
  8
00_COMPONENTS_3
100
AcDbCircle
 62
7
  6
BYLAYER
 10
10.1272882843
 20
61.7997251817
 40
1.6197287282
100
AcDbArc
 50
229.187615981
 51
232.2511010748
  0
ARC
  5
2D9
100
AcDbEntity
  8
00_COMPONENTS_3
100
AcDbCircle
 62
7
  6
BYLAYER
 10
53.7939352597
 20
29.5639220831
 40
1.6197287283
100
AcDbArc
 50
49.1876159811
 51
52.2511010747
  0
CIRCLE
  5
2DA
100
AcDbEntity
  8
00_COMPONENTS_3
100
AcDbCircle
 62
7
  6
BYLAYER
 10
31.960611772
 20
61.1504236324
 40
1.3716
  0
CIRCLE
  5
2DB
100
AcDbEntity
  8
00_COMPONENTS_3
100
AcDbCircle
 62
7
  6
BYLAYER
 10
31.960611772
 20
30.2132236324
 40
1.3716
  0
SPLINE
  5
2DC
100
AcDbEntity
  8
00_COMPONENTS_3
100
AcDbSpline
 62
7
  6
BYLAYER
 70
0
 71
3
 72
9
 73
5
 74
0
 42
0.0000001
 43
0.0000001
 44
0.0000000001
 40
0.0
 40
0.0
 40
0.0
 40
0.0
 40
0.24161918
 40
1.0
 40
1.0
 40
1.0
 40
1.0
 10
13.6327975363
 20
33.8955985467
 30
0.0
 10
13.5274043562
 20
33.8459694492
 30
0.0
 10
13.0786307581
 20
33.6678003152
 30
0.0
 10
12.5904555397
 20
33.5943988934
 30
0.0
 10
12.224811772
 20
33.5943988934
 30
0.0
  0
SPLINE
  5
2DD
100
AcDbEntity
  8
00_COMPONENTS_3
100
AcDbSpline
 62
7
  6
BYLAYER
 70
0
 71
3
 72
14
 73
10
 74
0
 42
0.0000001
 43
0.0000001
 44
0.0000000001
 40
0.0
 40
0.0
 40
0.0
 40
0.0
 40
0.2805815934
 40
0.4161582185
 40
0.5462378553
 40
0.6696948191
 40
0.78608161
 40
0.8957563072
 40
1.0
 40
1.0
 40
1.0
 40
1.0
 10
12.224811772
 20
33.5943988934
 30
0.0
 10
11.9385562028
 20
33.5943988934
 30
0.0
 10
11.5112405414
 20
33.6449933689
 30
0.0
 10
10.9793423684
 20
33.8151834999
 30
0.0
 10
10.6199272494
 20
33.9870972961
 30
0.0
 10
10.3064130779
 20
34.199985276
 30
0.0
 10
10.0477748053
 20
34.4482781197
 30
0.0
 10
9.8519594347
 20
34.7251895446
 30
0.0
 10
9.765987088
 20
34.9281661531
 30
0.0
 10
9.7364178441
 20
35.0303246089
 30
0.0
  0
SPLINE
  5
2DE
100
AcDbEntity
  8
00_COMPONENTS_3
100
AcDbSpline
 62
7
  6
BYLAYER
 70
0
 71
3
 72
9
 73
5
 74
0
 42
0.0000001
 43
0.0000001
 44
0.0000000001
 40
0.0
 40
0.0
 40
0.0
 40
0.0
 40
0.2477717144
 40
1.0
 40
1.0
 40
1.0
 40
1.0
 10
9.7373762685
 20
56.3365920756
 30
0.0
 10
9.7424704169
 20
56.3540248964
 30
0.0
 10
9.7644427647
 20
56.4239645071
 30
0.0
 10
9.792007543
 20
56.4921335262
 30
0.0
 10
9.8155503029
 20
56.54199376
 30
0.0
  0
SPLINE
  5
2DF
100
AcDbEntity
  8
00_COMPONENTS_3
100
AcDbSpline
 62
7
  6
BYLAYER
 70
0
 71
3
 72
13
 73
9
 74
0
 42
0.0000001
 43
0.0000001
 44
0.0000000001
 40
0.0
 40
0.0
 40
0.0
 40
0.0
 40
0.2826505823
 40
0.5450026185
 40
0.6674178343
 40
0.7837247994
 40
0.8943579211
 40
1.0
 40
1.0
 40
1.0
 40
1.0
 10
11.5756148675
 20
35.0478350671
 30
0.0
 10
11.3360853864
 20
35.1094817686
 30
0.0
 10
10.8631737997
 20
35.1901566272
 30
0.0
 10
10.2745642324
 20
35.1764698961
 30
0.0
 10
9.8437705756
 20
35.0895859916
 30
0.0
 10
9.5533588705
 20
34.9910790557
 30
0.0
 10
9.2928617911
 20
34.8590701269
 30
0.0
 10
9.1386192349
 20
34.7476767016
 30
0.0
 10
9.0686591677
 20
34.6872510929
 30
0.0
  0
SPLINE
  5
2E0
100
AcDbEntity
  8
00_COMPONENTS_3
100
AcDbSpline
 62
7
  6
BYLAYER
 70
0
 71
3
 72
14
 73
10
 74
0
 42
0.0000001
 43
0.0000001
 44
0.0000000001
 40
0.0
 40
0.0
 40
0.0
 40
0.0
 40
0.2195690269
 40
0.3408031023
 40
0.4680786573
 40
0.5997110568
 40
0.7336841191
 40
0.867857641
 40
1.0
 40
1.0
 40
1.0
 40
1.0
 10
14.536211772
 20
32.4598123258
 30
0.0
 10
14.4637133664
 20
32.7510114885
 30
0.0
 10
14.2565775811
 20
33.1812369292
 30
0.0
 10
13.8633634589
 20
33.6865455937
 30
0.0
 10
13.4921728204
 20
34.0524976557
 30
0.0
 10
13.0659029534
 20
34.380914873
 30
0.0
 10
12.5965487369
 20
34.6630166605
 30
0.0
 10
12.0977623458
 20
34.8904430125
 30
0.0
 10
11.7505161899
 20
35.0028214447
 30
0.0
 10
11.5756148675
 20
35.0478350671
 30
0.0
  0
SPLINE
  5
2E1
100
AcDbEntity
  8
00_COMPONENTS_3
100
AcDbSpline
 62
7
  6
BYLAYER
 70
0
 71
3
 72
14
 73
10
 74
0
 42
0.0000001
 43
0.0000001
 44
0.0000000001
 40
0.0
 40
0.0
 40
0.0
 40
0.0
 40
0.132142359
 40
0.2663158809
 40
0.4002889432
 40
0.5319213427
 40
0.6591968977
 40
0.7804309731
 40
1.0
 40
1.0
 40
1.0
 40
1.0
 10
11.5756148675
 20
56.3158121977
 30
0.0
 10
11.7505161899
 20
56.3608258201
 30
0.0
 10
12.0977623458
 20
56.4732042522
 30
0.0
 10
12.5965487369
 20
56.7006306043
 30
0.0
 10
13.0659029534
 20
56.9827323917
 30
0.0
 10
13.4921728204
 20
57.311149609
 30
0.0
 10
13.8633634589
 20
57.6771016711
 30
0.0
 10
14.2565775811
 20
58.1824103356
 30
0.0
 10
14.4637133664
 20
58.6126357763
 30
0.0
 10
14.536211772
 20
58.903834939
 30
0.0
  0
SPLINE
  5
2E2
100
AcDbEntity
  8
00_COMPONENTS_3
100
AcDbSpline
 62
7
  6
BYLAYER
 70
0
 71
3
 72
13
 73
9
 74
0
 42
0.0000001
 43
0.0000001
 44
0.0000000001
 40
0.0
 40
0.0
 40
0.0
 40
0.0
 40
0.1056420789
 40
0.2162752006
 40
0.3325821657
 40
0.4549973815
 40
0.7173494177
 40
1.0
 40
1.0
 40
1.0
 40
1.0
 10
9.0686591677
 20
56.6763961718
 30
0.0
 10
9.1386192349
 20
56.6159705632
 30
0.0
 10
9.2928617911
 20
56.5045771378
 30
0.0
 10
9.5533588705
 20
56.372568209
 30
0.0
 10
9.8437705756
 20
56.2740612732
 30
0.0
 10
10.2745642324
 20
56.1871773687
 30
0.0
 10
10.8631737997
 20
56.1734906376
 30
0.0
 10
11.3360853864
 20
56.2541654961
 30
0.0
 10
11.5756148675
 20
56.3158121977
 30
0.0
  0
SPLINE
  5
2E3
100
AcDbEntity
  8
00_COMPONENTS_3
100
AcDbSpline
 62
7
  6
BYLAYER
 70
0
 71
3
 72
9
 73
5
 74
0
 42
0.0000001
 43
0.0000001
 44
0.0000000001
 40
0.0
 40
0.0
 40
0.0
 40
0.0
 40
0.2573487613
 40
1.0
 40
1.0
 40
1.0
 40
1.0
 10
12.224811772
 20
57.7692483713
 30
0.0
 10
12.3488675381
 20
57.7692483713
 30
0.0
 10
12.8303043525
 20
57.7443940636
 30
0.0
 10
13.3089306042
 20
57.6205356272
 30
0.0
 10
13.6328195288
 20
57.4680297261
 30
0.0
  0
SPLINE
  5
2E4
100
AcDbEntity
  8
00_COMPONENTS_3
100
AcDbSpline
 62
7
  6
BYLAYER
 70
0
 71
3
 72
11
 73
7
 74
0
 42
0.0000001
 43
0.0000001
 44
0.0000000001
 40
0.0
 40
0.0
 40
0.0
 40
0.0
 40
0.2321786272
 40
0.4789529933
 40
0.7365927127
 40
1.0
 40
1.0
 40
1.0
 40
1.0
 10
10.3235503029
 20
57.1641641547
 30
0.0
 10
10.4463144231
 20
57.262154565
 30
0.0
 10
10.7216836865
 20
57.4374807559
 30
0.0
 10
11.1852249009
 20
57.6264138901
 30
0.0
 10
11.6935239731
 20
57.7430724798
 30
0.0
 10
12.0466076097
 20
57.7692483713
 30
0.0
 10
12.224811772
 20
57.7692483713
 30
0.0
  0
SPLINE
  5
2E5
100
AcDbEntity
  8
00_COMPONENTS_3
100
AcDbSpline
 62
7
  6
BYLAYER
 70
0
 71
3
 72
9
 73
5
 74
0
 42
0.0000001
 43
0.0000001
 44
0.0000000001
 40
0.0
 40
0.0
 40
0.0
 40
0.0
 40
0.252311822
 40
1.0
 40
1.0
 40
1.0
 40
1.0
 10
12.224811772
 20
61.6666795279
 30
0.0
 10
12.2971162441
 20
61.6666795279
 30
0.0
 10
12.5835978914
 20
61.6579910779
 30
0.0
 10
12.869198028
 20
61.6149041779
 30
0.0
 10
13.0769745516
 20
61.5625807787
 30
0.0
  0
SPLINE
  5
2E6
100
AcDbEntity
  8
00_COMPONENTS_3
100
AcDbSpline
 62
7
  6
BYLAYER
 70
0
 71
3
 72
11
 73
7
 74
0
 42
0.0000001
 43
0.0000001
 44
0.0000000001
 40
0.0
 40
0.0
 40
0.0
 40
0.0
 40
0.2321786272
 40
0.4789529933
 40
0.7365927127
 40
1.0
 40
1.0
 40
1.0
 40
1.0
 10
10.3235503029
 20
61.0615953113
 30
0.0
 10
10.4463144231
 20
61.1595857215
 30
0.0
 10
10.7216836865
 20
61.3349119124
 30
0.0
 10
11.1852249009
 20
61.5238450466
 30
0.0
 10
11.6935239731
 20
61.6405036363
 30
0.0
 10
12.0466076097
 20
61.6666795279
 30
0.0
 10
12.224811772
 20
61.6666795279
 30
0.0
  0
SPLINE
  5
2E7
100
AcDbEntity
  8
00_COMPONENTS_3
100
AcDbSpline
 62
7
  6
BYLAYER
 70
0
 71
3
 72
12
 73
8
 74
0
 42
0.0000001
 43
0.0000001
 44
0.0000000001
 40
0.0
 40
0.0
 40
0.0
 40
0.0
 40
0.2701249965
 40
0.5311102708
 40
0.6559631251
 40
0.7760026766
 40
1.0
 40
1.0
 40
1.0
 40
1.0
 10
12.224811772
 20
29.6969677369
 30
0.0
 10
12.0029903171
 20
29.6969677369
 30
0.0
 10
11.5658099688
 20
29.7372025151
 30
0.0
 10
11.0448220412
 20
29.8883597804
 30
0.0
 10
10.6687417268
 20
30.0669197149
 30
0.0
 10
10.3416555071
 20
30.2708588727
 30
0.0
 10
10.1295862175
 20
30.4644146262
 30
0.0
 10
10.0146040296
 20
30.6079899196
 30
0.0
  0
SPLINE
  5
2E8
100
AcDbEntity
  8
00_COMPONENTS_3
100
AcDbSpline
 62
7
  6
BYLAYER
 70
0
 71
3
 72
9
 73
5
 74
0
 42
0.0000001
 43
0.0000001
 44
0.0000000001
 40
0.0
 40
0.0
 40
0.0
 40
0.0
 40
0.2470692394
 40
1.0
 40
1.0
 40
1.0
 40
1.0
 10
13.0760007521
 20
29.8008274593
 30
0.0
 10
13.007415088
 20
29.7835781955
 30
0.0
 10
12.7276323122
 20
29.7226893482
 30
0.0
 10
12.4403318917
 20
29.6969677369
 30
0.0
 10
12.224811772
 20
29.6969677369
 30
0.0
  0
SPLINE
  5
2E9
100
AcDbEntity
  8
00_COMPONENTS_3
100
AcDbSpline
 62
7
  6
BYLAYER
 70
0
 71
3
 72
9
 73
5
 74
0
 42
0.0000001
 43
0.0000001
 44
0.0000000001
 40
0.0
 40
0.0
 40
0.0
 40
0.0
 40
0.2667894097
 40
1.0
 40
1.0
 40
1.0
 40
1.0
 10
14.0007095746
 20
61.755920022
 30
0.0
 10
14.0655273426
 20
61.8383524968
 30
0.0
 10
14.29468563
 20
62.1573828631
 30
0.0
 10
14.4665866539
 20
62.5216078614
 30
0.0
 10
14.536211772
 20
62.8012660955
 30
0.0
  0
SPLINE
  5
2EA
100
AcDbEntity
  8
00_COMPONENTS_3
100
AcDbSpline
 62
7
  6
BYLAYER
 70
0
 71
3
 72
9
 73
5
 74
0
 42
0.0000001
 43
0.0000001
 44
0.0000000001
 40
0.0
 40
0.0
 40
0.0
 40
0.0
 40
0.2341987396
 40
1.0
 40
1.0
 40
1.0
 40
1.0
 10
14.536211772
 20
28.5623811692
 30
0.0
 10
14.5139645353
 20
28.6517400544
 30
0.0
 10
14.3944126334
 20
29.0271591346
 30
0.0
 10
14.1868307855
 20
29.3710262195
 30
0.0
 10
14.0007095746
 20
29.6077272428
 30
0.0
  0
SPLINE
  5
2EB
100
AcDbEntity
  8
00_COMPONENTS_3
100
AcDbSpline
 62
7
  6
BYLAYER
 70
0
 71
3
 72
11
 73
7
 74
0
 42
0.0000001
 43
0.0000001
 44
0.0000000001
 40
0.0
 40
0.0
 40
0.0
 40
0.0
 40
0.2538815877
 40
0.510686144
 40
0.7619495882
 40
1.0
 40
1.0
 40
1.0
 40
1.0
 10
11.5756148675
 20
60.8598217949
 30
0.0
 10
11.3252151676
 20
60.7953774706
 30
0.0
 10
10.8320241238
 20
60.6215411947
 30
0.0
 10
10.1482894689
 20
60.2477953013
 30
0.0
 10
9.5465977717
 20
59.778269241
 30
0.0
 10
9.2110200524
 20
59.4050653815
 30
0.0
 10
9.0686591677
 20
59.208828398
 30
0.0
  0
SPLINE
  5
2EC
100
AcDbEntity
  8
00_COMPONENTS_3
100
AcDbSpline
 62
7
  6
BYLAYER
 70
0
 71
3
 72
15
 73
11
 74
0
 42
0.0000001
 43
0.0000001
 44
0.0000000001
 40
0.0
 40
0.0
 40
0.0
 40
0.0
 40
0.1490561485
 40
0.292233532
 40
0.4281472654
 40
0.5561161092
 40
0.6760577346
 40
0.7887523574
 40
0.895874395
 40
1.0
 40
1.0
 40
1.0
 40
1.0
 10
11.5756148675
 20
30.5038254699
 30
0.0
 10
11.7291608301
 20
30.4643079872
 30
0.0
 10
12.0346751303
 20
30.4029471384
 30
0.0
 10
12.489648809
 20
30.3656709306
 30
0.0
 10
12.9234943537
 20
30.3857612181
 30
0.0
 10
13.3260142467
 20
30.4629150953
 30
0.0
 10
13.6878475523
 20
30.5959070443
 30
0.0
 10
14.0001858723
 20
30.7824250647
 30
0.0
 10
14.254766218
 20
31.018555491
 30
0.0
 10
14.3817668122
 20
31.2068461737
 30
0.0
 10
14.4324441973
 20
31.305329754
 30
0.0
  0
SPLINE
  5
2ED
100
AcDbEntity
  8
00_COMPONENTS_3
100
AcDbSpline
 62
7
  6
BYLAYER
 70
0
 71
3
 72
11
 73
7
 74
0
 42
0.0000001
 43
0.0000001
 44
0.0000000001
 40
0.0
 40
0.0
 40
0.0
 40
0.0
 40
0.2380504118
 40
0.489313856
 40
0.7461184123
 40
1.0
 40
1.0
 40
1.0
 40
1.0
 10
9.0686591677
 20
32.1548188668
 30
0.0
 10
9.2110200524
 20
31.9585818833
 30
0.0
 10
9.5465977717
 20
31.5853780238
 30
0.0
 10
10.1482894689
 20
31.1158519635
 30
0.0
 10
10.8320241238
 20
30.7421060701
 30
0.0
 10
11.3252151676
 20
30.5682697942
 30
0.0
 10
11.5756148675
 20
30.5038254699
 30
0.0
  0
SPLINE
  5
2EE
100
AcDbEntity
  8
00_COMPONENTS_3
100
AcDbSpline
 62
7
  6
BYLAYER
 70
0
 71
3
 72
15
 73
11
 74
0
 42
0.0000001
 43
0.0000001
 44
0.0000000001
 40
0.0
 40
0.0
 40
0.0
 40
0.0
 40
0.104125605
 40
0.2112476426
 40
0.3239422654
 40
0.4438838908
 40
0.5718527346
 40
0.707766468
 40
0.8509438515
 40
1.0
 40
1.0
 40
1.0
 40
1.0
 10
14.4324441973
 20
63.9557486673
 30
0.0
 10
14.3817668122
 20
64.0542322477
 30
0.0
 10
14.254766218
 20
64.2425229303
 30
0.0
 10
14.0001858723
 20
64.4786533566
 30
0.0
 10
13.6878475523
 20
64.665171377
 30
0.0
 10
13.3260142467
 20
64.798163326
 30
0.0
 10
12.9234943537
 20
64.8753172032
 30
0.0
 10
12.489648809
 20
64.8954074907
 30
0.0
 10
12.0346751303
 20
64.8581312829
 30
0.0
 10
11.7291608301
 20
64.7967704341
 30
0.0
 10
11.5756148675
 20
64.7572529515
 30
0.0
  0
SPLINE
  5
2EF
100
AcDbEntity
  8
00_COMPONENTS_3
100
AcDbSpline
 62
7
  6
BYLAYER
 70
0
 71
3
 72
15
 73
11
 74
0
 42
0.0000001
 43
0.0000001
 44
0.0000000001
 40
0.0
 40
0.0
 40
0.0
 40
0.0
 40
0.104125605
 40
0.2112476426
 40
0.3239422654
 40
0.4438838908
 40
0.5718527346
 40
0.707766468
 40
0.8509438515
 40
1.0
 40
1.0
 40
1.0
 40
1.0
 10
14.4324441973
 20
60.0583175108
 30
0.0
 10
14.3817668122
 20
60.1568010911
 30
0.0
 10
14.254766218
 20
60.3450917738
 30
0.0
 10
14.0001858723
 20
60.5812222001
 30
0.0
 10
13.6878475523
 20
60.7677402205
 30
0.0
 10
13.3260142467
 20
60.9007321694
 30
0.0
 10
12.9234943537
 20
60.9778860467
 30
0.0
 10
12.489648809
 20
60.9979763342
 30
0.0
 10
12.0346751303
 20
60.9607001264
 30
0.0
 10
11.7291608301
 20
60.8993392776
 30
0.0
 10
11.5756148675
 20
60.8598217949
 30
0.0
  0
SPLINE
  5
2F0
100
AcDbEntity
  8
00_COMPONENTS_3
100
AcDbSpline
 62
7
  6
BYLAYER
 70
0
 71
3
 72
11
 73
7
 74
0
 42
0.0000001
 43
0.0000001
 44
0.0000000001
 40
0.0
 40
0.0
 40
0.0
 40
0.0
 40
0.2538815877
 40
0.510686144
 40
0.7619495882
 40
1.0
 40
1.0
 40
1.0
 40
1.0
 10
11.5756148675
 20
64.7572529515
 30
0.0
 10
11.3252151676
 20
64.6928086271
 30
0.0
 10
10.8320241238
 20
64.5189723512
 30
0.0
 10
10.1482894689
 20
64.1452264579
 30
0.0
 10
9.5465977717
 20
63.6757003976
 30
0.0
 10
9.2110200524
 20
63.3024965381
 30
0.0
 10
9.0686591677
 20
63.1062595545
 30
0.0
  0
SPLINE
  5
2F1
100
AcDbEntity
  8
00_COMPONENTS_3
100
AcDbSpline
 62
7
  6
BYLAYER
 70
0
 71
3
 72
15
 73
11
 74
0
 42
0.0000001
 43
0.0000001
 44
0.0000000001
 40
0.0
 40
0.0
 40
0.0
 40
0.0
 40
0.1490561485
 40
0.292233532
 40
0.4281472654
 40
0.5561161092
 40
0.6760577346
 40
0.7887523574
 40
0.895874395
 40
1.0
 40
1.0
 40
1.0
 40
1.0
 10
11.5756148675
 20
26.6063943133
 30
0.0
 10
11.7291608301
 20
26.5668768306
 30
0.0
 10
12.0346751303
 20
26.5055159819
 30
0.0
 10
12.489648809
 20
26.468239774
 30
0.0
 10
12.9234943537
 20
26.4883300616
 30
0.0
 10
13.3260142467
 20
26.5654839388
 30
0.0
 10
13.6878475523
 20
26.6984758877
 30
0.0
 10
14.0001858723
 20
26.8849939082
 30
0.0
 10
14.254766218
 20
27.1211243344
 30
0.0
 10
14.3817668122
 20
27.3094150171
 30
0.0
 10
14.4324441973
 20
27.4078985974
 30
0.0
  0
SPLINE
  5
2F2
100
AcDbEntity
  8
00_COMPONENTS_3
100
AcDbSpline
 62
7
  6
BYLAYER
 70
0
 71
3
 72
11
 73
7
 74
0
 42
0.0000001
 43
0.0000001
 44
0.0000000001
 40
0.0
 40
0.0
 40
0.0
 40
0.0
 40
0.2380504118
 40
0.489313856
 40
0.7461184123
 40
1.0
 40
1.0
 40
1.0
 40
1.0
 10
9.0686591677
 20
28.2573877103
 30
0.0
 10
9.2110200524
 20
28.0611507267
 30
0.0
 10
9.5465977717
 20
27.6879468672
 30
0.0
 10
10.1482894689
 20
27.2184208069
 30
0.0
 10
10.8320241238
 20
26.8446749136
 30
0.0
 10
11.3252151676
 20
26.6708386376
 30
0.0
 10
11.5756148675
 20
26.6063943133
 30
0.0
  0
SPLINE
  5
2F3
100
AcDbEntity
  8
00_COMPONENTS_3
100
AcDbSpline
 62
7
  6
BYLAYER
 70
0
 71
3
 72
9
 73
5
 74
0
 42
0.0000001
 43
0.0000001
 44
0.0000000001
 40
0.0
 40
0.0
 40
0.0
 40
0.0
 40
0.24161918
 40
1.0
 40
1.0
 40
1.0
 40
1.0
 10
50.2884260077
 20
57.468048718
 30
0.0
 10
50.3938191878
 20
57.5176778155
 30
0.0
 10
50.8425927858
 20
57.6958469495
 30
0.0
 10
51.3307680043
 20
57.7692483713
 30
0.0
 10
51.696411772
 20
57.7692483713
 30
0.0
  0
SPLINE
  5
2F4
100
AcDbEntity
  8
00_COMPONENTS_3
100
AcDbSpline
 62
7
  6
BYLAYER
 70
0
 71
3
 72
14
 73
10
 74
0
 42
0.0000001
 43
0.0000001
 44
0.0000000001
 40
0.0
 40
0.0
 40
0.0
 40
0.0
 40
0.2805815934
 40
0.4161582185
 40
0.5462378553
 40
0.6696948191
 40
0.78608161
 40
0.8957563072
 40
1.0
 40
1.0
 40
1.0
 40
1.0
 10
51.696411772
 20
57.7692483713
 30
0.0
 10
51.9826673412
 20
57.7692483713
 30
0.0
 10
52.4099830025
 20
57.7186538958
 30
0.0
 10
52.9418811755
 20
57.5484637649
 30
0.0
 10
53.3012962945
 20
57.3765499686
 30
0.0
 10
53.6148104661
 20
57.1636619887
 30
0.0
 10
53.8734487387
 20
56.915369145
 30
0.0
 10
54.0692641093
 20
56.6384577201
 30
0.0
 10
54.155236456
 20
56.4354811117
 30
0.0
 10
54.1848056999
 20
56.3333226558
 30
0.0
  0
SPLINE
  5
2F5
100
AcDbEntity
  8
00_COMPONENTS_3
100
AcDbSpline
 62
7
  6
BYLAYER
 70
0
 71
3
 72
9
 73
5
 74
0
 42
0.0000001
 43
0.0000001
 44
0.0000000001
 40
0.0
 40
0.0
 40
0.0
 40
0.0
 40
0.2477717144
 40
1.0
 40
1.0
 40
1.0
 40
1.0
 10
54.1838472754
 20
35.0270551891
 30
0.0
 10
54.1787531271
 20
35.0096223684
 30
0.0
 10
54.1567807793
 20
34.9396827577
 30
0.0
 10
54.1292160009
 20
34.8715137386
 30
0.0
 10
54.105673241
 20
34.8216535047
 30
0.0
  0
SPLINE
  5
2F6
100
AcDbEntity
  8
00_COMPONENTS_3
100
AcDbSpline
 62
7
  6
BYLAYER
 70
0
 71
3
 72
13
 73
9
 74
0
 42
0.0000001
 43
0.0000001
 44
0.0000000001
 40
0.0
 40
0.0
 40
0.0
 40
0.0
 40
0.2826505823
 40
0.5450026185
 40
0.6674178343
 40
0.7837247994
 40
0.8943579211
 40
1.0
 40
1.0
 40
1.0
 40
1.0
 10
52.3456086764
 20
56.3158121977
 30
0.0
 10
52.5851381576
 20
56.2541654961
 30
0.0
 10
53.0580497443
 20
56.1734906376
 30
0.0
 10
53.6466593116
 20
56.1871773687
 30
0.0
 10
54.0774529684
 20
56.2740612732
 30
0.0
 10
54.3678646735
 20
56.372568209
 30
0.0
 10
54.6283617529
 20
56.5045771378
 30
0.0
 10
54.7826043091
 20
56.6159705632
 30
0.0
 10
54.8525643762
 20
56.6763961718
 30
0.0
  0
SPLINE
  5
2F7
100
AcDbEntity
  8
00_COMPONENTS_3
100
AcDbSpline
 62
7
  6
BYLAYER
 70
0
 71
3
 72
14
 73
10
 74
0
 42
0.0000001
 43
0.0000001
 44
0.0000000001
 40
0.0
 40
0.0
 40
0.0
 40
0.0
 40
0.2195690269
 40
0.3408031023
 40
0.4680786573
 40
0.5997110568
 40
0.7336841191
 40
0.867857641
 40
1.0
 40
1.0
 40
1.0
 40
1.0
 10
49.385011772
 20
58.903834939
 30
0.0
 10
49.4575101776
 20
58.6126357763
 30
0.0
 10
49.6646459629
 20
58.1824103356
 30
0.0
 10
50.0578600851
 20
57.6771016711
 30
0.0
 10
50.4290507236
 20
57.311149609
 30
0.0
 10
50.8553205905
 20
56.9827323917
 30
0.0
 10
51.3246748071
 20
56.7006306043
 30
0.0
 10
51.8234611982
 20
56.4732042522
 30
0.0
 10
52.170707354
 20
56.36082582
 30
0.0
 10
52.3456086764
 20
56.3158121977
 30
0.0
  0
SPLINE
  5
2F8
100
AcDbEntity
  8
00_COMPONENTS_3
100
AcDbSpline
 62
7
  6
BYLAYER
 70
0
 71
3
 72
14
 73
10
 74
0
 42
0.0000001
 43
0.0000001
 44
0.0000000001
 40
0.0
 40
0.0
 40
0.0
 40
0.0
 40
0.132142359
 40
0.2663158809
 40
0.4002889432
 40
0.5319213427
 40
0.6591968977
 40
0.7804309731
 40
1.0
 40
1.0
 40
1.0
 40
1.0
 10
52.3456086764
 20
35.0478350671
 30
0.0
 10
52.170707354
 20
35.0028214447
 30
0.0
 10
51.8234611982
 20
34.8904430125
 30
0.0
 10
51.3246748071
 20
34.6630166605
 30
0.0
 10
50.8553205905
 20
34.380914873
 30
0.0
 10
50.4290507236
 20
34.0524976557
 30
0.0
 10
50.0578600851
 20
33.6865455937
 30
0.0
 10
49.6646459629
 20
33.1812369292
 30
0.0
 10
49.4575101776
 20
32.7510114885
 30
0.0
 10
49.385011772
 20
32.4598123258
 30
0.0
  0
SPLINE
  5
2F9
100
AcDbEntity
  8
00_COMPONENTS_3
100
AcDbSpline
 62
7
  6
BYLAYER
 70
0
 71
3
 72
13
 73
9
 74
0
 42
0.0000001
 43
0.0000001
 44
0.0000000001
 40
0.0
 40
0.0
 40
0.0
 40
0.0
 40
0.1056420789
 40
0.2162752006
 40
0.3325821657
 40
0.4549973815
 40
0.7173494177
 40
1.0
 40
1.0
 40
1.0
 40
1.0
 10
54.8525643762
 20
34.6872510929
 30
0.0
 10
54.7826043091
 20
34.7476767016
 30
0.0
 10
54.6283617529
 20
34.8590701269
 30
0.0
 10
54.3678646735
 20
34.9910790557
 30
0.0
 10
54.0774529684
 20
35.0895859916
 30
0.0
 10
53.6466593116
 20
35.1764698961
 30
0.0
 10
53.0580497443
 20
35.1901566272
 30
0.0
 10
52.5851381576
 20
35.1094817686
 30
0.0
 10
52.3456086764
 20
35.0478350671
 30
0.0
  0
SPLINE
  5
2FA
100
AcDbEntity
  8
00_COMPONENTS_3
100
AcDbSpline
 62
7
  6
BYLAYER
 70
0
 71
3
 72
9
 73
5
 74
0
 42
0.0000001
 43
0.0000001
 44
0.0000000001
 40
0.0
 40
0.0
 40
0.0
 40
0.0
 40
0.2573487613
 40
1.0
 40
1.0
 40
1.0
 40
1.0
 10
51.696411772
 20
33.5943988934
 30
0.0
 10
51.5723560059
 20
33.5943988934
 30
0.0
 10
51.0909191915
 20
33.6192532011
 30
0.0
 10
50.6122929398
 20
33.7431116376
 30
0.0
 10
50.2884040152
 20
33.8956175387
 30
0.0
  0
SPLINE
  5
2FB
100
AcDbEntity
  8
00_COMPONENTS_3
100
AcDbSpline
 62
7
  6
BYLAYER
 70
0
 71
3
 72
11
 73
7
 74
0
 42
0.0000001
 43
0.0000001
 44
0.0000000001
 40
0.0
 40
0.0
 40
0.0
 40
0.0
 40
0.2321786272
 40
0.4789529933
 40
0.7365927127
 40
1.0
 40
1.0
 40
1.0
 40
1.0
 10
53.597673241
 20
34.1994831101
 30
0.0
 10
53.4749091209
 20
34.1014926998
 30
0.0
 10
53.1995398575
 20
33.9261665089
 30
0.0
 10
52.735998643
 20
33.7372333747
 30
0.0
 10
52.2276995708
 20
33.620574785
 30
0.0
 10
51.8746159343
 20
33.5943988934
 30
0.0
 10
51.696411772
 20
33.5943988934
 30
0.0
  0
SPLINE
  5
2FC
100
AcDbEntity
  8
00_COMPONENTS_3
100
AcDbSpline
 62
7
  6
BYLAYER
 70
0
 71
3
 72
9
 73
5
 74
0
 42
0.0000001
 43
0.0000001
 44
0.0000000001
 40
0.0
 40
0.0
 40
0.0
 40
0.0
 40
0.252311822
 40
1.0
 40
1.0
 40
1.0
 40
1.0
 10
51.696411772
 20
29.6969677369
 30
0.0
 10
51.6241072999
 20
29.6969677369
 30
0.0
 10
51.3376256526
 20
29.7056561869
 30
0.0
 10
51.052025516
 20
29.7487430869
 30
0.0
 10
50.8442489924
 20
29.801066486
 30
0.0
  0
SPLINE
  5
2FD
100
AcDbEntity
  8
00_COMPONENTS_3
100
AcDbSpline
 62
7
  6
BYLAYER
 70
0
 71
3
 72
11
 73
7
 74
0
 42
0.0000001
 43
0.0000001
 44
0.0000000001
 40
0.0
 40
0.0
 40
0.0
 40
0.0
 40
0.2321786272
 40
0.4789529933
 40
0.7365927127
 40
1.0
 40
1.0
 40
1.0
 40
1.0
 10
53.597673241
 20
30.3020519535
 30
0.0
 10
53.4749091209
 20
30.2040615432
 30
0.0
 10
53.1995398575
 20
30.0287353523
 30
0.0
 10
52.735998643
 20
29.8398022181
 30
0.0
 10
52.2276995708
 20
29.7231436285
 30
0.0
 10
51.8746159343
 20
29.6969677369
 30
0.0
 10
51.696411772
 20
29.6969677369
 30
0.0
  0
SPLINE
  5
2FE
100
AcDbEntity
  8
00_COMPONENTS_3
100
AcDbSpline
 62
7
  6
BYLAYER
 70
0
 71
3
 72
12
 73
8
 74
0
 42
0.0000001
 43
0.0000001
 44
0.0000000001
 40
0.0
 40
0.0
 40
0.0
 40
0.0
 40
0.2701249965
 40
0.5311102708
 40
0.6559631251
 40
0.7760026766
 40
1.0
 40
1.0
 40
1.0
 40
1.0
 10
51.696411772
 20
61.6666795279
 30
0.0
 10
51.9182332269
 20
61.6666795279
 30
0.0
 10
52.3554135752
 20
61.6264447497
 30
0.0
 10
52.8764015028
 20
61.4752874844
 30
0.0
 10
53.2524818172
 20
61.2967275498
 30
0.0
 10
53.5795680369
 20
61.0927883921
 30
0.0
 10
53.7916373265
 20
60.8992326386
 30
0.0
 10
53.9066195144
 20
60.7556573452
 30
0.0
  0
SPLINE
  5
2FF
100
AcDbEntity
  8
00_COMPONENTS_3
100
AcDbSpline
 62
7
  6
BYLAYER
 70
0
 71
3
 72
9
 73
5
 74
0
 42
0.0000001
 43
0.0000001
 44
0.0000000001
 40
0.0
 40
0.0
 40
0.0
 40
0.0
 40
0.2470692394
 40
1.0
 40
1.0
 40
1.0
 40
1.0
 10
50.8452227919
 20
61.5628198054
 30
0.0
 10
50.913808456
 20
61.5800690693
 30
0.0
 10
51.1935912317
 20
61.6409579166
 30
0.0
 10
51.4808916523
 20
61.6666795279
 30
0.0
 10
51.696411772
 20
61.6666795279
 30
0.0
  0
SPLINE
  5
300
100
AcDbEntity
  8
00_COMPONENTS_3
100
AcDbSpline
 62
7
  6
BYLAYER
 70
0
 71
3
 72
9
 73
5
 74
0
 42
0.0000001
 43
0.0000001
 44
0.0000000001
 40
0.0
 40
0.0
 40
0.0
 40
0.0
 40
0.2667894097
 40
1.0
 40
1.0
 40
1.0
 40
1.0
 10
49.9205139694
 20
29.6077272428
 30
0.0
 10
49.8556962013
 20
29.525294768
 30
0.0
 10
49.6265379139
 20
29.2062644017
 30
0.0
 10
49.4546368901
 20
28.8420394034
 30
0.0
 10
49.385011772
 20
28.5623811692
 30
0.0
  0
SPLINE
  5
301
100
AcDbEntity
  8
00_COMPONENTS_3
100
AcDbSpline
 62
7
  6
BYLAYER
 70
0
 71
3
 72
9
 73
5
 74
0
 42
0.0000001
 43
0.0000001
 44
0.0000000001
 40
0.0
 40
0.0
 40
0.0
 40
0.0
 40
0.2341987396
 40
1.0
 40
1.0
 40
1.0
 40
1.0
 10
49.385011772
 20
62.8012660955
 30
0.0
 10
49.4072590087
 20
62.7119072104
 30
0.0
 10
49.5268109106
 20
62.3364881302
 30
0.0
 10
49.7343927585
 20
61.9926210453
 30
0.0
 10
49.9205139694
 20
61.755920022
 30
0.0
  0
SPLINE
  5
302
100
AcDbEntity
  8
00_COMPONENTS_3
100
AcDbSpline
 62
7
  6
BYLAYER
 70
0
 71
3
 72
11
 73
7
 74
0
 42
0.0000001
 43
0.0000001
 44
0.0000000001
 40
0.0
 40
0.0
 40
0.0
 40
0.0
 40
0.2538815877
 40
0.510686144
 40
0.7619495882
 40
1.0
 40
1.0
 40
1.0
 40
1.0
 10
52.3456086764
 20
30.5038254699
 30
0.0
 10
52.5960083764
 20
30.5682697942
 30
0.0
 10
53.0891994202
 20
30.7421060701
 30
0.0
 10
53.7729340751
 20
31.1158519635
 30
0.0
 10
54.3746257723
 20
31.5853780238
 30
0.0
 10
54.7102034915
 20
31.9585818832
 30
0.0
 10
54.8525643762
 20
32.1548188668
 30
0.0
  0
SPLINE
  5
303
100
AcDbEntity
  8
00_COMPONENTS_3
100
AcDbSpline
 62
7
  6
BYLAYER
 70
0
 71
3
 72
15
 73
11
 74
0
 42
0.0000001
 43
0.0000001
 44
0.0000000001
 40
0.0
 40
0.0
 40
0.0
 40
0.0
 40
0.1490561485
 40
0.292233532
 40
0.4281472654
 40
0.5561161092
 40
0.6760577346
 40
0.7887523574
 40
0.895874395
 40
1.0
 40
1.0
 40
1.0
 40
1.0
 10
52.3456086764
 20
60.8598217949
 30
0.0
 10
52.1920627139
 20
60.8993392776
 30
0.0
 10
51.8865484136
 20
60.9607001263
 30
0.0
 10
51.431574735
 20
60.9979763342
 30
0.0
 10
50.9977291903
 20
60.9778860467
 30
0.0
 10
50.5952092973
 20
60.9007321694
 30
0.0
 10
50.2333759917
 20
60.7677402205
 30
0.0
 10
49.9210376717
 20
60.5812222001
 30
0.0
 10
49.666457326
 20
60.3450917738
 30
0.0
 10
49.5394567317
 20
60.1568010911
 30
0.0
 10
49.4887793467
 20
60.0583175108
 30
0.0
  0
SPLINE
  5
304
100
AcDbEntity
  8
00_COMPONENTS_3
100
AcDbSpline
 62
7
  6
BYLAYER
 70
0
 71
3
 72
11
 73
7
 74
0
 42
0.0000001
 43
0.0000001
 44
0.0000000001
 40
0.0
 40
0.0
 40
0.0
 40
0.0
 40
0.2380504118
 40
0.489313856
 40
0.7461184123
 40
1.0
 40
1.0
 40
1.0
 40
1.0
 10
54.8525643762
 20
59.208828398
 30
0.0
 10
54.7102034915
 20
59.4050653815
 30
0.0
 10
54.3746257723
 20
59.778269241
 30
0.0
 10
53.7729340751
 20
60.2477953013
 30
0.0
 10
53.0891994202
 20
60.6215411947
 30
0.0
 10
52.5960083764
 20
60.7953774706
 30
0.0
 10
52.3456086764
 20
60.8598217949
 30
0.0
  0
SPLINE
  5
305
100
AcDbEntity
  8
00_COMPONENTS_3
100
AcDbSpline
 62
7
  6
BYLAYER
 70
0
 71
3
 72
15
 73
11
 74
0
 42
0.0000001
 43
0.0000001
 44
0.0000000001
 40
0.0
 40
0.0
 40
0.0
 40
0.0
 40
0.104125605
 40
0.2112476426
 40
0.3239422654
 40
0.4438838908
 40
0.5718527346
 40
0.707766468
 40
0.8509438515
 40
1.0
 40
1.0
 40
1.0
 40
1.0
 10
49.4887793467
 20
27.4078985974
 30
0.0
 10
49.5394567317
 20
27.3094150171
 30
0.0
 10
49.666457326
 20
27.1211243344
 30
0.0
 10
49.9210376717
 20
26.8849939082
 30
0.0
 10
50.2333759917
 20
26.6984758877
 30
0.0
 10
50.5952092973
 20
26.5654839388
 30
0.0
 10
50.9977291903
 20
26.4883300616
 30
0.0
 10
51.431574735
 20
26.468239774
 30
0.0
 10
51.8865484136
 20
26.5055159819
 30
0.0
 10
52.1920627139
 20
26.5668768306
 30
0.0
 10
52.3456086764
 20
26.6063943133
 30
0.0
  0
SPLINE
  5
306
100
AcDbEntity
  8
00_COMPONENTS_3
100
AcDbSpline
 62
7
  6
BYLAYER
 70
0
 71
3
 72
15
 73
11
 74
0
 42
0.0000001
 43
0.0000001
 44
0.0000000001
 40
0.0
 40
0.0
 40
0.0
 40
0.0
 40
0.104125605
 40
0.2112476426
 40
0.3239422654
 40
0.4438838908
 40
0.5718527346
 40
0.707766468
 40
0.8509438515
 40
1.0
 40
1.0
 40
1.0
 40
1.0
 10
49.4887793467
 20
31.305329754
 30
0.0
 10
49.5394567317
 20
31.2068461737
 30
0.0
 10
49.666457326
 20
31.018555491
 30
0.0
 10
49.9210376717
 20
30.7824250647
 30
0.0
 10
50.2333759917
 20
30.5959070443
 30
0.0
 10
50.5952092973
 20
30.4629150953
 30
0.0
 10
50.9977291903
 20
30.3857612181
 30
0.0
 10
51.431574735
 20
30.3656709306
 30
0.0
 10
51.8865484136
 20
30.4029471384
 30
0.0
 10
52.1920627139
 20
30.4643079872
 30
0.0
 10
52.3456086764
 20
30.5038254699
 30
0.0
  0
SPLINE
  5
307
100
AcDbEntity
  8
00_COMPONENTS_3
100
AcDbSpline
 62
7
  6
BYLAYER
 70
0
 71
3
 72
11
 73
7
 74
0
 42
0.0000001
 43
0.0000001
 44
0.0000000001
 40
0.0
 40
0.0
 40
0.0
 40
0.0
 40
0.2538815877
 40
0.510686144
 40
0.7619495882
 40
1.0
 40
1.0
 40
1.0
 40
1.0
 10
52.3456086764
 20
26.6063943133
 30
0.0
 10
52.5960083764
 20
26.6708386376
 30
0.0
 10
53.0891994202
 20
26.8446749136
 30
0.0
 10
53.7729340751
 20
27.2184208069
 30
0.0
 10
54.3746257723
 20
27.6879468672
 30
0.0
 10
54.7102034915
 20
28.0611507267
 30
0.0
 10
54.8525643762
 20
28.2573877103
 30
0.0
  0
SPLINE
  5
308
100
AcDbEntity
  8
00_COMPONENTS_3
100
AcDbSpline
 62
7
  6
BYLAYER
 70
0
 71
3
 72
15
 73
11
 74
0
 42
0.0000001
 43
0.0000001
 44
0.0000000001
 40
0.0
 40
0.0
 40
0.0
 40
0.0
 40
0.1490561485
 40
0.292233532
 40
0.4281472654
 40
0.5561161092
 40
0.6760577346
 40
0.7887523574
 40
0.895874395
 40
1.0
 40
1.0
 40
1.0
 40
1.0
 10
52.3456086764
 20
64.7572529515
 30
0.0
 10
52.1920627139
 20
64.7967704341
 30
0.0
 10
51.8865484136
 20
64.8581312829
 30
0.0
 10
51.431574735
 20
64.8954074907
 30
0.0
 10
50.9977291903
 20
64.8753172032
 30
0.0
 10
50.5952092973
 20
64.798163326
 30
0.0
 10
50.2333759917
 20
64.665171377
 30
0.0
 10
49.9210376717
 20
64.4786533566
 30
0.0
 10
49.666457326
 20
64.2425229303
 30
0.0
 10
49.5394567317
 20
64.0542322477
 30
0.0
 10
49.4887793467
 20
63.9557486673
 30
0.0
  0
SPLINE
  5
309
100
AcDbEntity
  8
00_COMPONENTS_3
100
AcDbSpline
 62
7
  6
BYLAYER
 70
0
 71
3
 72
11
 73
7
 74
0
 42
0.0000001
 43
0.0000001
 44
0.0000000001
 40
0.0
 40
0.0
 40
0.0
 40
0.0
 40
0.2380504118
 40
0.489313856
 40
0.7461184123
 40
1.0
 40
1.0
 40
1.0
 40
1.0
 10
54.8525643762
 20
63.1062595545
 30
0.0
 10
54.7102034915
 20
63.3024965381
 30
0.0
 10
54.3746257723
 20
63.6757003976
 30
0.0
 10
53.7729340751
 20
64.1452264579
 30
0.0
 10
53.0891994202
 20
64.5189723512
 30
0.0
 10
52.5960083764
 20
64.6928086271
 30
0.0
 10
52.3456086764
 20
64.7572529515
 30
0.0
  0
ELLIPSE
  5
30A
100
AcDbEntity
  8
00_COMPONENTS_3
100
AcDbEllipse
 62
7
  6
BYLAYER
 10
11.183411772
 20
32.0138738161
 30
0.0
 11
3.4193096007
 21
-0.0
 31
0.0
 40
0.6644630244
 41
-0.1975579181
 42
0.1975579181
  0
ELLIPSE
  5
30B
100
AcDbEntity
  8
00_COMPONENTS_3
100
AcDbEllipse
 62
7
  6
BYLAYER
 10
12.6440971161
 20
34.8516347504
 30
0.0
 11
3.4193096007
 21
-0.0
 31
0.0
 40
0.6644630244
 41
3.7327378558
 42
5.2448497538
  0
ELLIPSE
  5
30C
100
AcDbEntity
  8
00_COMPONENTS_3
100
AcDbEllipse
 62
7
  6
BYLAYER
 10
11.6456539695
 20
32.9118994282
 30
0.0
 11
3.4193096007
 21
-0.0
 31
0.0
 40
0.6644630244
 41
-0.5911452022
 42
-0.5316204977
  0
ELLIPSE
  5
30D
100
AcDbEntity
  8
00_COMPONENTS_3
100
AcDbEllipse
 62
7
  6
BYLAYER
 10
11.6456539695
 20
62.3491789931
 30
0.0
 11
3.4193096007
 21
0.0
 31
0.0
 40
0.6644630244
 41
0.5315947947
 42
0.5911452022
  0
ELLIPSE
  5
30E
100
AcDbEntity
  8
00_COMPONENTS_3
100
AcDbEllipse
 62
7
  6
BYLAYER
 10
11.6456539695
 20
58.4517478365
 30
0.0
 11
3.4193096007
 21
0.0
 31
0.0
 40
0.6644630244
 41
0.5315947947
 42
0.5911452022
  0
ELLIPSE
  5
30F
100
AcDbEntity
  8
00_COMPONENTS_3
100
AcDbEllipse
 62
7
  6
BYLAYER
 10
11.183411772
 20
59.3497734487
 30
0.0
 11
3.4193096007
 21
0.0
 31
0.0
 40
0.6644630244
 41
-0.1975579181
 42
0.1975579181
  0
ELLIPSE
  5
310
100
AcDbEntity
  8
00_COMPONENTS_3
100
AcDbEllipse
 62
7
  6
BYLAYER
 10
12.6440971161
 20
56.5120125144
 30
0.0
 11
3.4193096007
 21
-0.0
 31
0.0
 40
0.6644630244
 41
7.3215210918
 42
8.8336327586
  0
ELLIPSE
  5
311
100
AcDbEntity
  8
00_COMPONENTS_3
100
AcDbEllipse
 62
7
  6
BYLAYER
 10
11.183411772
 20
63.2472046052
 30
0.0
 11
3.4193096007
 21
-0.0
 31
0.0
 40
0.6644630244
 41
-0.1975579181
 42
0.1975579181
  0
ELLIPSE
  5
312
100
AcDbEntity
  8
00_COMPONENTS_3
100
AcDbEllipse
 62
7
  6
BYLAYER
 10
12.6440971161
 20
60.4094436709
 30
0.0
 11
3.4193096007
 21
-0.0
 31
0.0
 40
0.6644630244
 41
7.3215210918
 42
8.8336327586
  0
ELLIPSE
  5
313
100
AcDbEntity
  8
00_COMPONENTS_3
100
AcDbEllipse
 62
7
  6
BYLAYER
 10
11.183411772
 20
28.1164426596
 30
0.0
 11
3.4193096007
 21
0.0
 31
0.0
 40
0.6644630244
 41
-0.1975579181
 42
0.1975579181
  0
ELLIPSE
  5
314
100
AcDbEntity
  8
00_COMPONENTS_3
100
AcDbEllipse
 62
7
  6
BYLAYER
 10
12.6440971161
 20
30.9542035938
 30
0.0
 11
3.4193096007
 21
0.0
 31
0.0
 40
0.6644630244
 41
3.7327378558
 42
5.2448497538
  0
ELLIPSE
  5
315
100
AcDbEntity
  8
00_COMPONENTS_3
100
AcDbEllipse
 62
7
  6
BYLAYER
 10
11.6456539695
 20
29.0144682717
 30
0.0
 11
3.4193096007
 21
-0.0
 31
0.0
 40
0.6644630244
 41
-0.5911452022
 42
-0.5316204977
  0
ELLIPSE
  5
316
100
AcDbEntity
  8
00_COMPONENTS_3
100
AcDbEllipse
 62
7
  6
BYLAYER
 10
52.737811772
 20
59.3497734487
 30
0.0
 11
3.4193096007
 21
0.0
 31
0.0
 40
0.6644630244
 41
2.9440347355
 42
3.3391505717
  0
ELLIPSE
  5
317
100
AcDbEntity
  8
00_COMPONENTS_3
100
AcDbEllipse
 62
7
  6
BYLAYER
 10
51.2771264278
 20
56.5120125144
 30
0.0
 11
3.4193096007
 21
-0.0
 31
0.0
 40
0.6644630244
 41
6.8743305094
 42
8.3864424074
  0
ELLIPSE
  5
318
100
AcDbEntity
  8
00_COMPONENTS_3
100
AcDbEllipse
 62
7
  6
BYLAYER
 10
52.2755695745
 20
58.4517478365
 30
0.0
 11
3.4193096007
 21
0.0
 31
0.0
 40
0.6644630244
 41
2.5504474514
 42
2.6099721559
  0
ELLIPSE
  5
319
100
AcDbEntity
  8
00_COMPONENTS_3
100
AcDbEllipse
 62
7
  6
BYLAYER
 10
52.2755695745
 20
29.0144682717
 30
0.0
 11
3.4193096007
 21
-0.0
 31
0.0
 40
0.6644630244
 41
-2.6099978588
 42
-2.5504474514
  0
ELLIPSE
  5
31A
100
AcDbEntity
  8
00_COMPONENTS_3
100
AcDbEllipse
 62
7
  6
BYLAYER
 10
52.2755695745
 20
32.9118994282
 30
0.0
 11
3.4193096007
 21
-0.0
 31
0.0
 40
0.6644630244
 41
-2.6099978588
 42
-2.5504474514
  0
ELLIPSE
  5
31B
100
AcDbEntity
  8
00_COMPONENTS_3
100
AcDbEllipse
 62
7
  6
BYLAYER
 10
52.737811772
 20
32.0138738161
 30
0.0
 11
3.4193096007
 21
0.0
 31
0.0
 40
0.6644630244
 41
2.9440347355
 42
3.3391505717
  0
ELLIPSE
  5
31C
100
AcDbEntity
  8
00_COMPONENTS_3
100
AcDbEllipse
 62
7
  6
BYLAYER
 10
51.2771264278
 20
34.8516347504
 30
0.0
 11
3.4193096007
 21
0.0
 31
0.0
 40
0.6644630244
 41
4.1799284382
 42
5.692040105
  0
ELLIPSE
  5
31D
100
AcDbEntity
  8
00_COMPONENTS_3
100
AcDbEllipse
 62
7
  6
BYLAYER
 10
52.737811772
 20
28.1164426596
 30
0.0
 11
3.4193096007
 21
0.0
 31
0.0
 40
0.6644630244
 41
2.9440347355
 42
3.3391505717
  0
ELLIPSE
  5
31E
100
AcDbEntity
  8
00_COMPONENTS_3
100
AcDbEllipse
 62
7
  6
BYLAYER
 10
51.2771264278
 20
30.9542035938
 30
0.0
 11
3.4193096007
 21
0.0
 31
0.0
 40
0.6644630244
 41
4.1799284382
 42
5.692040105
  0
ELLIPSE
  5
31F
100
AcDbEntity
  8
00_COMPONENTS_3
100
AcDbEllipse
 62
7
  6
BYLAYER
 10
52.737811772
 20
63.2472046052
 30
0.0
 11
3.4193096007
 21
-0.0
 31
0.0
 40
0.6644630244
 41
2.9440347355
 42
3.3391505717
  0
ELLIPSE
  5
320
100
AcDbEntity
  8
00_COMPONENTS_3
100
AcDbEllipse
 62
7
  6
BYLAYER
 10
51.2771264278
 20
60.4094436709
 30
0.0
 11
3.4193096007
 21
0.0
 31
0.0
 40
0.6644630244
 41
6.8743305094
 42
8.3864424074
  0
ELLIPSE
  5
321
100
AcDbEntity
  8
00_COMPONENTS_3
100
AcDbEllipse
 62
7
  6
BYLAYER
 10
52.2755695745
 20
62.3491789931
 30
0.0
 11
3.4193096007
 21
0.0
 31
0.0
 40
0.6644630244
 41
2.5504474514
 42
2.6099721559
  0
ENDSEC
  0
SECTION
  2
OBJECTS
  0
DICTIONARY
  5
C
100
AcDbDictionary
280
0
281
1
  3
ACAD_GROUP
350
D
  3
ACAD_MLINESTYLE
350
17
  3
ACAD_LAYOUT
350
1A
  3
ACAD_PLOTSETTINGS
350
19
  3
ACAD_PLOTSTYLENAME
350
E
  0
DICTIONARY
  5
D
102
{ACAD_REACTORS
330
C
102
}
100
AcDbDictionary
280
0
281
1
  0
ACDBDICTIONARYWDFLT
  5
E
102
{ACAD_REACTORS
330
C
102
}
100
AcDbDictionary
281
1
  3
Normal
350
F
100
AcDbDictionaryWithDefault
340
F
  0
DICTIONARY
  5
17
102
{ACAD_REACTORS
330
C
102
}
100
AcDbDictionary
280
0
281
1
  3
Standard
350
18
  0
DICTIONARY
  5
19
102
{ACAD_REACTORS
330
C
102
}
100
AcDbDictionary
281
1
  0
DICTIONARY
  5
1A
102
{ACAD_REACTORS
330
C
102
}
100
AcDbDictionary
281
1
  3
Model
350
322
  3
Layout1
350
323
  0
ACDBPLACEHOLDER
  5
F
102
{ACAD_REACTORS
330
E
102
}
  0
MLINESTYLE
  5
18
102
{ACAD_REACTORS
330
17
102
}
100
AcDbMlineStyle
  2
STANDARD
 70
0
  3

 62
256
 51
90.0
 52
90.0
 71
2
 49
0.5
 62
256
  6
BYLAYER
 49
-0.5
 62
256
  6
BYLAYER
  0
LAYOUT
  5
322
102
{ACAD_REACTORS
330
1A
102
}
100
AcDbPlotSettings
  1

  2
none_device
  4

  6

 40
0.0
 41
0.0
 42
0.0
 43
0.0
 44
210.0
 45
297.0
 46
0.0
 47
0.0
 48
0.0
 49
0.0
140
0.0
141
0.0
142
1.0
143
1.0
 70
1024
 72
1
 73
0
 74
0
  7

 75
0
147
1.0
148
0.0
149
0.0
100
AcDbLayout
  1
Model
 70
0
 71
0
 10
0.0
 20
0.0
 11
210.0
 21
297.0
 12
0.0
 22
0.0
 32
0.0
 14
0.0
 24
0.0
 34
0.0
 15
0.0
 25
0.0
 35
0.0
146
0.0
 13
0.0
 23
0.0
 33
0.0
 16
1.0
 26
0.0
 36
0.0
 17
0.0
 27
1.0
 37
0.0
 76
0
330
21A
345
0
346
0
  0
LAYOUT
  5
323
102
{ACAD_REACTORS
330
1A
102
}
100
AcDbPlotSettings
  1

  2
none_device
  4

  6

 40
0.0
 41
0.0
 42
0.0
 43
0.0
 44
210.0
 45
297.0
 46
0.0
 47
0.0
 48
0.0
 49
0.0
140
0.0
141
0.0
142
1.0
143
1.0
 70
0
 72
1
 73
0
 74
0
  7

 75
0
147
1.0
148
0.0
149
0.0
100
AcDbLayout
  1
Layout1
 70
0
 71
1
 10
0.0
 20
0.0
 11
210.0
 21
297.0
 12
0.0
 22
0.0
 32
0.0
 14
0.0
 24
0.0
 34
0.0
 15
0.0
 25
0.0
 35
0.0
146
0.0
 13
0.0
 23
0.0
 33
0.0
 16
1.0
 26
0.0
 36
0.0
 17
0.0
 27
1.0
 37
0.0
 76
0
330
21B
345
0
346
0
  0
ENDSEC
  0
EOF
