999
DXF file: Y:\001_SCHNEIDER_PARIS\maxime fuentes - génération CAD 2D\TRAVAIL\ZB5SZ3_CAD_2023\zb5sz3_2d-views_4.dxf
999
Pro/ENGINEER 2018260 by Parametric Technology Corporation
  0
SECTION
  2
HEADER
  9
$ACADVER
  1
AC1027
  9
$DWGCODEPAGE
  3
ANSI_1252
  9
$EXTMAX
 10
558.8
 20
431.8
 30
0.0
  9
$EXTMIN
 10
0.0
 20
0.0
 30
0.0
  9
$LIMMIN
 10
0.0
 20
0.0
  9
$LIMMAX
 10
558.8
 20
431.8
  9
$VIEWCTR
 10
279.4
 20
215.9
  9
$VIEWSIZE
 40
431.8
  9
$CLAYER
  8
0
  9
$LTSCALE
 40
30.734
  9
$CELTYPE
  6
BYLAYER
  9
$DIMSCALE
 40
1.0
  9
$DIMASZ
 40
3.5
  9
$DIMEXO
 40
1.0
  9
$DIMDLI
 40
21.2344
  9
$DIMEXE
 40
3.0
  9
$DIMCEN
 40
5.0292
  9
$DIMLFAC
 40
1.0
  9
$DIMBLK
  1
_FILLED
  9
$DIMALT
 70
0
  9
$DIMALTF
 40
0.0393700787
  9
$DIMTXT
 40
4.0
  9
$DIMTOL
 70
1
  9
$DIMLIM
 70
0
  9
$DIMTFAC
 40
1.0
  9
$DIMTP
 40
0.0001
  9
$DIMTM
 40
0.0001
  9
$DIMGAP
 40
0.625
  9
$DIMDSEP
 70
46
  9
$AUNITS
 70
0
  9
$PDMODE
 70
0
  9
$PDSIZE
 40
0.01
  9
$HANDSEED
  5
374
  9
$TILEMODE
 70
1
  9
$MEASUREMENT
 70
1
  9
$INSUNITS
 70
4
  0
ENDSEC
  0
SECTION
  2
CLASSES
  0
CLASS
  1
ACDBDICTIONARYWDFLT
  2
AcDbDictionaryWithDefault
  3
AutoCAD 2000
 90
0
 91
1
280
0
281
0
  0
CLASS
  1
ACDBPLACEHOLDER
  2
AcDbPlaceHolder
  3
AutoCAD 2000
 90
0
 91
1
280
0
281
0
  0
CLASS
  1
LAYOUT
  2
AcDbLayout
  3
AutoCAD 2000
 90
0
 91
0
280
0
281
0
  0
ENDSEC
  0
SECTION
  2
TABLES
  0
TABLE
  2
VPORT
  5
8
100
AcDbSymbolTable
 70
2
  0
VPORT
  5
1F4
100
AcDbSymbolTableRecord
100
AcDbViewportTableRecord
  2
*ACTIVE
 70
0
 10
0.0
 20
0.0
 11
1.0
 21
1.0
 12
279.4
 22
215.9
 13
0.0
 23
0.0
 14
1.0
 24
1.0
 15
0.0
 25
0.0
 16
0.0
 26
0.0
 36
1.0
 17
0.0
 27
0.0
 37
0.0
 40
431.8
 41
1.2941176471
 42
50.0
 43
0.0
 44
0.0
 50
0.0
 51
0.0
 71
0
 72
100
 73
1
 74
1
 75
0
 76
0
 77
0
 78
0
  0
ENDTAB
  0
TABLE
  2
LTYPE
  5
5
100
AcDbSymbolTable
 70
6
  0
LTYPE
  5
14
100
AcDbSymbolTableRecord
100
AcDbLinetypeTableRecord
  2
BYBLOCK
 70
0
  3

 72
65
 73
0
 40
0.0
  0
LTYPE
  5
15
100
AcDbSymbolTableRecord
100
AcDbLinetypeTableRecord
  2
BYLAYER
 70
0
  3

 72
65
 73
0
 40
0.0
  0
LTYPE
  5
16
100
AcDbSymbolTableRecord
100
AcDbLinetypeTableRecord
  2
CONTINUOUS
 70
64
  3
Solid line
 72
65
 73
0
 40
0.0
  0
LTYPE
  5
1F5
100
AcDbSymbolTableRecord
100
AcDbLinetypeTableRecord
  2
CENTER
 70
64
  3
____ _ ____ _ ____ _ ____ _ ____ _ ____ _ ____
 72
65
 73
4
 40
0.6
 49
0.375
 74
0
 49
-0.075
 74
0
 49
0.075
 74
0
 49
-0.075
 74
0
  0
LTYPE
  5
1F6
100
AcDbSymbolTableRecord
100
AcDbLinetypeTableRecord
  2
HIDDEN
 70
64
  3
- - - - - - - - - - - - - - - - - - - -
 72
65
 73
2
 40
0.2
 49
0.1
 74
0
 49
-0.1
 74
0
  0
LTYPE
  5
1F7
100
AcDbSymbolTableRecord
100
AcDbLinetypeTableRecord
  2
PHANTOM
 70
64
  3
_____ _ _ _____ _ _ _____ _ _ _____
 72
65
 73
6
 40
0.8
 49
0.45
 74
0
 49
-0.05
 74
0
 49
0.1
 74
0
 49
-0.05
 74
0
 49
0.1
 74
0
 49
-0.05
 74
0
  0
LTYPE
  5
1F8
100
AcDbSymbolTableRecord
100
AcDbLinetypeTableRecord
  2
DOT
 70
64
  3
. . . . . . . . . . . . . . . . . . . .
 72
65
 73
2
 40
0.2
 49
0.1
 74
0
 49
-0.1
 74
0
  0
LTYPE
  5
1F9
100
AcDbSymbolTableRecord
100
AcDbLinetypeTableRecord
  2
DASHED
 70
64
  3
- - - - - - - - - - - - - - - - - - - -
 72
65
 73
2
 40
0.2
 49
0.1
 74
0
 49
-0.1
 74
0
  0
ENDTAB
  0
TABLE
  2
LAYER
  5
2
100
AcDbSymbolTable
 70
36
  0
LAYER
  5
10
100
AcDbSymbolTableRecord
100
AcDbLayerTableRecord
  2
0
 70
0
 62
7
  6
CONTINUOUS
370
-3
390
F
  0
LAYER
  5
1FA
100
AcDbSymbolTableRecord
100
AcDbLayerTableRecord
  2
DEFAULT_1
 70
0
 62
7
  6
CENTER
370
-3
390
F
  0
LAYER
  5
1FB
100
AcDbSymbolTableRecord
100
AcDbLayerTableRecord
  2
DEFAULT_2
 70
0
 62
8
  6
HIDDEN
370
-3
390
F
  0
LAYER
  5
1FC
100
AcDbSymbolTableRecord
100
AcDbLayerTableRecord
  2
DEFAULT_3
 70
0
 62
7
  6
PHANTOM
370
-3
390
F
  0
LAYER
  5
1FD
100
AcDbSymbolTableRecord
100
AcDbLayerTableRecord
  2
01_ALL_DTM_PLN
 70
0
 62
7
  6
CONTINUOUS
370
-3
390
F
  0
LAYER
  5
1FE
100
AcDbSymbolTableRecord
100
AcDbLayerTableRecord
  2
01__ASM_ALL_DTM_PLN
 70
0
 62
7
  6
CONTINUOUS
370
-3
390
F
  0
LAYER
  5
1FF
100
AcDbSymbolTableRecord
100
AcDbLayerTableRecord
  2
01__ASM_DEF_DTM_PLN
 70
0
 62
7
  6
CONTINUOUS
370
-3
390
F
  0
LAYER
  5
200
100
AcDbSymbolTableRecord
100
AcDbLayerTableRecord
  2
01___PRT_ALL_DTM_PLN
 70
0
 62
7
  6
CONTINUOUS
370
-3
390
F
  0
LAYER
  5
201
100
AcDbSymbolTableRecord
100
AcDbLayerTableRecord
  2
01___PRT_DEF_DTM_PLN
 70
0
 62
7
  6
CONTINUOUS
370
-3
390
F
  0
LAYER
  5
202
100
AcDbSymbolTableRecord
100
AcDbLayerTableRecord
  2
02_ALL_AXES
 70
0
 62
7
  6
CONTINUOUS
370
-3
390
F
  0
LAYER
  5
203
100
AcDbSymbolTableRecord
100
AcDbLayerTableRecord
  2
02__ASM_ALL_AXES
 70
0
 62
7
  6
CONTINUOUS
370
-3
390
F
  0
LAYER
  5
204
100
AcDbSymbolTableRecord
100
AcDbLayerTableRecord
  2
02___PRT_ALL_AXES
 70
0
 62
7
  6
CONTINUOUS
370
-3
390
F
  0
LAYER
  5
205
100
AcDbSymbolTableRecord
100
AcDbLayerTableRecord
  2
03_ALL_CURVES
 70
0
 62
7
  6
CONTINUOUS
370
-3
390
F
  0
LAYER
  5
206
100
AcDbSymbolTableRecord
100
AcDbLayerTableRecord
  2
03__ASM_ALL_CURVES
 70
0
 62
7
  6
CONTINUOUS
370
-3
390
F
  0
LAYER
  5
207
100
AcDbSymbolTableRecord
100
AcDbLayerTableRecord
  2
03___PRT_ALL_CURVES
 70
0
 62
7
  6
CONTINUOUS
370
-3
390
F
  0
LAYER
  5
208
100
AcDbSymbolTableRecord
100
AcDbLayerTableRecord
  2
04_ALL_DTM_PNT
 70
0
 62
7
  6
CONTINUOUS
370
-3
390
F
  0
LAYER
  5
209
100
AcDbSymbolTableRecord
100
AcDbLayerTableRecord
  2
04__ASM_ALL_DTM_PNT
 70
0
 62
7
  6
CONTINUOUS
370
-3
390
F
  0
LAYER
  5
20A
100
AcDbSymbolTableRecord
100
AcDbLayerTableRecord
  2
04___PRT_ALL_DTM_PNT
 70
0
 62
7
  6
CONTINUOUS
370
-3
390
F
  0
LAYER
  5
20B
100
AcDbSymbolTableRecord
100
AcDbLayerTableRecord
  2
05_ALL_DTM_CSYS
 70
0
 62
7
  6
CONTINUOUS
370
-3
390
F
  0
LAYER
  5
20C
100
AcDbSymbolTableRecord
100
AcDbLayerTableRecord
  2
05__ASM_ALL_DTM_CSYS
 70
0
 62
7
  6
CONTINUOUS
370
-3
390
F
  0
LAYER
  5
20D
100
AcDbSymbolTableRecord
100
AcDbLayerTableRecord
  2
05__ASM_DEF_DTM_CSYS
 70
0
 62
7
  6
CONTINUOUS
370
-3
390
F
  0
LAYER
  5
20E
100
AcDbSymbolTableRecord
100
AcDbLayerTableRecord
  2
05___PRT_ALL_DTM_CSYS
 70
0
 62
7
  6
CONTINUOUS
370
-3
390
F
  0
LAYER
  5
20F
100
AcDbSymbolTableRecord
100
AcDbLayerTableRecord
  2
05___PRT_DEF_DTM_CSYS
 70
0
 62
7
  6
CONTINUOUS
370
-3
390
F
  0
LAYER
  5
210
100
AcDbSymbolTableRecord
100
AcDbLayerTableRecord
  2
06_ALL_SURFS
 70
0
 62
7
  6
CONTINUOUS
370
-3
390
F
  0
LAYER
  5
211
100
AcDbSymbolTableRecord
100
AcDbLayerTableRecord
  2
06__ASM_ALL_SURFS
 70
0
 62
7
  6
CONTINUOUS
370
-3
390
F
  0
LAYER
  5
212
100
AcDbSymbolTableRecord
100
AcDbLayerTableRecord
  2
06___PRT_ALL_SURFS
 70
0
 62
7
  6
CONTINUOUS
370
-3
390
F
  0
LAYER
  5
213
100
AcDbSymbolTableRecord
100
AcDbLayerTableRecord
  2
07__ASM_ALL_SKELETONS
 70
0
 62
7
  6
CONTINUOUS
370
-3
390
F
  0
ENDTAB
  0
TABLE
  2
STYLE
  5
3
100
AcDbSymbolTable
 70
1
  0
STYLE
  5
11
100
AcDbSymbolTableRecord
100
AcDbTextStyleTableRecord
  2
STANDARD
 70
0
 40
0.0
 41
0.6
 50
0.0
 71
0
 42
0.2
  3
txt
  4

  0
STYLE
  5
214
100
AcDbSymbolTableRecord
100
AcDbTextStyleTableRecord
  2
TEXTSTYLE_1
 70
0
 40
0.0
 41
0.8
 50
0.0
 71
0
 42
0.2
  3
gdt
  4

  0
ENDTAB
  0
TABLE
  2
VIEW
  5
6
100
AcDbSymbolTable
 70
0
  0
ENDTAB
  0
TABLE
  2
UCS
  5
7
100
AcDbSymbolTable
 70
0
  0
ENDTAB
  0
TABLE
  2
APPID
  5
9
100
AcDbSymbolTable
 70
1
  0
APPID
  5
215
100
AcDbSymbolTableRecord
100
AcDbRegAppTableRecord
  2
ACAD
 70
0
  0
ENDTAB
  0
TABLE
  2
BLOCK_RECORD
  5
1
100
AcDbSymbolTable
 70
0
  0
BLOCK_RECORD
  5
216
100
AcDbSymbolTableRecord
100
AcDbBlockTableRecord
  2
*Model_Space
  0
BLOCK_RECORD
  5
217
100
AcDbSymbolTableRecord
100
AcDbBlockTableRecord
  2
*Paper_Space
  0
BLOCK_RECORD
  5
218
100
AcDbSymbolTableRecord
100
AcDbBlockTableRecord
  2
_FILLED
  0
ENDTAB
  0
TABLE
  2
DIMSTYLE
  5
A
100
AcDbSymbolTable
 70
1
100
AcDbDimStyleTable
 71
0
  0
DIMSTYLE
105
219
100
AcDbSymbolTableRecord
100
AcDbDimStyleTableRecord
  2
STANDARD
 70
0
  3

  4

 40
1.0
 41
3.5
 42
1.0
 43
0.38
 44
3.0
 45
0.0
 46
0.0
 47
0.0001
 48
0.0001
140
4.0
141
0.09
142
0.0
143
25.4
144
1.0
145
0.0
146
1.0
147
0.625
 71
1.0
 72
0.0
 73
0
 74
0
 75
0
 76
0
 77
1
 78
8
 79
2
170
0
171
3
172
0
173
0
174
0
175
0
176
0
177
0
178
0
270
2
179
4
271
4
272
4
273
2
274
2
275
0
280
0
281
0
282
0
283
1
284
8
285
0
286
0
287
3
288
0
340
11
278
46
341
218
342
218
343
218
344
218
  0
ENDTAB
  0
ENDSEC
  0
SECTION
  2
BLOCKS
  0
BLOCK
  5
20
100
AcDbEntity
  8
0
100
AcDbBlockBegin
  2
*Model_Space
 70
0
 10
0.0
 20
0.0
 30
0.0
  3
*Model_Space
  1

  0
ENDBLK
  5
21
100
AcDbEntity
  8
0
100
AcDbBlockEnd
  0
BLOCK
  5
1C
100
AcDbEntity
  8
0
100
AcDbBlockBegin
  2
*Paper_Space
 70
0
 10
0.0
 20
0.0
 30
0.0
  3
*Paper_Space
  1

  0
ENDBLK
  5
1D
100
AcDbEntity
  8
0
100
AcDbBlockEnd
  0
BLOCK
  5
21A
100
AcDbEntity
  8
0
100
AcDbBlockBegin
  2
_FILLED
 70
64
 10
0.0
 20
0.0
  3
_FILLED
  1

  0
SOLID
  5
21B
100
AcDbEntity
  8
0
  6
BYBLOCK
 62
0
100
AcDbTrace
 10
0.0
 20
0.0
 11
-1.0
 21
0.2857142857
 12
-1.0
 22
-0.2857142857
 13
-1.0
 23
-0.2857142857
  0
ENDBLK
  5
21C
100
AcDbEntity
  8
0
  6
BYBLOCK
 62
0
100
AcDbBlockEnd
  0
ENDSEC
  0
SECTION
  2
ENTITIES
  0
LINE
  5
21D
100
AcDbEntity
  8
0
100
AcDbLine
 62
9
  6
CONTINUOUS
 10
108.5647092068
 20
224.034622904
 11
108.5653026125
 21
224.3346223172
  0
LINE
  5
21E
100
AcDbEntity
  8
0
100
AcDbLine
 62
9
  6
CONTINUOUS
 10
108.5740058956
 20
228.7346137095
 11
108.5745993012
 21
229.0346131226
  0
LINE
  5
21F
100
AcDbEntity
  8
0
100
AcDbLine
 62
9
  6
CONTINUOUS
 10
108.9144844662
 20
229.0339408221
 11
108.9138910605
 21
228.7339414089
  0
LINE
  5
220
100
AcDbEntity
  8
0
100
AcDbLine
 62
9
  6
CONTINUOUS
 10
108.9051877774
 20
224.3339500166
 11
108.9045943718
 21
224.0339506035
  0
LINE
  5
221
100
AcDbEntity
  8
0
100
AcDbLine
 62
9
  6
CONTINUOUS
 10
112.9050536836
 20
236.5010341688
 11
113.1651574993
 21
236.650519971
  0
LINE
  5
222
100
AcDbEntity
  8
0
100
AcDbLine
 62
9
  6
CONTINUOUS
 10
116.9800134631
 20
238.842978403
 11
117.2401172788
 21
238.9924642051
  0
LINE
  5
223
100
AcDbEntity
  8
0
100
AcDbLine
 62
9
  6
CONTINUOUS
 10
117.4094776318
 20
238.6977788677
 11
117.1493738161
 21
238.5482930655
  0
LINE
  5
224
100
AcDbEntity
  8
0
100
AcDbLine
 62
9
  6
CONTINUOUS
 10
113.3345178524
 20
236.3558346335
 11
113.0744140367
 21
236.2063488314
  0
LINE
  5
225
100
AcDbEntity
  8
0
100
AcDbLine
 62
9
  6
CONTINUOUS
 10
117.1907658178
 20
214.0425686936
 11
116.9312554078
 21
214.1930823046
  0
LINE
  5
226
100
AcDbEntity
  8
0
100
AcDbLine
 62
9
  6
CONTINUOUS
 10
113.1251027271
 20
216.400615265
 11
112.865592317
 21
216.5511288759
  0
LINE
  5
227
100
AcDbEntity
  8
0
100
AcDbLine
 62
9
  6
CONTINUOUS
 10
113.0361171289
 20
216.8451419128
 11
113.2956275389
 21
216.6946283019
  0
LINE
  5
228
100
AcDbEntity
  8
0
100
AcDbLine
 62
9
  6
CONTINUOUS
 10
117.1017802196
 20
214.4870953415
 11
117.3612906297
 21
214.3365817305
  0
LINE
  5
229
100
AcDbEntity
  8
0
100
AcDbLine
 62
7
  6
CONTINUOUS
 10
111.42766852
 20
224.7789613726
 11
111.434591586
 21
228.2789545256
  0
LINE
  5
22A
100
AcDbEntity
  8
0
100
AcDbLine
 62
7
  6
CONTINUOUS
 10
118.3612974591
 20
236.6152696788
 11
118.3460930503
 21
236.6093067191
  0
LINE
  5
22B
100
AcDbEntity
  8
0
100
AcDbLine
 62
7
  6
CONTINUOUS
 10
118.3598337878
 20
236.6199489525
 11
118.3442850975
 21
236.6150510688
  0
LINE
  5
22C
100
AcDbEntity
  8
0
100
AcDbLine
 62
7
  6
CONTINUOUS
 10
117.8102232783
 20
216.4163201991
 11
126.1154690698
 21
216.399892234
  0
LINE
  5
22D
100
AcDbEntity
  8
0
100
AcDbLine
 62
7
  6
CONTINUOUS
 10
119.2127942473
 20
215.602655614
 11
116.2144083364
 21
217.3420901825
  0
LINE
  5
22E
100
AcDbEntity
  8
0
100
AcDbLine
 62
7
  6
CONTINUOUS
 10
111.2596045592
 20
224.3281442198
 11
111.2533852958
 21
224.3524506864
  0
LINE
  5
22F
100
AcDbEntity
  8
0
100
AcDbLine
 62
7
  6
CONTINUOUS
 10
111.2596045592
 20
224.3281442198
 11
111.2538923219
 21
224.3525797738
  0
LINE
  5
230
100
AcDbEntity
  8
0
100
AcDbLine
 62
7
  6
CONTINUOUS
 10
113.1215318065
 20
221.6748316722
 11
113.1394344066
 21
230.7255871006
  0
LINE
  5
231
100
AcDbEntity
  8
0
100
AcDbLine
 62
7
  6
CONTINUOUS
 10
113.7425980631
 20
232.3243971593
 11
113.7394332329
 21
230.7244002893
  0
LINE
  5
232
100
AcDbEntity
  8
0
100
AcDbLine
 62
7
  6
CONTINUOUS
 10
116.9142271247
 20
217.9781892714
 11
116.9181727103
 21
219.9728643808
  0
LINE
  5
233
100
AcDbEntity
  8
0
100
AcDbLine
 62
7
  6
CONTINUOUS
 10
117.4447063117
 20
233.3865741954
 11
117.4491595391
 21
235.6379271893
  0
LINE
  5
234
100
AcDbEntity
  8
0
100
AcDbLine
 62
7
  6
CONTINUOUS
 10
122.3023263648
 20
222.0674457896
 11
120.74233026
 21
222.0705314974
  0
LINE
  5
235
100
AcDbEntity
  8
0
100
AcDbLine
 62
7
  6
CONTINUOUS
 10
117.7477946176
 20
224.8364601563
 11
117.7537286742
 21
227.8364542875
  0
LINE
  5
236
100
AcDbEntity
  8
0
100
AcDbLine
 62
7
  6
CONTINUOUS
 10
118.593727031
 20
227.8347927516
 11
118.5915907706
 21
226.7547948644
  0
LINE
  5
237
100
AcDbEntity
  8
0
100
AcDbLine
 62
7
  6
CONTINUOUS
 10
118.5899292347
 20
225.9147965077
 11
118.5877929743
 21
224.8347986205
  0
LINE
  5
238
100
AcDbEntity
  8
0
100
AcDbLine
 62
7
  6
CONTINUOUS
 10
118.9161502595
 20
218.9484254804
 11
118.9120154608
 21
216.8580558715
  0
LINE
  5
239
100
AcDbEntity
  8
0
100
AcDbLine
 62
7
  6
CONTINUOUS
 10
120.7439909525
 20
222.9105298558
 11
120.983990483
 21
222.9100551312
  0
LINE
  5
23A
100
AcDbEntity
  8
0
100
AcDbLine
 62
7
  6
CONTINUOUS
 10
122.0639883702
 20
222.9079188708
 11
122.3039868488
 21
222.9074441484
  0
LINE
  5
23B
100
AcDbEntity
  8
0
100
AcDbLine
 62
7
  6
CONTINUOUS
 10
119.5512899997
 20
236.7129160421
 11
119.5510921978
 21
236.6129162377
  0
LINE
  5
23C
100
AcDbEntity
  8
0
100
AcDbLine
 62
7
  6
CONTINUOUS
 10
119.8005886676
 20
236.3581065643
 11
119.796554623
 21
234.3186737182
  0
LINE
  5
23D
100
AcDbEntity
  8
0
100
AcDbLine
 62
7
  6
CONTINUOUS
 10
112.8655923339
 20
216.551128905
 11
113.0361171701
 21
216.8451419838
  0
LINE
  5
23E
100
AcDbEntity
  8
0
100
AcDbLine
 62
7
  6
CONTINUOUS
 10
125.7009299293
 20
238.6813781343
 11
125.8714547538
 21
238.975391193
  0
LINE
  5
23F
100
AcDbEntity
  8
0
100
AcDbLine
 62
9
  6
CONTINUOUS
 10
126.1309651814
 20
238.8248776123
 11
125.9604403695
 21
238.5308645754
  0
LINE
  5
240
100
AcDbEntity
  8
0
100
AcDbLine
 62
9
  6
CONTINUOUS
 10
113.2956275389
 20
216.6946283019
 11
113.1251027271
 21
216.400615265
  0
LINE
  5
241
100
AcDbEntity
  8
0
100
AcDbLine
 62
7
  6
CONTINUOUS
 10
125.6114083823
 20
223.9809041061
 11
122.0661246306
 21
223.987916758
  0
LINE
  5
242
100
AcDbEntity
  8
0
100
AcDbLine
 62
7
  6
CONTINUOUS
 10
120.9861267434
 20
223.9900530184
 11
117.4408429916
 21
223.9970656704
  0
LINE
  5
243
100
AcDbEntity
  8
0
100
AcDbLine
 62
7
  6
CONTINUOUS
 10
134.4876212531
 20
223.9833467943
 11
134.1477360464
 21
223.9840190949
  0
LINE
  5
244
100
AcDbEntity
  8
0
100
AcDbLine
 62
7
  6
CONTINUOUS
 10
108.904594433
 20
224.0339506033
 11
108.5647092416
 21
224.034622904
  0
LINE
  5
245
100
AcDbEntity
  8
0
100
AcDbLine
 62
9
  6
CONTINUOUS
 10
134.4882146935
 20
224.2833462073
 11
134.1483295286
 21
224.2840185079
  0
LINE
  5
246
100
AcDbEntity
  8
0
100
AcDbLine
 62
9
  6
CONTINUOUS
 10
108.9051877774
 20
224.3339500166
 11
108.5653026125
 21
224.3346223172
  0
LINE
  5
247
100
AcDbEntity
  8
0
100
AcDbLine
 62
7
  6
CONTINUOUS
 10
111.0839634458
 20
224.7796412291
 11
111.42766852
 21
224.7789613726
  0
LINE
  5
248
100
AcDbEntity
  8
0
100
AcDbLine
 62
7
  6
CONTINUOUS
 10
131.6276290031
 20
224.7390053912
 11
132.4888088647
 21
224.7373019578
  0
LINE
  5
249
100
AcDbEntity
  8
0
100
AcDbLine
 62
7
  6
CONTINUOUS
 10
117.0313974602
 20
224.8378772062
 11
117.7477946176
 21
224.8364601563
  0
LINE
  5
24A
100
AcDbEntity
  8
0
100
AcDbLine
 62
7
  6
CONTINUOUS
 10
118.5877929743
 20
224.8347986205
 11
120.9877882792
 21
224.8300513752
  0
LINE
  5
24B
100
AcDbEntity
  8
0
100
AcDbLine
 62
7
  6
CONTINUOUS
 10
122.0677861665
 20
224.8279151148
 11
124.8468167345
 21
224.8224181291
  0
LINE
  5
24C
100
AcDbEntity
  8
0
100
AcDbLine
 62
7
  6
CONTINUOUS
 10
124.9582406601
 20
225.0621981995
 11
126.1071611565
 21
225.0599256087
  0
LINE
  5
24D
100
AcDbEntity
  8
0
100
AcDbLine
 62
7
  6
CONTINUOUS
 10
125.8221032929
 20
214.025495742
 11
125.6527429198
 21
214.3201811144
  0
LINE
  5
24E
100
AcDbEntity
  8
0
100
AcDbLine
 62
7
  6
CONTINUOUS
 10
113.0744140694
 20
236.2063487744
 11
112.9050537004
 21
236.5010341397
  0
LINE
  5
24F
100
AcDbEntity
  8
0
100
AcDbLine
 62
9
  6
CONTINUOUS
 10
113.1651574993
 20
236.650519971
 11
113.3345178524
 21
236.3558346336
  0
LINE
  5
250
100
AcDbEntity
  8
0
100
AcDbLine
 62
9
  6
CONTINUOUS
 10
125.912846773
 20
214.4696668514
 11
126.0822071261
 21
214.1749815139
  0
LINE
  5
251
100
AcDbEntity
  8
0
100
AcDbLine
 62
7
  6
CONTINUOUS
 10
120.7423294165
 20
222.0705314497
 11
120.7439909525
 21
222.9105298558
  0
LINE
  5
252
100
AcDbEntity
  8
0
100
AcDbLine
 62
7
  6
CONTINUOUS
 10
120.983990483
 20
222.9100551312
 11
120.9861267434
 21
223.9900530184
  0
LINE
  5
253
100
AcDbEntity
  8
0
100
AcDbLine
 62
7
  6
CONTINUOUS
 10
120.9877882792
 20
224.8300513752
 11
120.9899245396
 21
225.9100492624
  0
LINE
  5
254
100
AcDbEntity
  8
0
100
AcDbLine
 62
7
  6
CONTINUOUS
 10
120.9915860755
 20
226.7500476191
 11
120.9937223359
 21
227.8300455063
  0
LINE
  5
255
100
AcDbEntity
  8
0
100
AcDbLine
 62
7
  6
CONTINUOUS
 10
120.9953838717
 20
228.670043863
 11
120.9975201321
 21
229.7500417503
  0
LINE
  5
256
100
AcDbEntity
  8
0
100
AcDbLine
 62
7
  6
CONTINUOUS
 10
121.5512860872
 20
236.7089600043
 11
121.5510882853
 21
236.6089602
  0
LINE
  5
257
100
AcDbEntity
  8
0
100
AcDbLine
 62
9
  6
CONTINUOUS
 10
125.3181108942
 20
238.4968874638
 11
125.2331921801
 21
238.2280737515
  0
LINE
  5
258
100
AcDbEntity
  8
0
100
AcDbLine
 62
9
  6
CONTINUOUS
 10
117.744109695
 20
214.521072453
 11
117.829028409
 21
214.7898861654
  0
LINE
  5
259
100
AcDbEntity
  8
0
100
AcDbLine
 62
9
  6
CONTINUOUS
 10
127.8195333439
 20
239.574420462
 11
127.6894280394
 21
239.3041010033
  0
LINE
  5
25A
100
AcDbEntity
  8
0
100
AcDbLine
 62
9
  6
CONTINUOUS
 10
115.2426872452
 20
213.4435394548
 11
115.3727925497
 21
213.7138589135
  0
LINE
  5
25B
100
AcDbEntity
  8
0
100
AcDbLine
 62
9
  6
CONTINUOUS
 10
129.7492261365
 20
238.4552166884
 11
129.5791961536
 21
238.2080531698
  0
LINE
  5
25C
100
AcDbEntity
  8
0
100
AcDbLine
 62
9
  6
CONTINUOUS
 10
113.3129944526
 20
214.5627432285
 11
113.4830244355
 21
214.809906747
  0
LINE
  5
25D
100
AcDbEntity
  8
0
100
AcDbLine
 62
9
  6
CONTINUOUS
 10
113.1973192767
 20
217.4762341473
 11
113.0061579684
 21
217.2690401461
  0
LINE
  5
25E
100
AcDbEntity
  8
0
100
AcDbLine
 62
9
  6
CONTINUOUS
 10
129.8649013124
 20
235.5417257695
 11
130.0560626207
 21
235.7489197708
  0
LINE
  5
25F
100
AcDbEntity
  8
0
100
AcDbLine
 62
9
  6
CONTINUOUS
 10
133.8064430322
 20
229.2232949877
 11
133.5311841714
 21
229.1624298952
  0
LINE
  5
260
100
AcDbEntity
  8
0
100
AcDbLine
 62
9
  6
CONTINUOUS
 10
109.2557775569
 20
223.7946649291
 11
109.5310364177
 21
223.8555300216
  0
LINE
  5
261
100
AcDbEntity
  8
0
100
AcDbLine
 62
9
  6
CONTINUOUS
 10
135.990325207
 20
227.5957660998
 11
135.6911690364
 21
227.5732808692
  0
LINE
  5
262
100
AcDbEntity
  8
0
100
AcDbLine
 62
9
  6
CONTINUOUS
 10
107.0718953822
 20
225.4221938171
 11
107.3710515528
 21
225.4446790476
  0
LINE
  5
263
100
AcDbEntity
  8
0
100
AcDbLine
 62
7
  6
CONTINUOUS
 10
124.1094437115
 20
225.663878313
 11
123.2694453548
 21
225.6655398488
  0
LINE
  5
264
100
AcDbEntity
  8
0
100
AcDbLine
 62
7
  6
CONTINUOUS
 10
123.2699200793
 20
225.9055393793
 11
122.0699224268
 21
225.907913002
  0
LINE
  5
265
100
AcDbEntity
  8
0
100
AcDbLine
 62
7
  6
CONTINUOUS
 10
120.9899245396
 20
225.9100492624
 11
118.5899292347
 21
225.9147965077
  0
LINE
  5
266
100
AcDbEntity
  8
0
100
AcDbLine
 62
9
  6
CONTINUOUS
 10
135.9859127033
 20
225.365001233
 11
135.6868478259
 21
225.3886697583
  0
LINE
  5
267
100
AcDbEntity
  8
0
100
AcDbLine
 62
9
  6
CONTINUOUS
 10
107.0763078858
 20
227.6529586838
 11
107.3753727632
 21
227.6292901585
  0
LINE
  5
268
100
AcDbEntity
  8
0
100
AcDbLine
 62
9
  6
CONTINUOUS
 10
109.5416274473
 20
229.2098817842
 11
109.2666115246
 21
229.2718353327
  0
LINE
  5
269
100
AcDbEntity
  8
0
100
AcDbLine
 62
9
  6
CONTINUOUS
 10
133.5205931418
 20
223.8080781327
 11
133.7956090646
 21
223.7461245841
  0
LINE
  5
26A
100
AcDbEntity
  8
0
100
AcDbLine
 62
9
  6
CONTINUOUS
 10
132.0601535955
 20
223.3633207437
 11
131.5544408307
 21
223.5144075968
  0
LINE
  5
26B
100
AcDbEntity
  8
0
100
AcDbLine
 62
9
  6
CONTINUOUS
 10
113.0427781565
 20
235.7825724345
 11
113.2331183032
 21
235.5746238147
  0
LINE
  5
26C
100
AcDbEntity
  8
0
100
AcDbLine
 62
9
  6
CONTINUOUS
 10
130.0194424326
 20
217.2353874823
 11
129.8291022859
 21
217.4433361021
  0
LINE
  5
26D
100
AcDbEntity
  8
0
100
AcDbLine
 62
9
  6
CONTINUOUS
 10
113.3603184315
 20
238.4876343207
 11
113.5293692976
 21
238.2398000925
  0
LINE
  5
26E
100
AcDbEntity
  8
0
100
AcDbLine
 62
9
  6
CONTINUOUS
 10
129.7019021576
 20
214.5303255962
 11
129.5328512915
 21
214.7781598243
  0
LINE
  5
26F
100
AcDbEntity
  8
0
100
AcDbLine
 62
9
  6
CONTINUOUS
 10
115.2944237278
 20
239.5991954138
 11
115.4234586223
 21
239.3283633699
  0
LINE
  5
270
100
AcDbEntity
  8
0
100
AcDbLine
 62
9
  6
CONTINUOUS
 10
127.7677968613
 20
213.4187645031
 11
127.6387619668
 21
213.689596547
  0
LINE
  5
271
100
AcDbEntity
  8
0
100
AcDbLine
 62
9
  6
CONTINUOUS
 10
125.186802124
 20
214.7753323216
 11
125.2706567384
 21
214.5061847717
  0
LINE
  5
272
100
AcDbEntity
  8
0
100
AcDbLine
 62
9
  6
CONTINUOUS
 10
117.8754184652
 20
238.2426275953
 11
117.7915638507
 21
238.5117751451
  0
LINE
  5
273
100
AcDbEntity
  8
0
100
AcDbLine
 62
7
  6
CONTINUOUS
 10
122.0775180193
 20
229.7479054899
 11
122.075381759
 21
228.6679076027
  0
LINE
  5
274
100
AcDbEntity
  8
0
100
AcDbLine
 62
7
  6
CONTINUOUS
 10
122.0737202231
 20
227.8279092459
 11
122.0715839627
 21
226.7479113587
  0
LINE
  5
275
100
AcDbEntity
  8
0
100
AcDbLine
 62
7
  6
CONTINUOUS
 10
122.0699224268
 20
225.907913002
 11
122.0677861665
 21
224.8279151148
  0
LINE
  5
276
100
AcDbEntity
  8
0
100
AcDbLine
 62
7
  6
CONTINUOUS
 10
122.0661246306
 20
223.987916758
 11
122.0639883702
 21
222.9079188708
  0
LINE
  5
277
100
AcDbEntity
  8
0
100
AcDbLine
 62
7
  6
CONTINUOUS
 10
122.3039879007
 20
222.9074441346
 11
122.3023263648
 21
222.0674457896
  0
LINE
  5
278
100
AcDbEntity
  8
0
100
AcDbLine
 62
7
  6
CONTINUOUS
 10
118.5915907706
 20
226.7547948644
 11
120.9915860755
 21
226.7500476191
  0
LINE
  5
279
100
AcDbEntity
  8
0
100
AcDbLine
 62
7
  6
CONTINUOUS
 10
122.0715839627
 20
226.7479113587
 11
123.2715816152
 21
226.7455377361
  0
LINE
  5
27A
100
AcDbEntity
  8
0
100
AcDbLine
 62
7
  6
CONTINUOUS
 10
123.2720563397
 20
226.9855372665
 11
124.1120546964
 21
226.9838757307
  0
LINE
  5
27B
100
AcDbEntity
  8
0
100
AcDbLine
 62
7
  6
CONTINUOUS
 10
126.2101594704
 20
227.5797268055
 11
125.0930148648
 21
227.5819365429
  0
LINE
  5
27C
100
AcDbEntity
  8
0
100
AcDbLine
 62
7
  6
CONTINUOUS
 10
125.0116448948
 20
227.8220979641
 11
122.0737202231
 21
227.8279092459
  0
LINE
  5
27D
100
AcDbEntity
  8
0
100
AcDbLine
 62
7
  6
CONTINUOUS
 10
120.9937223359
 20
227.8300455063
 11
118.593727031
 21
227.8347927516
  0
LINE
  5
27E
100
AcDbEntity
  8
0
100
AcDbLine
 62
7
  6
CONTINUOUS
 10
117.7537286742
 20
227.8364542875
 11
116.9187980221
 21
227.8381057993
  0
LINE
  5
27F
100
AcDbEntity
  8
0
100
AcDbLine
 62
7
  6
CONTINUOUS
 10
123.2694453548
 20
225.6655398488
 11
123.2699200793
 21
225.9055393793
  0
LINE
  5
280
100
AcDbEntity
  8
0
100
AcDbLine
 62
7
  6
CONTINUOUS
 10
123.2715816152
 20
226.7455377361
 11
123.2720563397
 21
226.9855372665
  0
LINE
  5
281
100
AcDbEntity
  8
0
100
AcDbLine
 62
7
  6
CONTINUOUS
 10
123.3005818206
 20
236.3511834982
 11
123.296547776
 21
234.3117506522
  0
LINE
  5
282
100
AcDbEntity
  8
0
100
AcDbLine
 62
7
  6
CONTINUOUS
 10
123.5512821746
 20
236.7050039666
 11
123.5510843727
 21
236.6050041622
  0
LINE
  5
283
100
AcDbEntity
  8
0
100
AcDbLine
 62
7
  6
CONTINUOUS
 10
124.1120546964
 20
226.9838757307
 11
124.1094437115
 21
225.663878313
  0
LINE
  5
284
100
AcDbEntity
  8
0
100
AcDbLine
 62
7
  6
CONTINUOUS
 10
124.1161400868
 20
218.9381397822
 11
124.1120072912
 21
216.8477703891
  0
LINE
  5
285
100
AcDbEntity
  8
0
100
AcDbLine
 62
9
  6
CONTINUOUS
 10
116.9312554078
 20
214.1930823045
 11
117.1017802196
 21
214.4870953414
  0
LINE
  5
286
100
AcDbEntity
  8
0
100
AcDbLine
 62
9
  6
CONTINUOUS
 10
129.7665930502
 20
236.323331615
 11
129.937117862
 21
236.6173446519
  0
LINE
  5
287
100
AcDbEntity
  8
0
100
AcDbLine
 62
7
  6
CONTINUOUS
 10
130.1966282552
 20
236.4668310118
 11
130.026103419
 21
236.172817933
  0
LINE
  5
288
100
AcDbEntity
  8
0
100
AcDbLine
 62
7
  6
CONTINUOUS
 10
117.3612906598
 20
214.3365817825
 11
117.1907658354
 21
214.0425687239
  0
LINE
  5
289
100
AcDbEntity
  8
0
100
AcDbLine
 62
7
  6
CONTINUOUS
 10
111.0827410767
 20
228.2796504939
 11
111.434591586
 21
228.2789545256
  0
LINE
  5
28A
100
AcDbEntity
  8
0
100
AcDbLine
 62
7
  6
CONTINUOUS
 10
131.6345520692
 20
228.2389985442
 11
132.4957318901
 21
228.2372951109
  0
LINE
  5
28B
100
AcDbEntity
  8
0
100
AcDbLine
 62
7
  6
CONTINUOUS
 10
117.2488541371
 20
228.6774545841
 11
120.9953838717
 21
228.670043863
  0
LINE
  5
28C
100
AcDbEntity
  8
0
100
AcDbLine
 62
7
  6
CONTINUOUS
 10
122.075381759
 20
228.6679076027
 11
125.8219114936
 21
228.6604968816
  0
LINE
  5
28D
100
AcDbEntity
  8
0
100
AcDbLine
 62
9
  6
CONTINUOUS
 10
108.5740058956
 20
228.7346137095
 11
108.9138910605
 21
228.7339414089
  0
LINE
  5
28E
100
AcDbEntity
  8
0
100
AcDbLine
 62
9
  6
CONTINUOUS
 10
134.1570328117
 20
228.6840099002
 11
134.4969179766
 21
228.6833375997
  0
LINE
  5
28F
100
AcDbEntity
  8
0
100
AcDbLine
 62
7
  6
CONTINUOUS
 10
108.574599336
 20
229.0346131226
 11
108.9144845427
 21
229.0339408219
  0
LINE
  5
290
100
AcDbEntity
  8
0
100
AcDbLine
 62
7
  6
CONTINUOUS
 10
134.1576261408
 20
228.9840093135
 11
134.4975113475
 21
228.9833370128
  0
LINE
  5
291
100
AcDbEntity
  8
0
100
AcDbLine
 62
9
  6
CONTINUOUS
 10
129.8970630898
 20
216.3674399458
 11
129.7277027367
 21
216.6621252833
  0
LINE
  5
292
100
AcDbEntity
  8
0
100
AcDbLine
 62
9
  6
CONTINUOUS
 10
117.1493738161
 20
238.5482930655
 11
116.9800134631
 21
238.842978403
  0
LINE
  5
293
100
AcDbEntity
  8
0
100
AcDbLine
 62
7
  6
CONTINUOUS
 10
117.2401172962
 20
238.9924641748
 11
117.4094776693
 21
238.6977788025
  0
LINE
  5
294
100
AcDbEntity
  8
0
100
AcDbLine
 62
7
  6
CONTINUOUS
 10
129.9878065197
 20
216.8116111424
 11
130.1571668888
 21
216.5169257772
  0
LINE
  5
295
100
AcDbEntity
  8
0
100
AcDbLine
 62
7
  6
CONTINUOUS
 10
125.6491434976
 20
235.6217074414
 11
125.6446902702
 21
233.3703544406
  0
LINE
  5
296
100
AcDbEntity
  8
0
100
AcDbLine
 62
7
  6
CONTINUOUS
 10
125.2840358201
 20
229.5015624552
 11
124.1219184019
 21
229.5038611499
  0
LINE
  5
297
100
AcDbEntity
  8
0
100
AcDbLine
 62
7
  6
CONTINUOUS
 10
118.9521703005
 20
229.5140870293
 11
117.7900528824
 21
229.5163857239
  0
LINE
  5
298
100
AcDbEntity
  8
0
100
AcDbLine
 62
7
  6
CONTINUOUS
 10
123.8143545369
 20
229.7444699877
 11
122.0775180193
 21
229.7479054899
  0
LINE
  5
299
100
AcDbEntity
  8
0
100
AcDbLine
 62
7
  6
CONTINUOUS
 10
120.9975201321
 20
229.7500417503
 11
119.2606836146
 21
229.7534772524
  0
LINE
  5
29A
100
AcDbEntity
  8
0
100
AcDbLine
 62
7
  6
CONTINUOUS
 10
119.0106286575
 20
230.5939735101
 11
124.0677325657
 21
230.5839704435
  0
LINE
  5
29B
100
AcDbEntity
  8
0
100
AcDbLine
 62
7
  6
CONTINUOUS
 10
129.9394015411
 20
230.6923563834
 11
128.3482224662
 21
230.6955037718
  0
LINE
  5
29C
100
AcDbEntity
  8
0
100
AcDbLine
 62
7
  6
CONTINUOUS
 10
114.7306134816
 20
230.7224397122
 11
113.1394344066
 21
230.7255871006
  0
LINE
  5
29D
100
AcDbEntity
  8
0
100
AcDbLine
 62
7
  6
CONTINUOUS
 10
126.1142092202
 20
217.9599915066
 11
126.1181547125
 21
219.9546666071
  0
LINE
  5
29E
100
AcDbEntity
  8
0
100
AcDbLine
 62
7
  6
CONTINUOUS
 10
113.3964339911
 20
232.3250818797
 11
116.0326026576
 21
232.3198674781
  0
LINE
  5
29F
100
AcDbEntity
  8
0
100
AcDbLine
 62
7
  6
CONTINUOUS
 10
127.0525629506
 20
232.2980697459
 11
129.6887316171
 21
232.2928553443
  0
LINE
  5
2A0
100
AcDbEntity
  8
0
100
AcDbLine
 62
7
  6
CONTINUOUS
 10
129.3425675451
 20
232.2935400647
 11
129.3394027149
 21
230.6935431948
  0
LINE
  5
2A1
100
AcDbEntity
  8
0
100
AcDbLine
 62
7
  6
CONTINUOUS
 10
129.921498941
 20
221.641600955
 11
129.9394015411
 21
230.6923563834
  0
LINE
  5
2A2
100
AcDbEntity
  8
0
100
AcDbLine
 62
7
  6
CONTINUOUS
 10
131.6345520692
 20
228.2389985442
 11
131.6276290031
 21
224.7390053912
  0
LINE
  5
2A3
100
AcDbEntity
  8
0
100
AcDbLine
 62
7
  6
CONTINUOUS
 10
118.3612974591
 20
236.6152696788
 11
125.8805430736
 21
236.6003964399
  0
LINE
  5
2A4
100
AcDbEntity
  8
0
100
AcDbLine
 62
7
  6
CONTINUOUS
 10
119.5512899997
 20
236.7129160421
 11
123.5512821746
 21
236.7050039666
  0
LINE
  5
2A5
100
AcDbEntity
  8
0
100
AcDbLine
 62
9
  6
CONTINUOUS
 10
134.1477361229
 20
223.9840190948
 11
134.1483295286
 21
224.2840185079
  0
LINE
  5
2A6
100
AcDbEntity
  8
0
100
AcDbLine
 62
9
  6
CONTINUOUS
 10
134.1570328117
 20
228.6840099003
 11
134.1576262173
 21
228.9840093134
  0
LINE
  5
2A7
100
AcDbEntity
  8
0
100
AcDbLine
 62
9
  6
CONTINUOUS
 10
134.4975113823
 20
228.9833370128
 11
134.4969179766
 21
228.6833375997
  0
LINE
  5
2A8
100
AcDbEntity
  8
0
100
AcDbLine
 62
9
  6
CONTINUOUS
 10
134.4882146935
 20
224.2833462073
 11
134.4876212879
 21
223.9833467942
  0
LINE
  5
2A9
100
AcDbEntity
  8
0
100
AcDbLine
 62
9
  6
CONTINUOUS
 10
125.6527429573
 20
214.3201810492
 11
125.912846773
 21
214.4696668514
  0
LINE
  5
2AA
100
AcDbEntity
  8
0
100
AcDbLine
 62
9
  6
CONTINUOUS
 10
129.7277027367
 20
216.6621252833
 11
129.9878065525
 21
216.8116110855
  0
LINE
  5
2AB
100
AcDbEntity
  8
0
100
AcDbLine
 62
9
  6
CONTINUOUS
 10
130.1571669055
 20
216.516925748
 11
129.8970630898
 21
216.3674399458
  0
LINE
  5
2AC
100
AcDbEntity
  8
0
100
AcDbLine
 62
9
  6
CONTINUOUS
 10
126.0822071261
 20
214.1749815139
 11
125.8221033104
 21
214.0254957117
  0
LINE
  5
2AD
100
AcDbEntity
  8
0
100
AcDbLine
 62
9
  6
CONTINUOUS
 10
130.0261034602
 20
236.172818004
 11
129.7665930502
 21
236.323331615
  0
LINE
  5
2AE
100
AcDbEntity
  8
0
100
AcDbLine
 62
9
  6
CONTINUOUS
 10
125.9604403695
 20
238.5308645754
 11
125.7009299595
 21
238.6813781863
  0
LINE
  5
2AF
100
AcDbEntity
  8
0
100
AcDbLine
 62
9
  6
CONTINUOUS
 10
125.8714547713
 20
238.9753912232
 11
126.1309651814
 21
238.8248776123
  0
LINE
  5
2B0
100
AcDbEntity
  8
0
100
AcDbLine
 62
9
  6
CONTINUOUS
 10
129.937117862
 20
236.6173446519
 11
130.1966282721
 21
236.4668310409
  0
ARC
  5
2B1
100
AcDbEntity
  8
0
100
AcDbCircle
 62
9
  6
CONTINUOUS
 10
121.5311351071
 20
226.5089797757
 40
10.9887107061
100
AcDbArc
 50
294.3602646911
 51
343.3658979151
  0
ARC
  5
2B2
100
AcDbEntity
  8
0
100
AcDbCircle
 62
9
  6
CONTINUOUS
 10
121.5455672473
 20
226.4744763739
 40
10.9513263334
100
AcDbArc
 50
293.0904437916
 51
294.365938471
  0
ARC
  5
2B3
100
AcDbEntity
  8
0
100
AcDbCircle
 62
7
  6
CONTINUOUS
 10
121.5639340437
 20
226.4236503506
 40
10.687880423
100
AcDbArc
 50
107.532274668
 51
115.5823949928
  0
ARC
  5
2B4
100
AcDbEntity
  8
0
100
AcDbCircle
 62
7
  6
CONTINUOUS
 10
121.4526984873
 20
226.4927881911
 40
10.6765379553
100
AcDbArc
 50
9.2619668416
 51
9.4236197416
  0
ARC
  5
2B5
100
AcDbEntity
  8
0
100
AcDbCircle
 62
7
  6
CONTINUOUS
 10
121.5550666232
 20
226.449333939
 40
10.660718673
100
AcDbArc
 50
107.0779941697
 51
107.4407990458
  0
ARC
  5
2B6
100
AcDbEntity
  8
0
100
AcDbCircle
 62
7
  6
CONTINUOUS
 10
121.5964770189
 20
226.5088661867
 40
10.5320486755
100
AcDbArc
 50
353.2225655922
 51
9.3015307014
  0
ARC
  5
2B7
100
AcDbEntity
  8
0
100
AcDbCircle
 62
7
  6
CONTINUOUS
 10
121.5585827783
 20
226.4001888732
 40
10.4852995524
100
AcDbArc
 50
285.0343817687
 51
287.0612246327
  0
ARC
  5
2B8
100
AcDbEntity
  8
0
100
AcDbCircle
 62
9
  6
CONTINUOUS
 10
121.5577630061
 20
226.4938896379
 40
10.4311904123
100
AcDbArc
 50
315.7241691241
 51
343.4036959798
  0
ARC
  5
2B9
100
AcDbEntity
  8
0
100
AcDbCircle
 62
9
  6
CONTINUOUS
 10
121.521480261
 20
226.4778874381
 40
10.4288889744
100
AcDbArc
 50
239.807782863
 51
254.7933278866
  0
ARC
  5
2BA
100
AcDbEntity
  8
0
100
AcDbCircle
 62
7
  6
CONTINUOUS
 10
121.5280068589
 20
226.5056432362
 40
10.3456361954
100
AcDbArc
 50
238.9949593334
 51
257.2806924476
  0
ARC
  5
2BB
100
AcDbEntity
  8
0
100
AcDbCircle
 62
7
  6
CONTINUOUS
 10
121.5370372532
 20
226.4983536866
 40
10.3377136731
100
AcDbArc
 50
282.4776911594
 51
315.7997901336
  0
ARC
  5
2BC
100
AcDbEntity
  8
0
100
AcDbCircle
 62
7
  6
CONTINUOUS
 10
115.8932137676
 20
214.7951367483
 40
1.5
100
AcDbArc
 50
244.2983935775
 51
329.8866771446
  0
ARC
  5
2BD
100
AcDbEntity
  8
0
100
AcDbCircle
 62
7
  6
CONTINUOUS
 10
114.1631443673
 20
215.7985608212
 40
1.5
100
AcDbArc
 50
149.8866588435
 51
235.4749420072
  0
ARC
  5
2BE
100
AcDbEntity
  8
0
100
AcDbCircle
 62
7
  6
CONTINUOUS
 10
108.5676762352
 20
225.5346199696
 40
1.5
100
AcDbArc
 50
184.2983935796
 51
269.8866770927
  0
ARC
  5
2BF
100
AcDbEntity
  8
0
100
AcDbCircle
 62
9
  6
CONTINUOUS
 10
108.5676762352
 20
225.5346199696
 40
1.2
100
AcDbArc
 50
184.2983935822
 51
269.886667792
  0
ARC
  5
2C0
100
AcDbEntity
  8
0
100
AcDbCircle
 62
9
  6
CONTINUOUS
 10
114.1631443673
 20
215.7985608212
 40
1.2
100
AcDbArc
 50
149.8866677902
 51
235.4749420086
  0
ARC
  5
2C1
100
AcDbEntity
  8
0
100
AcDbCircle
 62
9
  6
CONTINUOUS
 10
115.8932137676
 20
214.7951367483
 40
1.2
100
AcDbArc
 50
244.2983935762
 51
329.886667792
  0
ARC
  5
2C2
100
AcDbEntity
  8
0
100
AcDbCircle
 62
7
  6
CONTINUOUS
 10
88.1212577766
 20
233.0880397999
 40
40.8940362958
100
AcDbArc
 50
337.6451247717
 51
338.2885226156
  0
ARC
  5
2C3
100
AcDbEntity
  8
0
100
AcDbCircle
 62
7
  6
CONTINUOUS
 10
79.4023411688
 20
236.6288049076
 40
36.8863813999
100
AcDbArc
 50
335.5125465003
 51
336.083406395
  0
ARC
  5
2C4
100
AcDbEntity
  8
0
100
AcDbCircle
 62
7
  6
CONTINUOUS
 10
108.5716322729
 20
227.5346160571
 40
1.5
100
AcDbArc
 50
89.8866585442
 51
175.4749420054
  0
ARC
  5
2C5
100
AcDbEntity
  8
0
100
AcDbCircle
 62
9
  6
CONTINUOUS
 10
108.5716322729
 20
227.5346160571
 40
1.2
100
AcDbArc
 50
89.8866677923
 51
175.4749420022
  0
CIRCLE
  5
2C6
100
AcDbEntity
  8
0
100
AcDbCircle
 62
7
  6
CONTINUOUS
 10
121.5311102946
 20
226.5089799584
 40
14.5
  0
ARC
  5
2C7
100
AcDbEntity
  8
0
100
AcDbCircle
 62
9
  6
CONTINUOUS
 10
121.5311102946
 20
226.5089799584
 40
14.2
100
AcDbArc
 50
175.4749420063
 51
184.2983935785
  0
ARC
  5
2C8
100
AcDbEntity
  8
0
100
AcDbCircle
 62
9
  6
CONTINUOUS
 10
121.5311102946
 20
226.5089799584
 40
14.2
100
AcDbArc
 50
235.4749420068
 51
244.298393578
  0
ARC
  5
2C9
100
AcDbEntity
  8
0
100
AcDbCircle
 62
9
  6
CONTINUOUS
 10
121.5311102946
 20
226.5089799584
 40
14.2
100
AcDbArc
 50
295.4749420068
 51
304.298393578
  0
ARC
  5
2CA
100
AcDbEntity
  8
0
100
AcDbCircle
 62
9
  6
CONTINUOUS
 10
121.5311102946
 20
226.5089799584
 40
14.2
100
AcDbArc
 50
355.4749420063
 51
4.2983935785
  0
ARC
  5
2CB
100
AcDbEntity
  8
0
100
AcDbCircle
 62
9
  6
CONTINUOUS
 10
121.5311102946
 20
226.5089799584
 40
14.2
100
AcDbArc
 50
55.4749420068
 51
64.298393578
  0
ARC
  5
2CC
100
AcDbEntity
  8
0
100
AcDbCircle
 62
9
  6
CONTINUOUS
 10
121.5311102946
 20
226.5089799584
 40
14.2
100
AcDbArc
 50
115.4749420068
 51
124.298393578
  0
ARC
  5
2CD
100
AcDbEntity
  8
0
100
AcDbCircle
 62
7
  6
CONTINUOUS
 10
121.5311102946
 20
226.5089799584
 40
14.1378660542
100
AcDbArc
 50
68.9303933578
 51
110.8422174276
  0
ARC
  5
2CE
100
AcDbEntity
  8
0
100
AcDbCircle
 62
7
  6
CONTINUOUS
 10
121.5311102946
 20
226.5089799584
 40
14.1378660542
100
AcDbArc
 50
8.9303933548
 51
50.8420214292
  0
ARC
  5
2CF
100
AcDbEntity
  8
0
100
AcDbCircle
 62
7
  6
CONTINUOUS
 10
121.5311102946
 20
226.5089799584
 40
14.1378660542
100
AcDbArc
 50
128.93047695
 51
170.8422174379
  0
ARC
  5
2D0
100
AcDbEntity
  8
0
100
AcDbCircle
 62
7
  6
CONTINUOUS
 10
121.5311102946
 20
226.5089799584
 40
14.1378660542
100
AcDbArc
 50
308.9303933567
 51
350.8420180827
  0
ARC
  5
2D1
100
AcDbEntity
  8
0
100
AcDbCircle
 62
7
  6
CONTINUOUS
 10
121.5311102946
 20
226.5089799584
 40
14.1378660542
100
AcDbArc
 50
188.9304769473
 51
230.8420214916
  0
ARC
  5
2D2
100
AcDbEntity
  8
0
100
AcDbCircle
 62
7
  6
CONTINUOUS
 10
121.5311102946
 20
226.5089799584
 40
14.1378660542
100
AcDbArc
 50
248.9304769501
 51
290.8420214825
  0
ARC
  5
2D3
100
AcDbEntity
  8
0
100
AcDbCircle
 62
9
  6
CONTINUOUS
 10
121.5311102946
 20
226.5089799584
 40
12.5718455248
100
AcDbArc
 50
312.4685823323
 51
347.3047529714
  0
ARC
  5
2D4
100
AcDbEntity
  8
0
100
AcDbCircle
 62
9
  6
CONTINUOUS
 10
121.5311102946
 20
226.5089799584
 40
12.5718455248
100
AcDbArc
 50
252.4685823233
 51
287.3047529792
  0
ARC
  5
2D5
100
AcDbEntity
  8
0
100
AcDbCircle
 62
9
  6
CONTINUOUS
 10
121.5311102946
 20
226.5089799584
 40
12.5718455248
100
AcDbArc
 50
192.4685823331
 51
227.304752972
  0
ARC
  5
2D6
100
AcDbEntity
  8
0
100
AcDbCircle
 62
9
  6
CONTINUOUS
 10
121.5311102946
 20
226.5089799584
 40
12.5718455248
100
AcDbArc
 50
132.4685826132
 51
167.3047529714
  0
ARC
  5
2D7
100
AcDbEntity
  8
0
100
AcDbCircle
 62
9
  6
CONTINUOUS
 10
121.5311102946
 20
226.5089799584
 40
12.5718455248
100
AcDbArc
 50
72.4685823233
 51
107.3047529792
  0
ARC
  5
2D8
100
AcDbEntity
  8
0
100
AcDbCircle
 62
9
  6
CONTINUOUS
 10
121.5311102946
 20
226.5089799584
 40
12.5718455248
100
AcDbArc
 50
12.4685823331
 51
47.304752972
  0
ARC
  5
2D9
100
AcDbEntity
  8
0
100
AcDbCircle
 62
9
  6
CONTINUOUS
 10
121.5311102946
 20
226.5089799584
 40
12.2899377385
100
AcDbArc
 50
192.4685816719
 51
227.3047517494
  0
ARC
  5
2DA
100
AcDbEntity
  8
0
100
AcDbCircle
 62
9
  6
CONTINUOUS
 10
121.5311102946
 20
226.5089799584
 40
12.2899377385
100
AcDbArc
 50
252.4685816841
 51
287.3047517494
  0
ARC
  5
2DB
100
AcDbEntity
  8
0
100
AcDbCircle
 62
9
  6
CONTINUOUS
 10
121.5311102946
 20
226.5089799584
 40
12.2899377385
100
AcDbArc
 50
312.4685816824
 51
347.3047517519
  0
ARC
  5
2DC
100
AcDbEntity
  8
0
100
AcDbCircle
 62
9
  6
CONTINUOUS
 10
121.5311102946
 20
226.5089799584
 40
12.2899377385
100
AcDbArc
 50
12.4685816829
 51
47.3047517493
  0
ARC
  5
2DD
100
AcDbEntity
  8
0
100
AcDbCircle
 62
9
  6
CONTINUOUS
 10
121.5311102946
 20
226.5089799584
 40
12.2899377385
100
AcDbArc
 50
72.4685816845
 51
107.3047517501
  0
ARC
  5
2DE
100
AcDbEntity
  8
0
100
AcDbCircle
 62
9
  6
CONTINUOUS
 10
121.5311102946
 20
226.5089799584
 40
12.2899377385
100
AcDbArc
 50
132.4685816713
 51
167.3047520726
  0
ARC
  5
2DF
100
AcDbEntity
  8
0
100
AcDbCircle
 62
7
  6
CONTINUOUS
 10
121.5311102946
 20
226.5089799584
 40
11.1975
100
AcDbArc
 50
27.1568448422
 51
189.9813603604
  0
ARC
  5
2E0
100
AcDbEntity
  8
0
100
AcDbCircle
 62
7
  6
CONTINUOUS
 10
121.5311102946
 20
226.5089799584
 40
11.15
100
AcDbArc
 50
257.9994710068
 51
24.1044776182
  0
ARC
  5
2E1
100
AcDbEntity
  8
0
100
AcDbCircle
 62
7
  6
CONTINUOUS
 10
121.5311102946
 20
226.5089799584
 40
11.1
100
AcDbArc
 50
294.3937630777
 51
350.8157040313
  0
ARC
  5
2E2
100
AcDbEntity
  8
0
100
AcDbCircle
 62
7
  6
CONTINUOUS
 10
121.4900086606
 20
226.5213908464
 40
10.6392511117
100
AcDbArc
 50
350.3274699632
 51
353.2232522207
  0
ARC
  5
2E3
100
AcDbEntity
  8
0
100
AcDbCircle
 62
7
  6
CONTINUOUS
 10
121.541811326
 20
226.5201667389
 40
10.6107022351
100
AcDbArc
 50
252.7486540708
 51
254.7341542632
  0
ARC
  5
2E4
100
AcDbEntity
  8
0
100
AcDbCircle
 62
7
  6
CONTINUOUS
 10
121.5335380734
 20
226.5101068344
 40
10.5996015284
100
AcDbArc
 50
176.5353640458
 51
228.5658041191
  0
ARC
  5
2E5
100
AcDbEntity
  8
0
100
AcDbCircle
 62
9
  6
CONTINUOUS
 10
121.5311102946
 20
226.5089799584
 40
10.575
100
AcDbArc
 50
253.1860715246
 51
286.5938142161
  0
ARC
  5
2E6
100
AcDbEntity
  8
0
100
AcDbCircle
 62
9
  6
CONTINUOUS
 10
121.5311102946
 20
226.5089799584
 40
10.575
100
AcDbArc
 50
73.1860715246
 51
102.5459100516
  0
ARC
  5
2E7
100
AcDbEntity
  8
0
100
AcDbCircle
 62
9
  6
CONTINUOUS
 10
121.5311102946
 20
226.5089799584
 40
10.575
100
AcDbArc
 50
103.8235394193
 51
106.5938142161
  0
ARC
  5
2E8
100
AcDbEntity
  8
0
100
AcDbCircle
 62
9
  6
CONTINUOUS
 10
121.5311102946
 20
226.5089799584
 40
10.575
100
AcDbArc
 50
350.3612788255
 51
350.4192866536
  0
ARC
  5
2E9
100
AcDbEntity
  8
0
100
AcDbCircle
 62
9
  6
CONTINUOUS
 10
121.5311102946
 20
226.5089799584
 40
10.575
100
AcDbArc
 50
350.9195618688
 51
4.7022653968
  0
ARC
  5
2EA
100
AcDbEntity
  8
0
100
AcDbCircle
 62
9
  6
CONTINUOUS
 10
121.5311102946
 20
226.5089799584
 40
10.575
100
AcDbArc
 50
6.6685166144
 51
9.4120567593
  0
ARC
  5
2EB
100
AcDbEntity
  8
0
100
AcDbCircle
 62
9
  6
CONTINUOUS
 10
121.5311102946
 20
226.5089799584
 40
10.575
100
AcDbArc
 50
170.3612788255
 51
189.4120567593
  0
ARC
  5
2EC
100
AcDbEntity
  8
0
100
AcDbCircle
 62
9
  6
CONTINUOUS
 10
121.5759247626
 20
226.5840648033
 40
10.5480448322
100
AcDbArc
 50
239.0267761757
 51
239.8422109004
  0
ARC
  5
2ED
100
AcDbEntity
  8
0
100
AcDbCircle
 62
7
  6
CONTINUOUS
 10
121.4532409371
 20
226.9500965126
 40
10.5254385386
100
AcDbArc
 50
194.4246296787
 51
199.4861824942
  0
ARC
  5
2EE
100
AcDbEntity
  8
0
100
AcDbCircle
 62
7
  6
CONTINUOUS
 10
121.4424932064
 20
226.9465845933
 40
10.5141547801
100
AcDbArc
 50
191.894538781
 51
194.2839622718
  0
ARC
  5
2EF
100
AcDbEntity
  8
0
100
AcDbCircle
 62
9
  6
CONTINUOUS
 10
121.5531378631
 20
226.5478724854
 40
10.5052863008
100
AcDbArc
 50
228.6548766807
 51
239.0317488338
  0
ARC
  5
2F0
100
AcDbEntity
  8
0
100
AcDbCircle
 62
7
  6
CONTINUOUS
 10
121.5311102946
 20
226.5089799584
 40
10.5
100
AcDbArc
 50
74.0208880639
 51
105.7524480395
  0
ARC
  5
2F1
100
AcDbEntity
  8
0
100
AcDbCircle
 62
7
  6
CONTINUOUS
 10
121.5311102946
 20
226.5089799584
 40
10.5
100
AcDbArc
 50
254.0208880639
 51
285.7524475209
  0
ARC
  5
2F2
100
AcDbEntity
  8
0
100
AcDbCircle
 62
7
  6
CONTINUOUS
 10
121.4272813456
 20
226.5215447824
 40
10.4928760461
100
AcDbArc
 50
170.3494295208
 51
176.5626427255
  0
ARC
  5
2F3
100
AcDbEntity
  8
0
100
AcDbCircle
 62
9
  6
CONTINUOUS
 10
121.5497934146
 20
226.5210247076
 40
10.4830168634
100
AcDbArc
 50
197.7483499237
 51
228.5716645159
  0
ARC
  5
2F4
100
AcDbEntity
  8
0
100
AcDbCircle
 62
7
  6
CONTINUOUS
 10
121.5311102946
 20
226.5089799584
 40
10.375
100
AcDbArc
 50
170.1758956071
 51
189.5974399777
  0
ARC
  5
2F5
100
AcDbEntity
  8
0
100
AcDbCircle
 62
7
  6
CONTINUOUS
 10
121.5311102946
 20
226.5089799584
 40
10.375
100
AcDbArc
 50
350.1758956071
 51
9.5974399777
  0
ARC
  5
2F6
100
AcDbEntity
  8
0
100
AcDbCircle
 62
7
  6
CONTINUOUS
 10
121.5311102946
 20
226.5089799584
 40
10.34
100
AcDbArc
 50
102.2554404569
 51
170.1427054497
  0
ARC
  5
2F7
100
AcDbEntity
  8
0
100
AcDbCircle
 62
7
  6
CONTINUOUS
 10
121.5311102946
 20
226.5089799584
 40
10.34
100
AcDbArc
 50
9.6306301351
 51
77.5178575664
  0
ARC
  5
2F8
100
AcDbEntity
  8
0
100
AcDbCircle
 62
7
  6
CONTINUOUS
 10
121.5311102946
 20
226.5089799584
 40
10.34
100
AcDbArc
 50
282.2554404576
 51
350.1427054497
  0
ARC
  5
2F9
100
AcDbEntity
  8
0
100
AcDbCircle
 62
7
  6
CONTINUOUS
 10
121.5311102946
 20
226.5089799584
 40
10.34
100
AcDbArc
 50
189.6306301351
 51
257.5178951272
  0
ARC
  5
2FA
100
AcDbEntity
  8
0
100
AcDbCircle
 62
7
  6
CONTINUOUS
 10
121.5311102946
 20
226.5089799584
 40
10.0
100
AcDbArc
 50
284.9567299373
 51
254.816601309
  0
ARC
  5
2FB
100
AcDbEntity
  8
0
100
AcDbCircle
 62
7
  6
CONTINUOUS
 10
121.5311102946
 20
226.5089799584
 40
9.7
100
AcDbArc
 50
298.1956875307
 51
329.8813944409
  0
ARC
  5
2FC
100
AcDbEntity
  8
0
100
AcDbCircle
 62
7
  6
CONTINUOUS
 10
121.5311102946
 20
226.5089799584
 40
9.7
100
AcDbArc
 50
114.8905966308
 51
143.164298849
  0
ARC
  5
2FD
100
AcDbEntity
  8
0
100
AcDbCircle
 62
7
  6
CONTINUOUS
 10
121.5311102946
 20
226.5089799584
 40
9.7
100
AcDbArc
 50
36.609038128
 51
64.8827389508
  0
ARC
  5
2FE
100
AcDbEntity
  8
0
100
AcDbCircle
 62
7
  6
CONTINUOUS
 10
121.5311102946
 20
226.5089799584
 40
9.7
100
AcDbArc
 50
209.8919411439
 51
241.5776480401
  0
CIRCLE
  5
2FF
100
AcDbEntity
  8
0
100
AcDbCircle
 62
7
  6
CONTINUOUS
 10
121.5311102946
 20
226.5089799584
 40
8.0
  0
CIRCLE
  5
300
100
AcDbEntity
  8
0
100
AcDbCircle
 62
9
  6
CONTINUOUS
 10
121.5311102946
 20
226.5089799584
 40
7.6923076923
  0
CIRCLE
  5
301
100
AcDbEntity
  8
0
100
AcDbCircle
 62
7
  6
CONTINUOUS
 10
121.5311102946
 20
226.5089799584
 40
6.0
  0
CIRCLE
  5
302
100
AcDbEntity
  8
0
100
AcDbCircle
 62
7
  6
CONTINUOUS
 10
121.5311102946
 20
226.5089799584
 40
5.4
  0
ARC
  5
303
100
AcDbEntity
  8
0
100
AcDbCircle
 62
7
  6
CONTINUOUS
 10
121.5311102946
 20
226.5089799584
 40
4.8
100
AcDbArc
 50
12.8895459553
 51
26.6303517428
  0
ARC
  5
304
100
AcDbEntity
  8
0
100
AcDbCircle
 62
7
  6
CONTINUOUS
 10
121.5311102946
 20
226.5089799584
 40
4.8
100
AcDbArc
 50
38.5688552459
 51
58.0983371754
  0
ARC
  5
305
100
AcDbEntity
  8
0
100
AcDbCircle
 62
7
  6
CONTINUOUS
 10
121.5311102946
 20
226.5089799584
 40
4.8
100
AcDbArc
 50
121.6749984094
 51
141.2044803389
  0
ARC
  5
306
100
AcDbEntity
  8
0
100
AcDbCircle
 62
7
  6
CONTINUOUS
 10
121.5311102946
 20
226.5089799584
 40
4.8
100
AcDbArc
 50
153.142983842
 51
163.9246536296
  0
ARC
  5
307
100
AcDbEntity
  8
0
100
AcDbCircle
 62
7
  6
CONTINUOUS
 10
121.5311102946
 20
226.5089799584
 40
4.8
100
AcDbArc
 50
200.3739829071
 51
211.554911046
  0
ARC
  5
308
100
AcDbEntity
  8
0
100
AcDbCircle
 62
7
  6
CONTINUOUS
 10
121.5311102946
 20
226.5089799584
 40
4.8
100
AcDbArc
 50
328.2184245389
 51
342.4290646687
  0
ARC
  5
309
100
AcDbEntity
  8
0
100
AcDbCircle
 62
7
  6
CONTINUOUS
 10
121.5311102946
 20
226.5089799584
 40
3.96
100
AcDbArc
 50
49.137613415
 51
54.7898665648
  0
ARC
  5
30A
100
AcDbEntity
  8
0
100
AcDbCircle
 62
7
  6
CONTINUOUS
 10
121.5311102946
 20
226.5089799584
 40
3.96
100
AcDbArc
 50
124.98346902
 51
130.6357221698
  0
ARC
  5
30B
100
AcDbEntity
  8
0
100
AcDbCircle
 62
7
  6
CONTINUOUS
 10
121.5311102946
 20
226.5089799584
 40
3.72
100
AcDbArc
 50
16.763937231
 51
20.6702273882
  0
ARC
  5
30C
100
AcDbEntity
  8
0
100
AcDbCircle
 62
7
  6
CONTINUOUS
 10
121.5311102946
 20
226.5089799584
 40
3.72
100
AcDbArc
 50
333.0394544664
 51
337.1126953917
  0
ARC
  5
30D
100
AcDbEntity
  8
0
100
AcDbCircle
 62
7
  6
CONTINUOUS
 10
114.2055727621
 20
237.2484631797
 40
1.5
100
AcDbArc
 50
124.2983935777
 51
209.886676792
  0
ARC
  5
30E
100
AcDbEntity
  8
0
100
AcDbCircle
 62
7
  6
CONTINUOUS
 10
115.9395982002
 20
238.2450351943
 40
1.5
100
AcDbArc
 50
29.886658492
 51
115.4749420074
  0
ARC
  5
30F
100
AcDbEntity
  8
0
100
AcDbCircle
 62
9
  6
CONTINUOUS
 10
115.9395982002
 20
238.2450351943
 40
1.2
100
AcDbArc
 50
29.8866677929
 51
115.4749420091
  0
ARC
  5
310
100
AcDbEntity
  8
0
100
AcDbCircle
 62
9
  6
CONTINUOUS
 10
114.2055727621
 20
237.2484631797
 40
1.2
100
AcDbArc
 50
124.2983935761
 51
209.886667792
  0
ARC
  5
311
100
AcDbEntity
  8
0
100
AcDbCircle
 62
7
  6
CONTINUOUS
 10
123.0281295192
 20
226.4752627763
 40
9.5869567302
100
AcDbArc
 50
348.8892388114
 51
349.5558398223
  0
ARC
  5
312
100
AcDbEntity
  8
0
100
AcDbCircle
 62
7
  6
CONTINUOUS
 10
134.4905883162
 20
225.4833438598
 40
1.5
100
AcDbArc
 50
269.8866585442
 51
355.4749420053
  0
ARC
  5
313
100
AcDbEntity
  8
0
100
AcDbCircle
 62
7
  6
CONTINUOUS
 10
128.856647827
 20
215.7694967371
 40
1.5
100
AcDbArc
 50
304.2983935775
 51
29.886676792
  0
ARC
  5
314
100
AcDbEntity
  8
0
100
AcDbCircle
 62
7
  6
CONTINUOUS
 10
127.1226223889
 20
214.7729247226
 40
1.5
100
AcDbArc
 50
209.886658492
 51
295.4749420073
  0
ARC
  5
315
100
AcDbEntity
  8
0
100
AcDbCircle
 62
9
  6
CONTINUOUS
 10
127.1226223889
 20
214.7729247226
 40
1.2
100
AcDbArc
 50
209.8866677923
 51
295.4749420084
  0
ARC
  5
316
100
AcDbEntity
  8
0
100
AcDbCircle
 62
9
  6
CONTINUOUS
 10
128.856647827
 20
215.7694967371
 40
1.2
100
AcDbArc
 50
304.2983935765
 51
29.8866677921
  0
ARC
  5
317
100
AcDbEntity
  8
0
100
AcDbCircle
 62
9
  6
CONTINUOUS
 10
134.4905883162
 20
225.4833438598
 40
1.2
100
AcDbArc
 50
269.8866677923
 51
355.4749420022
  0
ARC
  5
318
100
AcDbEntity
  8
0
100
AcDbCircle
 62
7
  6
CONTINUOUS
 10
155.1725790046
 20
233.0381794721
 40
41.1157486751
100
AcDbArc
 50
201.4865477154
 51
202.1264760676
  0
ARC
  5
319
100
AcDbEntity
  8
0
100
AcDbCircle
 62
7
  6
CONTINUOUS
 10
163.7936894775
 20
236.503912977
 40
36.9893715868
100
AcDbArc
 50
203.6907239242
 51
204.2599943501
  0
ARC
  5
31A
100
AcDbEntity
  8
0
100
AcDbCircle
 62
7
  6
CONTINUOUS
 10
121.6012251823
 20
226.6043530049
 40
10.7148172323
100
AcDbArc
 50
228.6279491079
 51
239.8182498752
  0
ARC
  5
31B
100
AcDbEntity
  8
0
100
AcDbCircle
 62
7
  6
CONTINUOUS
 10
127.1690068215
 20
238.2228231685
 40
1.5
100
AcDbArc
 50
64.2983935775
 51
149.8866771447
  0
ARC
  5
31C
100
AcDbEntity
  8
0
100
AcDbCircle
 62
7
  6
CONTINUOUS
 10
128.8990762218
 20
237.2193990956
 40
1.5
100
AcDbArc
 50
329.8866588434
 51
55.4749420072
  0
ARC
  5
31D
100
AcDbEntity
  8
0
100
AcDbCircle
 62
7
  6
CONTINUOUS
 10
134.494544354
 20
227.4833399472
 40
1.5
100
AcDbArc
 50
4.2983935797
 51
89.8866770926
  0
ARC
  5
31E
100
AcDbEntity
  8
0
100
AcDbCircle
 62
9
  6
CONTINUOUS
 10
134.494544354
 20
227.4833399472
 40
1.2
100
AcDbArc
 50
4.2983935822
 51
89.886667792
  0
ARC
  5
31F
100
AcDbEntity
  8
0
100
AcDbCircle
 62
9
  6
CONTINUOUS
 10
128.8990762218
 20
237.2193990956
 40
1.2
100
AcDbArc
 50
329.8866677931
 51
55.4749420083
  0
ARC
  5
320
100
AcDbEntity
  8
0
100
AcDbCircle
 62
9
  6
CONTINUOUS
 10
127.1690068215
 20
238.2228231685
 40
1.2
100
AcDbArc
 50
64.2983935767
 51
149.8866677923
  0
SPLINE
  5
321
100
AcDbEntity
  8
0
100
AcDbSpline
 62
7
  6
CONTINUOUS
 70
0
 71
3
 72
11
 73
7
 74
0
 42
0.0000001
 43
0.0000001
 44
0.0000000001
 40
0.0
 40
0.0
 40
0.0
 40
0.0
 40
0.2499724154
 40
0.4999817454
 40
0.7500164517
 40
1.0
 40
1.0
 40
1.0
 40
1.0
 10
118.7480343704
 20
216.2838679818
 30
0.0
 10
119.197461271
 20
216.1612130666
 30
0.0
 10
120.1138731498
 20
215.9754120149
 30
0.0
 10
121.5124480157
 20
215.8819720704
 30
0.0
 10
122.9112039061
 20
215.9714425997
 30
0.0
 10
123.8285153705
 20
216.1529573331
 30
0.0
 10
124.2784550803
 20
216.2737975435
 30
0.0
  0
SPLINE
  5
322
100
AcDbEntity
  8
0
100
AcDbSpline
 62
7
  6
CONTINUOUS
 70
0
 71
3
 72
15
 73
11
 74
0
 42
0.0000001
 43
0.0000001
 44
0.0000000001
 40
0.0
 40
0.0
 40
0.0
 40
0.0
 40
0.1250033554
 40
0.2500032149
 40
0.3750030149
 40
0.5000025392
 40
0.625001551
 40
0.7500008696
 40
0.8749985614
 40
1.0
 40
1.0
 40
1.0
 40
1.0
 10
111.5306788369
 20
223.4390257645
 30
0.0
 10
111.636306232
 20
223.1406184996
 30
0.0
 10
111.868002851
 20
222.5506646219
 30
0.0
 10
112.2885245138
 20
221.6979410787
 30
0.0
 10
112.7807487762
 20
220.8844536744
 30
0.0
 10
113.3419002944
 20
220.116863125
 30
0.0
 10
113.9683378764
 20
219.4015260359
 30
0.0
 10
114.6561040049
 20
218.744858246
 30
0.0
 10
115.3996024458
 20
218.1522565294
 30
0.0
 10
115.9277230876
 20
217.8013922929
 30
0.0
 10
116.1990414833
 20
217.6383361751
 30
0.0
  0
SPLINE
  5
323
100
AcDbEntity
  8
0
100
AcDbSpline
 62
7
  6
CONTINUOUS
 70
0
 71
3
 72
9
 73
5
 74
0
 42
0.0000001
 43
0.0000001
 44
0.0000000001
 40
0.0
 40
0.0
 40
0.0
 40
0.0
 40
0.499993576
 40
1.0
 40
1.0
 40
1.0
 40
1.0
 10
131.4927910353
 20
231.6191769406
 30
0.0
 10
131.5309602162
 20
231.5272771096
 30
0.0
 10
131.604176875
 20
231.3421939106
 30
0.0
 10
131.6747494394
 20
231.1560704811
 30
0.0
 10
131.7079887388
 20
231.0622721699
 30
0.0
  0
SPLINE
  5
324
100
AcDbEntity
  8
0
100
AcDbSpline
 62
7
  6
CONTINUOUS
 70
0
 71
3
 72
11
 73
7
 74
0
 42
0.0000001
 43
0.0000001
 44
0.0000000001
 40
0.0
 40
0.0
 40
0.0
 40
0.0
 40
0.2499816826
 40
0.5000172206
 40
0.7500098421
 40
1.0
 40
1.0
 40
1.0
 40
1.0
 10
124.7471397152
 20
236.6066667194
 30
0.0
 10
124.2378947974
 20
236.7690362771
 30
0.0
 10
123.1925800107
 20
237.0156423286
 30
0.0
 10
121.5884306091
 20
237.1456906359
 30
0.0
 10
119.9826175905
 20
237.0344060582
 30
0.0
 10
118.9352518072
 20
236.7969522075
 30
0.0
 10
118.4242991696
 20
236.639977578
 30
0.0
  0
SPLINE
  5
325
100
AcDbEntity
  8
0
100
AcDbSpline
 62
7
  6
CONTINUOUS
 70
0
 71
3
 72
14
 73
10
 74
0
 42
0.0000001
 43
0.0000001
 44
0.0000000001
 40
0.0
 40
0.0
 40
0.0
 40
0.0
 40
0.1250484935
 40
0.2500902985
 40
0.3751574587
 40
0.5002227059
 40
0.6252626647
 40
0.7503139392
 40
1.0
 40
1.0
 40
1.0
 40
1.0
 10
116.9488150777
 20
236.0637470756
 30
0.0
 10
116.5684872838
 20
235.8816187567
 30
0.0
 10
115.8286576872
 20
235.4717947318
 30
0.0
 10
114.8018889418
 20
234.7277258772
 30
0.0
 10
113.8708516093
 20
233.866668475
 30
0.0
 10
113.0479358567
 20
232.9019159251
 30
0.0
 10
112.3458719448
 20
231.8454865325
 30
0.0
 10
111.5877347192
 20
230.3372465085
 30
0.0
 10
111.2241034975
 20
229.1106225162
 30
0.0
 10
111.0828956611
 20
228.2805594298
 30
0.0
  0
SPLINE
  5
326
100
AcDbEntity
  8
0
100
AcDbSpline
 62
9
  6
CONTINUOUS
 70
0
 71
3
 72
11
 73
7
 74
0
 42
0.0000001
 43
0.0000001
 44
0.0000000001
 40
0.0
 40
0.0
 40
0.0
 40
0.0
 40
0.29449111
 40
0.5488680571
 40
0.780887139
 40
1.0
 40
1.0
 40
1.0
 40
1.0
 10
112.6037557766
 20
215.5462433265
 30
0.0
 10
112.5687668886
 20
215.6802752792
 30
0.0
 10
112.53290596
 20
215.9388886137
 30
0.0
 10
112.5627586282
 20
216.307230218
 30
0.0
 10
112.6510618196
 20
216.6290044639
 30
0.0
 10
112.7436162711
 20
216.8213009084
 30
0.0
 10
112.7957172456
 20
216.9102294488
 30
0.0
  0
SPLINE
  5
327
100
AcDbEntity
  8
0
100
AcDbSpline
 62
7
  6
CONTINUOUS
 70
0
 71
3
 72
8
 73
4
 74
0
 42
0.0000001
 43
0.0000001
 44
0.0000000001
 40
0.0
 40
0.0
 40
0.0
 40
0.0
 40
1.0
 40
1.0
 40
1.0
 40
1.0
 10
117.5860587913
 20
238.8729277988
 30
0.0
 10
117.6539656484
 20
238.7523812037
 30
0.0
 10
117.723527738
 20
238.632771982
 30
0.0
 10
117.791424285
 20
238.5122195796
 30
0.0
  0
SPLINE
  5
328
100
AcDbEntity
  8
0
100
AcDbSpline
 62
9
  6
CONTINUOUS
 70
0
 71
3
 72
11
 73
7
 74
0
 42
0.0000001
 43
0.0000001
 44
0.0000000001
 40
0.0
 40
0.0
 40
0.0
 40
0.0
 40
0.2191128583
 40
0.4511319302
 40
0.7055088715
 40
1.0
 40
1.0
 40
1.0
 40
1.0
 10
134.2224104976
 20
229.2244913671
 30
0.0
 10
134.3254771535
 20
229.2247401326
 30
0.0
 10
134.5382230513
 20
229.2079046541
 30
0.0
 10
134.8607028525
 20
229.122213932
 30
0.0
 10
135.19399347
 20
228.9625765415
 30
0.0
 10
135.3993927219
 20
228.8013995613
 30
0.0
 10
135.497587606
 20
228.7036930856
 30
0.0
  0
SPLINE
  5
329
100
AcDbEntity
  8
0
100
AcDbSpline
 62
7
  6
CONTINUOUS
 70
0
 71
3
 72
9
 73
5
 74
0
 42
0.0000001
 43
0.0000001
 44
0.0000000001
 40
0.0
 40
0.0
 40
0.0
 40
0.0
 40
0.7488083879
 40
1.0
 40
1.0
 40
1.0
 40
1.0
 10
116.2183279739
 20
213.3307936351
 30
0.0
 10
116.2750047331
 20
213.343378892
 30
0.0
 10
116.3557305175
 20
213.3451424793
 30
0.0
 10
116.430369851
 20
213.3233117044
 30
0.0
 10
116.4485402535
 20
213.3163020333
 30
0.0
  0
SPLINE
  5
32A
100
AcDbEntity
  8
0
100
AcDbSpline
 62
9
  6
CONTINUOUS
 70
0
 71
3
 72
11
 73
7
 74
0
 42
0.0000001
 43
0.0000001
 44
0.0000000001
 40
0.0
 40
0.0
 40
0.0
 40
0.0
 40
0.2495173609
 40
0.5095574563
 40
0.7638761948
 40
1.0
 40
1.0
 40
1.0
 40
1.0
 10
125.4763067347
 20
214.1445779301
 30
0.0
 10
125.5073187446
 20
214.1553431798
 30
0.0
 10
125.5745547978
 20
214.1675599621
 30
0.0
 10
125.6758888394
 20
214.1520880359
 30
0.0
 10
125.76406858
 20
214.1030243886
 30
0.0
 10
125.8066232146
 20
214.0524306462
 30
0.0
 10
125.8221027169
 20
214.0254967443
 30
0.0
  0
SPLINE
  5
32B
100
AcDbEntity
  8
0
100
AcDbSpline
 62
7
  6
CONTINUOUS
 70
0
 71
3
 72
9
 73
5
 74
0
 42
0.0000001
 43
0.0000001
 44
0.0000000001
 40
0.0
 40
0.0
 40
0.0
 40
0.0
 40
0.7488007434
 40
1.0
 40
1.0
 40
1.0
 40
1.0
 10
116.2705028461
 20
239.7080806875
 30
0.0
 10
116.3271671119
 20
239.6952627785
 30
0.0
 10
116.4079427478
 20
239.6931976866
 30
0.0
 10
116.4827142579
 20
239.7147577799
 30
0.0
 10
116.5009251231
 20
239.7217004016
 30
0.0
  0
SPLINE
  5
32C
100
AcDbEntity
  8
0
100
AcDbSpline
 62
9
  6
CONTINUOUS
 70
0
 71
3
 72
11
 73
7
 74
0
 42
0.0000001
 43
0.0000001
 44
0.0000000001
 40
0.0
 40
0.0
 40
0.0
 40
0.0
 40
0.254140608
 40
0.5049667271
 40
0.7534174566
 40
1.0
 40
1.0
 40
1.0
 40
1.0
 10
130.0197568549
 20
217.2350423361
 30
0.0
 10
129.9920119065
 20
217.2083370636
 30
0.0
 10
129.9486261561
 20
217.1420095024
 30
0.0
 10
129.9264027248
 20
217.0278558689
 30
0.0
 10
129.9398083
 20
216.9140937211
 30
0.0
 10
129.968923698
 20
216.8438540786
 30
0.0
 10
129.9875272929
 20
216.8114508935
 30
0.0
  0
SPLINE
  5
32D
100
AcDbEntity
  8
0
100
AcDbSpline
 62
9
  6
CONTINUOUS
 70
0
 71
3
 72
11
 73
7
 74
0
 42
0.0000001
 43
0.0000001
 44
0.0000000001
 40
0.0
 40
0.0
 40
0.0
 40
0.0
 40
0.2361237913
 40
0.4904425105
 40
0.750482604
 40
1.0
 40
1.0
 40
1.0
 40
1.0
 10
130.1571677121
 20
216.5169243445
 30
0.0
 10
130.1416884521
 20
216.5438583708
 30
0.0
 10
130.1193963425
 20
216.6060972796
 30
0.0
 10
130.1213949599
 20
216.7069878414
 30
0.0
 10
130.1590403446
 20
216.8023334575
 30
0.0
 10
130.20344423
 20
216.8542779361
 30
0.0
 10
130.2283579622
 20
216.8756541108
 30
0.0
  0
SPLINE
  5
32E
100
AcDbEntity
  8
0
100
AcDbSpline
 62
7
  6
CONTINUOUS
 70
0
 71
3
 72
9
 73
5
 74
0
 42
0.0000001
 43
0.0000001
 44
0.0000000001
 40
0.0
 40
0.0
 40
0.0
 40
0.0
 40
0.7488087699
 40
1.0
 40
1.0
 40
1.0
 40
1.0
 10
130.2873632655
 20
215.318882341
 30
0.0
 10
130.3048009821
 20
215.3742536852
 30
0.0
 10
130.3436316717
 20
215.4450397497
 30
0.0
 10
130.3998495608
 20
215.4987625131
 30
0.0
 10
130.4150039713
 20
215.5109926236
 30
0.0
  0
SPLINE
  5
32F
100
AcDbEntity
  8
0
100
AcDbSpline
 62
9
  6
CONTINUOUS
 70
0
 71
3
 72
11
 73
7
 74
0
 42
0.0000001
 43
0.0000001
 44
0.0000000001
 40
0.0
 40
0.0
 40
0.0
 40
0.0
 40
0.2578674862
 40
0.5119619579
 40
0.759722122
 40
1.0
 40
1.0
 40
1.0
 40
1.0
 10
125.6527428787
 20
214.3201811858
 30
0.0
 10
125.6332734284
 20
214.3540577967
 30
0.0
 10
125.5851880495
 20
214.4163573775
 30
0.0
 10
125.4909517803
 20
214.4854288829
 30
0.0
 10
125.3818740578
 20
214.5202683904
 30
0.0
 10
125.3056853492
 20
214.5161138347
 30
0.0
 10
125.2706577819
 20
214.5061850164
 30
0.0
  0
SPLINE
  5
330
100
AcDbEntity
  8
0
100
AcDbSpline
 62
9
  6
CONTINUOUS
 70
0
 71
3
 72
11
 73
7
 74
0
 42
0.0000001
 43
0.0000001
 44
0.0000000001
 40
0.0
 40
0.0
 40
0.0
 40
0.0
 40
0.2541408278
 40
0.5049675782
 40
0.7534197342
 40
1.0
 40
1.0
 40
1.0
 40
1.0
 10
133.8068990308
 20
229.2233946869
 30
0.0
 10
133.8161540322
 20
229.186014507
 30
0.0
 10
133.8519025751
 20
229.1152780042
 30
0.0
 10
133.9396517188
 20
229.0389569352
 30
0.0
 10
134.044875482
 20
228.993687582
 30
0.0
 10
134.1202621958
 20
228.9837854034
 30
0.0
 10
134.1576253375
 20
228.9836961059
 30
0.0
  0
SPLINE
  5
331
100
AcDbEntity
  8
0
100
AcDbSpline
 62
9
  6
CONTINUOUS
 70
0
 71
3
 72
11
 73
7
 74
0
 42
0.0000001
 43
0.0000001
 44
0.0000000001
 40
0.0
 40
0.0
 40
0.0
 40
0.0
 40
0.2361237974
 40
0.4904425174
 40
0.7504826077
 40
1.0
 40
1.0
 40
1.0
 40
1.0
 10
134.4975129603
 20
228.9833370097
 30
0.0
 10
134.4664477817
 20
228.9833985952
 30
0.0
 10
134.4014012583
 20
228.9952125241
 30
0.0
 10
134.3150267915
 20
229.0473886619
 30
0.0
 10
134.2512777699
 20
229.1276633238
 30
0.0
 10
134.2284944783
 20
229.1920904486
 30
0.0
 10
134.2224390347
 20
229.2243544572
 30
0.0
  0
SPLINE
  5
332
100
AcDbEntity
  8
0
100
AcDbSpline
 62
7
  6
CONTINUOUS
 70
0
 71
3
 72
9
 73
5
 74
0
 42
0.0000001
 43
0.0000001
 44
0.0000000001
 40
0.0
 40
0.0
 40
0.0
 40
0.0
 40
0.7488087699
 40
1.0
 40
1.0
 40
1.0
 40
1.0
 10
135.6001455877
 20
228.4970686643
 30
0.0
 10
135.5609114553
 20
228.5398558419
 30
0.0
 10
135.51902427
 20
228.6088772377
 30
0.0
 10
135.5006079366
 20
228.6844247395
 30
0.0
 10
135.4975935555
 20
228.7036638991
 30
0.0
  0
SPLINE
  5
333
100
AcDbEntity
  8
0
100
AcDbSpline
 62
7
  6
CONTINUOUS
 70
0
 71
3
 72
8
 73
4
 74
0
 42
0.0000001
 43
0.0000001
 44
0.0000000001
 40
0.0
 40
0.0
 40
0.0
 40
0.0
 40
1.0
 40
1.0
 40
1.0
 40
1.0
 10
112.7961424281
 20
216.9104904388
 30
0.0
 10
112.866571719
 20
217.0295808968
 30
0.0
 10
112.9353761128
 20
217.1496275636
 30
0.0
 10
113.0058421387
 20
217.2686962891
 30
0.0
  0
SPLINE
  5
334
100
AcDbEntity
  8
0
100
AcDbSpline
 62
7
  6
CONTINUOUS
 70
0
 71
3
 72
9
 73
5
 74
0
 42
0.0000001
 43
0.0000001
 44
0.0000000001
 40
0.0
 40
0.0
 40
0.0
 40
0.0
 40
0.7487999225
 40
1.0
 40
1.0
 40
1.0
 40
1.0
 10
130.3315631089
 20
237.6643500124
 30
0.0
 10
130.3487981235
 20
237.6088570419
 30
0.0
 10
130.3874090641
 20
237.5378561597
 30
0.0
 10
130.4434838326
 20
237.4838778212
 30
0.0
 10
130.4586049035
 20
237.4715754969
 30
0.0
  0
SPLINE
  5
335
100
AcDbEntity
  8
0
100
AcDbSpline
 62
9
  6
CONTINUOUS
 70
0
 71
3
 72
11
 73
7
 74
0
 42
0.0000001
 43
0.0000001
 44
0.0000000001
 40
0.0
 40
0.0
 40
0.0
 40
0.0
 40
0.2495173629
 40
0.5095574588
 40
0.7638761964
 40
1.0
 40
1.0
 40
1.0
 40
1.0
 10
108.8506258137
 20
229.2745406239
 30
0.0
 10
108.8444427876
 20
229.2423008107
 30
0.0
 10
108.821404803
 20
229.1779642899
 30
0.0
 10
108.7573386985
 20
229.0979424007
 30
0.0
 10
108.6707584619
 20
229.0461083319
 30
0.0
 10
108.6056656786
 20
229.0345518107
 30
0.0
 10
108.5746004845
 20
229.0346131203
 30
0.0
  0
SPLINE
  5
336
100
AcDbEntity
  8
0
100
AcDbSpline
 62
9
  6
CONTINUOUS
 70
0
 71
3
 72
11
 73
7
 74
0
 42
0.0000001
 43
0.0000001
 44
0.0000000001
 40
0.0
 40
0.0
 40
0.0
 40
0.0
 40
0.2578674865
 40
0.5119619581
 40
0.7597221221
 40
1.0
 40
1.0
 40
1.0
 40
1.0
 10
108.9144846281
 20
229.0339408217
 30
0.0
 10
108.9535573591
 20
229.0338635553
 30
0.0
 10
109.0315530684
 20
229.0443569255
 30
0.0
 10
109.1384888813
 20
229.0914321776
 30
0.0
 10
109.2231996401
 20
229.1684765044
 30
0.0
 10
109.2576960423
 20
229.2365351406
 30
0.0
 10
109.2666112162
 20
229.2718343132
 30
0.0
  0
SPLINE
  5
337
100
AcDbEntity
  8
0
100
AcDbSpline
 62
7
  6
CONTINUOUS
 70
0
 71
3
 72
9
 73
5
 74
0
 42
0.0000001
 43
0.0000001
 44
0.0000000001
 40
0.0
 40
0.0
 40
0.0
 40
0.0
 40
0.7488007434
 40
1.0
 40
1.0
 40
1.0
 40
1.0
 10
107.4700500319
 20
228.5527106333
 30
0.0
 10
107.5094827992
 20
228.595374372
 30
0.0
 10
107.5516590389
 20
228.6642955779
 30
0.0
 10
107.5703732055
 20
228.7398296508
 30
0.0
 10
107.5734661514
 20
228.7590720333
 30
0.0
  0
SPLINE
  5
338
100
AcDbEntity
  8
0
100
AcDbSpline
 62
9
  6
CONTINUOUS
 70
0
 71
3
 72
11
 73
7
 74
0
 42
0.0000001
 43
0.0000001
 44
0.0000000001
 40
0.0
 40
0.0
 40
0.0
 40
0.0
 40
0.29449111
 40
0.5488680572
 40
0.7808871345
 40
1.0
 40
1.0
 40
1.0
 40
1.0
 10
126.5614414526
 20
213.2962958408
 30
0.0
 10
126.4278719327
 20
213.3330105513
 30
0.0
 10
126.1859757513
 20
213.4312607437
 30
0.0
 10
125.8819088997
 20
213.6412847128
 30
0.0
 10
125.6473958264
 20
213.8786446453
 30
0.0
 10
125.5271394475
 20
214.0549473738
 30
0.0
 10
125.4761755548
 20
214.144532411
 30
0.0
  0
SPLINE
  5
339
100
AcDbEntity
  8
0
100
AcDbSpline
 62
9
  6
CONTINUOUS
 70
0
 71
3
 72
11
 73
7
 74
0
 42
0.0000001
 43
0.0000001
 44
0.0000000001
 40
0.0
 40
0.0
 40
0.0
 40
0.0
 40
0.2541408382
 40
0.504967273
 40
0.7534181434
 40
1.0
 40
1.0
 40
1.0
 40
1.0
 10
109.2553215583
 20
223.7945652299
 30
0.0
 10
109.2460666436
 20
223.8319454248
 30
0.0
 10
109.2103180063
 20
223.9026818103
 30
0.0
 10
109.122569159
 20
223.9790028756
 30
0.0
 10
109.0173452507
 20
224.0242716578
 30
0.0
 10
108.9419586114
 20
224.034174515
 30
0.0
 10
108.9045952363
 20
224.034263811
 30
0.0
  0
SPLINE
  5
33A
100
AcDbEntity
  8
0
100
AcDbSpline
 62
7
  6
CONTINUOUS
 70
0
 71
3
 72
8
 73
4
 74
0
 42
0.0000001
 43
0.0000001
 44
0.0000000001
 40
0.0
 40
0.0
 40
0.0
 40
0.0
 40
1.0
 40
1.0
 40
1.0
 40
1.0
 10
109.2553215583
 20
223.7945652299
 30
0.0
 10
109.1169672654
 20
223.7936053887
 30
0.0
 10
108.9786043614
 20
223.7945920361
 30
0.0
 10
108.8402495826
 20
223.7937049925
 30
0.0
  0
SPLINE
  5
33B
100
AcDbEntity
  8
0
100
AcDbSpline
 62
7
  6
CONTINUOUS
 70
0
 71
3
 72
8
 73
4
 74
0
 42
0.0000001
 43
0.0000001
 44
0.0000000001
 40
0.0
 40
0.0
 40
0.0
 40
0.0
 40
1.0
 40
1.0
 40
1.0
 40
1.0
 10
125.4761617978
 20
214.1450321181
 30
0.0
 10
125.4082549407
 20
214.2655787131
 30
0.0
 10
125.3386928511
 20
214.3851879348
 30
0.0
 10
125.2707963041
 20
214.5057403372
 30
0.0
  0
SPLINE
  5
33C
100
AcDbEntity
  8
0
100
AcDbSpline
 62
9
  6
CONTINUOUS
 70
0
 71
3
 72
11
 73
7
 74
0
 42
0.0000001
 43
0.0000001
 44
0.0000000001
 40
0.0
 40
0.0
 40
0.0
 40
0.0
 40
0.2361237974
 40
0.4904425174
 40
0.7504826077
 40
1.0
 40
1.0
 40
1.0
 40
1.0
 10
108.5647076288
 20
224.0346229072
 30
0.0
 10
108.5957728074
 20
224.0345613216
 30
0.0
 10
108.6608193308
 20
224.0227473927
 30
0.0
 10
108.7471937977
 20
223.9705712549
 30
0.0
 10
108.8109428192
 20
223.890296593
 30
0.0
 10
108.8337261108
 20
223.8258694682
 30
0.0
 10
108.8397815545
 20
223.7936054597
 30
0.0
  0
SPLINE
  5
33D
100
AcDbEntity
  8
0
100
AcDbSpline
 62
9
  6
CONTINUOUS
 70
0
 71
3
 72
11
 73
7
 74
0
 42
0.0000001
 43
0.0000001
 44
0.0000000001
 40
0.0
 40
0.0
 40
0.0
 40
0.0
 40
0.2191128606
 40
0.451131934
 40
0.7055088756
 40
1.0
 40
1.0
 40
1.0
 40
1.0
 10
108.8398100916
 20
223.7934685493
 30
0.0
 10
108.7367434393
 20
223.7932197839
 30
0.0
 10
108.5239975496
 20
223.8100552606
 30
0.0
 10
108.2015177604
 20
223.8957459762
 30
0.0
 10
107.8682271576
 20
224.0553833543
 30
0.0
 10
107.6628279099
 20
224.2165603174
 30
0.0
 10
107.5646330293
 20
224.3142667849
 30
0.0
  0
SPLINE
  5
33E
100
AcDbEntity
  8
0
100
AcDbSpline
 62
7
  6
CONTINUOUS
 70
0
 71
3
 72
9
 73
5
 74
0
 42
0.0000001
 43
0.0000001
 44
0.0000000001
 40
0.0
 40
0.0
 40
0.0
 40
0.0
 40
0.7488083879
 40
1.0
 40
1.0
 40
1.0
 40
1.0
 10
107.4620750013
 20
224.5208912526
 30
0.0
 10
107.5013125333
 20
224.4781003675
 30
0.0
 10
107.5432027373
 20
224.4090715811
 30
0.0
 10
107.5616163988
 20
224.3335166344
 30
0.0
 10
107.5646310468
 20
224.3142757686
 30
0.0
  0
SPLINE
  5
33F
100
AcDbEntity
  8
0
100
AcDbSpline
 62
7
  6
CONTINUOUS
 70
0
 71
3
 72
9
 73
5
 74
0
 42
0.0000001
 43
0.0000001
 44
0.0000000001
 40
0.0
 40
0.0
 40
0.0
 40
0.0
 40
0.748799885
 40
1.0
 40
1.0
 40
1.0
 40
1.0
 10
135.5921705573
 20
224.4652492835
 30
0.0
 10
135.55272962
 20
224.4225767055
 30
0.0
 10
135.5105470919
 20
224.3536376777
 30
0.0
 10
135.4918372458
 20
224.2780862542
 30
0.0
 10
135.4887436456
 20
224.2588397969
 30
0.0
  0
SPLINE
  5
340
100
AcDbEntity
  8
0
100
AcDbSpline
 62
7
  6
CONTINUOUS
 70
0
 71
3
 72
8
 73
4
 74
0
 42
0.0000001
 43
0.0000001
 44
0.0000000001
 40
0.0
 40
0.0
 40
0.0
 40
0.0
 40
1.0
 40
1.0
 40
1.0
 40
1.0
 10
117.7439683152
 20
214.5206285962
 30
0.0
 10
117.6756072751
 20
214.4003389417
 30
0.0
 10
117.605572099
 20
214.2810060595
 30
0.0
 10
117.53717733
 20
214.1607355795
 30
0.0
  0
SPLINE
  5
341
100
AcDbEntity
  8
0
100
AcDbSpline
 62
9
  6
CONTINUOUS
 70
0
 71
3
 72
9
 73
5
 74
0
 42
0.0000001
 43
0.0000001
 44
0.0000000001
 40
0.0
 40
0.0
 40
0.0
 40
0.0
 40
0.4999898861
 40
1.0
 40
1.0
 40
1.0
 40
1.0
 10
129.0263945437
 20
219.2117055863
 30
0.0
 10
128.3747750867
 20
218.5427704125
 30
0.0
 10
126.8864338344
 20
217.3724674677
 30
0.0
 10
125.1381952338
 20
216.6456961146
 30
0.0
 10
124.2361908847
 20
216.4037438428
 30
0.0
  0
SPLINE
  5
342
100
AcDbEntity
  8
0
100
AcDbSpline
 62
7
  6
CONTINUOUS
 70
0
 71
3
 72
9
 73
5
 74
0
 42
0.0000001
 43
0.0000001
 44
0.0000000001
 40
0.0
 40
0.0
 40
0.0
 40
0.0
 40
0.7487998996
 40
1.0
 40
1.0
 40
1.0
 40
1.0
 10
112.7306574801
 20
215.3536099047
 30
0.0
 10
112.7134224732
 20
215.4091028507
 30
0.0
 10
112.6748109981
 20
215.4801032599
 30
0.0
 10
112.618736763
 20
215.5340820891
 30
0.0
 10
112.6036156969
 20
215.5463844095
 30
0.0
  0
SPLINE
  5
343
100
AcDbEntity
  8
0
100
AcDbSpline
 62
9
  6
CONTINUOUS
 70
0
 71
3
 72
11
 73
7
 74
0
 42
0.0000001
 43
0.0000001
 44
0.0000000001
 40
0.0
 40
0.0
 40
0.0
 40
0.0
 40
0.2191128606
 40
0.4511319339
 40
0.7055088754
 40
1.0
 40
1.0
 40
1.0
 40
1.0
 10
117.5371620579
 20
214.1602358709
 30
0.0
 10
117.485844169
 20
214.070853149
 30
0.0
 10
117.3648912736
 20
213.8950275424
 30
0.0
 10
117.1294410426
 20
213.6585972106
 30
0.0
 10
116.8245457165
 20
213.4497777707
 30
0.0
 10
116.582262748
 20
213.3524852859
 30
0.0
 10
116.4485490247
 20
213.3162992585
 30
0.0
  0
SPLINE
  5
344
100
AcDbEntity
  8
0
100
AcDbSpline
 62
7
  6
CONTINUOUS
 70
0
 71
3
 72
11
 73
7
 74
0
 42
0.0000001
 43
0.0000001
 44
0.0000000001
 40
0.0
 40
0.0
 40
0.0
 40
0.0
 40
0.2500123908
 40
0.5000177698
 40
0.7500090107
 40
1.0
 40
1.0
 40
1.0
 40
1.0
 10
110.5031272281
 20
224.568147991
 30
0.0
 10
110.6572974548
 20
223.9748936041
 30
0.0
 10
111.0646753342
 20
222.8117514943
 30
0.0
 10
111.9538261457
 20
221.19261343
 30
0.0
 10
113.1056760391
 20
219.7481453439
 30
0.0
 10
114.0275999924
 20
218.9294841912
 30
0.0
 10
114.5193108829
 20
218.5635944475
 30
0.0
  0
SPLINE
  5
345
100
AcDbEntity
  8
0
100
AcDbSpline
 62
7
  6
CONTINUOUS
 70
0
 71
3
 72
25
 73
21
 74
0
 42
0.0000001
 43
0.0000001
 44
0.0000000001
 40
0.0
 40
0.0
 40
0.0
 40
0.0
 40
0.007500318
 40
0.015278503
 40
0.0308788018
 40
0.0464950242
 40
0.0621167635
 40
0.0933667298
 40
0.1246220369
 40
0.1558800689
 40
0.187139759
 40
0.2496615231
 40
0.3121859914
 40
0.3747120972
 40
0.437239295
 40
0.4997672805
 40
0.6248233068
 40
0.7498810925
 40
0.874940096
 40
1.0
 40
1.0
 40
1.0
 40
1.0
 10
132.0601535955
 20
223.3633207437
 30
0.0
 10
132.0634562557
 20
223.3635733368
 30
0.0
 10
132.0690895481
 20
223.3687145571
 30
0.0
 10
132.0764486574
 20
223.3797877093
 30
0.0
 10
132.0848850362
 20
223.3950241538
 30
0.0
 10
132.0938547708
 20
223.4136043156
 30
0.0
 10
132.1051816783
 20
223.4387913768
 30
0.0
 10
132.118416362
 20
223.4706512655
 30
0.0
 10
132.133464914
 20
223.5092327896
 30
0.0
 10
132.1478939252
 20
223.5480508151
 30
0.0
 10
132.1664867214
 20
223.6000480891
 30
0.0
 10
132.1887174863
 20
223.6654029579
 30
0.0
 10
132.2141318007
 20
223.7442470197
 30
0.0
 10
132.2384610457
 20
223.8234346887
 30
0.0
 10
132.2618168685
 20
223.9029161215
 30
0.0
 10
132.2917554797
 20
224.0092379089
 30
0.0
 10
132.3270572533
 20
224.1427289929
 30
0.0
 10
132.3662825293
 20
224.30371333
 30
0.0
 10
132.4025194149
 20
224.4653974148
 30
0.0
 10
132.4247493472
 20
224.5736022355
 30
0.0
 10
132.4353930067
 20
224.627796126
 30
0.0
  0
SPLINE
  5
346
100
AcDbEntity
  8
0
100
AcDbSpline
 62
7
  6
CONTINUOUS
 70
0
 71
3
 72
28
 73
24
 74
0
 42
0.0000001
 43
0.0000001
 44
0.0000000001
 40
0.0
 40
0.0
 40
0.0
 40
0.0
 40
0.1250163865
 40
0.2500292031
 40
0.3750403178
 40
0.5000500934
 40
0.5625607872
 40
0.6250711349
 40
0.6875811629
 40
0.7500908105
 40
0.7813460442
 40
0.8126010706
 40
0.8438558283
 40
0.8751102085
 40
0.9063639391
 40
0.9219903511
 40
0.9376163025
 40
0.9532415658
 40
0.9688656086
 40
0.9766768071
 40
0.9844867636
 40
0.9922930508
 40
1.0
 40
1.0
 40
1.0
 40
1.0
 10
128.9448180507
 20
219.2879308239
 30
0.0
 10
129.0902498284
 20
219.4373121733
 30
0.0
 10
129.3725719761
 20
219.7445144811
 30
0.0
 10
129.7690901957
 20
220.2286138827
 30
0.0
 10
130.1369387053
 20
220.7348531243
 30
0.0
 10
130.418649348
 20
221.1737145595
 30
0.0
 10
130.628931803
 20
221.5338192258
 30
0.0
 10
130.7791248398
 20
221.8081761246
 30
0.0
 10
130.9217649115
 20
222.0865263835
 30
0.0
 10
131.0345116669
 20
222.3215209649
 30
0.0
 10
131.1211725941
 20
222.5111501337
 30
0.0
 10
131.1844722343
 20
222.6541357768
 30
0.0
 10
131.2461690119
 20
222.7978181456
 30
0.0
 10
131.3063603173
 20
222.9421343817
 30
0.0
 10
131.355574895
 20
223.0627845609
 30
0.0
 10
131.3947345324
 20
223.1593863897
 30
0.0
 10
131.424061184
 20
223.2318550827
 30
0.0
 10
131.4534986744
 20
223.3042619062
 30
0.0
 10
131.4783211235
 20
223.3645178761
 30
0.0
 10
131.4987281684
 20
223.4124001779
 30
0.0
 10
131.514470054
 20
223.4483481851
 30
0.0
 10
131.5313282443
 20
223.4827100985
 30
0.0
 10
131.5438726
 20
223.5070933442
 30
0.0
 10
131.5544408307
 20
223.5144075968
 30
0.0
  0
SPLINE
  5
347
100
AcDbEntity
  8
0
100
AcDbSpline
 62
9
  6
CONTINUOUS
 70
0
 71
3
 72
11
 73
7
 74
0
 42
0.0000001
 43
0.0000001
 44
0.0000000001
 40
0.0
 40
0.0
 40
0.0
 40
0.0
 40
0.2541405999
 40
0.5049666974
 40
0.7534174842
 40
1.0
 40
1.0
 40
1.0
 40
1.0
 10
113.0424636932
 20
235.7829175316
 30
0.0
 10
113.0702087045
 20
235.8096227447
 30
0.0
 10
113.113594419
 20
235.8759503761
 30
0.0
 10
113.1358178282
 20
235.9901040073
 30
0.0
 10
113.1224123119
 20
236.1038661851
 30
0.0
 10
113.0932968917
 20
236.1741058374
 30
0.0
 10
113.0746932963
 20
236.2065090233
 30
0.0
  0
SPLINE
  5
348
100
AcDbEntity
  8
0
100
AcDbSpline
 62
9
  6
CONTINUOUS
 70
0
 71
3
 72
11
 73
7
 74
0
 42
0.0000001
 43
0.0000001
 44
0.0000000001
 40
0.0
 40
0.0
 40
0.0
 40
0.0
 40
0.2361237913
 40
0.4904425105
 40
0.750482604
 40
1.0
 40
1.0
 40
1.0
 40
1.0
 10
112.905052877
 20
236.5010355723
 30
0.0
 10
112.920532137
 20
236.474101546
 30
0.0
 10
112.9428242467
 20
236.4118626372
 30
0.0
 10
112.9408256292
 20
236.3109720754
 30
0.0
 10
112.9031802445
 20
236.2156264593
 30
0.0
 10
112.8587763591
 20
236.1636819807
 30
0.0
 10
112.833862627
 20
236.142305806
 30
0.0
  0
SPLINE
  5
349
100
AcDbEntity
  8
0
100
AcDbSpline
 62
7
  6
CONTINUOUS
 70
0
 71
3
 72
9
 73
5
 74
0
 42
0.0000001
 43
0.0000001
 44
0.0000000001
 40
0.0
 40
0.0
 40
0.0
 40
0.0
 40
0.7488083673
 40
1.0
 40
1.0
 40
1.0
 40
1.0
 10
112.7748573236
 20
237.6990775758
 30
0.0
 10
112.7574180969
 20
237.6437014363
 30
0.0
 10
112.7185824874
 20
237.5729090877
 30
0.0
 10
112.6623568436
 20
237.5191848885
 30
0.0
 10
112.647201088
 20
237.5069536931
 30
0.0
  0
SPLINE
  5
34A
100
AcDbEntity
  8
0
100
AcDbSpline
 62
9
  6
CONTINUOUS
 70
0
 71
3
 72
11
 73
7
 74
0
 42
0.0000001
 43
0.0000001
 44
0.0000000001
 40
0.0
 40
0.0
 40
0.0
 40
0.0
 40
0.2944911155
 40
0.548868062
 40
0.7808871472
 40
1.0
 40
1.0
 40
1.0
 40
1.0
 10
107.5734245445
 20
228.7589273719
 30
0.0
 10
107.6720051819
 20
228.8562446269
 30
0.0
 10
107.8780404413
 20
229.0166077975
 30
0.0
 10
108.2119599896
 20
229.1749254453
 30
0.0
 10
108.5347762705
 20
229.2593397908
 30
0.0
 10
108.7475871185
 20
229.2753335093
 30
0.0
 10
108.8506519844
 20
229.2746769962
 30
0.0
  0
SPLINE
  5
34B
100
AcDbEntity
  8
0
100
AcDbSpline
 62
7
  6
CONTINUOUS
 70
0
 71
3
 72
8
 73
4
 74
0
 42
0.0000001
 43
0.0000001
 44
0.0000000001
 40
0.0
 40
0.0
 40
0.0
 40
0.0
 40
1.0
 40
1.0
 40
1.0
 40
1.0
 10
108.8510907172
 20
229.274439246
 30
0.0
 10
108.9894407292
 20
229.2729913807
 30
0.0
 10
109.127806389
 20
229.2734283437
 30
0.0
 10
109.266155938
 20
229.271936895
 30
0.0
  0
SPLINE
  5
34C
100
AcDbEntity
  8
0
100
AcDbSpline
 62
9
  6
CONTINUOUS
 70
0
 71
3
 72
11
 73
7
 74
0
 42
0.0000001
 43
0.0000001
 44
0.0000000001
 40
0.0
 40
0.0
 40
0.0
 40
0.0
 40
0.2495173629
 40
0.5095574588
 40
0.7638761965
 40
1.0
 40
1.0
 40
1.0
 40
1.0
 10
134.2115947754
 20
223.7434192929
 30
0.0
 10
134.2177778015
 20
223.7756591061
 30
0.0
 10
134.2408157862
 20
223.839995627
 30
0.0
 10
134.3048818906
 20
223.9200175161
 30
0.0
 10
134.3914621272
 20
223.9718515849
 30
0.0
 10
134.4565549105
 20
223.9834081062
 30
0.0
 10
134.4876201046
 20
223.9833467965
 30
0.0
  0
SPLINE
  5
34D
100
AcDbEntity
  8
0
100
AcDbSpline
 62
7
  6
CONTINUOUS
 70
0
 71
3
 72
8
 73
4
 74
0
 42
0.0000001
 43
0.0000001
 44
0.0000000001
 40
0.0
 40
0.0
 40
0.0
 40
0.0
 40
1.0
 40
1.0
 40
1.0
 40
1.0
 10
113.0424636932
 20
235.7829175316
 30
0.0
 10
112.972455837
 20
235.9022562671
 30
0.0
 10
112.9041287372
 20
236.0225753241
 30
0.0
 10
112.8341827585
 20
236.1419503372
 30
0.0
  0
SPLINE
  5
34E
100
AcDbEntity
  8
0
100
AcDbSpline
 62
9
  6
CONTINUOUS
 70
0
 71
3
 72
11
 73
7
 74
0
 42
0.0000001
 43
0.0000001
 44
0.0000000001
 40
0.0
 40
0.0
 40
0.0
 40
0.0
 40
0.2578674865
 40
0.5119619581
 40
0.7597221221
 40
1.0
 40
1.0
 40
1.0
 40
1.0
 10
134.1477359611
 20
223.9840190951
 30
0.0
 10
134.1086632301
 20
223.9840963615
 30
0.0
 10
134.0306675207
 20
223.9736029913
 30
0.0
 10
133.9237317078
 20
223.9265277392
 30
0.0
 10
133.839020949
 20
223.8494834124
 30
0.0
 10
133.8045245468
 20
223.7814247762
 30
0.0
 10
133.795609373
 20
223.7461256036
 30
0.0
  0
SPLINE
  5
34F
100
AcDbEntity
  8
0
100
AcDbSpline
 62
9
  6
CONTINUOUS
 70
0
 71
3
 72
11
 73
7
 74
0
 42
0.0000001
 43
0.0000001
 44
0.0000000001
 40
0.0
 40
0.0
 40
0.0
 40
0.0
 40
0.2191128606
 40
0.451131934
 40
0.7055088756
 40
1.0
 40
1.0
 40
1.0
 40
1.0
 10
112.833758328
 20
236.1422126365
 30
0.0
 10
112.7820095647
 20
236.2313465929
 30
0.0
 10
112.6902165704
 20
236.4240076763
 30
0.0
 10
112.6031870124
 20
236.7461287238
 30
0.0
 10
112.5747917358
 20
237.1145855417
 30
0.0
 10
112.6116754566
 20
237.3730549896
 30
0.0
 10
112.6471942992
 20
237.5069474844
 30
0.0
  0
SPLINE
  5
350
100
AcDbEntity
  8
0
100
AcDbSpline
 62
9
  6
CONTINUOUS
 70
0
 71
3
 72
11
 73
7
 74
0
 42
0.0000001
 43
0.0000001
 44
0.0000000001
 40
0.0
 40
0.0
 40
0.0
 40
0.0
 40
0.2944911101
 40
0.5488680572
 40
0.7808871365
 40
1.0
 40
1.0
 40
1.0
 40
1.0
 10
135.4887959706
 20
224.2590324721
 30
0.0
 10
135.3902153386
 20
224.16171523
 30
0.0
 10
135.1841800856
 20
224.0013520882
 30
0.0
 10
134.8502605664
 20
223.8430344552
 30
0.0
 10
134.5274442992
 20
223.7586201416
 30
0.0
 10
134.3146334681
 20
223.7426264262
 30
0.0
 10
134.2115686048
 20
223.7432829208
 30
0.0
  0
SPLINE
  5
351
100
AcDbEntity
  8
0
100
AcDbSpline
 62
9
  6
CONTINUOUS
 70
0
 71
3
 72
11
 73
7
 74
0
 42
0.0000001
 43
0.0000001
 44
0.0000000001
 40
0.0
 40
0.0
 40
0.0
 40
0.0
 40
0.2474417402
 40
0.4958718179
 40
0.7466927949
 40
1.0
 40
1.0
 40
1.0
 40
1.0
 10
108.9051877779
 20
224.3339502313
 30
0.0
 10
108.9750071713
 20
224.3338121269
 30
0.0
 10
109.1157768352
 20
224.3115351192
 30
0.0
 10
109.3069987394
 20
224.215014255
 30
0.0
 10
109.4576283404
 20
224.0595030732
 30
0.0
 10
109.5156048114
 20
223.9253192948
 30
0.0
 10
109.5310365302
 20
223.8555305058
 30
0.0
  0
SPLINE
  5
352
100
AcDbEntity
  8
0
100
AcDbSpline
 62
9
  6
CONTINUOUS
 70
0
 71
3
 72
11
 73
7
 74
0
 42
0.0000001
 43
0.0000001
 44
0.0000000001
 40
0.0
 40
0.0
 40
0.0
 40
0.0
 40
0.2498239863
 40
0.4997638787
 40
0.7497999647
 40
1.0
 40
1.0
 40
1.0
 40
1.0
 10
113.1973192679
 20
217.4762341608
 30
0.0
 10
113.249131211
 20
217.4284314424
 30
0.0
 10
113.335359358
 20
217.312085652
 30
0.0
 10
113.3947843094
 20
217.1047707739
 30
0.0
 10
113.3831691259
 20
216.8897883487
 30
0.0
 10
113.3310490657
 20
216.7557009227
 30
0.0
 10
113.2956275389
 20
216.6946283019
 30
0.0
  0
SPLINE
  5
353
100
AcDbEntity
  8
0
100
AcDbSpline
 62
7
  6
CONTINUOUS
 70
0
 71
3
 72
9
 73
5
 74
0
 42
0.0000001
 43
0.0000001
 44
0.0000000001
 40
0.0
 40
0.0
 40
0.0
 40
0.0
 40
0.7487998996
 40
1.0
 40
1.0
 40
1.0
 40
1.0
 10
126.791717743
 20
213.3098792293
 30
0.0
 10
126.735041938
 20
213.3226997486
 30
0.0
 10
126.6542480413
 20
213.3247614349
 30
0.0
 10
126.5794638856
 20
213.3031891368
 30
0.0
 10
126.5612492304
 20
213.2962450695
 30
0.0
  0
SPLINE
  5
354
100
AcDbEntity
  8
0
100
AcDbSpline
 62
9
  6
CONTINUOUS
 70
0
 71
3
 72
11
 73
7
 74
0
 42
0.0000001
 43
0.0000001
 44
0.0000000001
 40
0.0
 40
0.0
 40
0.0
 40
0.0
 40
0.2541405828
 40
0.5049669902
 40
0.753418014
 40
1.0
 40
1.0
 40
1.0
 40
1.0
 10
125.3182522761
 20
238.4973313245
 30
0.0
 10
125.3552519438
 20
238.4866555398
 30
0.0
 10
125.4343862663
 20
238.4822455401
 30
0.0
 10
125.5443575928
 20
238.520077535
 30
0.0
 10
125.6361738808
 20
238.5885705525
 30
0.0
 10
125.6824429846
 20
238.6489068504
 30
0.0
 10
125.7012016515
 20
238.6812203294
 30
0.0
  0
SPLINE
  5
355
100
AcDbEntity
  8
0
100
AcDbSpline
 62
9
  6
CONTINUOUS
 70
0
 71
3
 72
11
 73
7
 74
0
 42
0.0000001
 43
0.0000001
 44
0.0000000001
 40
0.0
 40
0.0
 40
0.0
 40
0.0
 40
0.2474417402
 40
0.4958718179
 40
0.7466927949
 40
1.0
 40
1.0
 40
1.0
 40
1.0
 10
117.1017800339
 20
214.4870954492
 30
0.0
 10
117.1368093326
 20
214.5474917656
 30
0.0
 10
117.2264866195
 20
214.658263367
 30
0.0
 10
117.4056870927
 20
214.7756059619
 30
0.0
 10
117.6156785281
 20
214.8282994316
 30
0.0
 10
117.7608733248
 20
214.8114166385
 30
0.0
 10
117.8290280485
 20
214.7898865041
 30
0.0
  0
SPLINE
  5
356
100
AcDbEntity
  8
0
100
AcDbSpline
 62
9
  6
CONTINUOUS
 70
0
 71
3
 72
11
 73
7
 74
0
 42
0.0000001
 43
0.0000001
 44
0.0000000001
 40
0.0
 40
0.0
 40
0.0
 40
0.0
 40
0.2498239863
 40
0.4997638787
 40
0.7497999647
 40
1.0
 40
1.0
 40
1.0
 40
1.0
 10
125.1868021079
 20
214.7753323206
 30
0.0
 10
125.254106448
 20
214.7963014204
 30
0.0
 10
125.3979789315
 20
214.812804291
 30
0.0
 10
125.6072313583
 20
214.7606103695
 30
0.0
 10
125.7876040081
 20
214.643060113
 30
0.0
 10
125.8776670953
 20
214.5308791038
 30
0.0
 10
125.912846773
 20
214.4696668514
 30
0.0
  0
SPLINE
  5
357
100
AcDbEntity
  8
0
100
AcDbSpline
 62
9
  6
CONTINUOUS
 70
0
 71
3
 72
11
 73
7
 74
0
 42
0.0000001
 43
0.0000001
 44
0.0000000001
 40
0.0
 40
0.0
 40
0.0
 40
0.0
 40
0.2361237991
 40
0.4904425199
 40
0.7504826097
 40
1.0
 40
1.0
 40
1.0
 40
1.0
 10
125.8714555592
 20
238.9753925818
 30
0.0
 10
125.8558696343
 20
238.9485201409
 30
0.0
 10
125.8131152082
 20
238.8980951646
 30
0.0
 10
125.724742112
 20
238.8493807536
 30
0.0
 10
125.6233477042
 20
238.8343098156
 30
0.0
 10
125.5561605322
 20
238.8467924705
 30
0.0
 10
125.5251913598
 20
238.8576803076
 30
0.0
  0
SPLINE
  5
358
100
AcDbEntity
  8
0
100
AcDbSpline
 62
9
  6
CONTINUOUS
 70
0
 71
3
 72
11
 73
7
 74
0
 42
0.0000001
 43
0.0000001
 44
0.0000000001
 40
0.0
 40
0.0
 40
0.0
 40
0.0
 40
0.2495173666
 40
0.5095574656
 40
0.7638762025
 40
1.0
 40
1.0
 40
1.0
 40
1.0
 10
130.2663983276
 20
236.1078213182
 30
0.0
 10
130.2415693405
 20
236.129295885
 30
0.0
 10
130.197371267
 20
236.1814156323
 30
0.0
 10
130.1601033314
 20
236.2769094638
 30
0.0
 10
130.1585038393
 20
236.3778071929
 30
0.0
 10
130.1810420006
 20
236.4399574601
 30
0.0
 10
130.1966276986
 20
236.4668300521
 30
0.0
  0
SPLINE
  5
359
100
AcDbEntity
  8
0
100
AcDbSpline
 62
7
  6
CONTINUOUS
 70
0
 71
3
 72
9
 73
5
 74
0
 42
0.0000001
 43
0.0000001
 44
0.0000000001
 40
0.0
 40
0.0
 40
0.0
 40
0.0
 40
0.7488087699
 40
1.0
 40
1.0
 40
1.0
 40
1.0
 10
126.8438926164
 20
239.6871662819
 30
0.0
 10
126.7872207674
 20
239.6745821153
 30
0.0
 10
126.7065028925
 20
239.6728174468
 30
0.0
 10
126.63186867
 20
239.6946421852
 30
0.0
 10
126.6136998785
 20
239.7016512345
 30
0.0
  0
SPLINE
  5
35A
100
AcDbEntity
  8
0
100
AcDbSpline
 62
9
  6
CONTINUOUS
 70
0
 71
3
 72
11
 73
7
 74
0
 42
0.0000001
 43
0.0000001
 44
0.0000000001
 40
0.0
 40
0.0
 40
0.0
 40
0.0
 40
0.2495173666
 40
0.5095574656
 40
0.7638762025
 40
1.0
 40
1.0
 40
1.0
 40
1.0
 10
112.7958222615
 20
216.9101385986
 30
0.0
 10
112.8206512486
 20
216.8886640319
 30
0.0
 10
112.8648493222
 20
216.8365442846
 30
0.0
 10
112.9021172577
 20
216.741050453
 30
0.0
 10
112.9037167498
 20
216.6401527239
 30
0.0
 10
112.8811785886
 20
216.5780024567
 30
0.0
 10
112.8655928905
 20
216.5511298647
 30
0.0
  0
SPLINE
  5
35B
100
AcDbEntity
  8
0
100
AcDbSpline
 62
9
  6
CONTINUOUS
 70
0
 71
3
 72
11
 73
7
 74
0
 42
0.0000001
 43
0.0000001
 44
0.0000000001
 40
0.0
 40
0.0
 40
0.0
 40
0.0
 40
0.2474417402
 40
0.4958718179
 40
0.7466927949
 40
1.0
 40
1.0
 40
1.0
 40
1.0
 10
129.7277025506
 20
216.6621251763
 30
0.0
 10
129.6929124557
 20
216.7226595971
 30
0.0
 10
129.6418200783
 20
216.8557082063
 30
0.0
 10
129.6297986468
 20
217.0695716658
 30
0.0
 10
129.6891604809
 20
217.2777763182
 30
0.0
 10
129.7763788069
 20
217.3950773041
 30
0.0
 10
129.829101812
 20
217.443335959
 30
0.0
  0
SPLINE
  5
35C
100
AcDbEntity
  8
0
100
AcDbSpline
 62
9
  6
CONTINUOUS
 70
0
 71
3
 72
11
 73
7
 74
0
 42
0.0000001
 43
0.0000001
 44
0.0000000001
 40
0.0
 40
0.0
 40
0.0
 40
0.0
 40
0.2498239863
 40
0.4997638787
 40
0.7497999647
 40
1.0
 40
1.0
 40
1.0
 40
1.0
 10
133.5205931348
 20
223.8080781188
 30
0.0
 10
133.5360855317
 20
223.8768499369
 30
0.0
 10
133.5937298683
 20
224.0096985978
 30
0.0
 10
133.7435573437
 20
224.1648195542
 30
0.0
 10
133.9355451769
 20
224.2622517227
 30
0.0
 10
134.0777283242
 20
224.2841581395
 30
0.0
 10
134.1483295286
 20
224.2840185079
 30
0.0
  0
SPLINE
  5
35D
100
AcDbEntity
  8
0
100
AcDbSpline
 62
9
  6
CONTINUOUS
 70
0
 71
3
 72
11
 73
7
 74
0
 42
0.0000001
 43
0.0000001
 44
0.0000000001
 40
0.0
 40
0.0
 40
0.0
 40
0.0
 40
0.2474417402
 40
0.4958718179
 40
0.7466927949
 40
1.0
 40
1.0
 40
1.0
 40
1.0
 10
134.1570328113
 20
228.6840096856
 30
0.0
 10
134.0872134176
 20
228.6841477899
 30
0.0
 10
133.9464437534
 20
228.7064247977
 30
0.0
 10
133.7552218487
 20
228.8029456625
 30
0.0
 10
133.6045922476
 20
228.9584568451
 30
0.0
 10
133.546615777
 20
229.0926406241
 30
0.0
 10
133.5311840584
 20
229.1624294133
 30
0.0
  0
SPLINE
  5
35E
100
AcDbEntity
  8
0
100
AcDbSpline
 62
9
  6
CONTINUOUS
 70
0
 71
3
 72
11
 73
7
 74
0
 42
0.0000001
 43
0.0000001
 44
0.0000000001
 40
0.0
 40
0.0
 40
0.0
 40
0.0
 40
0.2498239863
 40
0.4997638787
 40
0.7497999647
 40
1.0
 40
1.0
 40
1.0
 40
1.0
 10
129.8649013213
 20
235.541725756
 30
0.0
 10
129.8130893781
 20
235.5895284745
 30
0.0
 10
129.7268612312
 20
235.7058742648
 30
0.0
 10
129.6674362797
 20
235.913189143
 30
0.0
 10
129.6790514632
 20
236.1281715681
 30
0.0
 10
129.7311715234
 20
236.2622589942
 30
0.0
 10
129.7665930502
 20
236.323331615
 30
0.0
  0
SPLINE
  5
35F
100
AcDbEntity
  8
0
100
AcDbSpline
 62
9
  6
CONTINUOUS
 70
0
 71
3
 72
11
 73
7
 74
0
 42
0.0000001
 43
0.0000001
 44
0.0000000001
 40
0.0
 40
0.0
 40
0.0
 40
0.0
 40
0.2474417402
 40
0.4958718179
 40
0.7466927949
 40
1.0
 40
1.0
 40
1.0
 40
1.0
 10
125.9604405552
 20
238.5308644677
 30
0.0
 10
125.9254112565
 20
238.4704681513
 30
0.0
 10
125.8357339697
 20
238.3596965498
 30
0.0
 10
125.6565334964
 20
238.242353955
 30
0.0
 10
125.446542061
 20
238.1896604852
 30
0.0
 10
125.3013472643
 20
238.2065432784
 30
0.0
 10
125.2331925405
 20
238.2280734128
 30
0.0
  0
SPLINE
  5
360
100
AcDbEntity
  8
0
100
AcDbSpline
 62
9
  6
CONTINUOUS
 70
0
 71
3
 72
11
 73
7
 74
0
 42
0.0000001
 43
0.0000001
 44
0.0000000001
 40
0.0
 40
0.0
 40
0.0
 40
0.0
 40
0.2498239863
 40
0.4997638787
 40
0.7497999647
 40
1.0
 40
1.0
 40
1.0
 40
1.0
 10
117.8754184811
 20
238.2426275962
 30
0.0
 10
117.808114141
 20
238.2216584964
 30
0.0
 10
117.6642416575
 20
238.2051556258
 30
0.0
 10
117.4549892308
 20
238.2573495474
 30
0.0
 10
117.274616581
 20
238.3748998039
 30
0.0
 10
117.1845534938
 20
238.487080813
 30
0.0
 10
117.1493738161
 20
238.5482930655
 30
0.0
  0
SPLINE
  5
361
100
AcDbEntity
  8
0
100
AcDbSpline
 62
9
  6
CONTINUOUS
 70
0
 71
3
 72
11
 73
7
 74
0
 42
0.0000001
 43
0.0000001
 44
0.0000000001
 40
0.0
 40
0.0
 40
0.0
 40
0.0
 40
0.2578674867
 40
0.5119619582
 40
0.7597221221
 40
1.0
 40
1.0
 40
1.0
 40
1.0
 10
130.0261033725
 20
236.1728178528
 30
0.0
 10
130.006500094
 20
236.1390185087
 30
0.0
 10
129.9765897673
 20
236.0662255593
 30
0.0
 10
129.963890228
 20
235.950078806
 30
0.0
 10
129.9882571936
 20
235.8381949773
 30
0.0
 10
130.0299494994
 20
235.7742909008
 30
0.0
 10
130.0560618918
 20
235.7489205482
 30
0.0
  0
SPLINE
  5
362
100
AcDbEntity
  8
0
100
AcDbSpline
 62
9
  6
CONTINUOUS
 70
0
 71
3
 72
11
 73
7
 74
0
 42
0.0000001
 43
0.0000001
 44
0.0000000001
 40
0.0
 40
0.0
 40
0.0
 40
0.0
 40
0.2474417402
 40
0.4958718179
 40
0.7466927949
 40
1.0
 40
1.0
 40
1.0
 40
1.0
 10
113.3345180385
 20
236.3558347405
 30
0.0
 10
113.3693081333
 20
236.29530032
 30
0.0
 10
113.4204005107
 20
236.1622517112
 30
0.0
 10
113.4324219424
 20
235.9483882523
 30
0.0
 10
113.3730601089
 20
235.7401836003
 30
0.0
 10
113.2858417836
 20
235.6228826145
 30
0.0
 10
113.2331187789
 20
235.5746239594
 30
0.0
  0
SPLINE
  5
363
100
AcDbEntity
  8
0
100
AcDbSpline
 62
9
  6
CONTINUOUS
 70
0
 71
3
 72
11
 73
7
 74
0
 42
0.0000001
 43
0.0000001
 44
0.0000000001
 40
0.0
 40
0.0
 40
0.0
 40
0.0
 40
0.2498239862
 40
0.4997638776
 40
0.7497999636
 40
1.0
 40
1.0
 40
1.0
 40
1.0
 10
109.5416274322
 20
229.2098817325
 30
0.0
 10
109.5261350366
 20
229.1411099201
 30
0.0
 10
109.4684906882
 20
229.0082612759
 30
0.0
 10
109.3186632161
 20
228.853140344
 30
0.0
 10
109.1266753948
 20
228.7557081922
 30
0.0
 10
108.9844922594
 20
228.7338017773
 30
0.0
 10
108.9138910605
 20
228.7339414089
 30
0.0
  0
SPLINE
  5
364
100
AcDbEntity
  8
0
100
AcDbSpline
 62
9
  6
CONTINUOUS
 70
0
 71
3
 72
11
 73
7
 74
0
 42
0.0000001
 43
0.0000001
 44
0.0000000001
 40
0.0
 40
0.0
 40
0.0
 40
0.0
 40
0.2578674867
 40
0.5119619582
 40
0.7597221221
 40
1.0
 40
1.0
 40
1.0
 40
1.0
 10
113.0361172166
 20
216.8451420641
 30
0.0
 10
113.0557204952
 20
216.8789414081
 30
0.0
 10
113.0856308218
 20
216.9517343575
 30
0.0
 10
113.0983303612
 20
217.0678811109
 30
0.0
 10
113.0739633956
 20
217.1797649395
 30
0.0
 10
113.0322710897
 20
217.243669016
 30
0.0
 10
113.0061586973
 20
217.2690393687
 30
0.0
  0
SPLINE
  5
365
100
AcDbEntity
  8
0
100
AcDbSpline
 62
9
  6
CONTINUOUS
 70
0
 71
3
 72
11
 73
7
 74
0
 42
0.0000001
 43
0.0000001
 44
0.0000000001
 40
0.0
 40
0.0
 40
0.0
 40
0.0
 40
0.2944911099
 40
0.5488680568
 40
0.7808871398
 40
1.0
 40
1.0
 40
1.0
 40
1.0
 10
130.4584648122
 20
237.4717165906
 30
0.0
 10
130.4934537002
 20
237.3376846378
 30
0.0
 10
130.5293146294
 20
237.0790713032
 30
0.0
 10
130.4994619586
 20
236.7107296988
 30
0.0
 10
130.411158775
 20
236.3889554509
 30
0.0
 10
130.3186043225
 20
236.1966590055
 30
0.0
 10
130.2665033432
 20
236.1077304684
 30
0.0
  0
SPLINE
  5
366
100
AcDbEntity
  8
0
100
AcDbSpline
 62
9
  6
CONTINUOUS
 70
0
 71
3
 72
11
 73
7
 74
0
 42
0.0000001
 43
0.0000001
 44
0.0000000001
 40
0.0
 40
0.0
 40
0.0
 40
0.0
 40
0.2541405823
 40
0.5049669904
 40
0.7534180139
 40
1.0
 40
1.0
 40
1.0
 40
1.0
 10
117.7439683152
 20
214.5206285962
 30
0.0
 10
117.7069686459
 20
214.5313043753
 30
0.0
 10
117.627834325
 20
214.5357143775
 30
0.0
 10
117.517862997
 20
214.4978823823
 30
0.0
 10
117.4260467087
 20
214.4293893647
 30
0.0
 10
117.3797776046
 20
214.3690530665
 30
0.0
 10
117.3610189376
 20
214.3367395874
 30
0.0
  0
SPLINE
  5
367
100
AcDbEntity
  8
0
100
AcDbSpline
 62
7
  6
CONTINUOUS
 70
0
 71
3
 72
8
 73
4
 74
0
 42
0.0000001
 43
0.0000001
 44
0.0000000001
 40
0.0
 40
0.0
 40
0.0
 40
0.0
 40
1.0
 40
1.0
 40
1.0
 40
1.0
 10
134.2111298719
 20
223.7435206708
 30
0.0
 10
134.0727798599
 20
223.7449685361
 30
0.0
 10
133.9344142002
 20
223.7445315731
 30
0.0
 10
133.7960646511
 20
223.7460230218
 30
0.0
  0
SPLINE
  5
368
100
AcDbEntity
  8
0
100
AcDbSpline
 62
9
  6
CONTINUOUS
 70
0
 71
3
 72
11
 73
7
 74
0
 42
0.0000001
 43
0.0000001
 44
0.0000000001
 40
0.0
 40
0.0
 40
0.0
 40
0.0
 40
0.2495173609
 40
0.5095574563
 40
0.7638761948
 40
1.0
 40
1.0
 40
1.0
 40
1.0
 10
117.5859138544
 20
238.8733819867
 30
0.0
 10
117.5549018446
 20
238.862616737
 30
0.0
 10
117.4876657913
 20
238.8503999547
 30
0.0
 10
117.3863317498
 20
238.8658718809
 30
0.0
 10
117.2981520091
 20
238.9149355282
 30
0.0
 10
117.2555973745
 20
238.9655292707
 30
0.0
 10
117.2401178723
 20
238.9924631725
 30
0.0
  0
SPLINE
  5
369
100
AcDbEntity
  8
0
100
AcDbSpline
 62
9
  6
CONTINUOUS
 70
0
 71
3
 72
11
 73
7
 74
0
 42
0.0000001
 43
0.0000001
 44
0.0000000001
 40
0.0
 40
0.0
 40
0.0
 40
0.0
 40
0.2578674862
 40
0.5119619578
 40
0.759722122
 40
1.0
 40
1.0
 40
1.0
 40
1.0
 10
117.4094777104
 20
238.697778731
 30
0.0
 10
117.4289471608
 20
238.6639021201
 30
0.0
 10
117.4770325396
 20
238.6016025394
 30
0.0
 10
117.5712688088
 20
238.5325310339
 30
0.0
 10
117.6803465313
 20
238.4976915264
 30
0.0
 10
117.75653524
 20
238.5018460822
 30
0.0
 10
117.7915628072
 20
238.5117749004
 30
0.0
  0
SPLINE
  5
36A
100
AcDbEntity
  8
0
100
AcDbSpline
 62
7
  6
CONTINUOUS
 70
0
 71
3
 72
8
 73
4
 74
0
 42
0.0000001
 43
0.0000001
 44
0.0000000001
 40
0.0
 40
0.0
 40
0.0
 40
0.0
 40
1.0
 40
1.0
 40
1.0
 40
1.0
 10
125.3182522761
 20
238.4973313245
 30
0.0
 10
125.3866133155
 20
238.6176209777
 30
0.0
 10
125.4566484909
 20
238.7369538586
 30
0.0
 10
125.5250432591
 20
238.8572243373
 30
0.0
  0
SPLINE
  5
36B
100
AcDbEntity
  8
0
100
AcDbSpline
 62
7
  6
CONTINUOUS
 70
0
 71
3
 72
8
 73
4
 74
0
 42
0.0000001
 43
0.0000001
 44
0.0000000001
 40
0.0
 40
0.0
 40
0.0
 40
0.0
 40
1.0
 40
1.0
 40
1.0
 40
1.0
 10
130.2660781609
 20
236.1074694777
 30
0.0
 10
130.1956488701
 20
235.9883790198
 30
0.0
 10
130.1268444763
 20
235.8683323531
 30
0.0
 10
130.0563784505
 20
235.7492636277
 30
0.0
  0
SPLINE
  5
36C
100
AcDbEntity
  8
0
100
AcDbSpline
 62
9
  6
CONTINUOUS
 70
0
 71
3
 72
11
 73
7
 74
0
 42
0.0000001
 43
0.0000001
 44
0.0000000001
 40
0.0
 40
0.0
 40
0.0
 40
0.0
 40
0.2191128583
 40
0.4511319302
 40
0.7055088715
 40
1.0
 40
1.0
 40
1.0
 40
1.0
 10
125.5250585306
 20
238.8577240462
 30
0.0
 10
125.5763764214
 20
238.9471067712
 30
0.0
 10
125.6973293222
 20
239.122932384
 30
0.0
 10
125.932779565
 20
239.359362723
 30
0.0
 10
126.2376749093
 20
239.5681821693
 30
0.0
 10
126.4799578947
 20
239.6654746494
 30
0.0
 10
126.6136716268
 20
239.7016606757
 30
0.0
  0
SPLINE
  5
36D
100
AcDbEntity
  8
0
100
AcDbSpline
 62
9
  6
CONTINUOUS
 70
0
 71
3
 72
11
 73
7
 74
0
 42
0.0000001
 43
0.0000001
 44
0.0000000001
 40
0.0
 40
0.0
 40
0.0
 40
0.0
 40
0.2361237991
 40
0.4904425199
 40
0.7504826097
 40
1.0
 40
1.0
 40
1.0
 40
1.0
 10
117.1907650299
 20
214.0425673351
 30
0.0
 10
117.2063509548
 20
214.069439776
 30
0.0
 10
117.249105381
 20
214.1198647522
 30
0.0
 10
117.3374784772
 20
214.1685791632
 30
0.0
 10
117.4388728849
 20
214.1836501013
 30
0.0
 10
117.5060600569
 20
214.1711674463
 30
0.0
 10
117.5370292293
 20
214.1602796093
 30
0.0
  0
SPLINE
  5
36E
100
AcDbEntity
  8
0
100
AcDbSpline
 62
9
  6
CONTINUOUS
 70
0
 71
3
 72
11
 73
7
 74
0
 42
0.0000001
 43
0.0000001
 44
0.0000000001
 40
0.0
 40
0.0
 40
0.0
 40
0.0
 40
0.2944911159
 40
0.5488680628
 40
0.7808871406
 40
1.0
 40
1.0
 40
1.0
 40
1.0
 10
116.5007790376
 20
239.721664103
 30
0.0
 10
116.6343485713
 20
239.6849493942
 30
0.0
 10
116.8762447794
 20
239.5866992096
 30
0.0
 10
117.1803116597
 20
239.3766752287
 30
0.0
 10
117.4148247543
 20
239.1393152876
 30
0.0
 10
117.5350811425
 20
238.9630125489
 30
0.0
 10
117.5860450341
 20
238.8734275058
 30
0.0
  0
SPLINE
  5
36F
100
AcDbEntity
  8
0
100
AcDbSpline
 62
7
  6
CONTINUOUS
 70
0
 71
3
 72
8
 73
4
 74
0
 42
0.0000001
 43
0.0000001
 44
0.0000000001
 40
0.0
 40
0.0
 40
0.0
 40
0.0
 40
1.0
 40
1.0
 40
1.0
 40
1.0
 10
130.0197568549
 20
217.2350423361
 30
0.0
 10
130.0897648467
 20
217.1157036888
 30
0.0
 10
130.1580918626
 20
216.9953845908
 30
0.0
 10
130.2280378305
 20
216.8760095799
 30
0.0
  0
SPLINE
  5
370
100
AcDbEntity
  8
0
100
AcDbSpline
 62
7
  6
CONTINUOUS
 70
0
 71
3
 72
8
 73
4
 74
0
 42
0.0000001
 43
0.0000001
 44
0.0000000001
 40
0.0
 40
0.0
 40
0.0
 40
0.0
 40
1.0
 40
1.0
 40
1.0
 40
1.0
 10
133.8068990308
 20
229.2233946869
 30
0.0
 10
133.9452533238
 20
229.2243545282
 30
0.0
 10
134.0836162277
 20
229.2233678807
 30
0.0
 10
134.2219710066
 20
229.2242549244
 30
0.0
  0
SPLINE
  5
371
100
AcDbEntity
  8
0
100
AcDbSpline
 62
9
  6
CONTINUOUS
 70
0
 71
3
 72
11
 73
7
 74
0
 42
0.0000001
 43
0.0000001
 44
0.0000000001
 40
0.0
 40
0.0
 40
0.0
 40
0.0
 40
0.2191128584
 40
0.4511319303
 40
0.7055088717
 40
1.0
 40
1.0
 40
1.0
 40
1.0
 10
130.2284622608
 20
216.8757472801
 30
0.0
 10
130.2802110259
 20
216.7866133205
 30
0.0
 10
130.3720040229
 20
216.5939522293
 30
0.0
 10
130.4590335812
 20
216.271831168
 30
0.0
 10
130.4874288542
 20
215.9033743313
 30
0.0
 10
130.4505451209
 20
215.6449048711
 30
0.0
 10
130.4150262729
 20
215.5110123692
 30
0.0
  0
ENDSEC
  0
SECTION
  2
OBJECTS
  0
DICTIONARY
  5
C
100
AcDbDictionary
280
0
281
1
  3
ACAD_GROUP
350
D
  3
ACAD_MLINESTYLE
350
17
  3
ACAD_LAYOUT
350
1A
  3
ACAD_PLOTSETTINGS
350
19
  3
ACAD_PLOTSTYLENAME
350
E
  0
DICTIONARY
  5
D
102
{ACAD_REACTORS
330
C
102
}
100
AcDbDictionary
280
0
281
1
  0
ACDBDICTIONARYWDFLT
  5
E
102
{ACAD_REACTORS
330
C
102
}
100
AcDbDictionary
281
1
  3
Normal
350
F
100
AcDbDictionaryWithDefault
340
F
  0
DICTIONARY
  5
17
102
{ACAD_REACTORS
330
C
102
}
100
AcDbDictionary
280
0
281
1
  3
Standard
350
18
  0
DICTIONARY
  5
19
102
{ACAD_REACTORS
330
C
102
}
100
AcDbDictionary
281
1
  0
DICTIONARY
  5
1A
102
{ACAD_REACTORS
330
C
102
}
100
AcDbDictionary
281
1
  3
Model
350
372
  3
Layout1
350
373
  0
ACDBPLACEHOLDER
  5
F
102
{ACAD_REACTORS
330
E
102
}
  0
MLINESTYLE
  5
18
102
{ACAD_REACTORS
330
17
102
}
100
AcDbMlineStyle
  2
STANDARD
 70
0
  3

 62
256
 51
90.0
 52
90.0
 71
2
 49
0.5
 62
256
  6
BYLAYER
 49
-0.5
 62
256
  6
BYLAYER
  0
LAYOUT
  5
372
102
{ACAD_REACTORS
330
1A
102
}
100
AcDbPlotSettings
  1

  2
none_device
  4
ANSI_C_(22.00_x_17.00_Inches)
  6

 40
0.0
 41
0.0
 42
0.0
 43
0.0
 44
558.8
 45
431.8
 46
0.0
 47
0.0
 48
0.0
 49
0.0
140
0.0
141
0.0
142
1.0
143
1.0
 70
1024
 72
1
 73
0
 74
0
  7

 75
0
147
1.0
148
0.0
149
0.0
100
AcDbLayout
  1
Model
 70
0
 71
0
 10
0.0
 20
0.0
 11
558.8
 21
431.8
 12
0.0
 22
0.0
 32
0.0
 14
0.0
 24
0.0
 34
0.0
 15
0.0
 25
0.0
 35
0.0
146
0.0
 13
0.0
 23
0.0
 33
0.0
 16
1.0
 26
0.0
 36
0.0
 17
0.0
 27
1.0
 37
0.0
 76
0
330
216
345
0
346
0
  0
LAYOUT
  5
373
102
{ACAD_REACTORS
330
1A
102
}
100
AcDbPlotSettings
  1

  2
none_device
  4
ANSI_C_(22.00_x_17.00_Inches)
  6

 40
0.0
 41
0.0
 42
0.0
 43
0.0
 44
558.8
 45
431.8
 46
0.0
 47
0.0
 48
0.0
 49
0.0
140
0.0
141
0.0
142
1.0
143
1.0
 70
0
 72
1
 73
0
 74
0
  7

 75
0
147
1.0
148
0.0
149
0.0
100
AcDbLayout
  1
Layout1
 70
0
 71
1
 10
0.0
 20
0.0
 11
558.8
 21
431.8
 12
0.0
 22
0.0
 32
0.0
 14
0.0
 24
0.0
 34
0.0
 15
0.0
 25
0.0
 35
0.0
146
0.0
 13
0.0
 23
0.0
 33
0.0
 16
1.0
 26
0.0
 36
0.0
 17
0.0
 27
1.0
 37
0.0
 76
0
330
217
345
0
346
0
  0
ENDSEC
  0
EOF
