  0
SECTION
  2
HEADER
  9
$ACADVER
  1
AC1012
  9
$DWGCODEPAGE
  3
ANSI_1252
  9
$INSBASE
 10
402.590624
 20
-1.041018
 30
0.0
  9
$EXTMIN
 10
1.137502
 20
17.324852
 30
0.0
  9
$EXTMAX
 10
94.456501
 20
268.702321
 30
0.0
  9
$LIMMIN
 10
-407.970438
 20
-367.832444
  9
$LIMMAX
 10
429.804077
 20
234.370848
  9
$ORTHOMODE
 70
     1
  9
$REGENMODE
 70
     1
  9
$FILLMODE
 70
     1
  9
$QTEXTMODE
 70
     0
  9
$MIRRTEXT
 70
     1
  9
$DRAGMODE
 70
     2
  9
$LTSCALE
 40
10.0
  9
$OSMODE
 70
    39
  9
$ATTMODE
 70
     1
  9
$TEXTSIZE
 40
6.0
  9
$TRACEWID
 40
1.0
  9
$TEXTSTYLE
  7
ROMANS
  9
$CLAYER
  8
ALPHA
  9
$CELTYPE
  6
BYLAYER
  9
$CECOLOR
 62
   256
  9
$CELTSCALE
 40
1.0
  9
$DELOBJ
 70
     1
  9
$DISPSILH
 70
     0
  9
$DIMSCALE
 40
1.0
  9
$DIMASZ
 40
5.0
  9
$DIMEXO
 40
2.0
  9
$DIMDLI
 40
0.38
  9
$DIMRND
 40
0.0
  9
$DIMDLE
 40
0.0
  9
$DIMEXE
 40
2.5
  9
$DIMTP
 40
0.0
  9
$DIMTM
 40
0.0
  9
$DIMTXT
 40
2.5
  9
$DIMCEN
 40
0.0
  9
$DIMTSZ
 40
0.0
  9
$DIMTOL
 70
     0
  9
$DIMLIM
 70
     0
  9
$DIMTIH
 70
     1
  9
$DIMTOH
 70
     1
  9
$DIMSE1
 70
     0
  9
$DIMSE2
 70
     0
  9
$DIMTAD
 70
     1
  9
$DIMZIN
 70
    12
  9
$DIMBLK
  1
OPEN30
  9
$DIMASO
 70
     1
  9
$DIMSHO
 70
     1
  9
$DIMPOST
  1

  9
$DIMAPOST
  1

  9
$DIMALT
 70
     0
  9
$DIMALTD
 70
     2
  9
$DIMALTF
 40
25.4
  9
$DIMLFAC
 40
1.0
  9
$DIMTOFL
 70
     0
  9
$DIMTVP
 40
0.0
  9
$DIMTIX
 70
     0
  9
$DIMSOXD
 70
     0
  9
$DIMSAH
 70
     0
  9
$DIMBLK1
  1

  9
$DIMBLK2
  1

  9
$DIMSTYLE
  2
SC_DEFAUT
  9
$DIMCLRD
 70
     0
  9
$DIMCLRE
 70
     0
  9
$DIMCLRT
 70
     0
  9
$DIMTFAC
 40
1.0
  9
$DIMGAP
 40
2.0
  9
$DIMJUST
 70
     0
  9
$DIMSD1
 70
     0
  9
$DIMSD2
 70
     0
  9
$DIMTOLJ
 70
     1
  9
$DIMTZIN
 70
    12
  9
$DIMALTZ
 70
    12
  9
$DIMALTTZ
 70
    12
  9
$DIMFIT
 70
     5
  9
$DIMUPT
 70
     0
  9
$DIMUNIT
 70
     2
  9
$DIMDEC
 70
     1
  9
$DIMTDEC
 70
     1
  9
$DIMALTU
 70
     2
  9
$DIMALTTD
 70
     2
  9
$DIMTXSTY
  7
ROMANS
  9
$DIMAUNIT
 70
     0
  9
$LUNITS
 70
     2
  9
$LUPREC
 70
     1
  9
$SKETCHINC
 40
0.1
  9
$FILLETRAD
 40
0.0
  9
$AUNITS
 70
     0
  9
$AUPREC
 70
     0
  9
$MENU
  1
acad
  9
$ELEVATION
 40
0.0
  9
$PELEVATION
 40
0.0
  9
$THICKNESS
 40
0.0
  9
$LIMCHECK
 70
     0
  9
$BLIPMODE
 70
     0
  9
$CHAMFERA
 40
0.0
  9
$CHAMFERB
 40
0.0
  9
$CHAMFERC
 40
0.0
  9
$CHAMFERD
 40
0.0
  9
$SKPOLY
 70
     0
  9
$TDCREATE
 40
2450373.687919444
  9
$TDUPDATE
 40
2453511.386171887
  9
$TDINDWG
 40
0.9584732060
  9
$TDUSRTIMER
 40
0.9584732060
  9
$USRTIMER
 70
     1
  9
$ANGBASE
 50
0.0
  9
$ANGDIR
 70
     0
  9
$PDMODE
 70
    32
  9
$PDSIZE
 40
0.0
  9
$PLINEWID
 40
0.0
  9
$COORDS
 70
     0
  9
$SPLFRAME
 70
     0
  9
$SPLINETYPE
 70
     6
  9
$SPLINESEGS
 70
     8
  9
$ATTDIA
 70
     0
  9
$ATTREQ
 70
     1
  9
$HANDLING
 70
     1
  9
$HANDSEED
  5
CB97
  9
$SURFTAB1
 70
     6
  9
$SURFTAB2
 70
     6
  9
$SURFTYPE
 70
     6
  9
$SURFU
 70
     6
  9
$SURFV
 70
     6
  9
$UCSNAME
  2

  9
$UCSORG
 10
0.0
 20
0.0
 30
0.0
  9
$UCSXDIR
 10
1.0
 20
0.0
 30
0.0
  9
$UCSYDIR
 10
0.0
 20
1.0
 30
0.0
  9
$PUCSNAME
  2

  9
$PUCSORG
 10
0.0
 20
0.0
 30
0.0
  9
$PUCSXDIR
 10
1.0
 20
0.0
 30
0.0
  9
$PUCSYDIR
 10
0.0
 20
1.0
 30
0.0
  9
$USERI1
 70
     0
  9
$USERI2
 70
     0
  9
$USERI3
 70
     0
  9
$USERI4
 70
     0
  9
$USERI5
 70
     0
  9
$USERR1
 40
0.0
  9
$USERR2
 40
0.0
  9
$USERR3
 40
0.0
  9
$USERR4
 40
0.0
  9
$USERR5
 40
0.0
  9
$WORLDVIEW
 70
     1
  9
$SHADEDGE
 70
     3
  9
$SHADEDIF
 70
    70
  9
$TILEMODE
 70
     1
  9
$MAXACTVP
 70
    16
  9
$PINSBASE
 10
0.0
 20
0.0
 30
0.0
  9
$PLIMCHECK
 70
     0
  9
$PEXTMIN
 10
1.000000E+20
 20
1.000000E+20
 30
1.000000E+20
  9
$PEXTMAX
 10
-1.000000E+20
 20
-1.000000E+20
 30
-1.000000E+20
  9
$PLIMMIN
 10
0.0
 20
0.0
  9
$PLIMMAX
 10
12.0
 20
9.0
  9
$UNITMODE
 70
     0
  9
$VISRETAIN
 70
     0
  9
$PLINEGEN
 70
     0
  9
$PSLTSCALE
 70
     0
  9
$TREEDEPTH
 70
  3020
  9
$PICKSTYLE
 70
     1
  9
$CMLSTYLE
  2
STANDARD
  9
$CMLJUST
 70
     0
  9
$CMLSCALE
 40
1.0
  9
$SAVEIMAGES
 70
     1
  0
ENDSEC
  0
SECTION
  2
CLASSES
  0
CLASS
  1
ACDBDICTIONARYWDFLT
  2
AcDbDictionaryWithDefault
  3
AutoCAD 2000
 90
    32768
280
     0
281
     0
  0
CLASS
  1
ACDBPLACEHOLDER
  2
AcDbPlaceHolder
  3
AutoCAD 2000
 90
    32768
280
     0
281
     0
  0
CLASS
  1
LAYOUT
  2
AcDbLayout
  3
AutoCAD 2000
 90
    32768
280
     0
281
     0
  0
CLASS
  1
DICTIONARYVAR
  2
AcDbDictionaryVar
  3
"AutoCAD"
 90
    32768
280
     0
281
     0
  0
CLASS
  1
LONG_TRANSACTION
  2
AcDbLongTransaction
  3
AutoCAD 2000
 90
    32768
280
     0
281
     0
  0
CLASS
  1
LWPOLYLINE
  2
AcDbPolyline
  3
"AutoCAD"
 90
    32768
280
     0
281
     1
  0
CLASS
  1
HATCH
  2
AcDbHatch
  3
"ACAD_SEDONA"
 90
    32768
280
     0
281
     1
  0
CLASS
  1
XRECORD
  2
AcDbXrecord
  3
"<Built In>"
 90
    32768
280
     0
281
     0
  0
CLASS
  1
LONG_TRANSACTION
  2
AcDbLongTransaction
  3
AutoCAD 2000
 90
    32768
280
     0
281
     0
  0
CLASS
  1
LWPOLYLINE
  2
AcDbPolyline
  3
"AutoCAD"
 90
    32768
280
     0
281
     1
  0
CLASS
  1
HATCH
  2
AcDbHatch
  3
"ACAD_SEDONA"
 90
    32768
280
     0
281
     1
  0
CLASS
  1
XRECORD
  2
AcDbXrecord
  3
"<Built In>"
 90
    32768
280
     0
281
     0
  0
CLASS
  1
LONG_TRANSACTION
  2
AcDbLongTransaction
  3
AutoCAD 2000
 90
    32768
280
     0
281
     0
  0
CLASS
  1
LWPOLYLINE
  2
AcDbPolyline
  3
"AutoCAD"
 90
    32768
280
     0
281
     1
  0
CLASS
  1
HATCH
  2
AcDbHatch
  3
"ACAD_SEDONA"
 90
    32768
280
     0
281
     1
  0
CLASS
  1
XRECORD
  2
AcDbXrecord
  3
"<Built In>"
 90
    32768
280
     0
281
     0
  0
CLASS
  1
LONG_TRANSACTION
  2
AcDbLongTransaction
  3
AutoCAD 2000
 90
    32768
280
     0
281
     0
  0
CLASS
  1
LWPOLYLINE
  2
AcDbPolyline
  3
"AutoCAD"
 90
    32768
280
     0
281
     1
  0
CLASS
  1
HATCH
  2
AcDbHatch
  3
"ACAD_SEDONA"
 90
    32768
280
     0
281
     1
  0
CLASS
  1
XRECORD
  2
AcDbXrecord
  3
"<Built In>"
 90
    32768
280
     0
281
     0
  0
CLASS
  1
LONG_TRANSACTION
  2
AcDbLongTransaction
  3
AutoCAD 2000
 90
    32768
280
     0
281
     0
  0
CLASS
  1
LWPOLYLINE
  2
AcDbPolyline
  3
"AutoCAD"
 90
    32768
280
     0
281
     1
  0
CLASS
  1
HATCH
  2
AcDbHatch
  3
"ACAD_SEDONA"
 90
    32768
280
     0
281
     1
  0
CLASS
  1
XRECORD
  2
AcDbXrecord
  3
"<Built In>"
 90
    32768
280
     0
281
     0
  0
CLASS
  1
LONG_TRANSACTION
  2
AcDbLongTransaction
  3
AutoCAD 2000
 90
    32768
280
     0
281
     0
  0
CLASS
  1
LWPOLYLINE
  2
AcDbPolyline
  3
"AutoCAD"
 90
    32768
280
     0
281
     1
  0
CLASS
  1
HATCH
  2
AcDbHatch
  3
"ACAD_SEDONA"
 90
    32768
280
     0
281
     1
  0
CLASS
  1
XRECORD
  2
AcDbXrecord
  3
"<Built In>"
 90
    32768
280
     0
281
     0
  0
CLASS
  1
LONG_TRANSACTION
  2
AcDbLongTransaction
  3
AutoCAD 2000
 90
    32768
280
     0
281
     0
  0
CLASS
  1
LWPOLYLINE
  2
AcDbPolyline
  3
"AutoCAD"
 90
    32768
280
     0
281
     1
  0
CLASS
  1
HATCH
  2
AcDbHatch
  3
"ACAD_SEDONA"
 90
    32768
280
     0
281
     1
  0
CLASS
  1
XRECORD
  2
AcDbXrecord
  3
"<Built In>"
 90
    32768
280
     0
281
     0
  0
CLASS
  1
LONG_TRANSACTION
  2
AcDbLongTransaction
  3
AutoCAD 2000
 90
    32768
280
     0
281
     0
  0
CLASS
  1
LWPOLYLINE
  2
AcDbPolyline
  3
"AutoCAD"
 90
    32768
280
     0
281
     1
  0
CLASS
  1
HATCH
  2
AcDbHatch
  3
"ACAD_SEDONA"
 90
    32768
280
     0
281
     1
  0
CLASS
  1
XRECORD
  2
AcDbXrecord
  3
"<Built In>"
 90
    32768
280
     0
281
     0
  0
CLASS
  1
LONG_TRANSACTION
  2
AcDbLongTransaction
  3
AutoCAD 2000
 90
    32768
280
     0
281
     0
  0
CLASS
  1
LWPOLYLINE
  2
AcDbPolyline
  3
"AutoCAD"
 90
    32768
280
     0
281
     1
  0
CLASS
  1
HATCH
  2
AcDbHatch
  3
"ACAD_SEDONA"
 90
    32768
280
     0
281
     1
  0
CLASS
  1
XRECORD
  2
AcDbXrecord
  3
"<Built In>"
 90
    32768
280
     0
281
     0
  0
CLASS
  1
LONG_TRANSACTION
  2
AcDbLongTransaction
  3
AutoCAD 2000
 90
    32768
280
     0
281
     0
  0
CLASS
  1
LWPOLYLINE
  2
AcDbPolyline
  3
"AutoCAD"
 90
    32768
280
     0
281
     1
  0
CLASS
  1
HATCH
  2
AcDbHatch
  3
"ACAD_SEDONA"
 90
    32768
280
     0
281
     1
  0
CLASS
  1
XRECORD
  2
AcDbXrecord
  3
"<Built In>"
 90
    32768
280
     0
281
     0
  0
CLASS
  1
LONG_TRANSACTION
  2
AcDbLongTransaction
  3
AutoCAD 2000
 90
    32768
280
     0
281
     0
  0
CLASS
  1
LWPOLYLINE
  2
AcDbPolyline
  3
"AutoCAD"
 90
    32768
280
     0
281
     1
  0
CLASS
  1
HATCH
  2
AcDbHatch
  3
"ACAD_SEDONA"
 90
    32768
280
     0
281
     1
  0
CLASS
  1
XRECORD
  2
AcDbXrecord
  3
"<Built In>"
 90
    32768
280
     0
281
     0
  0
CLASS
  1
LONG_TRANSACTION
  2
AcDbLongTransaction
  3
AutoCAD 2000
 90
    32768
280
     0
281
     0
  0
CLASS
  1
LWPOLYLINE
  2
AcDbPolyline
  3
"AutoCAD"
 90
    32768
280
     0
281
     1
  0
CLASS
  1
HATCH
  2
AcDbHatch
  3
"ACAD_SEDONA"
 90
    32768
280
     0
281
     1
  0
CLASS
  1
XRECORD
  2
AcDbXrecord
  3
"<Built In>"
 90
    32768
280
     0
281
     0
  0
CLASS
  1
LONG_TRANSACTION
  2
AcDbLongTransaction
  3
AutoCAD 2000
 90
    32768
280
     0
281
     0
  0
CLASS
  1
LWPOLYLINE
  2
AcDbPolyline
  3
"AutoCAD"
 90
    32768
280
     0
281
     1
  0
CLASS
  1
HATCH
  2
AcDbHatch
  3
"ACAD_SEDONA"
 90
    32768
280
     0
281
     1
  0
CLASS
  1
XRECORD
  2
AcDbXrecord
  3
"<Built In>"
 90
    32768
280
     0
281
     0
  0
CLASS
  1
LONG_TRANSACTION
  2
AcDbLongTransaction
  3
AutoCAD 2000
 90
    32768
280
     0
281
     0
  0
CLASS
  1
LWPOLYLINE
  2
AcDbPolyline
  3
"AutoCAD"
 90
    32768
280
     0
281
     1
  0
CLASS
  1
HATCH
  2
AcDbHatch
  3
"ACAD_SEDONA"
 90
    32768
280
     0
281
     1
  0
CLASS
  1
XRECORD
  2
AcDbXrecord
  3
"<Built In>"
 90
    32768
280
     0
281
     0
  0
CLASS
  1
LONG_TRANSACTION
  2
AcDbLongTransaction
  3
AutoCAD 2000
 90
    32768
280
     0
281
     0
  0
CLASS
  1
LWPOLYLINE
  2
AcDbPolyline
  3
"AutoCAD"
 90
    32768
280
     0
281
     1
  0
CLASS
  1
HATCH
  2
AcDbHatch
  3
"ACAD_SEDONA"
 90
    32768
280
     0
281
     1
  0
CLASS
  1
XRECORD
  2
AcDbXrecord
  3
"<Built In>"
 90
    32768
280
     0
281
     0
  0
ENDSEC
  0
SECTION
  2
TABLES
  0
TABLE
  2
VPORT
  5
7CF0
100
AcDbSymbolTable
 70
     2
  0
VPORT
  5
CB96
100
AcDbSymbolTableRecord
100
AcDbViewportTableRecord
  2
*ACTIVE
 70
     0
 10
0.0
 20
0.0
 11
1.0
 21
1.0
 12
47.797001
 22
143.013587
 13
0.0
 23
0.0
 14
1.0
 24
1.0
 15
10.0
 25
10.0
 16
0.0
 26
0.0
 36
1.0
 17
0.0
 27
0.0
 37
0.0
 40
253.618575
 41
1.625
 42
50.0
 43
0.0
 44
0.0
 50
0.0
 51
0.0
 71
     0
 72
   100
 73
     1
 74
     0
 75
     0
 76
     0
 77
     0
 78
     0
  0
ENDTAB
  0
TABLE
  2
LTYPE
  5
7CED
100
AcDbSymbolTable
 70
     2
  0
LTYPE
  5
7CFB
102
{ACAD_XDICTIONARY
360
C7AE
102
}
100
AcDbSymbolTableRecord
100
AcDbLinetypeTableRecord
  2
BYBLOCK
 70
     0
  3

 72
    65
 73
     0
 40
0.0
  0
LTYPE
  5
7CFC
102
{ACAD_XDICTIONARY
360
C7B0
102
}
100
AcDbSymbolTableRecord
100
AcDbLinetypeTableRecord
  2
BYLAYER
 70
     0
  3

 72
    65
 73
     0
 40
0.0
  0
LTYPE
  5
7CFD
100
AcDbSymbolTableRecord
100
AcDbLinetypeTableRecord
  2
CONTINUOUS
 70
     0
  3
Solid line
 72
    65
 73
     0
 40
0.0
  0
LTYPE
  5
7D15
100
AcDbSymbolTableRecord
100
AcDbLinetypeTableRecord
  2
AXES2
 70
     0
  3
___ _ ___ _ ___ _ ___ _ ___ _ ___ _ ___ _ ___ _
 72
    65
 73
     4
 40
1.125
 49
0.75
 74
     0
 49
-0.125
 74
     0
 49
0.125
 74
     0
 49
-0.125
 74
     0
  0
ENDTAB
  0
TABLE
  2
LAYER
  5
7CEA
100
AcDbSymbolTable
 70
     6
  0
LAYER
  5
7CF8
100
AcDbSymbolTableRecord
100
AcDbLayerTableRecord
  2
0
 70
     0
 62
   255
  6
CONTINUOUS
  0
LAYER
  5
7D1C
100
AcDbSymbolTableRecord
100
AcDbLayerTableRecord
  2
COTATION1
 70
     0
 62
     2
  6
CONTINUOUS
  0
LAYER
  5
7D1D
100
AcDbSymbolTableRecord
100
AcDbLayerTableRecord
  2
AXE
 70
     0
 62
    80
  6
AXES2
  0
LAYER
  5
7D1E
102
{ACAD_XDICTIONARY
360
C7E3
102
}
100
AcDbSymbolTableRecord
100
AcDbLayerTableRecord
  2
DEFPOINTS
 70
     0
 62
     7
  6
CONTINUOUS
  0
LAYER
  5
7D1F
100
AcDbSymbolTableRecord
100
AcDbLayerTableRecord
  2
ALPHA
 70
     0
 62
   254
  6
CONTINUOUS
  0
LAYER
  5
BF6A
100
AcDbSymbolTableRecord
100
AcDbLayerTableRecord
  2
TEXTE
 70
     0
 62
   130
  6
CONTINUOUS
  0
ENDTAB
  0
TABLE
  2
STYLE
  5
7CEB
100
AcDbSymbolTable
 70
     2
  0
STYLE
  5
7CF9
100
AcDbSymbolTableRecord
100
AcDbTextStyleTableRecord
  2
ROMANS
 70
     0
 40
0.0
 41
1.0
 50
0.0
 71
     0
 42
6.0
  3
romans
  4

  0
STYLE
  5
7D14
100
AcDbSymbolTableRecord
100
AcDbTextStyleTableRecord
  2
STANDARD
 70
     0
 40
0.0
 41
1.0
 50
0.0
 71
     0
 42
0.2
  3
txt
  4

  0
ENDTAB
  0
TABLE
  2
VIEW
  5
7CEE
100
AcDbSymbolTable
 70
     0
  0
ENDTAB
  0
TABLE
  2
UCS
  5
7CEF
100
AcDbSymbolTable
 70
     0
  0
ENDTAB
  0
TABLE
  2
APPID
  5
7CF1
100
AcDbSymbolTable
 70
     1
  0
APPID
  5
7CFA
100
AcDbSymbolTableRecord
100
AcDbRegAppTableRecord
  2
ACAD
 70
     0
  0
ENDTAB
  0
TABLE
  2
DIMSTYLE
  5
7CF2
100
AcDbSymbolTable
 70
     2
  0
DIMSTYLE
105
7D18
102
{ACAD_XDICTIONARY
360
C7DF
102
}
100
AcDbSymbolTableRecord
100
AcDbDimStyleTableRecord
  2
SC_DEFAUT
 70
     0
  3

  4

  5
OPEN30
  6

  7

 40
1.0
 41
5.0
 42
2.0
 43
0.38
 44
2.5
 45
0.0
 46
0.0
 47
0.0
 48
0.0
140
2.5
141
0.0
142
0.0
143
25.4
144
1.0
145
0.0
146
1.0
147
2.0
 71
     0
 72
     0
 73
     1
 74
     1
 75
     0
 76
     0
 77
     1
 78
    12
170
     0
171
     2
172
     0
173
     0
174
     0
175
     0
176
     0
177
     0
178
     0
270
     2
271
     1
272
     1
273
     2
274
     2
340
7CF9
275
     0
280
     0
281
     0
282
     0
283
     1
284
    12
285
    12
286
    12
287
     5
288
     0
  0
DIMSTYLE
105
7D19
102
{ACAD_XDICTIONARY
360
C7E1
102
}
100
AcDbSymbolTableRecord
100
AcDbDimStyleTableRecord
  2
STANDARD
 70
     0
  3

  4

  5

  6

  7

 40
1.0
 41
0.18
 42
0.0625
 43
0.38
 44
0.18
 45
0.0
 46
0.0
 47
0.0
 48
0.0
140
0.18
141
0.09
142
0.0
143
25.4
144
1.0
145
0.0
146
1.0
147
0.09
 71
     0
 72
     0
 73
     1
 74
     1
 75
     0
 76
     0
 77
     0
 78
     0
170
     0
171
     2
172
     0
173
     0
174
     0
175
     0
176
     0
177
     0
178
     0
270
     2
271
     1
272
     1
273
     2
274
     2
340
7CF9
275
     0
280
     0
281
     0
282
     0
283
     1
284
    12
285
    12
286
    12
287
     5
288
     0
  0
ENDTAB
  0
TABLE
  2
BLOCK_RECORD
  5
7CE9
100
AcDbSymbolTable
 70
     3
  0
BLOCK_RECORD
  5
7D06
102
{ACAD_XDICTIONARY
360
800F
102
}
100
AcDbSymbolTableRecord
100
AcDbBlockTableRecord
  2
*MODEL_SPACE
  0
BLOCK_RECORD
  5
7D02
102
{ACAD_XDICTIONARY
360
8011
102
}
100
AcDbSymbolTableRecord
100
AcDbBlockTableRecord
  2
*PAPER_SPACE
  0
BLOCK_RECORD
  5
7D0A
100
AcDbSymbolTableRecord
100
AcDbBlockTableRecord
  2
COTE
  0
BLOCK_RECORD
  5
7D0B
100
AcDbSymbolTableRecord
100
AcDbBlockTableRecord
  2
FOND
  0
BLOCK_RECORD
  5
7D0C
100
AcDbSymbolTableRecord
100
AcDbBlockTableRecord
  2
_OPEN30
  0
ENDTAB
  0
ENDSEC
  0
SECTION
  2
BLOCKS
  0
BLOCK
  5
7D24
100
AcDbEntity
  8
0
100
AcDbBlockBegin
  2
*MODEL_SPACE
 70
     0
 10
0.0
 20
0.0
 30
0.0
  3
*MODEL_SPACE
  1

  0
ENDBLK
  5
7D25
100
AcDbEntity
  8
0
100
AcDbBlockEnd
  0
BLOCK
  5
7D22
100
AcDbEntity
 67
     1
  8
0
100
AcDbBlockBegin
  2
*PAPER_SPACE
 70
     0
 10
0.0
 20
0.0
 30
0.0
  3
*PAPER_SPACE
  1

  0
ENDBLK
  5
7D23
100
AcDbEntity
 67
     1
  8
0
100
AcDbBlockEnd
  0
BLOCK
  5
E
100
AcDbEntity
  8
0
100
AcDbBlockBegin
  2
COTE
 70
     0
 10
0.0
 20
0.0
 30
0.0
  3
COTE
  1

  0
ENDBLK
  5
F
100
AcDbEntity
  8
0
100
AcDbBlockEnd
  0
BLOCK
  5
74
100
AcDbEntity
  8
0
100
AcDbBlockBegin
  2
FOND
 70
     0
 10
0.0
 20
0.0
 30
0.0
  3
FOND
  1

  0
ENDBLK
  5
75
100
AcDbEntity
  8
0
100
AcDbBlockEnd
  0
BLOCK
  5
4B08
100
AcDbEntity
  8
0
100
AcDbBlockBegin
  2
_OPEN30
 70
     0
 10
0.0
 20
0.0
 30
0.0
  3
_OPEN30
  1

  0
LINE
  5
4B05
100
AcDbEntity
  8
COTATION1
 62
     0
100
AcDbLine
 10
-1.0
 20
0.267949
 30
0.0
 11
0.0
 21
0.0
 31
0.0
1001
ACAD
1000
RTLwPs
1070
   158
  0
LINE
  5
4B06
100
AcDbEntity
  8
COTATION1
 62
     0
100
AcDbLine
 10
0.0
 20
0.0
 30
0.0
 11
-1.0
 21
-0.267949
 31
0.0
1001
ACAD
1000
RTLwPs
1070
   158
  0
LINE
  5
4B07
100
AcDbEntity
  8
COTATION1
 62
     0
100
AcDbLine
 10
0.0
 20
0.0
 30
0.0
 11
-1.0
 21
0.0
 31
0.0
1001
ACAD
1000
RTLwPs
1070
   158
  0
ENDBLK
  5
4B09
100
AcDbEntity
  8
0
100
AcDbBlockEnd
  0
ENDSEC
  0
SECTION
  2
ENTITIES
  0
INSERT
  5
A
100
AcDbEntity
  8
0
100
AcDbBlockReference
  2
COTE
 10
0.0
 20
0.0
 30
0.0
  0
INSERT
  5
17
100
AcDbEntity
  8
0
100
AcDbBlockReference
  2
COTE
 10
284.010391
 20
6.373258
 30
0.0
  0
INSERT
  5
72
100
AcDbEntity
  8
0
100
AcDbBlockReference
  2
FOND
 10
0.0
 20
0.0
 30
0.0
  0
ARC
  5
C5B6
100
AcDbEntity
  8
ALPHA
100
AcDbCircle
 10
49.443341
 20
218.718412
 30
0.0
 40
45.0
100
AcDbArc
 50
46.567463
 51
87.721378
  0
LINE
  5
C5B7
100
AcDbEntity
  8
ALPHA
100
AcDbLine
 10
80.380841
 20
251.396709
 30
0.0
 11
18.505841
 21
251.396709
 31
0.0
  0
LINE
  5
C5B8
100
AcDbEntity
  8
ALPHA
100
AcDbLine
 10
81.943341
 20
247.765787
 30
0.0
 11
16.943341
 21
247.765787
 31
0.0
  0
LINE
  5
C5B9
100
AcDbEntity
  8
ALPHA
100
AcDbLine
 10
85.993341
 20
213.343161
 30
0.0
 11
12.893341
 21
213.343161
 31
0.0
  0
LINE
  5
C5BA
100
AcDbEntity
  8
ALPHA
100
AcDbLine
 10
11.463454
 20
211.652489
 30
0.0
 11
87.423229
 21
211.652489
 31
0.0
  0
LINE
  5
C5BB
100
AcDbEntity
  8
ALPHA
100
AcDbLine
 10
11.463454
 20
200.033833
 30
0.0
 11
87.423229
 21
200.033833
 31
0.0
  0
LINE
  5
C5BC
100
AcDbEntity
  8
ALPHA
100
AcDbLine
 10
85.993341
 20
198.343161
 30
0.0
 11
12.893341
 21
198.343161
 31
0.0
  0
LINE
  5
C5BD
100
AcDbEntity
  8
ALPHA
100
AcDbLine
 10
12.868419
 20
103.143161
 30
0.0
 11
86.018264
 21
103.143161
 31
0.0
  0
LINE
  5
C5BE
100
AcDbEntity
  8
ALPHA
100
AcDbLine
 10
11.446453
 20
101.624049
 30
0.0
 11
87.44023
 21
101.624049
 31
0.0
  0
LINE
  5
C5BF
100
AcDbEntity
  8
ALPHA
100
AcDbLine
 10
11.446453
 20
83.662273
 30
0.0
 11
87.44023
 21
83.662273
 31
0.0
  0
LINE
  5
C5C0
100
AcDbEntity
  8
ALPHA
100
AcDbLine
 10
86.003616
 20
82.143161
 30
0.0
 11
41.068689
 21
82.143161
 31
0.0
  0
LINE
  5
C5C1
100
AcDbEntity
  8
ALPHA
100
AcDbLine
 10
14.493341
 20
34.343161
 30
0.0
 11
84.393341
 21
34.343161
 31
0.0
  0
LINE
  5
C5C2
100
AcDbEntity
  8
ALPHA
100
AcDbLine
 10
16.493728
 20
32.343161
 30
0.0
 11
82.392955
 21
32.343161
 31
0.0
  0
LINE
  5
C5C3
100
AcDbEntity
  8
ALPHA
100
AcDbLine
 10
14.443341
 20
198.343161
 30
0.0
 11
14.443341
 21
110.126087
 31
0.0
  0
LINE
  5
C5C4
100
AcDbEntity
  8
ALPHA
100
AcDbLine
 10
14.493341
 20
34.343161
 30
0.0
 11
16.493341
 21
32.343161
 31
0.0
  0
POLYLINE
  5
C5C5
100
AcDbEntity
  8
ALPHA
100
AcDb2dPolyline
 66
     1
 10
0.0
 20
0.0
 30
0.0
  0
VERTEX
  5
C9C0
100
AcDbEntity
  8
ALPHA
100
AcDbVertex
100
AcDb2dVertex
 10
23.559767
 20
95.643161
 30
0.0
  0
VERTEX
  5
C9C1
100
AcDbEntity
  8
ALPHA
100
AcDbVertex
100
AcDb2dVertex
 10
22.325126
 20
94.854508
 30
0.0
  0
VERTEX
  5
C9C2
100
AcDbEntity
  8
ALPHA
100
AcDbVertex
100
AcDb2dVertex
 10
21.129381
 20
94.021031
 30
0.0
  0
VERTEX
  5
C9C3
100
AcDbEntity
  8
ALPHA
100
AcDbVertex
100
AcDb2dVertex
 10
19.976913
 20
93.143161
 30
0.0
  0
SEQEND
  5
C9C4
100
AcDbEntity
  8
ALPHA
  0
POLYLINE
  5
C5C6
100
AcDbEntity
  8
ALPHA
100
AcDb2dPolyline
 66
     1
 10
0.0
 20
0.0
 30
0.0
  0
VERTEX
  5
C9C5
100
AcDbEntity
  8
ALPHA
100
AcDbVertex
100
AcDb2dVertex
 10
23.132036
 20
95.643161
 30
0.0
  0
VERTEX
  5
C9C6
100
AcDbEntity
  8
ALPHA
100
AcDbVertex
100
AcDb2dVertex
 10
21.914462
 20
94.853375
 30
0.0
  0
VERTEX
  5
C9C7
100
AcDbEntity
  8
ALPHA
100
AcDbVertex
100
AcDb2dVertex
 10
20.735449
 20
94.019892
 30
0.0
  0
VERTEX
  5
C9C8
100
AcDbEntity
  8
ALPHA
100
AcDbVertex
100
AcDb2dVertex
 10
19.59923
 20
93.143161
 30
0.0
  0
SEQEND
  5
C9C9
100
AcDbEntity
  8
ALPHA
  0
POLYLINE
  5
C5C7
100
AcDbEntity
  8
ALPHA
100
AcDb2dPolyline
 66
     1
 10
0.0
 20
0.0
 30
0.0
  0
VERTEX
  5
C9CA
100
AcDbEntity
  8
ALPHA
100
AcDbVertex
100
AcDb2dVertex
 10
19.460433
 20
98.143161
 30
0.0
  0
VERTEX
  5
C9CB
100
AcDbEntity
  8
ALPHA
100
AcDbVertex
100
AcDb2dVertex
 10
20.644033
 20
97.264891
 30
0.0
  0
VERTEX
  5
C9CC
100
AcDbEntity
  8
ALPHA
100
AcDbVertex
100
AcDb2dVertex
 10
21.869309
 20
96.431459
 30
0.0
  0
VERTEX
  5
C9CD
100
AcDbEntity
  8
ALPHA
100
AcDbVertex
100
AcDb2dVertex
 10
23.132036
 20
95.643161
 30
0.0
  0
SEQEND
  5
C9CE
100
AcDbEntity
  8
ALPHA
  0
POLYLINE
  5
C5C8
100
AcDbEntity
  8
ALPHA
100
AcDb2dPolyline
 66
     1
 10
0.0
 20
0.0
 30
0.0
  0
VERTEX
  5
C9CF
100
AcDbEntity
  8
ALPHA
100
AcDbVertex
100
AcDb2dVertex
 10
19.837782
 20
98.143161
 30
0.0
  0
VERTEX
  5
C9D0
100
AcDbEntity
  8
ALPHA
100
AcDbVertex
100
AcDb2dVertex
 10
21.037751
 20
97.263742
 30
0.0
  0
VERTEX
  5
C9D1
100
AcDbEntity
  8
ALPHA
100
AcDbVertex
100
AcDb2dVertex
 10
22.279869
 20
96.430317
 30
0.0
  0
VERTEX
  5
C9D2
100
AcDbEntity
  8
ALPHA
100
AcDbVertex
100
AcDb2dVertex
 10
23.559767
 20
95.643161
 30
0.0
  0
SEQEND
  5
C9D3
100
AcDbEntity
  8
ALPHA
  0
LINE
  5
C5C9
100
AcDbEntity
  8
TEXTE
100
AcDbLine
 10
19.116084
 20
91.643161
 30
0.0
 11
20.328057
 21
91.643161
 31
0.0
  0
LINE
  5
C5CA
100
AcDbEntity
  8
TEXTE
100
AcDbLine
 10
20.322926
 20
91.196352
 30
0.0
 11
19.304281
 21
91.196352
 31
0.0
  0
LINE
  5
C5CB
100
AcDbEntity
  8
TEXTE
100
AcDbLine
 10
19.239196
 20
88.58997
 30
0.0
 11
20.255652
 21
88.58997
 31
0.0
  0
LINE
  5
C5CC
100
AcDbEntity
  8
TEXTE
100
AcDbLine
 10
20.237723
 20
88.143161
 30
0.0
 11
19.029225
 21
88.143161
 31
0.0
  0
LINE
  5
C5CD
100
AcDbEntity
  8
ALPHA
100
AcDbLine
 10
32.963681
 20
82.143161
 30
0.0
 11
12.868352
 21
82.143161
 31
0.0
  0
LINE
  5
C5CE
100
AcDbEntity
  8
ALPHA
100
AcDbLine
 10
19.336199
 20
81.493161
 30
0.0
 11
19.336199
 21
74.493161
 31
0.0
  0
LINE
  5
C5CF
100
AcDbEntity
  8
ALPHA
100
AcDbLine
 10
18.988457
 20
81.493161
 30
0.0
 11
18.988457
 21
74.493161
 31
0.0
  0
LINE
  5
C5D0
100
AcDbEntity
  8
ALPHA
100
AcDbLine
 10
18.702489
 20
80.993161
 30
0.0
 11
18.702489
 21
74.993161
 31
0.0
  0
LINE
  5
C5D1
100
AcDbEntity
  8
ALPHA
100
AcDbLine
 10
14.493341
 20
80.993161
 30
0.0
 11
14.493341
 21
74.993161
 31
0.0
  0
LINE
  5
C5D2
100
AcDbEntity
  8
ALPHA
100
AcDbLine
 10
14.493341
 20
34.343161
 30
0.0
 11
14.493341
 21
64.843161
 31
0.0
  0
LINE
  5
C5D3
100
AcDbEntity
  8
ALPHA
100
AcDbLine
 10
14.13924
 20
35.043161
 30
0.0
 11
14.13924
 21
63.043161
 31
0.0
  0
LINE
  5
C5D4
100
AcDbEntity
  8
ALPHA
100
AcDbLine
 10
12.701767
 20
36.334735
 30
0.0
 11
12.701767
 21
61.751587
 31
0.0
  0
LINE
  5
C5D5
100
AcDbEntity
  8
ALPHA
100
AcDbLine
 10
12.493341
 20
36.535026
 30
0.0
 11
12.493341
 21
61.551296
 31
0.0
  0
LINE
  5
C5D6
100
AcDbEntity
  8
ALPHA
100
AcDbLine
 10
13.993341
 20
35.043161
 30
0.0
 11
14.193341
 21
35.043161
 31
0.0
  0
LINE
  5
C5D7
100
AcDbEntity
  8
ALPHA
100
AcDbLine
 10
13.993341
 20
35.043161
 30
0.0
 11
12.493265
 21
36.543237
 31
0.0
  0
LINE
  5
C5D8
100
AcDbEntity
  8
ALPHA
100
AcDbLine
 10
14.193341
 20
35.043161
 30
0.0
 11
14.493341
 21
35.343161
 31
0.0
  0
LINE
  5
C5D9
100
AcDbEntity
  8
ALPHA
100
AcDbLine
 10
14.506255
 20
37.533161
 30
0.0
 11
14.506255
 21
36.693161
 31
0.0
  0
LINE
  5
C5DA
100
AcDbEntity
  8
ALPHA
100
AcDbLine
 10
14.506255
 20
38.593161
 30
0.0
 11
14.506255
 21
37.753161
 31
0.0
  0
LINE
  5
C5DB
100
AcDbEntity
  8
ALPHA
100
AcDbLine
 10
14.493341
 20
37.753161
 30
0.0
 11
14.506255
 21
37.753161
 31
0.0
  0
LINE
  5
C5DC
100
AcDbEntity
  8
ALPHA
100
AcDbLine
 10
14.493341
 20
37.643161
 30
0.0
 11
14.506255
 21
37.643161
 31
0.0
  0
LINE
  5
C5DD
100
AcDbEntity
  8
ALPHA
100
AcDbLine
 10
14.493341
 20
37.533161
 30
0.0
 11
14.506255
 21
37.533161
 31
0.0
  0
LINE
  5
C5DE
100
AcDbEntity
  8
ALPHA
100
AcDbLine
 10
14.506255
 20
44.293161
 30
0.0
 11
14.506255
 21
42.393161
 31
0.0
  0
LINE
  5
C5DF
100
AcDbEntity
  8
ALPHA
100
AcDbLine
 10
14.506255
 20
49.993161
 30
0.0
 11
14.506255
 21
48.093161
 31
0.0
  0
LINE
  5
C5E0
100
AcDbEntity
  8
ALPHA
100
AcDbLine
 10
14.506255
 20
55.693161
 30
0.0
 11
14.506255
 21
53.793161
 31
0.0
  0
ARC
  5
C5E1
100
AcDbEntity
  8
ALPHA
100
AcDbCircle
 10
19.393341
 20
69.343161
 30
0.0
 40
6.472248
100
AcDbArc
 50
184.43068
 51
211.812037
  0
LINE
  5
C5E2
100
AcDbEntity
  8
ALPHA
100
AcDbLine
 10
14.676351
 20
72.067727
 30
0.0
 11
14.676351
 21
66.618587
 31
0.0
  0
LINE
  5
C5E3
100
AcDbEntity
  8
ALPHA
100
AcDbLine
 10
14.014317
 20
72.992284
 30
0.0
 11
14.014317
 21
65.694038
 31
0.0
  0
POLYLINE
  5
C5E4
100
AcDbEntity
  8
ALPHA
100
AcDb2dPolyline
 66
     1
 10
0.0
 20
0.0
 30
0.0
  0
VERTEX
  5
C9D4
100
AcDbEntity
  8
ALPHA
100
AcDbVertex
100
AcDb2dVertex
 10
14.548264
 20
73.394569
 30
0.0
  0
VERTEX
  5
C9D5
100
AcDbEntity
  8
ALPHA
100
AcDbVertex
100
AcDb2dVertex
 10
14.606645
 20
72.856414
 30
0.0
  0
VERTEX
  5
C9D6
100
AcDbEntity
  8
ALPHA
100
AcDbVertex
100
AcDb2dVertex
 10
14.670264
 20
72.156414
 30
0.0
  0
VERTEX
  5
C9D7
100
AcDbEntity
  8
ALPHA
100
AcDbVertex
100
AcDb2dVertex
 10
14.729123
 20
71.298779
 30
0.0
  0
VERTEX
  5
C9D8
100
AcDbEntity
  8
ALPHA
100
AcDbVertex
100
AcDb2dVertex
 10
14.770026
 20
70.336306
 30
0.0
  0
VERTEX
  5
C9D9
100
AcDbEntity
  8
ALPHA
100
AcDbVertex
100
AcDb2dVertex
 10
14.784252
 20
69.343601
 30
0.0
  0
VERTEX
  5
C9DA
100
AcDbEntity
  8
ALPHA
100
AcDbVertex
100
AcDb2dVertex
 10
14.770026
 20
68.350036
 30
0.0
  0
VERTEX
  5
C9DB
100
AcDbEntity
  8
ALPHA
100
AcDbVertex
100
AcDb2dVertex
 10
14.729073
 20
67.386656
 30
0.0
  0
VERTEX
  5
C9DC
100
AcDbEntity
  8
ALPHA
100
AcDbVertex
100
AcDb2dVertex
 10
14.67026
 20
66.529859
 30
0.0
  0
VERTEX
  5
C9DD
100
AcDbEntity
  8
ALPHA
100
AcDbVertex
100
AcDb2dVertex
 10
14.606687
 20
65.830323
 30
0.0
  0
SEQEND
  5
C9DE
100
AcDbEntity
  8
ALPHA
  0
LINE
  5
C5E5
100
AcDbEntity
  8
ALPHA
100
AcDbLine
 10
12.493265
 20
61.543085
 30
0.0
 11
13.993341
 21
63.043161
 31
0.0
  0
LINE
  5
C5E6
100
AcDbEntity
  8
ALPHA
100
AcDbLine
 10
14.506255
 20
60.333161
 30
0.0
 11
14.506255
 21
59.493161
 31
0.0
  0
LINE
  5
C5E7
100
AcDbEntity
  8
ALPHA
100
AcDbLine
 10
14.506255
 20
61.393161
 30
0.0
 11
14.506255
 21
60.553161
 31
0.0
  0
LINE
  5
C5E8
100
AcDbEntity
  8
ALPHA
100
AcDbLine
 10
14.493341
 20
60.553161
 30
0.0
 11
14.506255
 21
60.553161
 31
0.0
  0
LINE
  5
C5E9
100
AcDbEntity
  8
ALPHA
100
AcDbLine
 10
14.493341
 20
60.443161
 30
0.0
 11
14.506255
 21
60.443161
 31
0.0
  0
LINE
  5
C5EA
100
AcDbEntity
  8
ALPHA
100
AcDbLine
 10
14.493341
 20
60.333161
 30
0.0
 11
14.506255
 21
60.333161
 31
0.0
  0
ARC
  5
C5EB
100
AcDbEntity
  8
ALPHA
100
AcDbCircle
 10
14.676351
 20
66.143161
 30
0.0
 40
0.8
100
AcDbArc
 50
214.152915
 51
261.254331
  0
LINE
  5
C5EC
100
AcDbEntity
  8
ALPHA
100
AcDbLine
 10
13.993341
 20
63.043161
 30
0.0
 11
14.193341
 21
63.043161
 31
0.0
  0
LINE
  5
C5ED
100
AcDbEntity
  8
ALPHA
100
AcDbLine
 10
13.893341
 20
65.931417
 30
0.0
 11
13.893341
 21
65.879059
 31
0.0
  0
LINE
  5
C5EE
100
AcDbEntity
  8
ALPHA
100
AcDbLine
 10
13.893341
 20
65.879059
 30
0.0
 11
14.014317
 21
65.694038
 31
0.0
  0
POLYLINE
  5
C5EF
100
AcDbEntity
  8
ALPHA
100
AcDb2dPolyline
 66
     1
 10
0.0
 20
0.0
 30
0.0
  0
VERTEX
  5
C9DF
100
AcDbEntity
  8
ALPHA
100
AcDbVertex
100
AcDb2dVertex
 10
14.606687
 20
65.830323
 30
0.0
  0
VERTEX
  5
C9E0
100
AcDbEntity
  8
ALPHA
100
AcDbVertex
100
AcDb2dVertex
 10
14.548201
 20
65.29121
 30
0.0
  0
VERTEX
  5
C9E1
100
AcDbEntity
  8
ALPHA
100
AcDbVertex
100
AcDb2dVertex
 10
14.507471
 20
64.954248
 30
0.0
  0
VERTEX
  5
C9E2
100
AcDbEntity
  8
ALPHA
100
AcDbVertex
100
AcDb2dVertex
 10
14.493341
 20
64.843161
 30
0.0
  0
SEQEND
  5
C9E3
100
AcDbEntity
  8
ALPHA
  0
LINE
  5
C5F0
100
AcDbEntity
  8
ALPHA
100
AcDbLine
 10
14.193341
 20
63.043161
 30
0.0
 11
14.493341
 21
62.743161
 31
0.0
  0
LINE
  5
C5F1
100
AcDbEntity
  8
ALPHA
100
AcDbLine
 10
18.702489
 20
74.993161
 30
0.0
 11
14.193341
 21
74.993161
 31
0.0
  0
LINE
  5
C5F2
100
AcDbEntity
  8
ALPHA
100
AcDbLine
 10
19.336199
 20
74.493161
 30
0.0
 11
14.193341
 21
74.493161
 31
0.0
  0
POLYLINE
  5
C5F3
100
AcDbEntity
  8
ALPHA
100
AcDb2dPolyline
 66
     1
 10
0.0
 20
0.0
 30
0.0
  0
VERTEX
  5
C9E4
100
AcDbEntity
  8
ALPHA
100
AcDbVertex
100
AcDb2dVertex
 10
14.493341
 20
73.843161
 30
0.0
  0
VERTEX
  5
C9E5
100
AcDbEntity
  8
ALPHA
100
AcDbVertex
100
AcDb2dVertex
 10
14.507507
 20
73.731784
 30
0.0
  0
VERTEX
  5
C9E6
100
AcDbEntity
  8
ALPHA
100
AcDbVertex
100
AcDb2dVertex
 10
14.548264
 20
73.394569
 30
0.0
  0
SEQEND
  5
C9E7
100
AcDbEntity
  8
ALPHA
  0
ARC
  5
C5F4
100
AcDbEntity
  8
ALPHA
100
AcDbCircle
 10
14.676351
 20
72.543161
 30
0.0
 40
0.8
100
AcDbArc
 50
98.745382
 51
145.847085
  0
ARC
  5
C5F5
100
AcDbEntity
  8
ALPHA
100
AcDbCircle
 10
19.393341
 20
69.343161
 30
0.0
 40
6.472248
100
AcDbArc
 50
148.187963
 51
175.56932
  0
LINE
  5
C5F6
100
AcDbEntity
  8
ALPHA
100
AcDbLine
 10
13.893341
 20
72.807263
 30
0.0
 11
14.014317
 21
72.992284
 31
0.0
  0
LINE
  5
C5F7
100
AcDbEntity
  8
ALPHA
100
AcDbLine
 10
13.893341
 20
72.807263
 30
0.0
 11
13.893341
 21
72.754905
 31
0.0
  0
POLYLINE
  5
C5F8
100
AcDbEntity
  8
ALPHA
100
AcDb2dPolyline
 66
     1
 10
0.0
 20
0.0
 30
0.0
  0
VERTEX
  5
C9E8
100
AcDbEntity
  8
ALPHA
100
AcDbVertex
100
AcDb2dVertex
 10
13.27619
 20
68.843161
 30
0.0
  0
VERTEX
  5
C9E9
100
AcDbEntity
  8
ALPHA
100
AcDbVertex
100
AcDb2dVertex
 10
13.261108
 20
69.176087
 30
0.0
  0
VERTEX
  5
C9EA
100
AcDbEntity
  8
ALPHA
100
AcDbVertex
100
AcDb2dVertex
 10
13.261108
 20
69.510235
 30
0.0
  0
VERTEX
  5
C9EB
100
AcDbEntity
  8
ALPHA
100
AcDbVertex
100
AcDb2dVertex
 10
13.27619
 20
69.843161
 30
0.0
  0
SEQEND
  5
C9EC
100
AcDbEntity
  8
ALPHA
  0
LINE
  5
C5F9
100
AcDbEntity
  8
ALPHA
100
AcDbLine
 10
12.940435
 20
69.843161
 30
0.0
 11
13.27619
 21
69.843161
 31
0.0
  0
LINE
  5
C5FA
100
AcDbEntity
  8
ALPHA
100
AcDbLine
 10
12.940435
 20
68.843161
 30
0.0
 11
13.27619
 21
68.843161
 31
0.0
  0
LINE
  5
C5FB
100
AcDbEntity
  8
ALPHA
100
AcDbLine
 10
14.493341
 20
74.493161
 30
0.0
 11
14.493341
 21
73.843161
 31
0.0
  0
LINE
  5
C5FC
100
AcDbEntity
  8
ALPHA
100
AcDbLine
 10
14.193341
 20
74.993161
 30
0.0
 11
14.193341
 21
74.493161
 31
0.0
  0
ARC
  5
C5FD
100
AcDbEntity
  8
ALPHA
100
AcDbCircle
 10
12.868341
 20
101.718161
 30
0.0
 40
1.425
100
AcDbArc
 50
90.0
 51
183.786772
  0
ARC
  5
C5FE
100
AcDbEntity
  8
ALPHA
100
AcDbCircle
 10
12.868341
 20
83.568161
 30
0.0
 40
1.425
100
AcDbArc
 50
176.213228
 51
270.0
  0
POLYLINE
  5
C5FF
100
AcDbEntity
  8
ALPHA
100
AcDb2dPolyline
 66
     1
 10
0.0
 20
0.0
 30
0.0
  0
VERTEX
  5
C9ED
100
AcDbEntity
  8
ALPHA
100
AcDbVertex
100
AcDb2dVertex
 10
12.106967
 20
96.743161
 30
0.0
  0
VERTEX
  5
C9EE
100
AcDbEntity
  8
ALPHA
100
AcDbVertex
100
AcDb2dVertex
 10
12.050149
 20
98.31055
 30
0.0
  0
VERTEX
  5
C9EF
100
AcDbEntity
  8
ALPHA
100
AcDbVertex
100
AcDb2dVertex
 10
11.975095
 20
99.877294
 30
0.0
  0
VERTEX
  5
C9F0
100
AcDbEntity
  8
ALPHA
100
AcDbVertex
100
AcDb2dVertex
 10
11.881816
 20
101.443161
 30
0.0
  0
SEQEND
  5
C9F1
100
AcDbEntity
  8
ALPHA
  0
LINE
  5
C600
100
AcDbEntity
  8
ALPHA
100
AcDbLine
 10
15.331954
 20
96.743161
 30
0.0
 11
11.804232
 21
96.743161
 31
0.0
  0
LINE
  5
C601
100
AcDbEntity
  8
ALPHA
100
AcDbLine
 10
11.283379
 20
96.243161
 30
0.0
 11
14.789097
 21
96.243161
 31
0.0
  0
LINE
  5
C602
100
AcDbEntity
  8
ALPHA
100
AcDbLine
 10
11.395027
 20
89.043161
 30
0.0
 11
14.789097
 21
89.043161
 31
0.0
  0
LINE
  5
C603
100
AcDbEntity
  8
ALPHA
100
AcDbLine
 10
15.331954
 20
88.543161
 30
0.0
 11
11.543758
 21
88.543161
 31
0.0
  0
LINE
  5
C604
100
AcDbEntity
  8
ALPHA
100
AcDbLine
 10
11.643341
 20
89.043161
 30
0.0
 11
11.643341
 21
96.243161
 31
0.0
  0
POLYLINE
  5
C605
100
AcDbEntity
  8
ALPHA
100
AcDb2dPolyline
 66
     1
 10
0.0
 20
0.0
 30
0.0
  0
VERTEX
  5
C9F2
100
AcDbEntity
  8
ALPHA
100
AcDbVertex
100
AcDb2dVertex
 10
11.476123
 20
83.843161
 30
0.0
  0
VERTEX
  5
C9F3
100
AcDbEntity
  8
ALPHA
100
AcDbVertex
100
AcDb2dVertex
 10
11.599653
 20
85.395941
 30
0.0
  0
VERTEX
  5
C9F4
100
AcDbEntity
  8
ALPHA
100
AcDbVertex
100
AcDb2dVertex
 10
11.722487
 20
86.962609
 30
0.0
  0
VERTEX
  5
C9F5
100
AcDbEntity
  8
ALPHA
100
AcDbVertex
100
AcDb2dVertex
 10
11.844701
 20
88.543161
 30
0.0
  0
SEQEND
  5
C9F6
100
AcDbEntity
  8
ALPHA
  0
LINE
  5
C606
100
AcDbEntity
  8
ALPHA
100
AcDbLine
 10
11.301517
 20
88.843161
 30
0.0
 11
11.25964
 21
84.043161
 31
0.0
  0
LINE
  5
C607
100
AcDbEntity
  8
ALPHA
100
AcDbLine
 10
11.238698
 20
84.043161
 30
0.0
 11
11.196803
 21
88.843161
 31
0.0
  0
ARC
  5
C608
100
AcDbEntity
  8
ALPHA
100
AcDbCircle
 10
-124.241034
 20
92.643161
 30
0.0
 40
135.984375
100
AcDbArc
 50
356.213228
 51
356.289595
  0
LINE
  5
C609
100
AcDbEntity
  8
ALPHA
100
AcDbLine
 10
11.25964
 20
84.043161
 30
0.0
 11
11.238698
 21
84.043161
 31
0.0
  0
LINE
  5
C60A
100
AcDbEntity
  8
ALPHA
100
AcDbLine
 10
11.457865
 20
83.843161
 30
0.0
 11
11.476123
 21
83.843161
 31
0.0
  0
LINE
  5
C60B
100
AcDbEntity
  8
ALPHA
100
AcDbLine
 10
11.25964
 20
84.043161
 30
0.0
 11
11.457865
 21
83.843161
 31
0.0
  0
LINE
  5
C60C
100
AcDbEntity
  8
ALPHA
100
AcDbLine
 10
11.238698
 20
84.043161
 30
0.0
 11
11.440413
 21
83.843161
 31
0.0
  0
LINE
  5
C60D
100
AcDbEntity
  8
ALPHA
100
AcDbLine
 10
11.301517
 20
88.843161
 30
0.0
 11
11.503232
 21
89.043161
 31
0.0
  0
LINE
  5
C60E
100
AcDbEntity
  8
ALPHA
100
AcDbLine
 10
11.196803
 20
88.843161
 30
0.0
 11
11.395027
 21
89.043161
 31
0.0
  0
LINE
  5
C60F
100
AcDbEntity
  8
ALPHA
100
AcDbLine
 10
11.543758
 20
88.543161
 30
0.0
 11
11.581952
 21
89.043161
 31
0.0
  0
LINE
  5
C610
100
AcDbEntity
  8
ALPHA
100
AcDbLine
 10
11.196803
 20
88.843161
 30
0.0
 11
11.301517
 21
88.843161
 31
0.0
  0
LINE
  5
C611
100
AcDbEntity
  8
ALPHA
100
AcDbLine
 10
11.503652
 20
101.243161
 30
0.0
 11
11.503652
 21
96.443161
 31
0.0
  0
LINE
  5
C612
100
AcDbEntity
  8
ALPHA
100
AcDbLine
 10
11.083341
 20
101.243161
 30
0.0
 11
11.083341
 21
96.443161
 31
0.0
  0
POLYLINE
  5
C613
100
AcDbEntity
  8
ALPHA
100
AcDb2dPolyline
 66
     1
 10
0.0
 20
0.0
 30
0.0
  0
VERTEX
  5
C9F7
100
AcDbEntity
  8
ALPHA
100
AcDbVertex
100
AcDb2dVertex
 10
11.818547
 20
96.243161
 30
0.0
  0
VERTEX
  5
C9F8
100
AcDbEntity
  8
ALPHA
100
AcDbVertex
100
AcDb2dVertex
 10
11.811622
 20
96.493167
 30
0.0
  0
VERTEX
  5
C9F9
100
AcDbEntity
  8
ALPHA
100
AcDbVertex
100
AcDb2dVertex
 10
11.804232
 20
96.743161
 30
0.0
  0
SEQEND
  5
C9FA
100
AcDbEntity
  8
ALPHA
  0
LINE
  5
C614
100
AcDbEntity
  8
ALPHA
100
AcDbLine
 10
11.503652
 20
96.443161
 30
0.0
 11
11.083341
 21
96.443161
 31
0.0
  0
LINE
  5
C615
100
AcDbEntity
  8
ALPHA
100
AcDbLine
 10
11.083341
 20
96.443161
 30
0.0
 11
11.283341
 21
96.243161
 31
0.0
  0
LINE
  5
C616
100
AcDbEntity
  8
ALPHA
100
AcDbLine
 10
11.705352
 20
96.243161
 30
0.0
 11
11.503652
 21
96.443161
 31
0.0
  0
LINE
  5
C617
100
AcDbEntity
  8
ALPHA
100
AcDbLine
 10
11.705352
 20
101.443161
 30
0.0
 11
11.503652
 21
101.243161
 31
0.0
  0
LINE
  5
C618
100
AcDbEntity
  8
ALPHA
100
AcDbLine
 10
11.283341
 20
101.443161
 30
0.0
 11
11.083341
 21
101.243161
 31
0.0
  0
LINE
  5
C619
100
AcDbEntity
  8
ALPHA
100
AcDbLine
 10
11.283379
 20
101.443161
 30
0.0
 11
11.881816
 21
101.443161
 31
0.0
  0
LINE
  5
C61A
100
AcDbEntity
  8
ALPHA
100
AcDbLine
 10
11.503652
 20
101.243161
 30
0.0
 11
11.083341
 21
101.243161
 31
0.0
  0
LINE
  5
C61B
100
AcDbEntity
  8
ALPHA
100
AcDbLine
 10
11.458304
 20
101.443161
 30
0.0
 11
11.446453
 21
101.624049
 31
0.0
  0
LINE
  5
C61C
100
AcDbEntity
  8
TEXTE
100
AcDbLine
 10
16.81175
 20
91.121885
 30
0.0
 11
16.734836
 21
90.972948
 31
0.0
  0
LINE
  5
C61D
100
AcDbEntity
  8
TEXTE
100
AcDbLine
 10
16.536208
 20
90.824012
 30
0.0
 11
16.58903
 21
91.121885
 31
0.0
  0
POLYLINE
  5
C61E
100
AcDbEntity
  8
TEXTE
100
AcDb2dPolyline
 66
     1
 10
0.0
 20
0.0
 30
0.0
  0
VERTEX
  5
C9FB
100
AcDbEntity
  8
TEXTE
100
AcDbVertex
100
AcDb2dVertex
 10
19.029225
 20
88.143161
 30
0.0
  0
VERTEX
  5
C9FC
100
AcDbEntity
  8
TEXTE
100
AcDbVertex
100
AcDb2dVertex
 10
19.044339
 20
88.532214
 30
0.0
  0
VERTEX
  5
C9FD
100
AcDbEntity
  8
TEXTE
100
AcDbVertex
100
AcDb2dVertex
 10
19.058086
 20
88.92123
 30
0.0
  0
VERTEX
  5
C9FE
100
AcDbEntity
  8
TEXTE
100
AcDbVertex
100
AcDb2dVertex
 10
19.070468
 20
89.310212
 30
0.0
  0
VERTEX
  5
C9FF
100
AcDbEntity
  8
TEXTE
100
AcDbVertex
100
AcDb2dVertex
 10
19.081485
 20
89.69916
 30
0.0
  0
VERTEX
  5
CA00
100
AcDbEntity
  8
TEXTE
100
AcDbVertex
100
AcDb2dVertex
 10
19.091135
 20
90.088068
 30
0.0
  0
VERTEX
  5
CA01
100
AcDbEntity
  8
TEXTE
100
AcDbVertex
100
AcDb2dVertex
 10
19.09942
 20
90.476926
 30
0.0
  0
VERTEX
  5
CA02
100
AcDbEntity
  8
TEXTE
100
AcDbVertex
100
AcDb2dVertex
 10
19.10634
 20
90.865726
 30
0.0
  0
VERTEX
  5
CA03
100
AcDbEntity
  8
TEXTE
100
AcDbVertex
100
AcDb2dVertex
 10
19.111894
 20
91.25447
 30
0.0
  0
VERTEX
  5
CA04
100
AcDbEntity
  8
TEXTE
100
AcDbVertex
100
AcDb2dVertex
 10
19.116085
 20
91.643161
 30
0.0
  0
SEQEND
  5
CA05
100
AcDbEntity
  8
TEXTE
  0
POLYLINE
  5
C61F
100
AcDbEntity
  8
TEXTE
100
AcDb2dPolyline
 66
     1
 10
0.0
 20
0.0
 30
0.0
  0
VERTEX
  5
CA06
100
AcDbEntity
  8
TEXTE
100
AcDbVertex
100
AcDb2dVertex
 10
17.687885
 20
88.143161
 30
0.0
  0
VERTEX
  5
CA07
100
AcDbEntity
  8
TEXTE
100
AcDbVertex
100
AcDb2dVertex
 10
17.702381
 20
88.532151
 30
0.0
  0
VERTEX
  5
CA08
100
AcDbEntity
  8
TEXTE
100
AcDbVertex
100
AcDb2dVertex
 10
17.715567
 20
88.921119
 30
0.0
  0
VERTEX
  5
CA09
100
AcDbEntity
  8
TEXTE
100
AcDbVertex
100
AcDb2dVertex
 10
17.727443
 20
89.310068
 30
0.0
  0
VERTEX
  5
CA0A
100
AcDbEntity
  8
TEXTE
100
AcDbVertex
100
AcDb2dVertex
 10
17.738009
 20
89.698999
 30
0.0
  0
VERTEX
  5
CA0B
100
AcDbEntity
  8
TEXTE
100
AcDbVertex
100
AcDb2dVertex
 10
17.747266
 20
90.087906
 30
0.0
  0
VERTEX
  5
CA0C
100
AcDbEntity
  8
TEXTE
100
AcDbVertex
100
AcDb2dVertex
 10
17.755213
 20
90.476779
 30
0.0
  0
VERTEX
  5
CA0D
100
AcDbEntity
  8
TEXTE
100
AcDbVertex
100
AcDb2dVertex
 10
17.761851
 20
90.865611
 30
0.0
  0
VERTEX
  5
CA0E
100
AcDbEntity
  8
TEXTE
100
AcDbVertex
100
AcDb2dVertex
 10
17.767179
 20
91.254404
 30
0.0
  0
VERTEX
  5
CA0F
100
AcDbEntity
  8
TEXTE
100
AcDbVertex
100
AcDb2dVertex
 10
17.771199
 20
91.643161
 30
0.0
  0
SEQEND
  5
CA10
100
AcDbEntity
  8
TEXTE
  0
LINE
  5
C620
100
AcDbEntity
  8
TEXTE
100
AcDbLine
 10
19.30428
 20
91.196352
 30
0.0
 11
19.299567
 21
90.87368
 31
0.0
  0
LINE
  5
C621
100
AcDbEntity
  8
TEXTE
100
AcDbLine
 10
17.936529
 20
91.270821
 30
0.0
 11
17.93148
 21
90.8985
 31
0.0
  0
LINE
  5
C622
100
AcDbEntity
  8
ALPHA
100
AcDbLine
 10
14.789097
 20
89.043161
 30
0.0
 11
14.835354
 21
91.443173
 31
0.0
  0
POLYLINE
  5
C623
100
AcDbEntity
  8
ALPHA
100
AcDb2dPolyline
 66
     1
 10
0.0
 20
0.0
 30
0.0
  0
VERTEX
  5
CA11
100
AcDbEntity
  8
ALPHA
100
AcDbVertex
100
AcDb2dVertex
 10
15.063077
 20
94.009794
 30
0.0
  0
VERTEX
  5
CA12
100
AcDbEntity
  8
ALPHA
100
AcDbVertex
100
AcDb2dVertex
 10
15.063077
 20
91.276528
 30
0.0
  0
VERTEX
  5
CA13
100
AcDbEntity
  8
ALPHA
100
AcDbVertex
100
AcDb2dVertex
 10
15.002696
 20
88.543161
 30
0.0
  0
SEQEND
  5
CA14
100
AcDbEntity
  8
ALPHA
  0
POLYLINE
  5
C624
100
AcDbEntity
  8
ALPHA
100
AcDb2dPolyline
 66
     1
 10
0.0
 20
0.0
 30
0.0
  0
VERTEX
  5
CA15
100
AcDbEntity
  8
ALPHA
100
AcDbVertex
100
AcDb2dVertex
 10
15.331954
 20
96.743161
 30
0.0
  0
VERTEX
  5
CA16
100
AcDbEntity
  8
ALPHA
100
AcDbVertex
100
AcDb2dVertex
 10
15.392299
 20
94.009788
 30
0.0
  0
VERTEX
  5
CA17
100
AcDbEntity
  8
ALPHA
100
AcDbVertex
100
AcDb2dVertex
 10
15.392299
 20
91.276534
 30
0.0
  0
VERTEX
  5
CA18
100
AcDbEntity
  8
ALPHA
100
AcDbVertex
100
AcDb2dVertex
 10
15.331954
 20
88.543161
 30
0.0
  0
SEQEND
  5
CA19
100
AcDbEntity
  8
ALPHA
  0
LINE
  5
C625
100
AcDbEntity
  8
TEXTE
100
AcDbLine
 10
17.463125
 20
91.121885
 30
0.0
 11
17.513096
 21
90.824012
 31
0.0
  0
LINE
  5
C626
100
AcDbEntity
  8
TEXTE
100
AcDbLine
 10
18.736795
 20
91.345288
 30
0.0
 11
18.825749
 21
91.047416
 31
0.0
  0
LINE
  5
C627
100
AcDbEntity
  8
TEXTE
100
AcDbLine
 10
18.640969
 20
91.047416
 30
0.0
 11
18.582108
 21
91.196352
 31
0.0
  0
LINE
  5
C628
100
AcDbEntity
  8
TEXTE
100
AcDbLine
 10
17.300284
 20
90.972948
 30
0.0
 11
17.222981
 21
91.121885
 31
0.0
  0
LINE
  5
C629
100
AcDbEntity
  8
ALPHA
100
AcDbLine
 10
19.336199
 20
81.493161
 30
0.0
 11
14.193341
 21
81.493161
 31
0.0
  0
LINE
  5
C62A
100
AcDbEntity
  8
ALPHA
100
AcDbLine
 10
18.702489
 20
80.993161
 30
0.0
 11
14.193341
 21
80.993161
 31
0.0
  0
LINE
  5
C62B
100
AcDbEntity
  8
ALPHA
100
AcDbLine
 10
14.493341
 20
82.143161
 30
0.0
 11
14.493341
 21
81.493161
 31
0.0
  0
LINE
  5
C62C
100
AcDbEntity
  8
ALPHA
100
AcDbLine
 10
14.193341
 20
81.493161
 30
0.0
 11
14.193341
 21
80.993161
 31
0.0
  0
LINE
  5
C62D
100
AcDbEntity
  8
TEXTE
100
AcDbLine
 10
17.917763
 20
90.153799
 30
0.0
 11
18.473301
 21
90.153799
 31
0.0
  0
LINE
  5
C62E
100
AcDbEntity
  8
TEXTE
100
AcDbLine
 10
18.432563
 20
89.70699
 30
0.0
 11
17.907216
 21
89.70699
 31
0.0
  0
POLYLINE
  5
C62F
100
AcDbEntity
  8
TEXTE
100
AcDb2dPolyline
 66
     1
 10
0.0
 20
0.0
 30
0.0
  0
VERTEX
  5
CA1A
100
AcDbEntity
  8
TEXTE
100
AcDbVertex
100
AcDb2dVertex
 10
17.175748
 20
88.217629
 30
0.0
  0
VERTEX
  5
CA1B
100
AcDbEntity
  8
TEXTE
100
AcDbVertex
100
AcDb2dVertex
 10
17.14223
 20
88.199043
 30
0.0
  0
VERTEX
  5
CA1C
100
AcDbEntity
  8
TEXTE
100
AcDbVertex
100
AcDb2dVertex
 10
17.042177
 20
88.143161
 30
0.0
  0
SEQEND
  5
CA1D
100
AcDbEntity
  8
TEXTE
  0
LINE
  5
C630
100
AcDbEntity
  8
TEXTE
100
AcDbLine
 10
17.058398
 20
88.58997
 30
0.0
 11
17.165429
 21
88.664437
 31
0.0
  0
LINE
  5
C631
100
AcDbEntity
  8
TEXTE
100
AcDbLine
 10
17.287305
 20
88.366565
 30
0.0
 11
17.175748
 21
88.217629
 31
0.0
  0
LINE
  5
C632
100
AcDbEntity
  8
TEXTE
100
AcDbLine
 10
17.165429
 20
88.664437
 30
0.0
 11
17.249588
 21
88.813374
 31
0.0
  0
LINE
  5
C633
100
AcDbEntity
  8
TEXTE
100
AcDbLine
 10
17.405158
 20
88.664437
 30
0.0
 11
17.287305
 21
88.366565
 31
0.0
  0
LINE
  5
C634
100
AcDbEntity
  8
TEXTE
100
AcDbLine
 10
17.249588
 20
88.813374
 30
0.0
 11
17.309889
 21
89.036778
 31
0.0
  0
LINE
  5
C635
100
AcDbEntity
  8
TEXTE
100
AcDbLine
 10
16.734836
 20
90.972948
 30
0.0
 11
16.681935
 21
90.749544
 31
0.0
  0
LINE
  5
C636
100
AcDbEntity
  8
TEXTE
100
AcDbLine
 10
17.46911
 20
88.96231
 30
0.0
 11
17.405158
 21
88.664437
 31
0.0
  0
LINE
  5
C637
100
AcDbEntity
  8
TEXTE
100
AcDbLine
 10
17.309889
 20
89.036778
 30
0.0
 11
17.345427
 21
89.33465
 31
0.0
  0
POLYLINE
  5
C638
100
AcDbEntity
  8
TEXTE
100
AcDb2dPolyline
 66
     1
 10
0.0
 20
0.0
 30
0.0
  0
VERTEX
  5
CA1E
100
AcDbEntity
  8
TEXTE
100
AcDbVertex
100
AcDb2dVertex
 10
17.507502
 20
89.33465
 30
0.0
  0
VERTEX
  5
CA1F
100
AcDbEntity
  8
TEXTE
100
AcDbVertex
100
AcDb2dVertex
 10
17.478815
 20
89.055443
 30
0.0
  0
VERTEX
  5
CA20
100
AcDbEntity
  8
TEXTE
100
AcDbVertex
100
AcDb2dVertex
 10
17.46911
 20
88.96231
 30
0.0
  0
SEQEND
  5
CA21
100
AcDbEntity
  8
TEXTE
  0
LINE
  5
C639
100
AcDbEntity
  8
TEXTE
100
AcDbLine
 10
16.681935
 20
90.749544
 30
0.0
 11
16.652171
 21
90.451672
 31
0.0
  0
LINE
  5
C63A
100
AcDbEntity
  8
TEXTE
100
AcDbLine
 10
16.50576
 20
90.451672
 30
0.0
 11
16.536208
 21
90.824012
 31
0.0
  0
LINE
  5
C63B
100
AcDbEntity
  8
TEXTE
100
AcDbLine
 10
17.517499
 20
89.707013
 30
0.0
 11
17.507502
 21
89.33465
 31
0.0
  0
LINE
  5
C63C
100
AcDbEntity
  8
TEXTE
100
AcDbLine
 10
17.345427
 20
89.33465
 30
0.0
 11
17.355375
 21
89.707013
 31
0.0
  0
LINE
  5
C63D
100
AcDbEntity
  8
TEXTE
100
AcDbLine
 10
16.636179
 20
89.707005
 30
0.0
 11
16.62644
 21
89.33465
 31
0.0
  0
LINE
  5
C63E
100
AcDbEntity
  8
TEXTE
100
AcDbLine
 10
16.480138
 20
89.33465
 30
0.0
 11
16.489836
 21
89.707005
 31
0.0
  0
POLYLINE
  5
C63F
100
AcDbEntity
  8
TEXTE
100
AcDb2dPolyline
 66
     1
 10
0.0
 20
0.0
 30
0.0
  0
VERTEX
  5
CA22
100
AcDbEntity
  8
TEXTE
100
AcDbVertex
100
AcDb2dVertex
 10
17.907216
 20
89.70699
 30
0.0
  0
VERTEX
  5
CA23
100
AcDbEntity
  8
TEXTE
100
AcDbVertex
100
AcDb2dVertex
 10
17.900264
 20
89.446399
 30
0.0
  0
VERTEX
  5
CA24
100
AcDbEntity
  8
TEXTE
100
AcDbVertex
100
AcDb2dVertex
 10
17.89272
 20
89.185788
 30
0.0
  0
VERTEX
  5
CA25
100
AcDbEntity
  8
TEXTE
100
AcDbVertex
100
AcDb2dVertex
 10
17.884584
 20
88.925157
 30
0.0
  0
VERTEX
  5
CA26
100
AcDbEntity
  8
TEXTE
100
AcDbVertex
100
AcDb2dVertex
 10
17.875857
 20
88.664507
 30
0.0
  0
VERTEX
  5
CA27
100
AcDbEntity
  8
TEXTE
100
AcDbVertex
100
AcDb2dVertex
 10
17.866539
 20
88.403842
 30
0.0
  0
VERTEX
  5
CA28
100
AcDbEntity
  8
TEXTE
100
AcDbVertex
100
AcDb2dVertex
 10
17.856629
 20
88.143161
 30
0.0
  0
SEQEND
  5
CA29
100
AcDbEntity
  8
TEXTE
  0
LINE
  5
C640
100
AcDbEntity
  8
TEXTE
100
AcDbLine
 10
17.526304
 20
90.079355
 30
0.0
 11
17.517499
 21
89.707013
 31
0.0
  0
LINE
  5
C641
100
AcDbEntity
  8
TEXTE
100
AcDbLine
 10
17.355375
 20
89.707013
 30
0.0
 11
17.364137
 21
90.079355
 31
0.0
  0
LINE
  5
C642
100
AcDbEntity
  8
TEXTE
100
AcDbLine
 10
16.644756
 20
90.079347
 30
0.0
 11
16.636179
 21
89.707005
 31
0.0
  0
LINE
  5
C643
100
AcDbEntity
  8
TEXTE
100
AcDbLine
 10
17.533916
 20
90.451672
 30
0.0
 11
17.526304
 21
90.079355
 31
0.0
  0
LINE
  5
C644
100
AcDbEntity
  8
TEXTE
100
AcDbLine
 10
17.364137
 20
90.079355
 30
0.0
 11
17.371712
 21
90.451672
 31
0.0
  0
LINE
  5
C645
100
AcDbEntity
  8
TEXTE
100
AcDbLine
 10
17.925225
 20
90.526158
 30
0.0
 11
17.917763
 21
90.153799
 31
0.0
  0
LINE
  5
C646
100
AcDbEntity
  8
TEXTE
100
AcDbLine
 10
17.93148
 20
90.8985
 30
0.0
 11
17.925225
 21
90.526158
 31
0.0
  0
LINE
  5
C647
100
AcDbEntity
  8
TEXTE
100
AcDbLine
 10
16.489836
 20
89.707005
 30
0.0
 11
16.498376
 21
90.079347
 31
0.0
  0
LINE
  5
C648
100
AcDbEntity
  8
TEXTE
100
AcDbLine
 10
16.652171
 20
90.451672
 30
0.0
 11
16.644756
 21
90.079347
 31
0.0
  0
LINE
  5
C649
100
AcDbEntity
  8
TEXTE
100
AcDbLine
 10
16.498376
 20
90.079347
 30
0.0
 11
16.50576
 21
90.451672
 31
0.0
  0
LINE
  5
C64A
100
AcDbEntity
  8
TEXTE
100
AcDbLine
 10
16.493476
 20
88.96231
 30
0.0
 11
16.480138
 21
89.33465
 31
0.0
  0
LINE
  5
C64B
100
AcDbEntity
  8
TEXTE
100
AcDbLine
 10
16.62644
 20
89.33465
 30
0.0
 11
16.642452
 21
89.036778
 31
0.0
  0
POLYLINE
  5
C64C
100
AcDbEntity
  8
TEXTE
100
AcDb2dPolyline
 66
     1
 10
0.0
 20
0.0
 30
0.0
  0
VERTEX
  5
CA2A
100
AcDbEntity
  8
TEXTE
100
AcDbVertex
100
AcDb2dVertex
 10
17.513096
 20
90.824012
 30
0.0
  0
VERTEX
  5
CA2B
100
AcDbEntity
  8
TEXTE
100
AcDbVertex
100
AcDb2dVertex
 10
17.528819
 20
90.544711
 30
0.0
  0
VERTEX
  5
CA2C
100
AcDbEntity
  8
TEXTE
100
AcDbVertex
100
AcDb2dVertex
 10
17.533916
 20
90.451672
 30
0.0
  0
SEQEND
  5
CA2D
100
AcDbEntity
  8
TEXTE
  0
LINE
  5
C64D
100
AcDbEntity
  8
TEXTE
100
AcDbLine
 10
17.371712
 20
90.451672
 30
0.0
 11
17.350161
 21
90.749544
 31
0.0
  0
LINE
  5
C64E
100
AcDbEntity
  8
TEXTE
100
AcDbLine
 10
16.532543
 20
88.664437
 30
0.0
 11
16.493476
 21
88.96231
 31
0.0
  0
LINE
  5
C64F
100
AcDbEntity
  8
TEXTE
100
AcDbLine
 10
16.642452
 20
89.036778
 30
0.0
 11
16.684981
 21
88.813374
 31
0.0
  0
LINE
  5
C650
100
AcDbEntity
  8
TEXTE
100
AcDbLine
 10
17.350161
 20
90.749544
 30
0.0
 11
17.300284
 21
90.972948
 31
0.0
  0
LINE
  5
C651
100
AcDbEntity
  8
TEXTE
100
AcDbLine
 10
16.620309
 20
88.366565
 30
0.0
 11
16.532543
 21
88.664437
 31
0.0
  0
LINE
  5
C652
100
AcDbEntity
  8
TEXTE
100
AcDbLine
 10
16.684981
 20
88.813374
 30
0.0
 11
16.754893
 21
88.664437
 31
0.0
  0
LINE
  5
C653
100
AcDbEntity
  8
TEXTE
100
AcDbLine
 10
16.714102
 20
88.217629
 30
0.0
 11
16.620309
 21
88.366565
 31
0.0
  0
LINE
  5
C654
100
AcDbEntity
  8
TEXTE
100
AcDbLine
 10
16.853156
 20
88.58997
 30
0.0
 11
17.058398
 21
88.58997
 31
0.0
  0
LINE
  5
C655
100
AcDbEntity
  8
TEXTE
100
AcDbLine
 10
17.042177
 20
88.143161
 30
0.0
 11
16.837033
 21
88.143161
 31
0.0
  0
LINE
  5
C656
100
AcDbEntity
  8
TEXTE
100
AcDbLine
 10
17.856629
 20
88.143161
 30
0.0
 11
17.687885
 21
88.143161
 31
0.0
  0
LINE
  5
C657
100
AcDbEntity
  8
TEXTE
100
AcDbLine
 10
16.754893
 20
88.664437
 30
0.0
 11
16.853156
 21
88.58997
 31
0.0
  0
POLYLINE
  5
C658
100
AcDbEntity
  8
TEXTE
100
AcDb2dPolyline
 66
     1
 10
0.0
 20
0.0
 30
0.0
  0
VERTEX
  5
CA2E
100
AcDbEntity
  8
TEXTE
100
AcDbVertex
100
AcDb2dVertex
 10
16.837033
 20
88.143161
 30
0.0
  0
VERTEX
  5
CA2F
100
AcDbEntity
  8
TEXTE
100
AcDbVertex
100
AcDb2dVertex
 10
16.74471
 20
88.198983
 30
0.0
  0
VERTEX
  5
CA30
100
AcDbEntity
  8
TEXTE
100
AcDbVertex
100
AcDb2dVertex
 10
16.714102
 20
88.217629
 30
0.0
  0
SEQEND
  5
CA31
100
AcDbEntity
  8
TEXTE
  0
LINE
  5
C659
100
AcDbEntity
  8
TEXTE
100
AcDbLine
 10
18.58542
 20
89.781459
 30
0.0
 11
18.432563
 21
89.70699
 31
0.0
  0
LINE
  5
C65A
100
AcDbEntity
  8
TEXTE
100
AcDbLine
 10
18.473301
 20
90.153799
 30
0.0
 11
18.565516
 21
90.228268
 31
0.0
  0
LINE
  5
C65B
100
AcDbEntity
  8
TEXTE
100
AcDbLine
 10
18.713266
 20
90.004863
 30
0.0
 11
18.58542
 21
89.781459
 31
0.0
  0
LINE
  5
C65C
100
AcDbEntity
  8
TEXTE
100
AcDbLine
 10
18.565516
 20
90.228268
 30
0.0
 11
18.62946
 21
90.377203
 31
0.0
  0
LINE
  5
C65D
100
AcDbEntity
  8
TEXTE
100
AcDbLine
 10
18.812639
 20
90.302735
 30
0.0
 11
18.713266
 21
90.004863
 31
0.0
  0
LINE
  5
C65E
100
AcDbEntity
  8
TEXTE
100
AcDbLine
 10
18.848199
 20
90.526139
 30
0.0
 11
18.812639
 21
90.302735
 31
0.0
  0
LINE
  5
C65F
100
AcDbEntity
  8
TEXTE
100
AcDbLine
 10
18.62946
 20
90.377203
 30
0.0
 11
18.664304
 21
90.600608
 31
0.0
  0
POLYLINE
  5
C660
100
AcDbEntity
  8
TEXTE
100
AcDb2dPolyline
 66
     1
 10
0.0
 20
0.0
 30
0.0
  0
VERTEX
  5
CA32
100
AcDbEntity
  8
TEXTE
100
AcDbVertex
100
AcDb2dVertex
 10
19.2766
 20
89.781459
 30
0.0
  0
VERTEX
  5
CA33
100
AcDbEntity
  8
TEXTE
100
AcDbVertex
100
AcDb2dVertex
 10
19.271262
 20
89.582916
 30
0.0
  0
VERTEX
  5
CA34
100
AcDbEntity
  8
TEXTE
100
AcDbVertex
100
AcDb2dVertex
 10
19.265565
 20
89.384357
 30
0.0
  0
VERTEX
  5
CA35
100
AcDbEntity
  8
TEXTE
100
AcDbVertex
100
AcDb2dVertex
 10
19.259511
 20
89.185782
 30
0.0
  0
VERTEX
  5
CA36
100
AcDbEntity
  8
TEXTE
100
AcDbVertex
100
AcDb2dVertex
 10
19.253098
 20
88.987192
 30
0.0
  0
VERTEX
  5
CA37
100
AcDbEntity
  8
TEXTE
100
AcDbVertex
100
AcDb2dVertex
 10
19.246326
 20
88.788588
 30
0.0
  0
VERTEX
  5
CA38
100
AcDbEntity
  8
TEXTE
100
AcDbVertex
100
AcDb2dVertex
 10
19.239197
 20
88.58997
 30
0.0
  0
SEQEND
  5
CA39
100
AcDbEntity
  8
TEXTE
  0
LINE
  5
C661
100
AcDbEntity
  8
TEXTE
100
AcDbLine
 10
20.15908
 20
90.004872
 30
0.0
 11
20.15334
 21
89.781459
 31
0.0
  0
LINE
  5
C662
100
AcDbEntity
  8
TEXTE
100
AcDbLine
 10
20.164354
 20
90.228268
 30
0.0
 11
20.15908
 21
90.004872
 31
0.0
  0
LINE
  5
C663
100
AcDbEntity
  8
TEXTE
100
AcDbLine
 10
19.293909
 20
90.550984
 30
0.0
 11
19.287305
 21
90.228268
 31
0.0
  0
LINE
  5
C664
100
AcDbEntity
  8
TEXTE
100
AcDbLine
 10
19.299567
 20
90.87368
 30
0.0
 11
19.293909
 21
90.550984
 31
0.0
  0
LINE
  5
C665
100
AcDbEntity
  8
TEXTE
100
AcDbLine
 10
18.853448
 20
90.824012
 30
0.0
 11
18.848199
 21
90.526139
 31
0.0
  0
LINE
  5
C666
100
AcDbEntity
  8
TEXTE
100
AcDbLine
 10
18.664304
 20
90.600608
 30
0.0
 11
18.668144
 21
90.824012
 31
0.0
  0
LINE
  5
C667
100
AcDbEntity
  8
TEXTE
100
AcDbLine
 10
18.668144
 20
90.824012
 30
0.0
 11
18.640969
 21
91.047416
 31
0.0
  0
LINE
  5
C668
100
AcDbEntity
  8
TEXTE
100
AcDbLine
 10
18.825749
 20
91.047416
 30
0.0
 11
18.853448
 21
90.824012
 31
0.0
  0
LINE
  5
C669
100
AcDbEntity
  8
TEXTE
100
AcDbLine
 10
19.287304
 20
90.228268
 30
0.0
 11
20.164353
 21
90.228268
 31
0.0
  0
LINE
  5
C66A
100
AcDbEntity
  8
TEXTE
100
AcDbLine
 10
20.15334
 20
89.781459
 30
0.0
 11
19.2766
 21
89.781459
 31
0.0
  0
LINE
  5
C66B
100
AcDbEntity
  8
ALPHA
100
AcDbLine
 10
19.535311
 20
96.393161
 30
0.0
 11
15.701983
 21
96.393161
 31
0.0
  0
LINE
  5
C66C
100
AcDbEntity
  8
ALPHA
100
AcDbLine
 10
19.576957
 20
94.893161
 30
0.0
 11
15.739061
 21
94.893161
 31
0.0
  0
POLYLINE
  5
C66D
100
AcDbEntity
  8
ALPHA
100
AcDb2dPolyline
 66
     1
 10
0.0
 20
0.0
 30
0.0
  0
VERTEX
  5
CA3A
100
AcDbEntity
  8
ALPHA
100
AcDbVertex
100
AcDb2dVertex
 10
14.835354
 20
91.443173
 30
0.0
  0
VERTEX
  5
CA3B
100
AcDbEntity
  8
ALPHA
100
AcDbVertex
100
AcDb2dVertex
 10
14.835354
 20
93.843149
 30
0.0
  0
VERTEX
  5
CA3C
100
AcDbEntity
  8
ALPHA
100
AcDbVertex
100
AcDb2dVertex
 10
14.789097
 20
96.243161
 30
0.0
  0
SEQEND
  5
CA3D
100
AcDbEntity
  8
ALPHA
  0
POLYLINE
  5
C66E
100
AcDbEntity
  8
ALPHA
100
AcDb2dPolyline
 66
     1
 10
0.0
 20
0.0
 30
0.0
  0
VERTEX
  5
CA3E
100
AcDbEntity
  8
ALPHA
100
AcDbVertex
100
AcDb2dVertex
 10
15.739061
 20
94.893161
 30
0.0
  0
VERTEX
  5
CA3F
100
AcDbEntity
  8
ALPHA
100
AcDbVertex
100
AcDb2dVertex
 10
15.728762
 20
95.393143
 30
0.0
  0
VERTEX
  5
CA40
100
AcDbEntity
  8
ALPHA
100
AcDbVertex
100
AcDb2dVertex
 10
15.716403
 20
95.893142
 30
0.0
  0
VERTEX
  5
CA41
100
AcDbEntity
  8
ALPHA
100
AcDbVertex
100
AcDb2dVertex
 10
15.701983
 20
96.393161
 30
0.0
  0
SEQEND
  5
CA42
100
AcDbEntity
  8
ALPHA
  0
LINE
  5
C66F
100
AcDbEntity
  8
ALPHA
100
AcDbLine
 10
15.002696
 20
96.743161
 30
0.0
 11
15.063077
 21
94.009794
 31
0.0
  0
POLYLINE
  5
C670
100
AcDbEntity
  8
ALPHA
100
AcDb2dPolyline
 66
     1
 10
0.0
 20
0.0
 30
0.0
  0
VERTEX
  5
CA43
100
AcDbEntity
  8
ALPHA
100
AcDbVertex
100
AcDb2dVertex
 10
19.535311
 20
96.393161
 30
0.0
  0
VERTEX
  5
CA44
100
AcDbEntity
  8
ALPHA
100
AcDbVertex
100
AcDb2dVertex
 10
19.513504
 20
96.976299
 30
0.0
  0
VERTEX
  5
CA45
100
AcDbEntity
  8
ALPHA
100
AcDbVertex
100
AcDb2dVertex
 10
19.488546
 20
97.559624
 30
0.0
  0
VERTEX
  5
CA46
100
AcDbEntity
  8
ALPHA
100
AcDbVertex
100
AcDb2dVertex
 10
19.460433
 20
98.143161
 30
0.0
  0
SEQEND
  5
CA47
100
AcDbEntity
  8
ALPHA
  0
LINE
  5
C671
100
AcDbEntity
  8
TEXTE
100
AcDbLine
 10
17.771199
 20
91.643161
 30
0.0
 11
18.46626
 21
91.643161
 31
0.0
  0
LINE
  5
C672
100
AcDbEntity
  8
TEXTE
100
AcDbLine
 10
18.492391
 20
91.270821
 30
0.0
 11
17.936529
 21
91.270821
 31
0.0
  0
POLYLINE
  5
C673
100
AcDbEntity
  8
TEXTE
100
AcDb2dPolyline
 66
     1
 10
0.0
 20
0.0
 30
0.0
  0
VERTEX
  5
CA48
100
AcDbEntity
  8
TEXTE
100
AcDbVertex
100
AcDb2dVertex
 10
16.791576
 20
91.568693
 30
0.0
  0
VERTEX
  5
CA49
100
AcDbEntity
  8
TEXTE
100
AcDbVertex
100
AcDb2dVertex
 10
16.886457
 20
91.624574
 30
0.0
  0
VERTEX
  5
CA4A
100
AcDbEntity
  8
TEXTE
100
AcDbVertex
100
AcDb2dVertex
 10
16.918251
 20
91.643161
 30
0.0
  0
SEQEND
  5
CA4B
100
AcDbEntity
  8
TEXTE
  0
LINE
  5
C674
100
AcDbEntity
  8
TEXTE
100
AcDbLine
 10
16.913638
 20
91.196352
 30
0.0
 11
16.81175
 21
91.121885
 31
0.0
  0
LINE
  5
C675
100
AcDbEntity
  8
TEXTE
100
AcDbLine
 10
16.690691
 20
91.419757
 30
0.0
 11
16.791576
 21
91.568693
 31
0.0
  0
LINE
  5
C676
100
AcDbEntity
  8
TEXTE
100
AcDbLine
 10
16.58903
 20
91.121885
 30
0.0
 11
16.690691
 21
91.419757
 31
0.0
  0
LINE
  5
C677
100
AcDbEntity
  8
TEXTE
100
AcDbLine
 10
17.359092
 20
91.419757
 30
0.0
 11
17.463125
 21
91.121885
 31
0.0
  0
LINE
  5
C678
100
AcDbEntity
  8
TEXTE
100
AcDbLine
 10
17.254289
 20
91.568693
 30
0.0
 11
17.359092
 21
91.419757
 31
0.0
  0
LINE
  5
C679
100
AcDbEntity
  8
TEXTE
100
AcDbLine
 10
16.918251
 20
91.643161
 30
0.0
 11
17.12389
 21
91.643161
 31
0.0
  0
LINE
  5
C67A
100
AcDbEntity
  8
TEXTE
100
AcDbLine
 10
17.119249
 20
91.196352
 30
0.0
 11
16.913638
 21
91.196352
 31
0.0
  0
LINE
  5
C67B
100
AcDbEntity
  8
TEXTE
100
AcDbLine
 10
17.222981
 20
91.121885
 30
0.0
 11
17.119249
 21
91.196352
 31
0.0
  0
POLYLINE
  5
C67C
100
AcDbEntity
  8
TEXTE
100
AcDb2dPolyline
 66
     1
 10
0.0
 20
0.0
 30
0.0
  0
VERTEX
  5
CA4C
100
AcDbEntity
  8
TEXTE
100
AcDbVertex
100
AcDb2dVertex
 10
17.123889
 20
91.643161
 30
0.0
  0
VERTEX
  5
CA4D
100
AcDbEntity
  8
TEXTE
100
AcDbVertex
100
AcDb2dVertex
 10
17.156364
 20
91.624513
 30
0.0
  0
VERTEX
  5
CA4E
100
AcDbEntity
  8
TEXTE
100
AcDbVertex
100
AcDb2dVertex
 10
17.254289
 20
91.568693
 30
0.0
  0
SEQEND
  5
CA4F
100
AcDbEntity
  8
TEXTE
  0
POLYLINE
  5
C67D
100
AcDbEntity
  8
ALPHA
100
AcDb2dPolyline
 66
     1
 10
0.0
 20
0.0
 30
0.0
  0
VERTEX
  5
CA50
100
AcDbEntity
  8
ALPHA
100
AcDbVertex
100
AcDb2dVertex
 10
19.59923
 20
93.143161
 30
0.0
  0
VERTEX
  5
CA51
100
AcDbEntity
  8
ALPHA
100
AcDbVertex
100
AcDb2dVertex
 10
19.594955
 20
93.726438
 30
0.0
  0
VERTEX
  5
CA52
100
AcDbEntity
  8
ALPHA
100
AcDbVertex
100
AcDb2dVertex
 10
19.587531
 20
94.309763
 30
0.0
  0
VERTEX
  5
CA53
100
AcDbEntity
  8
ALPHA
100
AcDbVertex
100
AcDb2dVertex
 10
19.576957
 20
94.893161
 30
0.0
  0
SEQEND
  5
CA54
100
AcDbEntity
  8
ALPHA
  0
LINE
  5
C67E
100
AcDbEntity
  8
TEXTE
100
AcDbLine
 10
18.616673
 20
91.568693
 30
0.0
 11
18.736795
 21
91.345288
 31
0.0
  0
LINE
  5
C67F
100
AcDbEntity
  8
ALPHA
100
AcDbLine
 10
19.976913
 20
93.143161
 30
0.0
 11
19.59923
 21
93.143161
 31
0.0
  0
LINE
  5
C680
100
AcDbEntity
  8
TEXTE
100
AcDbLine
 10
18.582108
 20
91.196352
 30
0.0
 11
18.492392
 21
91.270821
 31
0.0
  0
LINE
  5
C681
100
AcDbEntity
  8
TEXTE
100
AcDbLine
 10
18.46626
 20
91.643161
 30
0.0
 11
18.616673
 21
91.568693
 31
0.0
  0
LINE
  5
C682
100
AcDbEntity
  8
ALPHA
100
AcDbLine
 10
19.837782
 20
98.143161
 30
0.0
 11
19.460433
 21
98.143161
 31
0.0
  0
LINE
  5
C683
100
AcDbEntity
  8
ALPHA
100
AcDbLine
 10
14.462239
 20
108.993161
 30
0.0
 11
14.462239
 21
107.843161
 31
0.0
  0
LINE
  5
C684
100
AcDbEntity
  8
ALPHA
100
AcDbLine
 10
14.162079
 20
108.993161
 30
0.0
 11
14.162079
 21
107.843161
 31
0.0
  0
LINE
  5
C685
100
AcDbEntity
  8
ALPHA
100
AcDbLine
 10
14.475499
 20
107.843161
 30
0.0
 11
14.475499
 21
104.843161
 31
0.0
  0
LINE
  5
C686
100
AcDbEntity
  8
ALPHA
100
AcDbLine
 10
14.443341
 20
104.843161
 30
0.0
 11
14.443341
 21
103.143161
 31
0.0
  0
LINE
  5
C687
100
AcDbEntity
  8
ALPHA
100
AcDbLine
 10
14.175226
 20
107.843161
 30
0.0
 11
14.175226
 21
104.843161
 31
0.0
  0
LINE
  5
C688
100
AcDbEntity
  8
ALPHA
100
AcDbLine
 10
14.143341
 20
107.843161
 30
0.0
 11
14.143341
 21
104.843161
 31
0.0
  0
LINE
  5
C689
100
AcDbEntity
  8
ALPHA
100
AcDbLine
 10
14.475499
 20
107.843161
 30
0.0
 11
14.175226
 21
107.843161
 31
0.0
  0
LINE
  5
C68A
100
AcDbEntity
  8
ALPHA
100
AcDbLine
 10
14.144227
 20
107.843161
 30
0.0
 11
14.143342
 21
107.843161
 31
0.0
  0
LINE
  5
C68B
100
AcDbEntity
  8
ALPHA
100
AcDbLine
 10
14.475499
 20
104.843161
 30
0.0
 11
14.143342
 21
104.843161
 31
0.0
  0
LINE
  5
C68C
100
AcDbEntity
  8
ALPHA
100
AcDbLine
 10
14.143894
 20
110.143161
 30
0.0
 11
14.443898
 21
110.143161
 31
0.0
  0
LINE
  5
C68D
100
AcDbEntity
  8
ALPHA
100
AcDbLine
 10
14.462239
 20
108.993161
 30
0.0
 11
14.162079
 21
108.993161
 31
0.0
  0
LINE
  5
C68E
100
AcDbEntity
  8
ALPHA
100
AcDbLine
 10
14.460035
 20
109.385874
 30
0.0
 11
14.462239
 21
108.993161
 31
0.0
  0
LINE
  5
C68F
100
AcDbEntity
  8
ALPHA
100
AcDbLine
 10
14.159893
 20
109.385862
 30
0.0
 11
14.162079
 21
108.993161
 31
0.0
  0
POLYLINE
  5
C690
100
AcDbEntity
  8
ALPHA
100
AcDb2dPolyline
 66
     1
 10
0.0
 20
0.0
 30
0.0
  0
VERTEX
  5
CA55
100
AcDbEntity
  8
ALPHA
100
AcDbVertex
100
AcDb2dVertex
 10
14.143341
 20
110.143329
 30
0.0
  0
VERTEX
  5
CA56
100
AcDbEntity
  8
ALPHA
100
AcDbVertex
100
AcDb2dVertex
 10
14.148051
 20
109.98818
 30
0.0
  0
VERTEX
  5
CA57
100
AcDbEntity
  8
ALPHA
100
AcDbVertex
100
AcDb2dVertex
 10
14.154307
 20
109.733748
 30
0.0
  0
VERTEX
  5
CA58
100
AcDbEntity
  8
ALPHA
100
AcDbVertex
100
AcDb2dVertex
 10
14.159893
 20
109.385862
 30
0.0
  0
SEQEND
  5
CA59
100
AcDbEntity
  8
ALPHA
  0
POLYLINE
  5
C691
100
AcDbEntity
  8
ALPHA
100
AcDb2dPolyline
 66
     1
 10
0.0
 20
0.0
 30
0.0
  0
VERTEX
  5
CA5A
100
AcDbEntity
  8
ALPHA
100
AcDbVertex
100
AcDb2dVertex
 10
14.443341
 20
110.143328
 30
0.0
  0
VERTEX
  5
CA5B
100
AcDbEntity
  8
ALPHA
100
AcDbVertex
100
AcDb2dVertex
 10
14.448091
 20
109.988194
 30
0.0
  0
VERTEX
  5
CA5C
100
AcDbEntity
  8
ALPHA
100
AcDbVertex
100
AcDb2dVertex
 10
14.4544
 20
109.733786
 30
0.0
  0
VERTEX
  5
CA5D
100
AcDbEntity
  8
ALPHA
100
AcDbVertex
100
AcDb2dVertex
 10
14.460035
 20
109.385874
 30
0.0
  0
SEQEND
  5
CA5E
100
AcDbEntity
  8
ALPHA
  0
LINE
  5
C692
100
AcDbEntity
  8
ALPHA
100
AcDbLine
 10
19.456719
 20
109.093161
 30
0.0
 11
19.456719
 21
107.843161
 31
0.0
  0
LINE
  5
C693
100
AcDbEntity
  8
ALPHA
100
AcDbLine
 10
19.107101
 20
109.093161
 30
0.0
 11
19.107101
 21
107.843161
 31
0.0
  0
LINE
  5
C694
100
AcDbEntity
  8
ALPHA
100
AcDbLine
 10
18.872645
 20
109.093161
 30
0.0
 11
18.872645
 21
107.843161
 31
0.0
  0
LINE
  5
C695
100
AcDbEntity
  8
ALPHA
100
AcDbLine
 10
18.496977
 20
109.093161
 30
0.0
 11
18.496977
 21
107.843161
 31
0.0
  0
LINE
  5
C696
100
AcDbEntity
  8
ALPHA
100
AcDbLine
 10
18.158081
 20
109.093161
 30
0.0
 11
18.158081
 21
107.843161
 31
0.0
  0
LINE
  5
C697
100
AcDbEntity
  8
ALPHA
100
AcDbLine
 10
17.952271
 20
109.093161
 30
0.0
 11
17.952271
 21
107.843161
 31
0.0
  0
LINE
  5
C698
100
AcDbEntity
  8
ALPHA
100
AcDbLine
 10
18.657346
 20
104.843161
 30
0.0
 11
17.016694
 21
104.843161
 31
0.0
  0
LINE
  5
C699
100
AcDbEntity
  8
ALPHA
100
AcDbLine
 10
17.016694
 20
107.843161
 30
0.0
 11
17.016694
 21
104.843161
 31
0.0
  0
LINE
  5
C69A
100
AcDbEntity
  8
ALPHA
100
AcDbLine
 10
17.952271
 20
107.843161
 30
0.0
 11
17.016694
 21
107.843161
 31
0.0
  0
LINE
  5
C69B
100
AcDbEntity
  8
ALPHA
100
AcDbLine
 10
18.657346
 20
107.843161
 30
0.0
 11
18.657346
 21
104.843161
 31
0.0
  0
LINE
  5
C69C
100
AcDbEntity
  8
ALPHA
100
AcDbLine
 10
18.316705
 20
107.843161
 30
0.0
 11
18.316705
 21
104.843161
 31
0.0
  0
LINE
  5
C69D
100
AcDbEntity
  8
ALPHA
100
AcDbLine
 10
18.657346
 20
107.843161
 30
0.0
 11
18.158081
 21
107.843161
 31
0.0
  0
LINE
  5
C69E
100
AcDbEntity
  8
ALPHA
100
AcDbLine
 10
19.456719
 20
107.843161
 30
0.0
 11
18.872645
 21
107.843161
 31
0.0
  0
POLYLINE
  5
C69F
100
AcDbEntity
  8
ALPHA
100
AcDb2dPolyline
 66
     1
 10
0.0
 20
0.0
 30
0.0
  0
VERTEX
  5
CA5F
100
AcDbEntity
  8
ALPHA
100
AcDbVertex
100
AcDb2dVertex
 10
18.07114
 20
109.752158
 30
0.0
  0
VERTEX
  5
CA60
100
AcDbEntity
  8
ALPHA
100
AcDbVertex
100
AcDb2dVertex
 10
18.217423
 20
109.995483
 30
0.0
  0
VERTEX
  5
CA61
100
AcDbEntity
  8
ALPHA
100
AcDbVertex
100
AcDb2dVertex
 10
18.407523
 20
110.127387
 30
0.0
  0
VERTEX
  5
CA62
100
AcDbEntity
  8
ALPHA
100
AcDbVertex
100
AcDb2dVertex
 10
18.506469
 20
110.143241
 30
0.0
  0
SEQEND
  5
CA63
100
AcDbEntity
  8
ALPHA
  0
LINE
  5
C6A0
100
AcDbEntity
  8
ALPHA
100
AcDbLine
 10
17.980122
 20
109.428144
 30
0.0
 11
18.07114
 21
109.752158
 31
0.0
  0
LINE
  5
C6A1
100
AcDbEntity
  8
ALPHA
100
AcDbLine
 10
17.952271
 20
109.093161
 30
0.0
 11
17.980122
 21
109.428144
 31
0.0
  0
POLYLINE
  5
C6A2
100
AcDbEntity
  8
ALPHA
100
AcDb2dPolyline
 66
     1
 10
0.0
 20
0.0
 30
0.0
  0
VERTEX
  5
CA64
100
AcDbEntity
  8
ALPHA
100
AcDbVertex
100
AcDb2dVertex
 10
18.506498
 20
109.743161
 30
0.0
  0
VERTEX
  5
CA65
100
AcDbEntity
  8
ALPHA
100
AcDbVertex
100
AcDb2dVertex
 10
18.368067
 20
109.691337
 30
0.0
  0
VERTEX
  5
CA66
100
AcDbEntity
  8
ALPHA
100
AcDbVertex
100
AcDb2dVertex
 10
18.253388
 20
109.543294
 30
0.0
  0
VERTEX
  5
CA67
100
AcDbEntity
  8
ALPHA
100
AcDbVertex
100
AcDb2dVertex
 10
18.180701
 20
109.326196
 30
0.0
  0
VERTEX
  5
CA68
100
AcDbEntity
  8
ALPHA
100
AcDbVertex
100
AcDb2dVertex
 10
18.158081
 20
109.093161
 30
0.0
  0
SEQEND
  5
CA69
100
AcDbEntity
  8
ALPHA
  0
LINE
  5
C6A3
100
AcDbEntity
  8
ALPHA
100
AcDbLine
 10
18.679299
 20
109.653068
 30
0.0
 11
18.593256
 21
109.54315
 31
0.0
  0
LINE
  5
C6A4
100
AcDbEntity
  8
ALPHA
100
AcDbLine
 10
18.593256
 20
109.54315
 30
0.0
 11
18.519775
 21
109.325855
 31
0.0
  0
LINE
  5
C6A5
100
AcDbEntity
  8
ALPHA
100
AcDbLine
 10
18.519775
 20
109.325855
 30
0.0
 11
18.496977
 21
109.093161
 31
0.0
  0
LINE
  5
C6A6
100
AcDbEntity
  8
ALPHA
100
AcDbLine
 10
18.50717
 20
110.143161
 30
0.0
 11
18.849937
 21
110.143161
 31
0.0
  0
LINE
  5
C6A7
100
AcDbEntity
  8
ALPHA
100
AcDbLine
 10
18.496977
 20
109.093161
 30
0.0
 11
18.158081
 21
109.093161
 31
0.0
  0
LINE
  5
C6A8
100
AcDbEntity
  8
ALPHA
100
AcDbLine
 10
19.456719
 20
109.093161
 30
0.0
 11
19.107101
 21
109.093161
 31
0.0
  0
LINE
  5
C6A9
100
AcDbEntity
  8
ALPHA
100
AcDbLine
 10
19.075991
 20
109.420682
 30
0.0
 11
19.107101
 21
109.093161
 31
0.0
  0
LINE
  5
C6AA
100
AcDbEntity
  8
ALPHA
100
AcDbLine
 10
18.872645
 20
109.093161
 30
0.0
 11
18.84839
 21
109.323227
 31
0.0
  0
LINE
  5
C6AB
100
AcDbEntity
  8
ALPHA
100
AcDbLine
 10
18.84839
 20
109.323227
 30
0.0
 11
18.770223
 21
109.54069
 31
0.0
  0
POLYLINE
  5
C6AC
100
AcDbEntity
  8
ALPHA
100
AcDb2dPolyline
 66
     1
 10
0.0
 20
0.0
 30
0.0
  0
VERTEX
  5
CA6A
100
AcDbEntity
  8
ALPHA
100
AcDbVertex
100
AcDb2dVertex
 10
18.812258
 20
109.990648
 30
0.0
  0
VERTEX
  5
CA6B
100
AcDbEntity
  8
ALPHA
100
AcDbVertex
100
AcDb2dVertex
 10
18.973223
 20
109.745122
 30
0.0
  0
VERTEX
  5
CA6C
100
AcDbEntity
  8
ALPHA
100
AcDbVertex
100
AcDb2dVertex
 10
19.075991
 20
109.420682
 30
0.0
  0
SEQEND
  5
CA6D
100
AcDbEntity
  8
ALPHA
  0
POLYLINE
  5
C6AD
100
AcDbEntity
  8
ALPHA
100
AcDb2dPolyline
 66
     1
 10
0.0
 20
0.0
 30
0.0
  0
VERTEX
  5
CA6E
100
AcDbEntity
  8
ALPHA
100
AcDbVertex
100
AcDb2dVertex
 10
18.506469
 20
110.143241
 30
0.0
  0
VERTEX
  5
CA6F
100
AcDbEntity
  8
ALPHA
100
AcDbVertex
100
AcDb2dVertex
 10
18.612011
 20
110.125704
 30
0.0
  0
VERTEX
  5
CA70
100
AcDbEntity
  8
ALPHA
100
AcDbVertex
100
AcDb2dVertex
 10
18.812258
 20
109.990648
 30
0.0
  0
SEQEND
  5
CA71
100
AcDbEntity
  8
ALPHA
  0
POLYLINE
  5
C6AE
100
AcDbEntity
  8
ALPHA
100
AcDb2dPolyline
 66
     1
 10
0.0
 20
0.0
 30
0.0
  0
VERTEX
  5
CA72
100
AcDbEntity
  8
ALPHA
100
AcDbVertex
100
AcDb2dVertex
 10
18.849222
 20
110.143236
 30
0.0
  0
VERTEX
  5
CA73
100
AcDbEntity
  8
ALPHA
100
AcDbVertex
100
AcDb2dVertex
 10
18.956072
 20
110.125665
 30
0.0
  0
VERTEX
  5
CA74
100
AcDbEntity
  8
ALPHA
100
AcDbVertex
100
AcDb2dVertex
 10
19.158677
 20
109.990435
 30
0.0
  0
VERTEX
  5
CA75
100
AcDbEntity
  8
ALPHA
100
AcDbVertex
100
AcDb2dVertex
 10
19.321515
 20
109.744638
 30
0.0
  0
VERTEX
  5
CA76
100
AcDbEntity
  8
ALPHA
100
AcDbVertex
100
AcDb2dVertex
 10
19.425393
 20
109.419943
 30
0.0
  0
VERTEX
  5
CA77
100
AcDbEntity
  8
ALPHA
100
AcDbVertex
100
AcDb2dVertex
 10
19.456719
 20
109.093161
 30
0.0
  0
SEQEND
  5
CA78
100
AcDbEntity
  8
ALPHA
  0
POLYLINE
  5
C6AF
100
AcDbEntity
  8
ALPHA
100
AcDb2dPolyline
 66
     1
 10
0.0
 20
0.0
 30
0.0
  0
VERTEX
  5
CA79
100
AcDbEntity
  8
ALPHA
100
AcDbVertex
100
AcDb2dVertex
 10
18.770223
 20
109.54069
 30
0.0
  0
VERTEX
  5
CA7A
100
AcDbEntity
  8
ALPHA
100
AcDbVertex
100
AcDb2dVertex
 10
18.649536
 20
109.689852
 30
0.0
  0
VERTEX
  5
CA7B
100
AcDbEntity
  8
ALPHA
100
AcDbVertex
100
AcDb2dVertex
 10
18.506498
 20
109.743161
 30
0.0
  0
SEQEND
  5
CA7C
100
AcDbEntity
  8
ALPHA
  0
LINE
  5
C6B0
100
AcDbEntity
  8
ALPHA
100
AcDbLine
 10
41.046853
 20
82.155563
 30
0.0
 11
32.963681
 21
82.155563
 31
0.0
  0
POLYLINE
  5
C6B1
100
AcDbEntity
  8
TEXTE
100
AcDb2dPolyline
 66
     1
 10
0.0
 20
0.0
 30
0.0
  0
VERTEX
  5
CA7D
100
AcDbEntity
  8
TEXTE
100
AcDbVertex
100
AcDb2dVertex
 10
20.52421
 20
88.143161
 30
0.0
  0
VERTEX
  5
CA7E
100
AcDbEntity
  8
TEXTE
100
AcDbVertex
100
AcDb2dVertex
 10
20.540081
 20
88.532296
 30
0.0
  0
VERTEX
  5
CA7F
100
AcDbEntity
  8
TEXTE
100
AcDbVertex
100
AcDb2dVertex
 10
20.554516
 20
88.921373
 30
0.0
  0
VERTEX
  5
CA80
100
AcDbEntity
  8
TEXTE
100
AcDbVertex
100
AcDb2dVertex
 10
20.567517
 20
89.310396
 30
0.0
  0
VERTEX
  5
CA81
100
AcDbEntity
  8
TEXTE
100
AcDbVertex
100
AcDb2dVertex
 10
20.579084
 20
89.699367
 30
0.0
  0
VERTEX
  5
CA82
100
AcDbEntity
  8
TEXTE
100
AcDbVertex
100
AcDb2dVertex
 10
20.589216
 20
90.088277
 30
0.0
  0
VERTEX
  5
CA83
100
AcDbEntity
  8
TEXTE
100
AcDbVertex
100
AcDb2dVertex
 10
20.597915
 20
90.477115
 30
0.0
  0
VERTEX
  5
CA84
100
AcDbEntity
  8
TEXTE
100
AcDbVertex
100
AcDb2dVertex
 10
20.60518
 20
90.865874
 30
0.0
  0
VERTEX
  5
CA85
100
AcDbEntity
  8
TEXTE
100
AcDbVertex
100
AcDb2dVertex
 10
20.611011
 20
91.254555
 30
0.0
  0
VERTEX
  5
CA86
100
AcDbEntity
  8
TEXTE
100
AcDbVertex
100
AcDb2dVertex
 10
20.61541
 20
91.643161
 30
0.0
  0
SEQEND
  5
CA87
100
AcDbEntity
  8
TEXTE
  0
POLYLINE
  5
C6B2
100
AcDbEntity
  8
TEXTE
100
AcDb2dPolyline
 66
     1
 10
0.0
 20
0.0
 30
0.0
  0
VERTEX
  5
CA88
100
AcDbEntity
  8
TEXTE
100
AcDbVertex
100
AcDb2dVertex
 10
21.843485
 20
88.664437
 30
0.0
  0
VERTEX
  5
CA89
100
AcDbEntity
  8
TEXTE
100
AcDbVertex
100
AcDb2dVertex
 10
21.855992
 20
88.995623
 30
0.0
  0
VERTEX
  5
CA8A
100
AcDbEntity
  8
TEXTE
100
AcDbVertex
100
AcDb2dVertex
 10
21.867413
 20
89.326756
 30
0.0
  0
VERTEX
  5
CA8B
100
AcDbEntity
  8
TEXTE
100
AcDbVertex
100
AcDb2dVertex
 10
21.877747
 20
89.657842
 30
0.0
  0
VERTEX
  5
CA8C
100
AcDbEntity
  8
TEXTE
100
AcDbVertex
100
AcDb2dVertex
 10
21.886995
 20
89.988879
 30
0.0
  0
VERTEX
  5
CA8D
100
AcDbEntity
  8
TEXTE
100
AcDbVertex
100
AcDb2dVertex
 10
21.895157
 20
90.319863
 30
0.0
  0
VERTEX
  5
CA8E
100
AcDbEntity
  8
TEXTE
100
AcDbVertex
100
AcDb2dVertex
 10
21.902233
 20
90.650786
 30
0.0
  0
VERTEX
  5
CA8F
100
AcDbEntity
  8
TEXTE
100
AcDbVertex
100
AcDb2dVertex
 10
21.908223
 20
90.981642
 30
0.0
  0
VERTEX
  5
CA90
100
AcDbEntity
  8
TEXTE
100
AcDbVertex
100
AcDb2dVertex
 10
21.913128
 20
91.312433
 30
0.0
  0
VERTEX
  5
CA91
100
AcDbEntity
  8
TEXTE
100
AcDbVertex
100
AcDb2dVertex
 10
21.916948
 20
91.643161
 30
0.0
  0
SEQEND
  5
CA92
100
AcDbEntity
  8
TEXTE
  0
POLYLINE
  5
C6B3
100
AcDbEntity
  8
TEXTE
100
AcDb2dPolyline
 66
     1
 10
0.0
 20
0.0
 30
0.0
  0
VERTEX
  5
CA93
100
AcDbEntity
  8
TEXTE
100
AcDbVertex
100
AcDb2dVertex
 10
20.830261
 20
91.196352
 30
0.0
  0
VERTEX
  5
CA94
100
AcDbEntity
  8
TEXTE
100
AcDbVertex
100
AcDb2dVertex
 10
20.825029
 20
90.857341
 30
0.0
  0
VERTEX
  5
CA95
100
AcDbEntity
  8
TEXTE
100
AcDbVertex
100
AcDb2dVertex
 10
20.818699
 20
90.51827
 30
0.0
  0
VERTEX
  5
CA96
100
AcDbEntity
  8
TEXTE
100
AcDbVertex
100
AcDb2dVertex
 10
20.811269
 20
90.179135
 30
0.0
  0
VERTEX
  5
CA97
100
AcDbEntity
  8
TEXTE
100
AcDbVertex
100
AcDb2dVertex
 10
20.802741
 20
89.839935
 30
0.0
  0
VERTEX
  5
CA98
100
AcDbEntity
  8
TEXTE
100
AcDbVertex
100
AcDb2dVertex
 10
20.793113
 20
89.500678
 30
0.0
  0
VERTEX
  5
CA99
100
AcDbEntity
  8
TEXTE
100
AcDbVertex
100
AcDb2dVertex
 10
20.782386
 20
89.161368
 30
0.0
  0
VERTEX
  5
CA9A
100
AcDbEntity
  8
TEXTE
100
AcDbVertex
100
AcDb2dVertex
 10
20.770559
 20
88.822013
 30
0.0
  0
VERTEX
  5
CA9B
100
AcDbEntity
  8
TEXTE
100
AcDbVertex
100
AcDb2dVertex
 10
20.757632
 20
88.482612
 30
0.0
  0
VERTEX
  5
CA9C
100
AcDbEntity
  8
TEXTE
100
AcDbVertex
100
AcDb2dVertex
 10
20.743606
 20
88.143161
 30
0.0
  0
SEQEND
  5
CA9D
100
AcDbEntity
  8
TEXTE
  0
POLYLINE
  5
C6B4
100
AcDbEntity
  8
TEXTE
100
AcDb2dPolyline
 66
     1
 10
0.0
 20
0.0
 30
0.0
  0
VERTEX
  5
CA9E
100
AcDbEntity
  8
TEXTE
100
AcDbVertex
100
AcDb2dVertex
 10
22.161
 20
91.643161
 30
0.0
  0
VERTEX
  5
CA9F
100
AcDbEntity
  8
TEXTE
100
AcDbVertex
100
AcDb2dVertex
 10
22.156362
 20
91.254644
 30
0.0
  0
VERTEX
  5
CAA0
100
AcDbEntity
  8
TEXTE
100
AcDbVertex
100
AcDb2dVertex
 10
22.150214
 20
90.866029
 30
0.0
  0
VERTEX
  5
CAA1
100
AcDbEntity
  8
TEXTE
100
AcDbVertex
100
AcDb2dVertex
 10
22.142554
 20
90.477313
 30
0.0
  0
VERTEX
  5
CAA2
100
AcDbEntity
  8
TEXTE
100
AcDbVertex
100
AcDb2dVertex
 10
22.133382
 20
90.088494
 30
0.0
  0
VERTEX
  5
CAA3
100
AcDbEntity
  8
TEXTE
100
AcDbVertex
100
AcDb2dVertex
 10
22.122698
 20
89.699582
 30
0.0
  0
VERTEX
  5
CAA4
100
AcDbEntity
  8
TEXTE
100
AcDbVertex
100
AcDb2dVertex
 10
22.110502
 20
89.310588
 30
0.0
  0
VERTEX
  5
CAA5
100
AcDbEntity
  8
TEXTE
100
AcDbVertex
100
AcDb2dVertex
 10
22.096792
 20
88.921521
 30
0.0
  0
VERTEX
  5
CAA6
100
AcDbEntity
  8
TEXTE
100
AcDbVertex
100
AcDb2dVertex
 10
22.08157
 20
88.53238
 30
0.0
  0
VERTEX
  5
CAA7
100
AcDbEntity
  8
TEXTE
100
AcDbVertex
100
AcDb2dVertex
 10
22.064834
 20
88.143161
 30
0.0
  0
SEQEND
  5
CAA8
100
AcDbEntity
  8
TEXTE
  0
POLYLINE
  5
C6B5
100
AcDbEntity
  8
TEXTE
100
AcDb2dPolyline
 66
     1
 10
0.0
 20
0.0
 30
0.0
  0
VERTEX
  5
CAA9
100
AcDbEntity
  8
TEXTE
100
AcDbVertex
100
AcDb2dVertex
 10
21.701661
 20
88.143161
 30
0.0
  0
VERTEX
  5
CAAA
100
AcDbEntity
  8
TEXTE
100
AcDbVertex
100
AcDb2dVertex
 10
21.559388
 20
88.647387
 30
0.0
  0
VERTEX
  5
CAAB
100
AcDbEntity
  8
TEXTE
100
AcDbVertex
100
AcDb2dVertex
 10
21.415924
 20
89.153467
 30
0.0
  0
VERTEX
  5
CAAC
100
AcDbEntity
  8
TEXTE
100
AcDbVertex
100
AcDb2dVertex
 10
21.271274
 20
89.661403
 30
0.0
  0
VERTEX
  5
CAAD
100
AcDbEntity
  8
TEXTE
100
AcDbVertex
100
AcDb2dVertex
 10
21.125443
 20
90.171196
 30
0.0
  0
VERTEX
  5
CAAE
100
AcDbEntity
  8
TEXTE
100
AcDbVertex
100
AcDb2dVertex
 10
20.978438
 20
90.682845
 30
0.0
  0
VERTEX
  5
CAAF
100
AcDbEntity
  8
TEXTE
100
AcDbVertex
100
AcDb2dVertex
 10
20.830261
 20
91.196352
 30
0.0
  0
SEQEND
  5
CAB0
100
AcDbEntity
  8
TEXTE
  0
POLYLINE
  5
C6B6
100
AcDbEntity
  8
TEXTE
100
AcDb2dPolyline
 66
     1
 10
0.0
 20
0.0
 30
0.0
  0
VERTEX
  5
CAB1
100
AcDbEntity
  8
TEXTE
100
AcDbVertex
100
AcDb2dVertex
 10
20.947012
 20
91.643161
 30
0.0
  0
VERTEX
  5
CAB2
100
AcDbEntity
  8
TEXTE
100
AcDbVertex
100
AcDb2dVertex
 10
21.098823
 20
91.142755
 30
0.0
  0
VERTEX
  5
CAB3
100
AcDbEntity
  8
TEXTE
100
AcDbVertex
100
AcDb2dVertex
 10
21.249681
 20
90.643931
 30
0.0
  0
VERTEX
  5
CAB4
100
AcDbEntity
  8
TEXTE
100
AcDbVertex
100
AcDb2dVertex
 10
21.399581
 20
90.146688
 30
0.0
  0
VERTEX
  5
CAB5
100
AcDbEntity
  8
TEXTE
100
AcDbVertex
100
AcDb2dVertex
 10
21.548518
 20
89.651026
 30
0.0
  0
VERTEX
  5
CAB6
100
AcDbEntity
  8
TEXTE
100
AcDbVertex
100
AcDb2dVertex
 10
21.696488
 20
89.156943
 30
0.0
  0
VERTEX
  5
CAB7
100
AcDbEntity
  8
TEXTE
100
AcDbVertex
100
AcDb2dVertex
 10
21.843485
 20
88.664437
 30
0.0
  0
SEQEND
  5
CAB8
100
AcDbEntity
  8
TEXTE
  0
LINE
  5
C6B7
100
AcDbEntity
  8
TEXTE
100
AcDbLine
 10
20.246922
 20
88.366581
 30
0.0
 11
20.237723
 21
88.143161
 31
0.0
  0
LINE
  5
C6B8
100
AcDbEntity
  8
TEXTE
100
AcDbLine
 10
20.255652
 20
88.58997
 30
0.0
 11
20.246922
 21
88.366581
 31
0.0
  0
LINE
  5
C6B9
100
AcDbEntity
  8
TEXTE
100
AcDbLine
 10
20.743606
 20
88.143161
 30
0.0
 11
20.524211
 21
88.143161
 31
0.0
  0
LINE
  5
C6BA
100
AcDbEntity
  8
TEXTE
100
AcDbLine
 10
22.064834
 20
88.143161
 30
0.0
 11
21.701661
 21
88.143161
 31
0.0
  0
LINE
  5
C6BB
100
AcDbEntity
  8
TEXTE
100
AcDbLine
 10
20.325725
 20
91.419761
 30
0.0
 11
20.322925
 21
91.196352
 31
0.0
  0
LINE
  5
C6BC
100
AcDbEntity
  8
TEXTE
100
AcDbLine
 10
20.328057
 20
91.643161
 30
0.0
 11
20.325725
 21
91.419761
 31
0.0
  0
LINE
  5
C6BD
100
AcDbEntity
  8
TEXTE
100
AcDbLine
 10
21.916948
 20
91.643161
 30
0.0
 11
22.161001
 21
91.643161
 31
0.0
  0
LINE
  5
C6BE
100
AcDbEntity
  8
TEXTE
100
AcDbLine
 10
20.61541
 20
91.643161
 30
0.0
 11
20.947012
 21
91.643161
 31
0.0
  0
LINE
  5
C6BF
100
AcDbEntity
  8
ALPHA
100
AcDbLine
 10
23.559767
 20
95.643161
 30
0.0
 11
23.132036
 21
95.643161
 31
0.0
  0
LINE
  5
C6C0
100
AcDbEntity
  8
ALPHA
100
AcDbLine
 10
33.429089
 20
82.143161
 30
0.0
 11
33.433251
 21
82.155563
 31
0.0
  0
POLYLINE
  5
C6C1
100
AcDbEntity
  8
ALPHA
100
AcDb2dPolyline
 66
     1
 10
0.0
 20
0.0
 30
0.0
  0
VERTEX
  5
CAB9
100
AcDbEntity
  8
ALPHA
100
AcDbVertex
100
AcDb2dVertex
 10
32.963681
 20
82.155563
 30
0.0
  0
VERTEX
  5
CABA
100
AcDbEntity
  8
ALPHA
100
AcDbVertex
100
AcDb2dVertex
 10
32.995023
 20
82.146273
 30
0.0
  0
VERTEX
  5
CABB
100
AcDbEntity
  8
ALPHA
100
AcDbVertex
100
AcDb2dVertex
 10
33.026585
 20
82.143161
 30
0.0
  0
SEQEND
  5
CABC
100
AcDbEntity
  8
ALPHA
  0
LINE
  5
C6C2
100
AcDbEntity
  8
ALPHA
100
AcDbLine
 10
33.026585
 20
82.143161
 30
0.0
 11
33.429089
 21
82.143161
 31
0.0
  0
POLYLINE
  5
C6C3
100
AcDbEntity
  8
ALPHA
100
AcDb2dPolyline
 66
     1
 10
0.0
 20
0.0
 30
0.0
  0
VERTEX
  5
CABD
100
AcDbEntity
  8
ALPHA
100
AcDbVertex
100
AcDb2dVertex
 10
41.068689
 20
82.143161
 30
0.0
  0
VERTEX
  5
CABE
100
AcDbEntity
  8
ALPHA
100
AcDbVertex
100
AcDb2dVertex
 10
41.057731
 20
82.146274
 30
0.0
  0
VERTEX
  5
CABF
100
AcDbEntity
  8
ALPHA
100
AcDbVertex
100
AcDb2dVertex
 10
41.046853
 20
82.155563
 30
0.0
  0
SEQEND
  5
CAC0
100
AcDbEntity
  8
ALPHA
  0
LINE
  5
C6C4
100
AcDbEntity
  8
ALPHA
100
AcDbLine
 10
16.943341
 20
247.765787
 30
0.0
 11
16.943341
 21
213.343161
 31
0.0
  0
ARC
  5
C6C5
100
AcDbEntity
  8
ALPHA
100
AcDbCircle
 10
12.893341
 20
199.793161
 30
0.0
 40
1.45
100
AcDbArc
 50
170.445784
 51
270.0
  0
ARC
  5
C6C6
100
AcDbEntity
  8
ALPHA
100
AcDbCircle
 10
12.893341
 20
211.893161
 30
0.0
 40
1.45
100
AcDbArc
 50
90.0
 51
189.554216
  0
ARC
  5
C6C7
100
AcDbEntity
  8
ALPHA
100
AcDbCircle
 10
-23.05106
 20
205.843161
 30
0.0
 40
35.0
100
AcDbArc
 50
350.445784
 51
9.554216
  0
ARC
  5
C6C8
100
AcDbEntity
  8
ALPHA
100
AcDbCircle
 10
49.443341
 20
218.718412
 30
0.0
 40
45.0
100
AcDbArc
 50
92.278622
 51
133.432537
  0
ARC
  5
C6C9
100
AcDbEntity
  8
ALPHA
100
AcDbCircle
 10
21.943341
 20
247.765787
 30
0.0
 40
5.0
100
AcDbArc
 50
133.432537
 51
180.0
  0
LINE
  5
C6CA
100
AcDbEntity
  8
ALPHA
100
AcDbLine
 10
47.693947
 20
263.683621
 30
0.0
 11
51.192736
 21
263.683621
 31
0.0
  0
LINE
  5
C6CB
100
AcDbEntity
  8
ALPHA
100
AcDbLine
 10
47.654188
 20
263.68283
 30
0.0
 11
51.232495
 21
263.68283
 31
0.0
  0
LINE
  5
C6CC
100
AcDbEntity
  8
ALPHA
100
AcDbLine
 10
47.654188
 20
263.68283
 30
0.0
 11
47.693947
 21
263.683621
 31
0.0
  0
LINE
  5
C6CD
100
AcDbEntity
  8
ALPHA
100
AcDbLine
 10
51.232495
 20
263.68283
 30
0.0
 11
51.192736
 21
263.683621
 31
0.0
  0
LINE
  5
C6CE
100
AcDbEntity
  8
ALPHA
100
AcDbLine
 10
84.443341
 20
198.343161
 30
0.0
 11
84.443341
 21
103.143161
 31
0.0
  0
LINE
  5
C6CF
100
AcDbEntity
  8
ALPHA
100
AcDbLine
 10
84.393341
 20
34.343161
 30
0.0
 11
82.393341
 21
32.343161
 31
0.0
  0
LINE
  5
C6D0
100
AcDbEntity
  8
ALPHA
100
AcDbLine
 10
84.099244
 20
96.743161
 30
0.0
 11
87.504891
 21
96.743161
 31
0.0
  0
LINE
  5
C6D1
100
AcDbEntity
  8
ALPHA
100
AcDbLine
 10
87.491047
 20
96.243161
 30
0.0
 11
84.624648
 21
96.243161
 31
0.0
  0
LINE
  5
C6D2
100
AcDbEntity
  8
ALPHA
100
AcDbLine
 10
87.491047
 20
89.043161
 30
0.0
 11
84.624648
 21
89.043161
 31
0.0
  0
LINE
  5
C6D3
100
AcDbEntity
  8
ALPHA
100
AcDbLine
 10
84.099244
 20
88.543161
 30
0.0
 11
87.504891
 21
88.543161
 31
0.0
  0
LINE
  5
C6D4
100
AcDbEntity
  8
ALPHA
100
AcDbLine
 10
84.393341
 20
82.143161
 30
0.0
 11
84.393341
 21
62.343161
 31
0.0
  0
POLYLINE
  5
C6D5
100
AcDbEntity
  8
ALPHA
100
AcDb2dPolyline
 66
     1
 10
0.0
 20
0.0
 30
0.0
  0
VERTEX
  5
CAC1
100
AcDbEntity
  8
ALPHA
100
AcDbVertex
100
AcDb2dVertex
 10
82.792067
 20
52.783901
 30
0.0
  0
VERTEX
  5
CAC2
100
AcDbEntity
  8
ALPHA
100
AcDbVertex
100
AcDb2dVertex
 10
82.901152
 20
54.701939
 30
0.0
  0
VERTEX
  5
CAC3
100
AcDbEntity
  8
ALPHA
100
AcDbVertex
100
AcDb2dVertex
 10
83.10857
 20
56.543704
 30
0.0
  0
VERTEX
  5
CAC4
100
AcDbEntity
  8
ALPHA
100
AcDbVertex
100
AcDb2dVertex
 10
83.387057
 20
58.240294
 30
0.0
  0
VERTEX
  5
CAC5
100
AcDbEntity
  8
ALPHA
100
AcDbVertex
100
AcDb2dVertex
 10
83.695155
 20
59.712989
 30
0.0
  0
VERTEX
  5
CAC6
100
AcDbEntity
  8
ALPHA
100
AcDbVertex
100
AcDb2dVertex
 10
83.985104
 20
60.891965
 30
0.0
  0
VERTEX
  5
CAC7
100
AcDbEntity
  8
ALPHA
100
AcDbVertex
100
AcDb2dVertex
 10
84.2148
 20
61.732642
 30
0.0
  0
VERTEX
  5
CAC8
100
AcDbEntity
  8
ALPHA
100
AcDbVertex
100
AcDb2dVertex
 10
84.355406
 20
62.21619
 30
0.0
  0
VERTEX
  5
CAC9
100
AcDbEntity
  8
ALPHA
100
AcDbVertex
100
AcDb2dVertex
 10
84.39327
 20
62.343161
 30
0.0
  0
SEQEND
  5
CACA
100
AcDbEntity
  8
ALPHA
  0
POLYLINE
  5
C6D6
100
AcDbEntity
  8
ALPHA
100
AcDb2dPolyline
 66
     1
 10
0.0
 20
0.0
 30
0.0
  0
VERTEX
  5
CACB
100
AcDbEntity
  8
ALPHA
100
AcDbVertex
100
AcDb2dVertex
 10
82.793791
 20
50.84316
 30
0.0
  0
VERTEX
  5
CACC
100
AcDbEntity
  8
ALPHA
100
AcDbVertex
100
AcDb2dVertex
 10
82.891782
 20
49.096216
 30
0.0
  0
VERTEX
  5
CACD
100
AcDbEntity
  8
ALPHA
100
AcDbVertex
100
AcDb2dVertex
 10
83.072678
 20
47.40697
 30
0.0
  0
VERTEX
  5
CACE
100
AcDbEntity
  8
ALPHA
100
AcDbVertex
100
AcDb2dVertex
 10
83.316957
 20
45.829065
 30
0.0
  0
VERTEX
  5
CACF
100
AcDbEntity
  8
ALPHA
100
AcDbVertex
100
AcDb2dVertex
 10
83.594951
 20
44.421573
 30
0.0
  0
VERTEX
  5
CAD0
100
AcDbEntity
  8
ALPHA
100
AcDbVertex
100
AcDb2dVertex
 10
83.870751
 20
43.241181
 30
0.0
  0
VERTEX
  5
CAD1
100
AcDbEntity
  8
ALPHA
100
AcDbVertex
100
AcDb2dVertex
 10
84.109644
 20
42.330009
 30
0.0
  0
VERTEX
  5
CAD2
100
AcDbEntity
  8
ALPHA
100
AcDbVertex
100
AcDb2dVertex
 10
84.284697
 20
41.710662
 30
0.0
  0
VERTEX
  5
CAD3
100
AcDbEntity
  8
ALPHA
100
AcDbVertex
100
AcDb2dVertex
 10
84.393158
 20
41.343161
 30
0.0
  0
SEQEND
  5
CAD4
100
AcDbEntity
  8
ALPHA
  0
LINE
  5
C6D7
100
AcDbEntity
  8
ALPHA
100
AcDbLine
 10
84.393341
 20
41.343161
 30
0.0
 11
84.393341
 21
34.343161
 31
0.0
  0
LINE
  5
C6D8
100
AcDbEntity
  8
ALPHA
100
AcDbLine
 10
82.893341
 20
49.081658
 30
0.0
 11
82.893341
 21
51.093223
 31
0.0
  0
LINE
  5
C6D9
100
AcDbEntity
  8
ALPHA
100
AcDbLine
 10
82.889881
 20
52.413992
 30
0.0
 11
82.893341
 21
52.593155
 31
0.0
  0
LINE
  5
C6DA
100
AcDbEntity
  8
ALPHA
100
AcDbLine
 10
82.893341
 20
52.593098
 30
0.0
 11
82.893341
 21
54.5646
 31
0.0
  0
LINE
  5
C6DB
100
AcDbEntity
  8
ALPHA
100
AcDbLine
 10
82.793791
 20
50.843161
 30
0.0
 11
82.792067
 21
52.783901
 31
0.0
  0
POLYLINE
  5
C6DC
100
AcDbEntity
  8
ALPHA
100
AcDb2dPolyline
 66
     1
 10
0.0
 20
0.0
 30
0.0
  0
VERTEX
  5
CAD5
100
AcDbEntity
  8
ALPHA
100
AcDbVertex
100
AcDb2dVertex
 10
82.893341
 20
51.093164
 30
0.0
  0
VERTEX
  5
CAD6
100
AcDbEntity
  8
ALPHA
100
AcDbVertex
100
AcDb2dVertex
 10
82.889972
 20
51.266896
 30
0.0
  0
VERTEX
  5
CAD7
100
AcDbEntity
  8
ALPHA
100
AcDbVertex
100
AcDb2dVertex
 10
82.887213
 20
51.464475
 30
0.0
  0
VERTEX
  5
CAD8
100
AcDbEntity
  8
ALPHA
100
AcDbVertex
100
AcDb2dVertex
 10
82.885382
 20
51.708157
 30
0.0
  0
VERTEX
  5
CAD9
100
AcDbEntity
  8
ALPHA
100
AcDbVertex
100
AcDb2dVertex
 10
82.885344
 20
51.968008
 30
0.0
  0
VERTEX
  5
CADA
100
AcDbEntity
  8
ALPHA
100
AcDbVertex
100
AcDb2dVertex
 10
82.887111
 20
52.212538
 30
0.0
  0
VERTEX
  5
CADB
100
AcDbEntity
  8
ALPHA
100
AcDbVertex
100
AcDb2dVertex
 10
82.889881
 20
52.413992
 30
0.0
  0
SEQEND
  5
CADC
100
AcDbEntity
  8
ALPHA
  0
LINE
  5
C6DD
100
AcDbEntity
  8
ALPHA
100
AcDbLine
 10
84.39327
 20
62.343161
 30
0.0
 11
84.391919
 21
62.338425
 31
0.0
  0
POLYLINE
  5
C6DE
100
AcDbEntity
  8
ALPHA
100
AcDb2dPolyline
 66
     1
 10
0.0
 20
0.0
 30
0.0
  0
VERTEX
  5
CADD
100
AcDbEntity
  8
ALPHA
100
AcDbVertex
100
AcDb2dVertex
 10
76.269346
 20
95.643161
 30
0.0
  0
VERTEX
  5
CADE
100
AcDbEntity
  8
ALPHA
100
AcDbVertex
100
AcDb2dVertex
 10
77.505283
 20
96.430317
 30
0.0
  0
VERTEX
  5
CADF
100
AcDbEntity
  8
ALPHA
100
AcDbVertex
100
AcDb2dVertex
 10
78.700857
 20
97.263742
 30
0.0
  0
VERTEX
  5
CAE0
100
AcDbEntity
  8
ALPHA
100
AcDbVertex
100
AcDb2dVertex
 10
79.851711
 20
98.143161
 30
0.0
  0
SEQEND
  5
CAE1
100
AcDbEntity
  8
ALPHA
  0
POLYLINE
  5
C6DF
100
AcDbEntity
  8
ALPHA
100
AcDb2dPolyline
 66
     1
 10
0.0
 20
0.0
 30
0.0
  0
VERTEX
  5
CAE2
100
AcDbEntity
  8
ALPHA
100
AcDbVertex
100
AcDb2dVertex
 10
76.697077
 20
95.643161
 30
0.0
  0
VERTEX
  5
CAE3
100
AcDbEntity
  8
ALPHA
100
AcDbVertex
100
AcDb2dVertex
 10
77.915779
 20
96.431459
 30
0.0
  0
VERTEX
  5
CAE4
100
AcDbEntity
  8
ALPHA
100
AcDbVertex
100
AcDb2dVertex
 10
79.09451
 20
97.264891
 30
0.0
  0
VERTEX
  5
CAE5
100
AcDbEntity
  8
ALPHA
100
AcDbVertex
100
AcDb2dVertex
 10
80.22906
 20
98.143161
 30
0.0
  0
SEQEND
  5
CAE6
100
AcDbEntity
  8
ALPHA
  0
POLYLINE
  5
C6E0
100
AcDbEntity
  8
TEXTE
100
AcDb2dPolyline
 66
     1
 10
0.0
 20
0.0
 30
0.0
  0
VERTEX
  5
CAE7
100
AcDbEntity
  8
TEXTE
100
AcDbVertex
100
AcDb2dVertex
 10
77.73177
 20
88.366565
 30
0.0
  0
VERTEX
  5
CAE8
100
AcDbEntity
  8
TEXTE
100
AcDbVertex
100
AcDb2dVertex
 10
77.617997
 20
88.254749
 30
0.0
  0
VERTEX
  5
CAE9
100
AcDbEntity
  8
TEXTE
100
AcDbVertex
100
AcDb2dVertex
 10
77.580008
 20
88.217629
 30
0.0
  0
SEQEND
  5
CAEA
100
AcDbEntity
  8
TEXTE
  0
LINE
  5
C6E1
100
AcDbEntity
  8
TEXTE
100
AcDbLine
 10
77.521261
 20
88.664437
 30
0.0
 11
77.634771
 21
88.813374
 31
0.0
  0
LINE
  5
C6E2
100
AcDbEntity
  8
TEXTE
100
AcDbLine
 10
77.618914
 20
90.749544
 30
0.0
 11
77.575317
 21
90.972948
 31
0.0
  0
POLYLINE
  5
C6E3
100
AcDbEntity
  8
TEXTE
100
AcDb2dPolyline
 66
     1
 10
0.0
 20
0.0
 30
0.0
  0
VERTEX
  5
CAEB
100
AcDbEntity
  8
TEXTE
100
AcDbVertex
100
AcDb2dVertex
 10
77.487491
 20
91.568693
 30
0.0
  0
VERTEX
  5
CAEC
100
AcDbEntity
  8
TEXTE
100
AcDbVertex
100
AcDb2dVertex
 10
77.607891
 20
91.45711
 30
0.0
  0
VERTEX
  5
CAED
100
AcDbEntity
  8
TEXTE
100
AcDbVertex
100
AcDb2dVertex
 10
77.647964
 20
91.419757
 30
0.0
  0
SEQEND
  5
CAEE
100
AcDbEntity
  8
TEXTE
  0
POLYLINE
  5
C6E4
100
AcDbEntity
  8
ALPHA
100
AcDb2dPolyline
 66
     1
 10
0.0
 20
0.0
 30
0.0
  0
VERTEX
  5
CAEF
100
AcDbEntity
  8
ALPHA
100
AcDbVertex
100
AcDb2dVertex
 10
80.090264
 20
93.143161
 30
0.0
  0
VERTEX
  5
CAF0
100
AcDbEntity
  8
ALPHA
100
AcDbVertex
100
AcDb2dVertex
 10
79.003008
 20
94.019892
 30
0.0
  0
VERTEX
  5
CAF1
100
AcDbEntity
  8
ALPHA
100
AcDbVertex
100
AcDb2dVertex
 10
77.870543
 20
94.853375
 30
0.0
  0
VERTEX
  5
CAF2
100
AcDbEntity
  8
ALPHA
100
AcDbVertex
100
AcDb2dVertex
 10
76.697077
 20
95.643161
 30
0.0
  0
SEQEND
  5
CAF3
100
AcDbEntity
  8
ALPHA
  0
POLYLINE
  5
C6E5
100
AcDbEntity
  8
ALPHA
100
AcDb2dPolyline
 66
     1
 10
0.0
 20
0.0
 30
0.0
  0
VERTEX
  5
CAF4
100
AcDbEntity
  8
ALPHA
100
AcDbVertex
100
AcDb2dVertex
 10
79.712581
 20
93.143161
 30
0.0
  0
VERTEX
  5
CAF5
100
AcDbEntity
  8
ALPHA
100
AcDbVertex
100
AcDb2dVertex
 10
78.60914
 20
94.021031
 30
0.0
  0
VERTEX
  5
CAF6
100
AcDbEntity
  8
ALPHA
100
AcDbVertex
100
AcDb2dVertex
 10
77.459942
 20
94.854508
 30
0.0
  0
VERTEX
  5
CAF7
100
AcDbEntity
  8
ALPHA
100
AcDbVertex
100
AcDb2dVertex
 10
76.269346
 20
95.643161
 30
0.0
  0
SEQEND
  5
CAF8
100
AcDbEntity
  8
ALPHA
  0
LINE
  5
C6E6
100
AcDbEntity
  8
TEXTE
100
AcDbLine
 10
76.75286
 20
91.121885
 30
0.0
 11
76.627591
 21
90.972948
 31
0.0
  0
LINE
  5
C6E7
100
AcDbEntity
  8
TEXTE
100
AcDbLine
 10
76.283405
 20
90.824012
 30
0.0
 11
76.365787
 21
91.121885
 31
0.0
  0
LINE
  5
C6E8
100
AcDbEntity
  8
TEXTE
100
AcDbLine
 10
77.575317
 20
90.972948
 30
0.0
 11
77.45331
 21
91.121885
 31
0.0
  0
POLYLINE
  5
C6E9
100
AcDbEntity
  8
TEXTE
100
AcDb2dPolyline
 66
     1
 10
0.0
 20
0.0
 30
0.0
  0
VERTEX
  5
CAF9
100
AcDbEntity
  8
TEXTE
100
AcDbVertex
100
AcDb2dVertex
 10
77.580008
 20
88.217629
 30
0.0
  0
VERTEX
  5
CAFA
100
AcDbEntity
  8
TEXTE
100
AcDbVertex
100
AcDb2dVertex
 10
77.432164
 20
88.161722
 30
0.0
  0
VERTEX
  5
CAFB
100
AcDbEntity
  8
TEXTE
100
AcDbVertex
100
AcDb2dVertex
 10
77.382686
 20
88.143161
 30
0.0
  0
SEQEND
  5
CAFC
100
AcDbEntity
  8
TEXTE
  0
LINE
  5
C6EA
100
AcDbEntity
  8
TEXTE
100
AcDbLine
 10
77.363368
 20
88.58997
 30
0.0
 11
77.521261
 21
88.664437
 31
0.0
  0
LINE
  5
C6EB
100
AcDbEntity
  8
TEXTE
100
AcDbLine
 10
76.627591
 20
90.972948
 30
0.0
 11
76.545875
 21
90.749544
 31
0.0
  0
LINE
  5
C6EC
100
AcDbEntity
  8
TEXTE
100
AcDbLine
 10
76.545875
 20
90.749544
 30
0.0
 11
76.509081
 21
90.451672
 31
0.0
  0
POLYLINE
  5
C6ED
100
AcDbEntity
  8
TEXTE
100
AcDb2dPolyline
 66
     1
 10
0.0
 20
0.0
 30
0.0
  0
VERTEX
  5
CAFD
100
AcDbEntity
  8
TEXTE
100
AcDbVertex
100
AcDb2dVertex
 10
76.247247
 20
90.451672
 30
0.0
  0
VERTEX
  5
CAFE
100
AcDbEntity
  8
TEXTE
100
AcDbVertex
100
AcDb2dVertex
 10
76.274231
 20
90.730837
 30
0.0
  0
VERTEX
  5
CAFF
100
AcDbEntity
  8
TEXTE
100
AcDbVertex
100
AcDb2dVertex
 10
76.283405
 20
90.824012
 30
0.0
  0
SEQEND
  5
CB00
100
AcDbEntity
  8
TEXTE
  0
POLYLINE
  5
C6EE
100
AcDbEntity
  8
TEXTE
100
AcDb2dPolyline
 66
     1
 10
0.0
 20
0.0
 30
0.0
  0
VERTEX
  5
CB01
100
AcDbEntity
  8
TEXTE
100
AcDbVertex
100
AcDb2dVertex
 10
76.509081
 20
90.451672
 30
0.0
  0
VERTEX
  5
CB02
100
AcDbEntity
  8
TEXTE
100
AcDbVertex
100
AcDb2dVertex
 10
76.513514
 20
90.265565
 30
0.0
  0
VERTEX
  5
CB03
100
AcDbEntity
  8
TEXTE
100
AcDbVertex
100
AcDb2dVertex
 10
76.518308
 20
90.079433
 30
0.0
  0
VERTEX
  5
CB04
100
AcDbEntity
  8
TEXTE
100
AcDbVertex
100
AcDb2dVertex
 10
76.523464
 20
89.893273
 30
0.0
  0
VERTEX
  5
CB05
100
AcDbEntity
  8
TEXTE
100
AcDbVertex
100
AcDb2dVertex
 10
76.528981
 20
89.707089
 30
0.0
  0
VERTEX
  5
CB06
100
AcDbEntity
  8
TEXTE
100
AcDbVertex
100
AcDb2dVertex
 10
76.53486
 20
89.520882
 30
0.0
  0
VERTEX
  5
CB07
100
AcDbEntity
  8
TEXTE
100
AcDbVertex
100
AcDb2dVertex
 10
76.5411
 20
89.33465
 30
0.0
  0
SEQEND
  5
CB08
100
AcDbEntity
  8
TEXTE
  0
POLYLINE
  5
C6EF
100
AcDbEntity
  8
TEXTE
100
AcDb2dPolyline
 66
     1
 10
0.0
 20
0.0
 30
0.0
  0
VERTEX
  5
CB09
100
AcDbEntity
  8
TEXTE
100
AcDbVertex
100
AcDb2dVertex
 10
76.337216
 20
88.96231
 30
0.0
  0
VERTEX
  5
CB0A
100
AcDbEntity
  8
TEXTE
100
AcDbVertex
100
AcDb2dVertex
 10
76.293862
 20
89.24167
 30
0.0
  0
VERTEX
  5
CB0B
100
AcDbEntity
  8
TEXTE
100
AcDbVertex
100
AcDb2dVertex
 10
76.27959
 20
89.33465
 30
0.0
  0
SEQEND
  5
CB0C
100
AcDbEntity
  8
TEXTE
  0
POLYLINE
  5
C6F0
100
AcDbEntity
  8
TEXTE
100
AcDb2dPolyline
 66
     1
 10
0.0
 20
0.0
 30
0.0
  0
VERTEX
  5
CB0D
100
AcDbEntity
  8
TEXTE
100
AcDbVertex
100
AcDb2dVertex
 10
76.27959
 20
89.33465
 30
0.0
  0
VERTEX
  5
CB0E
100
AcDbEntity
  8
TEXTE
100
AcDbVertex
100
AcDb2dVertex
 10
76.273286
 20
89.520887
 30
0.0
  0
VERTEX
  5
CB0F
100
AcDbEntity
  8
TEXTE
100
AcDbVertex
100
AcDb2dVertex
 10
76.267348
 20
89.707098
 30
0.0
  0
VERTEX
  5
CB10
100
AcDbEntity
  8
TEXTE
100
AcDbVertex
100
AcDb2dVertex
 10
76.261775
 20
89.893284
 30
0.0
  0
VERTEX
  5
CB11
100
AcDbEntity
  8
TEXTE
100
AcDbVertex
100
AcDb2dVertex
 10
76.256567
 20
90.079442
 30
0.0
  0
VERTEX
  5
CB12
100
AcDbEntity
  8
TEXTE
100
AcDbVertex
100
AcDb2dVertex
 10
76.251724
 20
90.265571
 30
0.0
  0
VERTEX
  5
CB13
100
AcDbEntity
  8
TEXTE
100
AcDbVertex
100
AcDb2dVertex
 10
76.247247
 20
90.451672
 30
0.0
  0
SEQEND
  5
CB14
100
AcDbEntity
  8
TEXTE
  0
LINE
  5
C6F1
100
AcDbEntity
  8
TEXTE
100
AcDbLine
 10
76.5411
 20
89.33465
 30
0.0
 11
76.594889
 21
89.036778
 31
0.0
  0
LINE
  5
C6F2
100
AcDbEntity
  8
TEXTE
100
AcDbLine
 10
76.436576
 20
88.664437
 30
0.0
 11
76.337216
 21
88.96231
 31
0.0
  0
LINE
  5
C6F3
100
AcDbEntity
  8
TEXTE
100
AcDbLine
 10
76.594889
 20
89.036778
 30
0.0
 11
76.689188
 21
88.813374
 31
0.0
  0
LINE
  5
C6F4
100
AcDbEntity
  8
TEXTE
100
AcDbLine
 10
76.622364
 20
88.366565
 30
0.0
 11
76.436576
 21
88.664437
 31
0.0
  0
LINE
  5
C6F5
100
AcDbEntity
  8
TEXTE
100
AcDbLine
 10
76.689188
 20
88.813374
 30
0.0
 11
76.822613
 21
88.664437
 31
0.0
  0
POLYLINE
  5
C6F6
100
AcDbEntity
  8
TEXTE
100
AcDb2dPolyline
 66
     1
 10
0.0
 20
0.0
 30
0.0
  0
VERTEX
  5
CB15
100
AcDbEntity
  8
TEXTE
100
AcDbVertex
100
AcDb2dVertex
 10
76.799688
 20
88.217629
 30
0.0
  0
VERTEX
  5
CB16
100
AcDbEntity
  8
TEXTE
100
AcDbVertex
100
AcDb2dVertex
 10
76.755397
 20
88.254996
 30
0.0
  0
VERTEX
  5
CB17
100
AcDbEntity
  8
TEXTE
100
AcDbVertex
100
AcDb2dVertex
 10
76.622364
 20
88.366565
 30
0.0
  0
SEQEND
  5
CB18
100
AcDbEntity
  8
TEXTE
  0
LINE
  5
C6F7
100
AcDbEntity
  8
TEXTE
100
AcDbLine
 10
76.822613
 20
88.664437
 30
0.0
 11
76.993586
 21
88.58997
 31
0.0
  0
LINE
  5
C6F8
100
AcDbEntity
  8
TEXTE
100
AcDbLine
 10
77.013172
 20
88.143161
 30
0.0
 11
76.799688
 21
88.217629
 31
0.0
  0
LINE
  5
C6F9
100
AcDbEntity
  8
TEXTE
100
AcDbLine
 10
76.993586
 20
88.58997
 30
0.0
 11
77.363368
 21
88.58997
 31
0.0
  0
LINE
  5
C6FA
100
AcDbEntity
  8
TEXTE
100
AcDbLine
 10
77.382686
 20
88.143161
 30
0.0
 11
77.013172
 21
88.143161
 31
0.0
  0
LINE
  5
C6FB
100
AcDbEntity
  8
TEXTE
100
AcDbLine
 10
76.704427
 20
91.568693
 30
0.0
 11
76.914466
 21
91.643161
 31
0.0
  0
LINE
  5
C6FC
100
AcDbEntity
  8
TEXTE
100
AcDbLine
 10
76.920075
 20
91.196352
 30
0.0
 11
76.75286
 21
91.121885
 31
0.0
  0
POLYLINE
  5
C6FD
100
AcDbEntity
  8
TEXTE
100
AcDb2dPolyline
 66
     1
 10
0.0
 20
0.0
 30
0.0
  0
VERTEX
  5
CB19
100
AcDbEntity
  8
TEXTE
100
AcDbVertex
100
AcDb2dVertex
 10
76.535001
 20
91.419757
 30
0.0
  0
VERTEX
  5
CB1A
100
AcDbEntity
  8
TEXTE
100
AcDbVertex
100
AcDb2dVertex
 10
76.577402
 20
91.456863
 30
0.0
  0
VERTEX
  5
CB1B
100
AcDbEntity
  8
TEXTE
100
AcDbVertex
100
AcDb2dVertex
 10
76.704427
 20
91.568693
 30
0.0
  0
SEQEND
  5
CB1C
100
AcDbEntity
  8
TEXTE
  0
LINE
  5
C6FE
100
AcDbEntity
  8
TEXTE
100
AcDbLine
 10
76.365787
 20
91.121885
 30
0.0
 11
76.535001
 21
91.419757
 31
0.0
  0
LINE
  5
C6FF
100
AcDbEntity
  8
TEXTE
100
AcDbLine
 10
77.45331
 20
91.121885
 30
0.0
 11
77.290868
 21
91.196352
 31
0.0
  0
POLYLINE
  5
C700
100
AcDbEntity
  8
TEXTE
100
AcDb2dPolyline
 66
     1
 10
0.0
 20
0.0
 30
0.0
  0
VERTEX
  5
CB1D
100
AcDbEntity
  8
TEXTE
100
AcDbVertex
100
AcDb2dVertex
 10
77.285336
 20
91.643161
 30
0.0
  0
VERTEX
  5
CB1E
100
AcDbEntity
  8
TEXTE
100
AcDbVertex
100
AcDb2dVertex
 10
77.4371
 20
91.587367
 30
0.0
  0
VERTEX
  5
CB1F
100
AcDbEntity
  8
TEXTE
100
AcDbVertex
100
AcDb2dVertex
 10
77.487491
 20
91.568693
 30
0.0
  0
SEQEND
  5
CB20
100
AcDbEntity
  8
TEXTE
  0
LINE
  5
C701
100
AcDbEntity
  8
ALPHA
100
AcDbLine
 10
76.269346
 20
95.643161
 30
0.0
 11
76.697077
 21
95.643161
 31
0.0
  0
LINE
  5
C702
100
AcDbEntity
  8
TEXTE
100
AcDbLine
 10
76.914467
 20
91.643161
 30
0.0
 11
77.285337
 21
91.643161
 31
0.0
  0
LINE
  5
C703
100
AcDbEntity
  8
TEXTE
100
AcDbLine
 10
77.290868
 20
91.196352
 30
0.0
 11
76.920076
 21
91.196352
 31
0.0
  0
LINE
  5
C704
100
AcDbEntity
  8
TEXTE
100
AcDbLine
 10
80.096181
 20
91.121885
 30
0.0
 11
80.002679
 21
90.972948
 31
0.0
  0
LINE
  5
C705
100
AcDbEntity
  8
TEXTE
100
AcDbLine
 10
81.539673
 20
91.121885
 30
0.0
 11
81.45954
 21
90.972948
 31
0.0
  0
LINE
  5
C706
100
AcDbEntity
  8
TEXTE
100
AcDbLine
 10
79.745558
 20
90.824012
 30
0.0
 11
79.806436
 21
91.121885
 31
0.0
  0
LINE
  5
C707
100
AcDbEntity
  8
TEXTE
100
AcDbLine
 10
81.266997
 20
90.824012
 30
0.0
 11
81.290708
 21
91.121885
 31
0.0
  0
POLYLINE
  5
C708
100
AcDbEntity
  8
ALPHA
100
AcDb2dPolyline
 66
     1
 10
0.0
 20
0.0
 30
0.0
  0
VERTEX
  5
CB21
100
AcDbEntity
  8
ALPHA
100
AcDbVertex
100
AcDb2dVertex
 10
84.624648
 20
96.243161
 30
0.0
  0
VERTEX
  5
CB22
100
AcDbEntity
  8
ALPHA
100
AcDbVertex
100
AcDb2dVertex
 10
84.578392
 20
93.843149
 30
0.0
  0
VERTEX
  5
CB23
100
AcDbEntity
  8
ALPHA
100
AcDbVertex
100
AcDb2dVertex
 10
84.578392
 20
91.443173
 30
0.0
  0
VERTEX
  5
CB24
100
AcDbEntity
  8
ALPHA
100
AcDbVertex
100
AcDb2dVertex
 10
84.624648
 20
89.043161
 30
0.0
  0
SEQEND
  5
CB25
100
AcDbEntity
  8
ALPHA
  0
LINE
  5
C709
100
AcDbEntity
  8
ALPHA
100
AcDbLine
 10
84.428502
 20
88.543161
 30
0.0
 11
84.368121
 21
91.276528
 31
0.0
  0
POLYLINE
  5
C70A
100
AcDbEntity
  8
TEXTE
100
AcDb2dPolyline
 66
     1
 10
0.0
 20
0.0
 30
0.0
  0
VERTEX
  5
CB26
100
AcDbEntity
  8
TEXTE
100
AcDbVertex
100
AcDb2dVertex
 10
78.372435
 20
91.643161
 30
0.0
  0
VERTEX
  5
CB27
100
AcDbEntity
  8
TEXTE
100
AcDbVertex
100
AcDb2dVertex
 10
78.376291
 20
91.30414
 30
0.0
  0
VERTEX
  5
CB28
100
AcDbEntity
  8
TEXTE
100
AcDbVertex
100
AcDb2dVertex
 10
78.381266
 20
90.965061
 30
0.0
  0
VERTEX
  5
CB29
100
AcDbEntity
  8
TEXTE
100
AcDbVertex
100
AcDb2dVertex
 10
78.38736
 20
90.625921
 30
0.0
  0
VERTEX
  5
CB2A
100
AcDbEntity
  8
TEXTE
100
AcDbVertex
100
AcDb2dVertex
 10
78.394574
 20
90.286719
 30
0.0
  0
VERTEX
  5
CB2B
100
AcDbEntity
  8
TEXTE
100
AcDbVertex
100
AcDb2dVertex
 10
78.402907
 20
89.94746
 30
0.0
  0
VERTEX
  5
CB2C
100
AcDbEntity
  8
TEXTE
100
AcDbVertex
100
AcDb2dVertex
 10
78.41236
 20
89.608153
 30
0.0
  0
VERTEX
  5
CB2D
100
AcDbEntity
  8
TEXTE
100
AcDbVertex
100
AcDb2dVertex
 10
78.422934
 20
89.268803
 30
0.0
  0
VERTEX
  5
CB2E
100
AcDbEntity
  8
TEXTE
100
AcDbVertex
100
AcDb2dVertex
 10
78.434627
 20
88.92941
 30
0.0
  0
VERTEX
  5
CB2F
100
AcDbEntity
  8
TEXTE
100
AcDbVertex
100
AcDb2dVertex
 10
78.44744
 20
88.58997
 30
0.0
  0
SEQEND
  5
CB30
100
AcDbEntity
  8
TEXTE
  0
LINE
  5
C70B
100
AcDbEntity
  8
TEXTE
100
AcDbLine
 10
82.515797
 20
91.196352
 30
0.0
 11
82.52019
 21
90.873668
 31
0.0
  0
LINE
  5
C70C
100
AcDbEntity
  8
ALPHA
100
AcDbLine
 10
84.099244
 20
88.543161
 30
0.0
 11
84.038899
 21
91.276534
 31
0.0
  0
POLYLINE
  5
C70D
100
AcDbEntity
  8
TEXTE
100
AcDb2dPolyline
 66
     1
 10
0.0
 20
0.0
 30
0.0
  0
VERTEX
  5
CB31
100
AcDbEntity
  8
TEXTE
100
AcDbVertex
100
AcDb2dVertex
 10
82.446429
 20
88.143161
 30
0.0
  0
VERTEX
  5
CB32
100
AcDbEntity
  8
TEXTE
100
AcDbVertex
100
AcDb2dVertex
 10
82.432187
 20
88.532126
 30
0.0
  0
VERTEX
  5
CB33
100
AcDbEntity
  8
TEXTE
100
AcDbVertex
100
AcDb2dVertex
 10
82.419231
 20
88.921075
 30
0.0
  0
VERTEX
  5
CB34
100
AcDbEntity
  8
TEXTE
100
AcDbVertex
100
AcDb2dVertex
 10
82.407563
 20
89.310011
 30
0.0
  0
VERTEX
  5
CB35
100
AcDbEntity
  8
TEXTE
100
AcDbVertex
100
AcDb2dVertex
 10
82.397181
 20
89.698935
 30
0.0
  0
VERTEX
  5
CB36
100
AcDbEntity
  8
TEXTE
100
AcDbVertex
100
AcDb2dVertex
 10
82.388086
 20
90.087841
 30
0.0
  0
VERTEX
  5
CB37
100
AcDbEntity
  8
TEXTE
100
AcDbVertex
100
AcDb2dVertex
 10
82.380278
 20
90.47672
 30
0.0
  0
VERTEX
  5
CB38
100
AcDbEntity
  8
TEXTE
100
AcDbVertex
100
AcDb2dVertex
 10
82.373756
 20
90.865565
 30
0.0
  0
VERTEX
  5
CB39
100
AcDbEntity
  8
TEXTE
100
AcDbVertex
100
AcDb2dVertex
 10
82.368521
 20
91.254378
 30
0.0
  0
VERTEX
  5
CB3A
100
AcDbEntity
  8
TEXTE
100
AcDbVertex
100
AcDb2dVertex
 10
82.364571
 20
91.643161
 30
0.0
  0
SEQEND
  5
CB3B
100
AcDbEntity
  8
TEXTE
  0
POLYLINE
  5
C70E
100
AcDbEntity
  8
TEXTE
100
AcDb2dPolyline
 66
     1
 10
0.0
 20
0.0
 30
0.0
  0
VERTEX
  5
CB3C
100
AcDbEntity
  8
TEXTE
100
AcDbVertex
100
AcDb2dVertex
 10
78.241945
 20
88.143161
 30
0.0
  0
VERTEX
  5
CB3D
100
AcDbEntity
  8
TEXTE
100
AcDbVertex
100
AcDb2dVertex
 10
78.225528
 20
88.532357
 30
0.0
  0
VERTEX
  5
CB3E
100
AcDbEntity
  8
TEXTE
100
AcDbVertex
100
AcDb2dVertex
 10
78.210596
 20
88.92148
 30
0.0
  0
VERTEX
  5
CB3F
100
AcDbEntity
  8
TEXTE
100
AcDbVertex
100
AcDb2dVertex
 10
78.197149
 20
89.310535
 30
0.0
  0
VERTEX
  5
CB40
100
AcDbEntity
  8
TEXTE
100
AcDbVertex
100
AcDb2dVertex
 10
78.185184
 20
89.699522
 30
0.0
  0
VERTEX
  5
CB41
100
AcDbEntity
  8
TEXTE
100
AcDbVertex
100
AcDb2dVertex
 10
78.174704
 20
90.088433
 30
0.0
  0
VERTEX
  5
CB42
100
AcDbEntity
  8
TEXTE
100
AcDbVertex
100
AcDb2dVertex
 10
78.165707
 20
90.477257
 30
0.0
  0
VERTEX
  5
CB43
100
AcDbEntity
  8
TEXTE
100
AcDbVertex
100
AcDb2dVertex
 10
78.158193
 20
90.865985
 30
0.0
  0
VERTEX
  5
CB44
100
AcDbEntity
  8
TEXTE
100
AcDbVertex
100
AcDb2dVertex
 10
78.152162
 20
91.254619
 30
0.0
  0
VERTEX
  5
CB45
100
AcDbEntity
  8
TEXTE
100
AcDbVertex
100
AcDb2dVertex
 10
78.147612
 20
91.643161
 30
0.0
  0
SEQEND
  5
CB46
100
AcDbEntity
  8
TEXTE
  0
LINE
  5
C70F
100
AcDbEntity
  8
TEXTE
100
AcDbLine
 10
77.808745
 20
91.121885
 30
0.0
 11
77.853907
 21
90.749544
 31
0.0
  0
LINE
  5
C710
100
AcDbEntity
  8
TEXTE
100
AcDbLine
 10
80.859988
 20
91.121885
 30
0.0
 11
80.923015
 21
90.824012
 31
0.0
  0
LINE
  5
C711
100
AcDbEntity
  8
TEXTE
100
AcDbLine
 10
81.988561
 20
91.345288
 30
0.0
 11
82.069491
 21
91.047416
 31
0.0
  0
LINE
  5
C712
100
AcDbEntity
  8
TEXTE
100
AcDbLine
 10
81.915369
 20
90.972948
 30
0.0
 11
81.860937
 21
91.121885
 31
0.0
  0
LINE
  5
C713
100
AcDbEntity
  8
TEXTE
100
AcDbLine
 10
80.684155
 20
90.972948
 30
0.0
 11
80.59179
 21
91.121885
 31
0.0
  0
LINE
  5
C714
100
AcDbEntity
  8
TEXTE
100
AcDbLine
 10
81.638034
 20
90.153799
 30
0.0
 11
81.798573
 21
90.153799
 31
0.0
  0
LINE
  5
C715
100
AcDbEntity
  8
TEXTE
100
AcDbLine
 10
81.809077
 20
89.70699
 30
0.0
 11
81.648592
 21
89.70699
 31
0.0
  0
LINE
  5
C716
100
AcDbEntity
  8
TEXTE
100
AcDbLine
 10
81.628486
 20
88.58997
 30
0.0
 11
81.842903
 21
88.58997
 31
0.0
  0
LINE
  5
C717
100
AcDbEntity
  8
TEXTE
100
AcDbLine
 10
81.85946
 20
88.143161
 30
0.0
 11
81.645157
 21
88.143161
 31
0.0
  0
LINE
  5
C718
100
AcDbEntity
  8
TEXTE
100
AcDbLine
 10
77.875817
 20
88.664437
 30
0.0
 11
77.73177
 21
88.366565
 31
0.0
  0
LINE
  5
C719
100
AcDbEntity
  8
TEXTE
100
AcDbLine
 10
77.634771
 20
88.813374
 30
0.0
 11
77.665999
 21
89.036778
 31
0.0
  0
LINE
  5
C71A
100
AcDbEntity
  8
TEXTE
100
AcDbLine
 10
77.90059
 20
89.036778
 30
0.0
 11
77.875817
 21
88.664437
 31
0.0
  0
POLYLINE
  5
C71B
100
AcDbEntity
  8
TEXTE
100
AcDb2dPolyline
 66
     1
 10
0.0
 20
0.0
 30
0.0
  0
VERTEX
  5
CB47
100
AcDbEntity
  8
TEXTE
100
AcDbVertex
100
AcDb2dVertex
 10
79.507258
 20
88.58997
 30
0.0
  0
VERTEX
  5
CB48
100
AcDbEntity
  8
TEXTE
100
AcDbVertex
100
AcDb2dVertex
 10
79.511556
 20
88.478279
 30
0.0
  0
VERTEX
  5
CB49
100
AcDbEntity
  8
TEXTE
100
AcDbVertex
100
AcDb2dVertex
 10
79.525151
 20
88.143161
 30
0.0
  0
SEQEND
  5
CB4A
100
AcDbEntity
  8
TEXTE
  0
LINE
  5
C71C
100
AcDbEntity
  8
TEXTE
100
AcDbLine
 10
77.853907
 20
90.749544
 30
0.0
 11
77.618914
 21
90.749544
 31
0.0
  0
LINE
  5
C71D
100
AcDbEntity
  8
TEXTE
100
AcDbLine
 10
77.666
 20
89.036778
 30
0.0
 11
77.900591
 21
89.036778
 31
0.0
  0
LINE
  5
C71E
100
AcDbEntity
  8
TEXTE
100
AcDbLine
 10
78.447439
 20
88.58997
 30
0.0
 11
79.507257
 21
88.58997
 31
0.0
  0
LINE
  5
C71F
100
AcDbEntity
  8
TEXTE
100
AcDbLine
 10
79.525151
 20
88.143161
 30
0.0
 11
78.241945
 21
88.143161
 31
0.0
  0
POLYLINE
  5
C720
100
AcDbEntity
  8
TEXTE
100
AcDb2dPolyline
 66
     1
 10
0.0
 20
0.0
 30
0.0
  0
VERTEX
  5
CB4B
100
AcDbEntity
  8
TEXTE
100
AcDbVertex
100
AcDb2dVertex
 10
80.699677
 20
88.217629
 30
0.0
  0
VERTEX
  5
CB4C
100
AcDbEntity
  8
TEXTE
100
AcDbVertex
100
AcDb2dVertex
 10
80.588523
 20
88.161739
 30
0.0
  0
VERTEX
  5
CB4D
100
AcDbEntity
  8
TEXTE
100
AcDbVertex
100
AcDb2dVertex
 10
80.551292
 20
88.143161
 30
0.0
  0
SEQEND
  5
CB4E
100
AcDbEntity
  8
TEXTE
  0
LINE
  5
C721
100
AcDbEntity
  8
TEXTE
100
AcDbLine
 10
80.534011
 20
88.58997
 30
0.0
 11
80.652673
 21
88.664437
 31
0.0
  0
POLYLINE
  5
C722
100
AcDbEntity
  8
TEXTE
100
AcDb2dPolyline
 66
     1
 10
0.0
 20
0.0
 30
0.0
  0
VERTEX
  5
CB4F
100
AcDbEntity
  8
TEXTE
100
AcDbVertex
100
AcDb2dVertex
 10
80.813311
 20
88.366565
 30
0.0
  0
VERTEX
  5
CB50
100
AcDbEntity
  8
TEXTE
100
AcDbVertex
100
AcDb2dVertex
 10
80.728153
 20
88.254799
 30
0.0
  0
VERTEX
  5
CB51
100
AcDbEntity
  8
TEXTE
100
AcDbVertex
100
AcDb2dVertex
 10
80.699677
 20
88.217629
 30
0.0
  0
SEQEND
  5
CB52
100
AcDbEntity
  8
TEXTE
  0
LINE
  5
C723
100
AcDbEntity
  8
TEXTE
100
AcDbLine
 10
80.652673
 20
88.664437
 30
0.0
 11
80.737499
 21
88.813374
 31
0.0
  0
LINE
  5
C724
100
AcDbEntity
  8
TEXTE
100
AcDbLine
 10
80.89359
 20
88.589853
 30
0.0
 11
80.813311
 21
88.366565
 31
0.0
  0
LINE
  5
C725
100
AcDbEntity
  8
TEXTE
100
AcDbLine
 10
80.920333
 20
88.664437
 30
0.0
 11
80.89359
 21
88.589853
 31
0.0
  0
LINE
  5
C726
100
AcDbEntity
  8
TEXTE
100
AcDbLine
 10
80.002679
 20
90.972948
 30
0.0
 11
79.942065
 21
90.749544
 31
0.0
  0
LINE
  5
C727
100
AcDbEntity
  8
TEXTE
100
AcDbLine
 10
80.737499
 20
88.813374
 30
0.0
 11
80.789633
 21
89.036778
 31
0.0
  0
LINE
  5
C728
100
AcDbEntity
  8
TEXTE
100
AcDbLine
 10
80.968643
 20
88.96231
 30
0.0
 11
80.920333
 21
88.664437
 31
0.0
  0
LINE
  5
C729
100
AcDbEntity
  8
TEXTE
100
AcDbLine
 10
81.45954
 20
90.972948
 30
0.0
 11
81.435455
 21
90.749544
 31
0.0
  0
LINE
  5
C72A
100
AcDbEntity
  8
TEXTE
100
AcDbLine
 10
79.942065
 20
90.749544
 30
0.0
 11
79.915389
 21
90.451672
 31
0.0
  0
POLYLINE
  5
C72B
100
AcDbEntity
  8
TEXTE
100
AcDb2dPolyline
 66
     1
 10
0.0
 20
0.0
 30
0.0
  0
VERTEX
  5
CB53
100
AcDbEntity
  8
TEXTE
100
AcDbVertex
100
AcDb2dVertex
 10
79.719597
 20
90.451672
 30
0.0
  0
VERTEX
  5
CB54
100
AcDbEntity
  8
TEXTE
100
AcDbVertex
100
AcDb2dVertex
 10
79.738951
 20
90.730866
 30
0.0
  0
VERTEX
  5
CB55
100
AcDbEntity
  8
TEXTE
100
AcDbVertex
100
AcDb2dVertex
 10
79.745558
 20
90.824012
 30
0.0
  0
SEQEND
  5
CB56
100
AcDbEntity
  8
TEXTE
  0
LINE
  5
C72C
100
AcDbEntity
  8
TEXTE
100
AcDbLine
 10
80.789633
 20
89.036778
 30
0.0
 11
80.810071
 21
89.33465
 31
0.0
  0
LINE
  5
C72D
100
AcDbEntity
  8
TEXTE
100
AcDbLine
 10
80.986171
 20
89.33465
 30
0.0
 11
80.968643
 21
88.96231
 31
0.0
  0
LINE
  5
C72E
100
AcDbEntity
  8
TEXTE
100
AcDbLine
 10
81.272163
 20
90.526139
 30
0.0
 11
81.266997
 21
90.824012
 31
0.0
  0
LINE
  5
C72F
100
AcDbEntity
  8
TEXTE
100
AcDbLine
 10
81.435455
 20
90.749544
 30
0.0
 11
81.438025
 21
90.600608
 31
0.0
  0
LINE
  5
C730
100
AcDbEntity
  8
TEXTE
100
AcDbLine
 10
80.95882
 20
90.451672
 30
0.0
 11
80.966702
 21
90.079367
 31
0.0
  0
LINE
  5
C731
100
AcDbEntity
  8
TEXTE
100
AcDbLine
 10
80.790488
 20
90.079371
 30
0.0
 11
80.78256
 21
90.451672
 31
0.0
  0
LINE
  5
C732
100
AcDbEntity
  8
TEXTE
100
AcDbLine
 10
79.915389
 20
90.451672
 30
0.0
 11
79.92355
 21
90.07938
 31
0.0
  0
LINE
  5
C733
100
AcDbEntity
  8
TEXTE
100
AcDbLine
 10
79.727814
 20
90.079385
 30
0.0
 11
79.719597
 21
90.451672
 31
0.0
  0
LINE
  5
C734
100
AcDbEntity
  8
TEXTE
100
AcDbLine
 10
80.966702
 20
90.079367
 30
0.0
 11
80.975819
 21
89.707025
 31
0.0
  0
LINE
  5
C735
100
AcDbEntity
  8
TEXTE
100
AcDbLine
 10
80.799658
 20
89.707029
 30
0.0
 11
80.790488
 21
90.079371
 31
0.0
  0
LINE
  5
C736
100
AcDbEntity
  8
TEXTE
100
AcDbLine
 10
79.92355
 20
90.07938
 30
0.0
 11
79.932991
 21
89.707037
 31
0.0
  0
LINE
  5
C737
100
AcDbEntity
  8
TEXTE
100
AcDbLine
 10
79.737318
 20
89.707042
 30
0.0
 11
79.727814
 21
90.079385
 31
0.0
  0
LINE
  5
C738
100
AcDbEntity
  8
TEXTE
100
AcDbLine
 10
80.975819
 20
89.707025
 30
0.0
 11
80.986171
 21
89.33465
 31
0.0
  0
LINE
  5
C739
100
AcDbEntity
  8
TEXTE
100
AcDbLine
 10
80.810071
 20
89.33465
 30
0.0
 11
80.799658
 21
89.707029
 31
0.0
  0
LINE
  5
C73A
100
AcDbEntity
  8
TEXTE
100
AcDbLine
 10
79.932991
 20
89.707037
 30
0.0
 11
79.943711
 21
89.33465
 31
0.0
  0
LINE
  5
C73B
100
AcDbEntity
  8
TEXTE
100
AcDbLine
 10
79.748109
 20
89.33465
 30
0.0
 11
79.737318
 21
89.707042
 31
0.0
  0
LINE
  5
C73C
100
AcDbEntity
  8
TEXTE
100
AcDbLine
 10
80.923015
 20
90.824012
 30
0.0
 11
80.95882
 21
90.451672
 31
0.0
  0
LINE
  5
C73D
100
AcDbEntity
  8
TEXTE
100
AcDbLine
 10
81.306193
 20
90.228268
 30
0.0
 11
81.272163
 21
90.526139
 31
0.0
  0
LINE
  5
C73E
100
AcDbEntity
  8
TEXTE
100
AcDbLine
 10
80.78256
 20
90.451672
 30
0.0
 11
80.747409
 21
90.749544
 31
0.0
  0
POLYLINE
  5
C73F
100
AcDbEntity
  8
TEXTE
100
AcDb2dPolyline
 66
     1
 10
0.0
 20
0.0
 30
0.0
  0
VERTEX
  5
CB57
100
AcDbEntity
  8
TEXTE
100
AcDbVertex
100
AcDb2dVertex
 10
79.793024
 20
88.96231
 30
0.0
  0
VERTEX
  5
CB58
100
AcDbEntity
  8
TEXTE
100
AcDbVertex
100
AcDb2dVertex
 10
79.759222
 20
89.241633
 30
0.0
  0
VERTEX
  5
CB59
100
AcDbEntity
  8
TEXTE
100
AcDbVertex
100
AcDb2dVertex
 10
79.748109
 20
89.33465
 30
0.0
  0
SEQEND
  5
CB5A
100
AcDbEntity
  8
TEXTE
  0
LINE
  5
C740
100
AcDbEntity
  8
TEXTE
100
AcDbLine
 10
81.260689
 20
88.813374
 30
0.0
 11
81.222692
 21
89.111246
 31
0.0
  0
LINE
  5
C741
100
AcDbEntity
  8
TEXTE
100
AcDbLine
 10
79.943711
 20
89.33465
 30
0.0
 11
79.985445
 21
89.036778
 31
0.0
  0
LINE
  5
C742
100
AcDbEntity
  8
TEXTE
100
AcDbLine
 10
81.438025
 20
90.600608
 30
0.0
 11
81.469807
 21
90.377203
 31
0.0
  0
LINE
  5
C743
100
AcDbEntity
  8
TEXTE
100
AcDbLine
 10
81.391283
 20
89.111246
 30
0.0
 11
81.426225
 21
88.887841
 31
0.0
  0
LINE
  5
C744
100
AcDbEntity
  8
TEXTE
100
AcDbLine
 10
79.86895
 20
88.664437
 30
0.0
 11
79.793024
 21
88.96231
 31
0.0
  0
LINE
  5
C745
100
AcDbEntity
  8
TEXTE
100
AcDbLine
 10
81.358251
 20
88.441034
 30
0.0
 11
81.260689
 21
88.813374
 31
0.0
  0
LINE
  5
C746
100
AcDbEntity
  8
TEXTE
100
AcDbLine
 10
80.747409
 20
90.749544
 30
0.0
 11
80.684155
 21
90.972948
 31
0.0
  0
LINE
  5
C747
100
AcDbEntity
  8
TEXTE
100
AcDbLine
 10
79.985445
 20
89.036778
 30
0.0
 11
80.057255
 21
88.813374
 31
0.0
  0
LINE
  5
C748
100
AcDbEntity
  8
TEXTE
100
AcDbLine
 10
81.424349
 20
89.930395
 30
0.0
 11
81.306193
 21
90.228268
 31
0.0
  0
LINE
  5
C749
100
AcDbEntity
  8
TEXTE
100
AcDbLine
 10
81.426225
 20
88.887841
 30
0.0
 11
81.516636
 21
88.664437
 31
0.0
  0
LINE
  5
C74A
100
AcDbEntity
  8
TEXTE
100
AcDbLine
 10
80.009769
 20
88.366565
 30
0.0
 11
79.86895
 21
88.664437
 31
0.0
  0
LINE
  5
C74B
100
AcDbEntity
  8
TEXTE
100
AcDbLine
 10
81.469807
 20
90.377203
 30
0.0
 11
81.555034
 21
90.228268
 31
0.0
  0
LINE
  5
C74C
100
AcDbEntity
  8
TEXTE
100
AcDbLine
 10
81.505567
 20
88.217629
 30
0.0
 11
81.358251
 21
88.441034
 31
0.0
  0
LINE
  5
C74D
100
AcDbEntity
  8
TEXTE
100
AcDbLine
 10
80.057255
 20
88.813374
 30
0.0
 11
80.158084
 21
88.664437
 31
0.0
  0
LINE
  5
C74E
100
AcDbEntity
  8
TEXTE
100
AcDbLine
 10
81.538033
 20
89.781459
 30
0.0
 11
81.424349
 21
89.930395
 31
0.0
  0
LINE
  5
C74F
100
AcDbEntity
  8
TEXTE
100
AcDbLine
 10
80.143566
 20
88.217629
 30
0.0
 11
80.009769
 21
88.366565
 31
0.0
  0
LINE
  5
C750
100
AcDbEntity
  8
TEXTE
100
AcDbLine
 10
81.555034
 20
90.228268
 30
0.0
 11
81.638034
 21
90.153799
 31
0.0
  0
LINE
  5
C751
100
AcDbEntity
  8
TEXTE
100
AcDbLine
 10
81.648592
 20
89.70699
 30
0.0
 11
81.538033
 21
89.781459
 31
0.0
  0
LINE
  5
C752
100
AcDbEntity
  8
TEXTE
100
AcDbLine
 10
81.516636
 20
88.664437
 30
0.0
 11
81.628486
 21
88.58997
 31
0.0
  0
LINE
  5
C753
100
AcDbEntity
  8
TEXTE
100
AcDbLine
 10
80.158084
 20
88.664437
 30
0.0
 11
80.286758
 21
88.58997
 31
0.0
  0
POLYLINE
  5
C754
100
AcDbEntity
  8
TEXTE
100
AcDb2dPolyline
 66
     1
 10
0.0
 20
0.0
 30
0.0
  0
VERTEX
  5
CB5B
100
AcDbEntity
  8
TEXTE
100
AcDbVertex
100
AcDb2dVertex
 10
81.645157
 20
88.143161
 30
0.0
  0
VERTEX
  5
CB5C
100
AcDbEntity
  8
TEXTE
100
AcDbVertex
100
AcDb2dVertex
 10
81.610391
 20
88.161813
 30
0.0
  0
VERTEX
  5
CB5D
100
AcDbEntity
  8
TEXTE
100
AcDbVertex
100
AcDb2dVertex
 10
81.505567
 20
88.217629
 30
0.0
  0
SEQEND
  5
CB5E
100
AcDbEntity
  8
TEXTE
  0
LINE
  5
C755
100
AcDbEntity
  8
TEXTE
100
AcDbLine
 10
80.304182
 20
88.143161
 30
0.0
 11
80.143566
 21
88.217629
 31
0.0
  0
LINE
  5
C756
100
AcDbEntity
  8
TEXTE
100
AcDbLine
 10
81.222693
 20
89.111246
 30
0.0
 11
81.391283
 21
89.111246
 31
0.0
  0
LINE
  5
C757
100
AcDbEntity
  8
TEXTE
100
AcDbLine
 10
80.286758
 20
88.58997
 30
0.0
 11
80.534011
 21
88.58997
 31
0.0
  0
LINE
  5
C758
100
AcDbEntity
  8
TEXTE
100
AcDbLine
 10
80.551292
 20
88.143161
 30
0.0
 11
80.304182
 21
88.143161
 31
0.0
  0
POLYLINE
  5
C759
100
AcDbEntity
  8
TEXTE
100
AcDb2dPolyline
 66
     1
 10
0.0
 20
0.0
 30
0.0
  0
VERTEX
  5
CB5F
100
AcDbEntity
  8
TEXTE
100
AcDbVertex
100
AcDb2dVertex
 10
81.987834
 20
88.217629
 30
0.0
  0
VERTEX
  5
CB60
100
AcDbEntity
  8
TEXTE
100
AcDbVertex
100
AcDb2dVertex
 10
81.891683
 20
88.161746
 30
0.0
  0
VERTEX
  5
CB61
100
AcDbEntity
  8
TEXTE
100
AcDbVertex
100
AcDb2dVertex
 10
81.85946
 20
88.143161
 30
0.0
  0
SEQEND
  5
CB62
100
AcDbEntity
  8
TEXTE
  0
LINE
  5
C75A
100
AcDbEntity
  8
TEXTE
100
AcDbLine
 10
81.842903
 20
88.58997
 30
0.0
 11
81.945533
 21
88.664437
 31
0.0
  0
LINE
  5
C75B
100
AcDbEntity
  8
TEXTE
100
AcDbLine
 10
82.085791
 20
88.366565
 30
0.0
 11
81.987834
 21
88.217629
 31
0.0
  0
LINE
  5
C75C
100
AcDbEntity
  8
TEXTE
100
AcDbLine
 10
81.945533
 20
88.664437
 30
0.0
 11
82.018579
 21
88.813374
 31
0.0
  0
LINE
  5
C75D
100
AcDbEntity
  8
TEXTE
100
AcDbLine
 10
82.177504
 20
88.664437
 30
0.0
 11
82.085791
 21
88.366565
 31
0.0
  0
LINE
  5
C75E
100
AcDbEntity
  8
TEXTE
100
AcDbLine
 10
82.018579
 20
88.813374
 30
0.0
 11
82.063072
 21
89.036778
 31
0.0
  0
LINE
  5
C75F
100
AcDbEntity
  8
TEXTE
100
AcDbLine
 10
82.218404
 20
88.96231
 30
0.0
 11
82.177504
 21
88.664437
 31
0.0
  0
LINE
  5
C760
100
AcDbEntity
  8
TEXTE
100
AcDbLine
 10
82.52019
 20
90.873668
 30
0.0
 11
82.525465
 21
90.550972
 31
0.0
  0
LINE
  5
C761
100
AcDbEntity
  8
TEXTE
100
AcDbLine
 10
82.525465
 20
90.550972
 30
0.0
 11
82.531621
 21
90.228268
 31
0.0
  0
LINE
  5
C762
100
AcDbEntity
  8
TEXTE
100
AcDbLine
 10
83.134737
 20
90.228268
 30
0.0
 11
83.14453
 21
89.781459
 31
0.0
  0
LINE
  5
C763
100
AcDbEntity
  8
TEXTE
100
AcDbLine
 10
82.541601
 20
89.781459
 30
0.0
 11
82.551889
 21
89.384323
 31
0.0
  0
LINE
  5
C764
100
AcDbEntity
  8
TEXTE
100
AcDbLine
 10
82.551889
 20
89.384323
 30
0.0
 11
82.563514
 21
88.987158
 31
0.0
  0
LINE
  5
C765
100
AcDbEntity
  8
TEXTE
100
AcDbLine
 10
82.207267
 20
89.33465
 30
0.0
 11
82.218404
 21
88.96231
 31
0.0
  0
LINE
  5
C766
100
AcDbEntity
  8
TEXTE
100
AcDbLine
 10
82.063072
 20
89.036778
 30
0.0
 11
82.056358
 21
89.260183
 31
0.0
  0
LINE
  5
C767
100
AcDbEntity
  8
TEXTE
100
AcDbLine
 10
82.563514
 20
88.987158
 30
0.0
 11
82.576474
 21
88.58997
 31
0.0
  0
LINE
  5
C768
100
AcDbEntity
  8
TEXTE
100
AcDbLine
 10
83.266963
 20
88.58997
 30
0.0
 11
83.282794
 21
88.143161
 31
0.0
  0
LINE
  5
C769
100
AcDbEntity
  8
TEXTE
100
AcDbLine
 10
82.069491
 20
91.047416
 30
0.0
 11
82.098342
 21
90.824012
 31
0.0
  0
LINE
  5
C76A
100
AcDbEntity
  8
TEXTE
100
AcDbLine
 10
81.943674
 20
90.824012
 30
0.0
 11
81.915369
 21
90.972948
 31
0.0
  0
LINE
  5
C76B
100
AcDbEntity
  8
TEXTE
100
AcDbLine
 10
82.148503
 20
89.632523
 30
0.0
 11
82.207267
 21
89.33465
 31
0.0
  0
LINE
  5
C76C
100
AcDbEntity
  8
TEXTE
100
AcDbLine
 10
82.056358
 20
89.260183
 30
0.0
 11
81.998402
 21
89.483586
 31
0.0
  0
LINE
  5
C76D
100
AcDbEntity
  8
TEXTE
100
AcDbLine
 10
82.038789
 20
89.930395
 30
0.0
 11
82.148503
 21
89.632523
 31
0.0
  0
LINE
  5
C76E
100
AcDbEntity
  8
TEXTE
100
AcDbLine
 10
81.998402
 20
89.483586
 30
0.0
 11
81.916316
 21
89.632523
 31
0.0
  0
POLYLINE
  5
C76F
100
AcDbEntity
  8
TEXTE
100
AcDb2dPolyline
 66
     1
 10
0.0
 20
0.0
 30
0.0
  0
VERTEX
  5
CB63
100
AcDbEntity
  8
TEXTE
100
AcDbVertex
100
AcDb2dVertex
 10
81.931694
 20
90.079332
 30
0.0
  0
VERTEX
  5
CB64
100
AcDbEntity
  8
TEXTE
100
AcDbVertex
100
AcDb2dVertex
 10
82.01208
 20
89.967688
 30
0.0
  0
VERTEX
  5
CB65
100
AcDbEntity
  8
TEXTE
100
AcDbVertex
100
AcDb2dVertex
 10
82.038789
 20
89.930395
 30
0.0
  0
SEQEND
  5
CB66
100
AcDbEntity
  8
TEXTE
  0
LINE
  5
C770
100
AcDbEntity
  8
TEXTE
100
AcDbLine
 10
81.916316
 20
89.632523
 30
0.0
 11
81.809077
 21
89.70699
 31
0.0
  0
POLYLINE
  5
C771
100
AcDbEntity
  8
TEXTE
100
AcDb2dPolyline
 66
     1
 10
0.0
 20
0.0
 30
0.0
  0
VERTEX
  5
CB67
100
AcDbEntity
  8
TEXTE
100
AcDbVertex
100
AcDb2dVertex
 10
81.798573
 20
90.153799
 30
0.0
  0
VERTEX
  5
CB68
100
AcDbEntity
  8
TEXTE
100
AcDbVertex
100
AcDb2dVertex
 10
81.898545
 20
90.097982
 30
0.0
  0
VERTEX
  5
CB69
100
AcDbEntity
  8
TEXTE
100
AcDbVertex
100
AcDb2dVertex
 10
81.931694
 20
90.079332
 30
0.0
  0
SEQEND
  5
CB6A
100
AcDbEntity
  8
TEXTE
  0
LINE
  5
C772
100
AcDbEntity
  8
TEXTE
100
AcDbLine
 10
82.098342
 20
90.824012
 30
0.0
 11
81.943674
 21
90.824012
 31
0.0
  0
LINE
  5
C773
100
AcDbEntity
  8
TEXTE
100
AcDbLine
 10
82.531621
 20
90.228268
 30
0.0
 11
83.134737
 21
90.228268
 31
0.0
  0
LINE
  5
C774
100
AcDbEntity
  8
TEXTE
100
AcDbLine
 10
83.14453
 20
89.781459
 30
0.0
 11
82.541601
 21
89.781459
 31
0.0
  0
LINE
  5
C775
100
AcDbEntity
  8
TEXTE
100
AcDbLine
 10
82.576474
 20
88.58997
 30
0.0
 11
83.266963
 21
88.58997
 31
0.0
  0
LINE
  5
C776
100
AcDbEntity
  8
TEXTE
100
AcDbLine
 10
83.282794
 20
88.143161
 30
0.0
 11
82.446429
 21
88.143161
 31
0.0
  0
LINE
  5
C777
100
AcDbEntity
  8
ALPHA
100
AcDbLine
 10
83.778082
 20
96.393161
 30
0.0
 11
80.154183
 21
96.393161
 31
0.0
  0
LINE
  5
C778
100
AcDbEntity
  8
ALPHA
100
AcDbLine
 10
83.741003
 20
94.893161
 30
0.0
 11
80.112537
 21
94.893161
 31
0.0
  0
LINE
  5
C779
100
AcDbEntity
  8
TEXTE
100
AcDbLine
 10
81.615398
 20
91.643161
 30
0.0
 11
81.749487
 21
91.643161
 31
0.0
  0
LINE
  5
C77A
100
AcDbEntity
  8
TEXTE
100
AcDbLine
 10
81.780792
 20
91.196352
 30
0.0
 11
81.62016
 21
91.196352
 31
0.0
  0
POLYLINE
  5
C77B
100
AcDbEntity
  8
ALPHA
100
AcDb2dPolyline
 66
     1
 10
0.0
 20
0.0
 30
0.0
  0
VERTEX
  5
CB6B
100
AcDbEntity
  8
ALPHA
100
AcDbVertex
100
AcDb2dVertex
 10
80.22906
 20
98.143161
 30
0.0
  0
VERTEX
  5
CB6C
100
AcDbEntity
  8
ALPHA
100
AcDbVertex
100
AcDb2dVertex
 10
80.200948
 20
97.559624
 30
0.0
  0
VERTEX
  5
CB6D
100
AcDbEntity
  8
ALPHA
100
AcDbVertex
100
AcDb2dVertex
 10
80.17599
 20
96.976299
 30
0.0
  0
VERTEX
  5
CB6E
100
AcDbEntity
  8
ALPHA
100
AcDbVertex
100
AcDb2dVertex
 10
80.154183
 20
96.393161
 30
0.0
  0
SEQEND
  5
CB6F
100
AcDbEntity
  8
ALPHA
  0
POLYLINE
  5
C77C
100
AcDbEntity
  8
TEXTE
100
AcDb2dPolyline
 66
     1
 10
0.0
 20
0.0
 30
0.0
  0
VERTEX
  5
CB70
100
AcDbEntity
  8
TEXTE
100
AcDbVertex
100
AcDb2dVertex
 10
77.647964
 20
91.419757
 30
0.0
  0
VERTEX
  5
CB71
100
AcDbEntity
  8
TEXTE
100
AcDbVertex
100
AcDb2dVertex
 10
77.768563
 20
91.196532
 30
0.0
  0
VERTEX
  5
CB72
100
AcDbEntity
  8
TEXTE
100
AcDbVertex
100
AcDb2dVertex
 10
77.808745
 20
91.121885
 30
0.0
  0
SEQEND
  5
CB73
100
AcDbEntity
  8
TEXTE
  0
LINE
  5
C77D
100
AcDbEntity
  8
TEXTE
100
AcDbLine
 10
78.147612
 20
91.643161
 30
0.0
 11
78.372435
 21
91.643161
 31
0.0
  0
POLYLINE
  5
C77E
100
AcDbEntity
  8
TEXTE
100
AcDb2dPolyline
 66
     1
 10
0.0
 20
0.0
 30
0.0
  0
VERTEX
  5
CB74
100
AcDbEntity
  8
TEXTE
100
AcDbVertex
100
AcDb2dVertex
 10
80.059065
 20
91.568693
 30
0.0
  0
VERTEX
  5
CB75
100
AcDbEntity
  8
TEXTE
100
AcDbVertex
100
AcDb2dVertex
 10
80.098534
 20
91.587269
 30
0.0
  0
VERTEX
  5
CB76
100
AcDbEntity
  8
TEXTE
100
AcDbVertex
100
AcDb2dVertex
 10
80.216395
 20
91.643161
 30
0.0
  0
SEQEND
  5
CB77
100
AcDbEntity
  8
TEXTE
  0
LINE
  5
C77F
100
AcDbEntity
  8
TEXTE
100
AcDbLine
 10
80.221382
 20
91.196352
 30
0.0
 11
80.096181
 21
91.121885
 31
0.0
  0
LINE
  5
C780
100
AcDbEntity
  8
TEXTE
100
AcDbLine
 10
81.507285
 20
91.568693
 30
0.0
 11
81.615399
 21
91.643161
 31
0.0
  0
LINE
  5
C781
100
AcDbEntity
  8
TEXTE
100
AcDbLine
 10
81.62016
 20
91.196352
 30
0.0
 11
81.539673
 21
91.121885
 31
0.0
  0
LINE
  5
C782
100
AcDbEntity
  8
TEXTE
100
AcDbLine
 10
79.932443
 20
91.419757
 30
0.0
 11
80.059065
 21
91.568693
 31
0.0
  0
LINE
  5
C783
100
AcDbEntity
  8
TEXTE
100
AcDbLine
 10
81.398634
 20
91.419757
 30
0.0
 11
81.507285
 21
91.568693
 31
0.0
  0
LINE
  5
C784
100
AcDbEntity
  8
TEXTE
100
AcDbLine
 10
79.806436
 20
91.121885
 30
0.0
 11
79.932443
 21
91.419757
 31
0.0
  0
LINE
  5
C785
100
AcDbEntity
  8
TEXTE
100
AcDbLine
 10
81.290708
 20
91.121885
 30
0.0
 11
81.398634
 21
91.419757
 31
0.0
  0
POLYLINE
  5
C786
100
AcDbEntity
  8
ALPHA
100
AcDb2dPolyline
 66
     1
 10
0.0
 20
0.0
 30
0.0
  0
VERTEX
  5
CB78
100
AcDbEntity
  8
ALPHA
100
AcDbVertex
100
AcDb2dVertex
 10
80.112537
 20
94.893161
 30
0.0
  0
VERTEX
  5
CB79
100
AcDbEntity
  8
ALPHA
100
AcDbVertex
100
AcDb2dVertex
 10
80.101962
 20
94.309763
 30
0.0
  0
VERTEX
  5
CB7A
100
AcDbEntity
  8
ALPHA
100
AcDbVertex
100
AcDb2dVertex
 10
80.094538
 20
93.726438
 30
0.0
  0
VERTEX
  5
CB7B
100
AcDbEntity
  8
ALPHA
100
AcDbVertex
100
AcDb2dVertex
 10
80.090264
 20
93.143161
 30
0.0
  0
SEQEND
  5
CB7C
100
AcDbEntity
  8
ALPHA
  0
LINE
  5
C787
100
AcDbEntity
  8
TEXTE
100
AcDbLine
 10
80.738045
 20
91.419757
 30
0.0
 11
80.859988
 21
91.121885
 31
0.0
  0
POLYLINE
  5
C788
100
AcDbEntity
  8
TEXTE
100
AcDb2dPolyline
 66
     1
 10
0.0
 20
0.0
 30
0.0
  0
VERTEX
  5
CB7D
100
AcDbEntity
  8
TEXTE
100
AcDbVertex
100
AcDb2dVertex
 10
80.61674
 20
91.568693
 30
0.0
  0
VERTEX
  5
CB7E
100
AcDbEntity
  8
TEXTE
100
AcDbVertex
100
AcDb2dVertex
 10
80.707784
 20
91.457059
 30
0.0
  0
VERTEX
  5
CB7F
100
AcDbEntity
  8
TEXTE
100
AcDbVertex
100
AcDb2dVertex
 10
80.738045
 20
91.419757
 30
0.0
  0
SEQEND
  5
CB80
100
AcDbEntity
  8
TEXTE
  0
LINE
  5
C789
100
AcDbEntity
  8
TEXTE
100
AcDbLine
 10
80.59179
 20
91.121885
 30
0.0
 11
80.469176
 21
91.196352
 31
0.0
  0
POLYLINE
  5
C78A
100
AcDbEntity
  8
TEXTE
100
AcDb2dPolyline
 66
     1
 10
0.0
 20
0.0
 30
0.0
  0
VERTEX
  5
CB81
100
AcDbEntity
  8
TEXTE
100
AcDbVertex
100
AcDb2dVertex
 10
80.464231
 20
91.643161
 30
0.0
  0
VERTEX
  5
CB82
100
AcDbEntity
  8
TEXTE
100
AcDbVertex
100
AcDb2dVertex
 10
80.578748
 20
91.58735
 30
0.0
  0
VERTEX
  5
CB83
100
AcDbEntity
  8
TEXTE
100
AcDbVertex
100
AcDb2dVertex
 10
80.61674
 20
91.568693
 30
0.0
  0
SEQEND
  5
CB84
100
AcDbEntity
  8
TEXTE
  0
LINE
  5
C78B
100
AcDbEntity
  8
ALPHA
100
AcDbLine
 10
79.712581
 20
93.143161
 30
0.0
 11
80.090264
 21
93.143161
 31
0.0
  0
LINE
  5
C78C
100
AcDbEntity
  8
TEXTE
100
AcDbLine
 10
80.216395
 20
91.643161
 30
0.0
 11
80.464231
 21
91.643161
 31
0.0
  0
LINE
  5
C78D
100
AcDbEntity
  8
TEXTE
100
AcDbLine
 10
80.469176
 20
91.196352
 30
0.0
 11
80.221382
 21
91.196352
 31
0.0
  0
LINE
  5
C78E
100
AcDbEntity
  8
ALPHA
100
AcDbLine
 10
79.851711
 20
98.143161
 30
0.0
 11
80.22906
 21
98.143161
 31
0.0
  0
POLYLINE
  5
C78F
100
AcDbEntity
  8
ALPHA
100
AcDb2dPolyline
 66
     1
 10
0.0
 20
0.0
 30
0.0
  0
VERTEX
  5
CB85
100
AcDbEntity
  8
ALPHA
100
AcDbVertex
100
AcDb2dVertex
 10
83.778082
 20
96.393161
 30
0.0
  0
VERTEX
  5
CB86
100
AcDbEntity
  8
ALPHA
100
AcDbVertex
100
AcDb2dVertex
 10
83.763662
 20
95.893142
 30
0.0
  0
VERTEX
  5
CB87
100
AcDbEntity
  8
ALPHA
100
AcDbVertex
100
AcDb2dVertex
 10
83.751302
 20
95.393143
 30
0.0
  0
VERTEX
  5
CB88
100
AcDbEntity
  8
ALPHA
100
AcDbVertex
100
AcDb2dVertex
 10
83.741003
 20
94.893161
 30
0.0
  0
SEQEND
  5
CB89
100
AcDbEntity
  8
ALPHA
  0
LINE
  5
C790
100
AcDbEntity
  8
TEXTE
100
AcDbLine
 10
83.20305
 20
91.643161
 30
0.0
 11
83.207579
 21
91.196352
 31
0.0
  0
LINE
  5
C791
100
AcDbEntity
  8
TEXTE
100
AcDbLine
 10
81.88216
 20
91.568693
 30
0.0
 11
81.988561
 21
91.345288
 31
0.0
  0
LINE
  5
C792
100
AcDbEntity
  8
TEXTE
100
AcDbLine
 10
81.860937
 20
91.121885
 30
0.0
 11
81.780792
 21
91.196352
 31
0.0
  0
POLYLINE
  5
C793
100
AcDbEntity
  8
TEXTE
100
AcDb2dPolyline
 66
     1
 10
0.0
 20
0.0
 30
0.0
  0
VERTEX
  5
CB8A
100
AcDbEntity
  8
TEXTE
100
AcDbVertex
100
AcDb2dVertex
 10
81.749487
 20
91.643161
 30
0.0
  0
VERTEX
  5
CB8B
100
AcDbEntity
  8
TEXTE
100
AcDbVertex
100
AcDb2dVertex
 10
81.849123
 20
91.587344
 30
0.0
  0
VERTEX
  5
CB8C
100
AcDbEntity
  8
TEXTE
100
AcDbVertex
100
AcDb2dVertex
 10
81.88216
 20
91.568693
 30
0.0
  0
SEQEND
  5
CB8D
100
AcDbEntity
  8
TEXTE
  0
LINE
  5
C794
100
AcDbEntity
  8
TEXTE
100
AcDbLine
 10
82.364571
 20
91.643161
 30
0.0
 11
83.20305
 21
91.643161
 31
0.0
  0
LINE
  5
C795
100
AcDbEntity
  8
TEXTE
100
AcDbLine
 10
83.207579
 20
91.196352
 30
0.0
 11
82.515797
 21
91.196352
 31
0.0
  0
LINE
  5
C796
100
AcDbEntity
  8
ALPHA
100
AcDbLine
 10
84.368121
 20
94.009794
 30
0.0
 11
84.428502
 21
96.743161
 31
0.0
  0
LINE
  5
C797
100
AcDbEntity
  8
ALPHA
100
AcDbLine
 10
84.368121
 20
91.276528
 30
0.0
 11
84.368121
 21
94.009794
 31
0.0
  0
POLYLINE
  5
C798
100
AcDbEntity
  8
ALPHA
100
AcDb2dPolyline
 66
     1
 10
0.0
 20
0.0
 30
0.0
  0
VERTEX
  5
CB8E
100
AcDbEntity
  8
ALPHA
100
AcDbVertex
100
AcDb2dVertex
 10
84.038899
 20
91.276534
 30
0.0
  0
VERTEX
  5
CB8F
100
AcDbEntity
  8
ALPHA
100
AcDbVertex
100
AcDb2dVertex
 10
84.038899
 20
94.009788
 30
0.0
  0
VERTEX
  5
CB90
100
AcDbEntity
  8
ALPHA
100
AcDbVertex
100
AcDb2dVertex
 10
84.099244
 20
96.743161
 30
0.0
  0
SEQEND
  5
CB91
100
AcDbEntity
  8
ALPHA
  0
ARC
  5
C799
100
AcDbEntity
  8
ALPHA
100
AcDbCircle
 10
86.018341
 20
101.718161
 30
0.0
 40
1.425
100
AcDbArc
 50
356.213228
 51
90.0
  0
LINE
  5
C79A
100
AcDbEntity
  8
ALPHA
100
AcDbLine
 10
87.243341
 20
89.043161
 30
0.0
 11
87.243341
 21
96.243161
 31
0.0
  0
LINE
  5
C79B
100
AcDbEntity
  8
ALPHA
100
AcDbLine
 10
87.44023
 20
83.662273
 30
0.0
 11
87.205164
 21
88.543161
 31
0.0
  0
ARC
  5
C79C
100
AcDbEntity
  8
ALPHA
100
AcDbCircle
 10
86.018341
 20
83.568161
 30
0.0
 40
1.425
100
AcDbArc
 50
277.564804
 51
3.786772
  0
LINE
  5
C79D
100
AcDbEntity
  8
ALPHA
100
AcDbLine
 10
86.205939
 20
82.155563
 30
0.0
 11
86.19323
 21
82.155563
 31
0.0
  0
POLYLINE
  5
C79E
100
AcDbEntity
  8
ALPHA
100
AcDb2dPolyline
 66
     1
 10
0.0
 20
0.0
 30
0.0
  0
VERTEX
  5
CB92
100
AcDbEntity
  8
ALPHA
100
AcDbVertex
100
AcDb2dVertex
 10
86.19323
 20
82.155563
 30
0.0
  0
VERTEX
  5
CB93
100
AcDbEntity
  8
ALPHA
100
AcDbVertex
100
AcDb2dVertex
 10
86.098797
 20
82.146275
 30
0.0
  0
VERTEX
  5
CB94
100
AcDbEntity
  8
ALPHA
100
AcDbVertex
100
AcDb2dVertex
 10
86.003616
 20
82.143161
 30
0.0
  0
SEQEND
  5
CB95
100
AcDbEntity
  8
ALPHA
  0
LINE
  5
C79F
100
AcDbEntity
  8
ALPHA
100
AcDbLine
 10
87.505301
 20
88.543161
 30
0.0
 11
87.491108
 21
89.043161
 31
0.0
  0
LINE
  5
C7A0
100
AcDbEntity
  8
ALPHA
100
AcDbLine
 10
87.205164
 20
96.743161
 30
0.0
 11
87.44023
 21
101.624049
 31
0.0
  0
LINE
  5
C7A1
100
AcDbEntity
  8
ALPHA
100
AcDbLine
 10
87.491108
 20
96.243161
 30
0.0
 11
87.505301
 21
96.743161
 31
0.0
  0
LINE
  5
C7A2
100
AcDbEntity
  8
ALPHA
100
AcDbLine
 10
81.943341
 20
247.765787
 30
0.0
 11
81.943341
 21
213.343161
 31
0.0
  0
ARC
  5
C7A3
100
AcDbEntity
  8
ALPHA
100
AcDbCircle
 10
121.937743
 20
205.843161
 30
0.0
 40
35.0
100
AcDbArc
 50
170.445784
 51
189.554216
  0
ARC
  5
C7A4
100
AcDbEntity
  8
ALPHA
100
AcDbCircle
 10
85.993341
 20
199.793161
 30
0.0
 40
1.45
100
AcDbArc
 50
270.0
 51
9.554216
  0
ARC
  5
C7A5
100
AcDbEntity
  8
ALPHA
100
AcDbCircle
 10
85.993341
 20
211.893161
 30
0.0
 40
1.45
100
AcDbArc
 50
350.445784
 51
90.0
  0
ARC
  5
C7A6
100
AcDbEntity
  8
ALPHA
100
AcDbCircle
 10
76.943341
 20
247.765787
 30
0.0
 40
5.0
100
AcDbArc
 50
0.0
 51
46.567463
  0
TEXT
  5
C7A7
100
AcDbEntity
  8
AXE
100
AcDbText
 10
1.667529
 20
148.993161
 30
0.0
 40
8.0
  1
Z
 72
     2
 11
8.14372
 21
148.993161
 31
0.0
100
AcDbText
  0
LINE
  5
C7A8
100
AcDbEntity
  8
AXE
100
AcDbLine
 10
94.443341
 20
147.993161
 30
0.0
 11
1.153875
 21
147.993161
 31
0.0
  0
LINE
  5
C7A9
100
AcDbEntity
  8
AXE
100
AcDbLine
 10
49.443341
 20
17.351122
 30
0.0
 11
49.443341
 21
268.683621
 31
0.0
  0
TEXT
  5
C7AA
100
AcDbEntity
  8
AXE
100
AcDbText
 10
41.967151
 20
17.351122
 30
0.0
 40
8.0
  1
Y
 72
     2
 11
48.443341
 21
17.351122
 31
0.0
100
AcDbText
  0
VIEWPORT
  5
494D
102
{ACAD_XDICTIONARY
360
C7D5
102
}
100
AcDbEntity
 67
     1
  8
0
100
AcDbViewport
 10
6.0
 20
4.5
 30
0.0
 40
13.37404
 41
9.064748
 68
    -1
 69
     1
1001
ACAD
1000
MVIEW
1002
{
1070
    16
1010
0.0
1020
0.0
1030
0.0
1010
0.0
1020
0.0
1030
1.0
1040
0.0
1040
9.064748
1040
6.0
1040
4.5
1040
50.0
1040
0.0
1040
0.0
1070
     0
1070
   100
1070
     1
1070
     1
1070
     0
1070
     0
1070
     0
1070
     0
1040
0.0
1040
0.0
1040
0.0
1040
10.0
1040
10.0
1040
10.0
1040
10.0
1070
     0
1002
{
1002
}
1002
}
  0
ENDSEC
  0
SECTION
  2
OBJECTS
  0
DICTIONARY
  5
7CF4
102
{ACAD_XDICTIONARY
360
C7D7
102
}
100
AcDbDictionary
  3
ACAD_GROUP
350
7CF5
  3
ACAD_LAYOUT
350
7D01
  3
ACAD_MLINESTYLE
350
7CFE
  3
ACAD_PLOTSETTINGS
350
7D00
  3
ACAD_PLOTSTYLENAME
350
7CF6
  3
ACDBHEADERROUNDTRIPXREC
350
C7B4
  3
ACDBVARIABLEDICTIONARY
350
8048
  0
DICTIONARY
  5
C7AE
100
AcDbDictionary
  3
ACAD_XREC_ROUNDTRIP
360
C7AF
  0
DICTIONARY
  5
C7B0
100
AcDbDictionary
  3
ACAD_XREC_ROUNDTRIP
360
C7B1
  0
DICTIONARY
  5
C7E3
100
AcDbDictionary
  3
ACAD_XREC_ROUNDTRIP
360
C7E4
  0
DICTIONARY
  5
C7DF
100
AcDbDictionary
  3
ACAD_XREC_ROUNDTRIP
360
C7E0
  0
DICTIONARY
  5
C7E1
100
AcDbDictionary
  3
ACAD_XREC_ROUNDTRIP
360
C7E2
  0
DICTIONARY
  5
800F
100
AcDbDictionary
  3
ACAD_LAYOUTSELFREF
360
C7DE
  3
ACAD_XREC_ROUNDTRIP
360
C7AC
  0
DICTIONARY
  5
8011
100
AcDbDictionary
  3
ACAD_LAYOUTSELFREF
360
C7DD
  3
ACAD_XREC_ROUNDTRIP
360
C7AD
  0
DICTIONARY
  5
C7D5
100
AcDbDictionary
  3
ACAD_XREC_ROUNDTRIP
360
C7D6
  0
DICTIONARY
  5
C7D7
100
AcDbDictionary
  3
ACAD_XREC_ROUNDTRIP
360
C7D8
  0
DICTIONARY
  5
7CF5
102
{ACAD_REACTORS
330
7CF4
102
}
100
AcDbDictionary
  0
DICTIONARY
  5
7D01
102
{ACAD_XDICTIONARY
360
C7DB
102
}
102
{ACAD_REACTORS
330
7CF4
102
}
100
AcDbDictionary
  3
MODEL
350
7D09
  3
PRÉSENTATION1
350
7D05
  0
DICTIONARY
  5
7CFE
102
{ACAD_XDICTIONARY
360
C7D9
102
}
102
{ACAD_REACTORS
330
7CF4
102
}
100
AcDbDictionary
  3
STANDARD
350
7CFF
  0
DICTIONARY
  5
7D00
102
{ACAD_REACTORS
330
7CF4
102
}
100
AcDbDictionary
  0
ACAD_ZOMBIE_OBJECT
  5
7CF6
102
{ACAD_REACTORS
330
7CF4
102
}
100
AcDbZombieObject
 90
      499
 91
      500
 93
       86
310
405010041939BDC9B585B0
350
7CF7
340
7CF7
 94
        0
  0
DICTIONARY
  5
C7B4
102
{ACAD_REACTORS
330
7CF4
102
}
100
AcDbDictionary
  3
CEPSNTYPE
350
C7BE
  3
DIMSTYLEDATA
350
C7C2
  3
FINGERPRINTGUID
350
C7BF
  3
HYPERLINKBASE
350
C7B7
  3
INSUNITS
350
C7BD
  3
LAYOUTDICT
350
C7B9
  3
LWETCUNION
350
C7BC
  3
PLOTSETDICT
350
C7BA
  3
PLOTSTYLNAMDICT
350
C7BB
  3
PSVPSCALE
350
C7C1
  3
PUCSBASE
350
C7C5
  3
PUCSORGBACK
350
C7CB
  3
PUCSORGBOTTOM
350
C7C7
  3
PUCSORGFRONT
350
C7CA
  3
PUCSORGLEFT
350
C7C8
  3
PUCSORGRIGHT
350
C7C9
  3
PUCSORGTOP
350
C7C6
  3
PUCSORTHOREF
350
C7C3
  3
PUCSORTHOVIEW
350
C7C4
  3
STYLESHEET
350
C7B8
  3
TSTACKALIGN
350
C7B5
  3
TSTACKSIZE
350
C7B6
  3
UCSBASE
350
C7CE
  3
UCSORGBACK
350
C7D4
  3
UCSORGBOTTOM
350
C7D0
  3
UCSORGFRONT
350
C7D3
  3
UCSORGLEFT
350
C7D1
  3
UCSORGRIGHT
350
C7D2
  3
UCSORGTOP
350
C7CF
  3
UCSORTHOREF
350
C7CC
  3
UCSORTHOVIEW
350
C7CD
  3
VERSIONGUID
350
C7C0
  0
DICTIONARY
  5
8048
102
{ACAD_REACTORS
330
7CF4
102
}
100
AcDbDictionary
  3
DIMASSOC
350
804A
  3
HIDETEXT
350
8049
  0
XRECORD
  5
C7AF
102
{ACAD_REACTORS
330
C7AE
102
}
100
AcDbXrecord
102
EXTNAMES
  1
BYBLOCK
  2
ByBlock
  0
XRECORD
  5
C7B1
102
{ACAD_REACTORS
330
C7B0
102
}
100
AcDbXrecord
102
EXTNAMES
  1
BYLAYER
  2
ByLayer
  0
XRECORD
  5
C7E4
102
{ACAD_REACTORS
330
C7E3
102
}
100
AcDbXrecord
102
PLOTBIT
280
     0
  0
XRECORD
  5
C7E0
102
{ACAD_REACTORS
330
C7DF
102
}
100
AcDbXrecord
102
ACADR14ROUNDTRIP
1000
DSTYLE
1002
{
1070
   279
 70
     2
1070
   341
340
7D0C
1070
   342
340
7D0C
1002
}
  0
XRECORD
  5
C7E2
102
{ACAD_REACTORS
330
C7E1
102
}
100
AcDbXrecord
102
ACADR14ROUNDTRIP
1000
DSTYLE
1002
{
1070
   279
 70
     2
1002
}
  0
XRECORD
  5
C7DE
102
{ACAD_REACTORS
330
800F
102
}
100
AcDbXrecord
340
7D06
  0
XRECORD
  5
C7AC
102
{ACAD_REACTORS
330
800F
102
}
100
AcDbXrecord
102
EXTNAMES
  1
*MODEL_SPACE
  2
*Model_Space
  0
XRECORD
  5
C7DD
102
{ACAD_REACTORS
330
8011
102
}
100
AcDbXrecord
340
7D02
  0
XRECORD
  5
C7AD
102
{ACAD_REACTORS
330
8011
102
}
100
AcDbXrecord
102
EXTNAMES
  1
*PAPER_SPACE
  2
*Paper_Space
  0
XRECORD
  5
C7D6
102
{ACAD_REACTORS
330
C7D5
102
}
100
AcDbXrecord
102
UCS
 74
     0
 71
     0
 10
0.0
 20
0.0
 30
0.0
 10
0.0
 20
0.0
 30
0.0
 10
0.0
 20
0.0
 30
0.0
146
0.0
 79
     0
102
VIEW
281
     0
102
NEWVIEWCONTROL
280
     4
  0
XRECORD
  5
C7D8
102
{ACAD_REACTORS
330
C7D7
102
}
100
AcDbXrecord
102
EXTNAMES
  1
ACDBVARIABLEDICTIONARY
  2
AcDbVariableDictionary
  0
DICTIONARY
  5
C7DB
100
AcDbDictionary
  3
ACAD_XREC_ROUNDTRIP
360
C7DC
  0
ACAD_ZOMBIE_OBJECT
  5
7D09
102
{ACAD_REACTORS
330
7D01
102
}
100
AcDbZombieObject
 90
      499
 91
      502
 93
      428
310
A2C01AAAAAAAAA5A69054D6F64656C901A800000000000000000000000000000000000000000000A1000000000000008902A6A6AAAA2
330
7D06
330
0
340
0
340
0
 94
        0
  0
ACAD_ZOMBIE_OBJECT
  5
7D05
102
{ACAD_REACTORS
330
7D01
102
}
100
AcDbZombieObject
 90
      499
 91
      502
 93
     1484
310
9154850204C617365724A65742035303030204E2050532C00800000040B87E17400000003838A84550000000000444F1640000000000611C510000000080253F6A40000000101FA3DC901024134A901416AA5910690D5072E973656E746174696F6E31406A800000000000000000000000000000000000000000000A100000
310
0000000008902A6A6A10232D5E076BC5510408CB5781DAF154410232D5E076BC5510408CB5781DAF15C410232D5E076BC5710408CB5781DAF15C40
330
7D02
330
494D
340
0
340
0
 94
        0
  0
DICTIONARY
  5
C7D9
100
AcDbDictionary
  3
ACAD_XREC_ROUNDTRIP
360
C7DA
  0
MLINESTYLE
  5
7CFF
102
{ACAD_REACTORS
330
7CFE
102
}
100
AcDbMlineStyle
  2
STANDARD
 70
     0
  3

 62
   256
 51
90.0
 52
90.0
 71
     2
 49
0.5
 62
   256
  6
BYLAYER
 49
-0.5
 62
   256
  6
BYLAYER
  0
ACAD_ZOMBIE_OBJECT
  5
7CF7
102
{ACAD_REACTORS
330
7CF6
102
}
100
AcDbZombieObject
 90
      499
 91
      501
 93
        0
 94
        0
  0
XRECORD
  5
C7BE
102
{ACAD_REACTORS
330
C7B4
102
}
100
AcDbXrecord
 90
        0
  0
XRECORD
  5
C7C2
102
{ACAD_REACTORS
330
C7B4
102
}
100
AcDbXrecord
1000
DSTYLE
1002
{
1070
   279
 70
     2
1070
   341
340
7D0C
1070
   342
340
7D0C
1002
}
  0
XRECORD
  5
C7BF
102
{ACAD_REACTORS
330
C7B4
102
}
100
AcDbXrecord
  1
{20110D97-5561-4CA7-8FED-06A9B97BF164}
  0
XRECORD
  5
C7B7
102
{ACAD_REACTORS
330
C7B4
102
}
100
AcDbXrecord
  1

  0
XRECORD
  5
C7BD
102
{ACAD_REACTORS
330
C7B4
102
}
100
AcDbXrecord
 90
        0
  0
XRECORD
  5
C7B9
102
{ACAD_REACTORS
330
C7B4
102
}
100
AcDbXrecord
340
7D01
  0
XRECORD
  5
C7BC
102
{ACAD_REACTORS
330
C7B4
102
}
100
AcDbXrecord
 90
    14877
  0
XRECORD
  5
C7BA
102
{ACAD_REACTORS
330
C7B4
102
}
100
AcDbXrecord
340
7D00
  0
XRECORD
  5
C7BB
102
{ACAD_REACTORS
330
C7B4
102
}
100
AcDbXrecord
340
7CF6
  0
XRECORD
  5
C7C1
102
{ACAD_REACTORS
330
C7B4
102
}
100
AcDbXrecord
 40
0.0
  0
XRECORD
  5
C7C5
102
{ACAD_REACTORS
330
C7B4
102
}
100
AcDbXrecord
340
0
  0
XRECORD
  5
C7CB
102
{ACAD_REACTORS
330
C7B4
102
}
100
AcDbXrecord
 10
0.0
 20
0.0
 30
0.0
  0
XRECORD
  5
C7C7
102
{ACAD_REACTORS
330
C7B4
102
}
100
AcDbXrecord
 10
0.0
 20
0.0
 30
0.0
  0
XRECORD
  5
C7CA
102
{ACAD_REACTORS
330
C7B4
102
}
100
AcDbXrecord
 10
0.0
 20
0.0
 30
0.0
  0
XRECORD
  5
C7C8
102
{ACAD_REACTORS
330
C7B4
102
}
100
AcDbXrecord
 10
0.0
 20
0.0
 30
0.0
  0
XRECORD
  5
C7C9
102
{ACAD_REACTORS
330
C7B4
102
}
100
AcDbXrecord
 10
0.0
 20
0.0
 30
0.0
  0
XRECORD
  5
C7C6
102
{ACAD_REACTORS
330
C7B4
102
}
100
AcDbXrecord
 10
0.0
 20
0.0
 30
0.0
  0
XRECORD
  5
C7C3
102
{ACAD_REACTORS
330
C7B4
102
}
100
AcDbXrecord
340
0
  0
XRECORD
  5
C7C4
102
{ACAD_REACTORS
330
C7B4
102
}
100
AcDbXrecord
 70
     0
  0
XRECORD
  5
C7B8
102
{ACAD_REACTORS
330
C7B4
102
}
100
AcDbXrecord
  1

  0
XRECORD
  5
C7B5
102
{ACAD_REACTORS
330
C7B4
102
}
100
AcDbXrecord
 90
        1
  0
XRECORD
  5
C7B6
102
{ACAD_REACTORS
330
C7B4
102
}
100
AcDbXrecord
 90
       70
  0
XRECORD
  5
C7CE
102
{ACAD_REACTORS
330
C7B4
102
}
100
AcDbXrecord
340
0
  0
XRECORD
  5
C7D4
102
{ACAD_REACTORS
330
C7B4
102
}
100
AcDbXrecord
 10
0.0
 20
0.0
 30
0.0
  0
XRECORD
  5
C7D0
102
{ACAD_REACTORS
330
C7B4
102
}
100
AcDbXrecord
 10
0.0
 20
0.0
 30
0.0
  0
XRECORD
  5
C7D3
102
{ACAD_REACTORS
330
C7B4
102
}
100
AcDbXrecord
 10
0.0
 20
0.0
 30
0.0
  0
XRECORD
  5
C7D1
102
{ACAD_REACTORS
330
C7B4
102
}
100
AcDbXrecord
 10
0.0
 20
0.0
 30
0.0
  0
XRECORD
  5
C7D2
102
{ACAD_REACTORS
330
C7B4
102
}
100
AcDbXrecord
 10
0.0
 20
0.0
 30
0.0
  0
XRECORD
  5
C7CF
102
{ACAD_REACTORS
330
C7B4
102
}
100
AcDbXrecord
 10
0.0
 20
0.0
 30
0.0
  0
XRECORD
  5
C7CC
102
{ACAD_REACTORS
330
C7B4
102
}
100
AcDbXrecord
340
0
  0
XRECORD
  5
C7CD
102
{ACAD_REACTORS
330
C7B4
102
}
100
AcDbXrecord
 70
     0
  0
XRECORD
  5
C7C0
102
{ACAD_REACTORS
330
C7B4
102
}
100
AcDbXrecord
  1
{CFAFA89E-5770-497F-9D49-34B547F20F3A}
  0
DICTIONARYVAR
  5
804A
102
{ACAD_REACTORS
330
8048
102
}
100
DictionaryVariables
280
     0
  1
2
  0
DICTIONARYVAR
  5
8049
102
{ACAD_REACTORS
330
8048
102
}
100
DictionaryVariables
280
     0
  1
1
  0
XRECORD
  5
C7DC
102
{ACAD_REACTORS
330
C7DB
102
}
100
AcDbXrecord
102
EXTNAMES
  1
MODEL
  2
Model
  1
PRÉSENTATION1
  2
Présentation1
  0
XRECORD
  5
C7DA
102
{ACAD_REACTORS
330
C7D9
102
}
100
AcDbXrecord
102
EXTNAMES
  1
STANDARD
  2
Standard
  0
ENDSEC
  0
EOF
