  0
SECTION
  2
HEADER
  9
$ACADVER
  1
AC1012
  9
$DWGCODEPAGE
  3
ANSI_1252
  9
$INSBASE
 10
402.590624
 20
-1.041018
 30
0.0
  9
$EXTMIN
 10
9.702397
 20
16.566519
 30
0.0
  9
$EXTMAX
 10
104.044069
 20
112.636395
 30
0.0
  9
$LIMMIN
 10
-407.970438
 20
-367.832444
  9
$LIMMAX
 10
429.804077
 20
234.370848
  9
$ORTHOMODE
 70
     1
  9
$REGENMODE
 70
     1
  9
$FILLMODE
 70
     1
  9
$QTEXTMODE
 70
     0
  9
$MIRRTEXT
 70
     1
  9
$DRAGMODE
 70
     2
  9
$LTSCALE
 40
10.0
  9
$OSMODE
 70
    39
  9
$ATTMODE
 70
     1
  9
$TEXTSIZE
 40
6.0
  9
$TRACEWID
 40
1.0
  9
$TEXTSTYLE
  7
ROMANS
  9
$CLAYER
  8
ALPHA
  9
$CELTYPE
  6
BYLAYER
  9
$CECOLOR
 62
   256
  9
$CELTSCALE
 40
1.0
  9
$DELOBJ
 70
     1
  9
$DISPSILH
 70
     0
  9
$DIMSCALE
 40
1.0
  9
$DIMASZ
 40
5.0
  9
$DIMEXO
 40
2.0
  9
$DIMDLI
 40
0.38
  9
$DIMRND
 40
0.0
  9
$DIMDLE
 40
0.0
  9
$DIMEXE
 40
2.5
  9
$DIMTP
 40
0.0
  9
$DIMTM
 40
0.0
  9
$DIMTXT
 40
2.5
  9
$DIMCEN
 40
0.0
  9
$DIMTSZ
 40
0.0
  9
$DIMTOL
 70
     0
  9
$DIMLIM
 70
     0
  9
$DIMTIH
 70
     1
  9
$DIMTOH
 70
     1
  9
$DIMSE1
 70
     0
  9
$DIMSE2
 70
     0
  9
$DIMTAD
 70
     1
  9
$DIMZIN
 70
    12
  9
$DIMBLK
  1
OPEN30
  9
$DIMASO
 70
     1
  9
$DIMSHO
 70
     1
  9
$DIMPOST
  1

  9
$DIMAPOST
  1

  9
$DIMALT
 70
     0
  9
$DIMALTD
 70
     2
  9
$DIMALTF
 40
25.4
  9
$DIMLFAC
 40
1.0
  9
$DIMTOFL
 70
     0
  9
$DIMTVP
 40
0.0
  9
$DIMTIX
 70
     0
  9
$DIMSOXD
 70
     0
  9
$DIMSAH
 70
     0
  9
$DIMBLK1
  1

  9
$DIMBLK2
  1

  9
$DIMSTYLE
  2
SC_DEFAUT
  9
$DIMCLRD
 70
     0
  9
$DIMCLRE
 70
     0
  9
$DIMCLRT
 70
     0
  9
$DIMTFAC
 40
1.0
  9
$DIMGAP
 40
2.0
  9
$DIMJUST
 70
     0
  9
$DIMSD1
 70
     0
  9
$DIMSD2
 70
     0
  9
$DIMTOLJ
 70
     1
  9
$DIMTZIN
 70
    12
  9
$DIMALTZ
 70
    12
  9
$DIMALTTZ
 70
    12
  9
$DIMFIT
 70
     5
  9
$DIMUPT
 70
     0
  9
$DIMUNIT
 70
     2
  9
$DIMDEC
 70
     1
  9
$DIMTDEC
 70
     1
  9
$DIMALTU
 70
     2
  9
$DIMALTTD
 70
     2
  9
$DIMTXSTY
  7
ROMANS
  9
$DIMAUNIT
 70
     0
  9
$LUNITS
 70
     2
  9
$LUPREC
 70
     1
  9
$SKETCHINC
 40
0.1
  9
$FILLETRAD
 40
0.0
  9
$AUNITS
 70
     0
  9
$AUPREC
 70
     0
  9
$MENU
  1
acad
  9
$ELEVATION
 40
0.0
  9
$PELEVATION
 40
0.0
  9
$THICKNESS
 40
0.0
  9
$LIMCHECK
 70
     0
  9
$BLIPMODE
 70
     0
  9
$CHAMFERA
 40
0.0
  9
$CHAMFERB
 40
0.0
  9
$CHAMFERC
 40
0.0
  9
$CHAMFERD
 40
0.0
  9
$SKPOLY
 70
     0
  9
$TDCREATE
 40
2450373.687919444
  9
$TDUPDATE
 40
2453511.385986076
  9
$TDINDWG
 40
0.9568240856
  9
$TDUSRTIMER
 40
0.9568240856
  9
$USRTIMER
 70
     1
  9
$ANGBASE
 50
0.0
  9
$ANGDIR
 70
     0
  9
$PDMODE
 70
    32
  9
$PDSIZE
 40
0.0
  9
$PLINEWID
 40
0.0
  9
$COORDS
 70
     0
  9
$SPLFRAME
 70
     0
  9
$SPLINETYPE
 70
     6
  9
$SPLINESEGS
 70
     8
  9
$ATTDIA
 70
     0
  9
$ATTREQ
 70
     1
  9
$HANDLING
 70
     1
  9
$HANDSEED
  5
C117
  9
$SURFTAB1
 70
     6
  9
$SURFTAB2
 70
     6
  9
$SURFTYPE
 70
     6
  9
$SURFU
 70
     6
  9
$SURFV
 70
     6
  9
$UCSNAME
  2

  9
$UCSORG
 10
0.0
 20
0.0
 30
0.0
  9
$UCSXDIR
 10
1.0
 20
0.0
 30
0.0
  9
$UCSYDIR
 10
0.0
 20
1.0
 30
0.0
  9
$PUCSNAME
  2

  9
$PUCSORG
 10
0.0
 20
0.0
 30
0.0
  9
$PUCSXDIR
 10
1.0
 20
0.0
 30
0.0
  9
$PUCSYDIR
 10
0.0
 20
1.0
 30
0.0
  9
$USERI1
 70
     0
  9
$USERI2
 70
     0
  9
$USERI3
 70
     0
  9
$USERI4
 70
     0
  9
$USERI5
 70
     0
  9
$USERR1
 40
0.0
  9
$USERR2
 40
0.0
  9
$USERR3
 40
0.0
  9
$USERR4
 40
0.0
  9
$USERR5
 40
0.0
  9
$WORLDVIEW
 70
     1
  9
$SHADEDGE
 70
     3
  9
$SHADEDIF
 70
    70
  9
$TILEMODE
 70
     1
  9
$MAXACTVP
 70
    16
  9
$PINSBASE
 10
0.0
 20
0.0
 30
0.0
  9
$PLIMCHECK
 70
     0
  9
$PEXTMIN
 10
1.000000E+20
 20
1.000000E+20
 30
1.000000E+20
  9
$PEXTMAX
 10
-1.000000E+20
 20
-1.000000E+20
 30
-1.000000E+20
  9
$PLIMMIN
 10
0.0
 20
0.0
  9
$PLIMMAX
 10
12.0
 20
9.0
  9
$UNITMODE
 70
     0
  9
$VISRETAIN
 70
     0
  9
$PLINEGEN
 70
     0
  9
$PSLTSCALE
 70
     0
  9
$TREEDEPTH
 70
  3020
  9
$PICKSTYLE
 70
     1
  9
$CMLSTYLE
  2
STANDARD
  9
$CMLJUST
 70
     0
  9
$CMLSCALE
 40
1.0
  9
$SAVEIMAGES
 70
     1
  0
ENDSEC
  0
SECTION
  2
CLASSES
  0
CLASS
  1
ACDBDICTIONARYWDFLT
  2
AcDbDictionaryWithDefault
  3
AutoCAD 2000
 90
    32768
280
     0
281
     0
  0
CLASS
  1
ACDBPLACEHOLDER
  2
AcDbPlaceHolder
  3
AutoCAD 2000
 90
    32768
280
     0
281
     0
  0
CLASS
  1
LAYOUT
  2
AcDbLayout
  3
AutoCAD 2000
 90
    32768
280
     0
281
     0
  0
CLASS
  1
DICTIONARYVAR
  2
AcDbDictionaryVar
  3
"AutoCAD"
 90
    32768
280
     0
281
     0
  0
CLASS
  1
LONG_TRANSACTION
  2
AcDbLongTransaction
  3
AutoCAD 2000
 90
    32768
280
     0
281
     0
  0
CLASS
  1
LWPOLYLINE
  2
AcDbPolyline
  3
"AutoCAD"
 90
    32768
280
     0
281
     1
  0
CLASS
  1
HATCH
  2
AcDbHatch
  3
"ACAD_SEDONA"
 90
    32768
280
     0
281
     1
  0
CLASS
  1
XRECORD
  2
AcDbXrecord
  3
"<Built In>"
 90
    32768
280
     0
281
     0
  0
CLASS
  1
LONG_TRANSACTION
  2
AcDbLongTransaction
  3
AutoCAD 2000
 90
    32768
280
     0
281
     0
  0
CLASS
  1
LWPOLYLINE
  2
AcDbPolyline
  3
"AutoCAD"
 90
    32768
280
     0
281
     1
  0
CLASS
  1
HATCH
  2
AcDbHatch
  3
"ACAD_SEDONA"
 90
    32768
280
     0
281
     1
  0
CLASS
  1
XRECORD
  2
AcDbXrecord
  3
"<Built In>"
 90
    32768
280
     0
281
     0
  0
CLASS
  1
LONG_TRANSACTION
  2
AcDbLongTransaction
  3
AutoCAD 2000
 90
    32768
280
     0
281
     0
  0
CLASS
  1
LWPOLYLINE
  2
AcDbPolyline
  3
"AutoCAD"
 90
    32768
280
     0
281
     1
  0
CLASS
  1
HATCH
  2
AcDbHatch
  3
"ACAD_SEDONA"
 90
    32768
280
     0
281
     1
  0
CLASS
  1
XRECORD
  2
AcDbXrecord
  3
"<Built In>"
 90
    32768
280
     0
281
     0
  0
CLASS
  1
LONG_TRANSACTION
  2
AcDbLongTransaction
  3
AutoCAD 2000
 90
    32768
280
     0
281
     0
  0
CLASS
  1
LWPOLYLINE
  2
AcDbPolyline
  3
"AutoCAD"
 90
    32768
280
     0
281
     1
  0
CLASS
  1
HATCH
  2
AcDbHatch
  3
"ACAD_SEDONA"
 90
    32768
280
     0
281
     1
  0
CLASS
  1
XRECORD
  2
AcDbXrecord
  3
"<Built In>"
 90
    32768
280
     0
281
     0
  0
CLASS
  1
LONG_TRANSACTION
  2
AcDbLongTransaction
  3
AutoCAD 2000
 90
    32768
280
     0
281
     0
  0
CLASS
  1
LWPOLYLINE
  2
AcDbPolyline
  3
"AutoCAD"
 90
    32768
280
     0
281
     1
  0
CLASS
  1
HATCH
  2
AcDbHatch
  3
"ACAD_SEDONA"
 90
    32768
280
     0
281
     1
  0
CLASS
  1
XRECORD
  2
AcDbXrecord
  3
"<Built In>"
 90
    32768
280
     0
281
     0
  0
CLASS
  1
LONG_TRANSACTION
  2
AcDbLongTransaction
  3
AutoCAD 2000
 90
    32768
280
     0
281
     0
  0
CLASS
  1
LWPOLYLINE
  2
AcDbPolyline
  3
"AutoCAD"
 90
    32768
280
     0
281
     1
  0
CLASS
  1
HATCH
  2
AcDbHatch
  3
"ACAD_SEDONA"
 90
    32768
280
     0
281
     1
  0
CLASS
  1
XRECORD
  2
AcDbXrecord
  3
"<Built In>"
 90
    32768
280
     0
281
     0
  0
CLASS
  1
LONG_TRANSACTION
  2
AcDbLongTransaction
  3
AutoCAD 2000
 90
    32768
280
     0
281
     0
  0
CLASS
  1
LWPOLYLINE
  2
AcDbPolyline
  3
"AutoCAD"
 90
    32768
280
     0
281
     1
  0
CLASS
  1
HATCH
  2
AcDbHatch
  3
"ACAD_SEDONA"
 90
    32768
280
     0
281
     1
  0
CLASS
  1
XRECORD
  2
AcDbXrecord
  3
"<Built In>"
 90
    32768
280
     0
281
     0
  0
CLASS
  1
LONG_TRANSACTION
  2
AcDbLongTransaction
  3
AutoCAD 2000
 90
    32768
280
     0
281
     0
  0
CLASS
  1
LWPOLYLINE
  2
AcDbPolyline
  3
"AutoCAD"
 90
    32768
280
     0
281
     1
  0
CLASS
  1
HATCH
  2
AcDbHatch
  3
"ACAD_SEDONA"
 90
    32768
280
     0
281
     1
  0
CLASS
  1
XRECORD
  2
AcDbXrecord
  3
"<Built In>"
 90
    32768
280
     0
281
     0
  0
CLASS
  1
LONG_TRANSACTION
  2
AcDbLongTransaction
  3
AutoCAD 2000
 90
    32768
280
     0
281
     0
  0
CLASS
  1
LWPOLYLINE
  2
AcDbPolyline
  3
"AutoCAD"
 90
    32768
280
     0
281
     1
  0
CLASS
  1
HATCH
  2
AcDbHatch
  3
"ACAD_SEDONA"
 90
    32768
280
     0
281
     1
  0
CLASS
  1
XRECORD
  2
AcDbXrecord
  3
"<Built In>"
 90
    32768
280
     0
281
     0
  0
CLASS
  1
LONG_TRANSACTION
  2
AcDbLongTransaction
  3
AutoCAD 2000
 90
    32768
280
     0
281
     0
  0
CLASS
  1
LWPOLYLINE
  2
AcDbPolyline
  3
"AutoCAD"
 90
    32768
280
     0
281
     1
  0
CLASS
  1
HATCH
  2
AcDbHatch
  3
"ACAD_SEDONA"
 90
    32768
280
     0
281
     1
  0
CLASS
  1
XRECORD
  2
AcDbXrecord
  3
"<Built In>"
 90
    32768
280
     0
281
     0
  0
CLASS
  1
LONG_TRANSACTION
  2
AcDbLongTransaction
  3
AutoCAD 2000
 90
    32768
280
     0
281
     0
  0
CLASS
  1
LWPOLYLINE
  2
AcDbPolyline
  3
"AutoCAD"
 90
    32768
280
     0
281
     1
  0
CLASS
  1
HATCH
  2
AcDbHatch
  3
"ACAD_SEDONA"
 90
    32768
280
     0
281
     1
  0
CLASS
  1
XRECORD
  2
AcDbXrecord
  3
"<Built In>"
 90
    32768
280
     0
281
     0
  0
CLASS
  1
LONG_TRANSACTION
  2
AcDbLongTransaction
  3
AutoCAD 2000
 90
    32768
280
     0
281
     0
  0
CLASS
  1
LWPOLYLINE
  2
AcDbPolyline
  3
"AutoCAD"
 90
    32768
280
     0
281
     1
  0
CLASS
  1
HATCH
  2
AcDbHatch
  3
"ACAD_SEDONA"
 90
    32768
280
     0
281
     1
  0
CLASS
  1
XRECORD
  2
AcDbXrecord
  3
"<Built In>"
 90
    32768
280
     0
281
     0
  0
CLASS
  1
LONG_TRANSACTION
  2
AcDbLongTransaction
  3
AutoCAD 2000
 90
    32768
280
     0
281
     0
  0
CLASS
  1
LWPOLYLINE
  2
AcDbPolyline
  3
"AutoCAD"
 90
    32768
280
     0
281
     1
  0
CLASS
  1
HATCH
  2
AcDbHatch
  3
"ACAD_SEDONA"
 90
    32768
280
     0
281
     1
  0
CLASS
  1
XRECORD
  2
AcDbXrecord
  3
"<Built In>"
 90
    32768
280
     0
281
     0
  0
ENDSEC
  0
SECTION
  2
TABLES
  0
TABLE
  2
VPORT
  5
7CF0
100
AcDbSymbolTable
 70
     2
  0
VPORT
  5
C116
100
AcDbSymbolTableRecord
100
AcDbViewportTableRecord
  2
*ACTIVE
 70
     0
 10
0.0
 20
0.0
 11
1.0
 21
1.0
 12
56.873233
 22
64.601457
 13
0.0
 23
0.0
 14
1.0
 24
1.0
 15
10.0
 25
10.0
 16
0.0
 26
0.0
 36
1.0
 17
0.0
 27
0.0
 37
0.0
 40
96.926368
 41
1.625
 42
50.0
 43
0.0
 44
0.0
 50
0.0
 51
0.0
 71
     0
 72
   100
 73
     1
 74
     0
 75
     0
 76
     0
 77
     0
 78
     0
  0
ENDTAB
  0
TABLE
  2
LTYPE
  5
7CED
100
AcDbSymbolTable
 70
     2
  0
LTYPE
  5
7CFB
102
{ACAD_XDICTIONARY
360
C0B6
102
}
100
AcDbSymbolTableRecord
100
AcDbLinetypeTableRecord
  2
BYBLOCK
 70
     0
  3

 72
    65
 73
     0
 40
0.0
  0
LTYPE
  5
7CFC
102
{ACAD_XDICTIONARY
360
C0B8
102
}
100
AcDbSymbolTableRecord
100
AcDbLinetypeTableRecord
  2
BYLAYER
 70
     0
  3

 72
    65
 73
     0
 40
0.0
  0
LTYPE
  5
7CFD
100
AcDbSymbolTableRecord
100
AcDbLinetypeTableRecord
  2
CONTINUOUS
 70
     0
  3
Solid line
 72
    65
 73
     0
 40
0.0
  0
LTYPE
  5
7D15
100
AcDbSymbolTableRecord
100
AcDbLinetypeTableRecord
  2
AXES2
 70
     0
  3
___ _ ___ _ ___ _ ___ _ ___ _ ___ _ ___ _ ___ _
 72
    65
 73
     4
 40
1.125
 49
0.75
 74
     0
 49
-0.125
 74
     0
 49
0.125
 74
     0
 49
-0.125
 74
     0
  0
ENDTAB
  0
TABLE
  2
LAYER
  5
7CEA
100
AcDbSymbolTable
 70
     5
  0
LAYER
  5
7CF8
100
AcDbSymbolTableRecord
100
AcDbLayerTableRecord
  2
0
 70
     0
 62
   255
  6
CONTINUOUS
  0
LAYER
  5
7D1C
100
AcDbSymbolTableRecord
100
AcDbLayerTableRecord
  2
COTATION1
 70
     0
 62
     2
  6
CONTINUOUS
  0
LAYER
  5
7D1D
100
AcDbSymbolTableRecord
100
AcDbLayerTableRecord
  2
AXE
 70
     0
 62
    80
  6
AXES2
  0
LAYER
  5
7D1E
102
{ACAD_XDICTIONARY
360
C0EB
102
}
100
AcDbSymbolTableRecord
100
AcDbLayerTableRecord
  2
DEFPOINTS
 70
     0
 62
     7
  6
CONTINUOUS
  0
LAYER
  5
7D1F
100
AcDbSymbolTableRecord
100
AcDbLayerTableRecord
  2
ALPHA
 70
     0
 62
   254
  6
CONTINUOUS
  0
ENDTAB
  0
TABLE
  2
STYLE
  5
7CEB
100
AcDbSymbolTable
 70
     2
  0
STYLE
  5
7CF9
100
AcDbSymbolTableRecord
100
AcDbTextStyleTableRecord
  2
ROMANS
 70
     0
 40
0.0
 41
1.0
 50
0.0
 71
     0
 42
6.0
  3
romans
  4

  0
STYLE
  5
7D14
100
AcDbSymbolTableRecord
100
AcDbTextStyleTableRecord
  2
STANDARD
 70
     0
 40
0.0
 41
1.0
 50
0.0
 71
     0
 42
0.2
  3
txt
  4

  0
ENDTAB
  0
TABLE
  2
VIEW
  5
7CEE
100
AcDbSymbolTable
 70
     0
  0
ENDTAB
  0
TABLE
  2
UCS
  5
7CEF
100
AcDbSymbolTable
 70
     0
  0
ENDTAB
  0
TABLE
  2
APPID
  5
7CF1
100
AcDbSymbolTable
 70
     1
  0
APPID
  5
7CFA
100
AcDbSymbolTableRecord
100
AcDbRegAppTableRecord
  2
ACAD
 70
     0
  0
ENDTAB
  0
TABLE
  2
DIMSTYLE
  5
7CF2
100
AcDbSymbolTable
 70
     2
  0
DIMSTYLE
105
7D18
102
{ACAD_XDICTIONARY
360
C0E7
102
}
100
AcDbSymbolTableRecord
100
AcDbDimStyleTableRecord
  2
SC_DEFAUT
 70
     0
  3

  4

  5
OPEN30
  6

  7

 40
1.0
 41
5.0
 42
2.0
 43
0.38
 44
2.5
 45
0.0
 46
0.0
 47
0.0
 48
0.0
140
2.5
141
0.0
142
0.0
143
25.4
144
1.0
145
0.0
146
1.0
147
2.0
 71
     0
 72
     0
 73
     1
 74
     1
 75
     0
 76
     0
 77
     1
 78
    12
170
     0
171
     2
172
     0
173
     0
174
     0
175
     0
176
     0
177
     0
178
     0
270
     2
271
     1
272
     1
273
     2
274
     2
340
7CF9
275
     0
280
     0
281
     0
282
     0
283
     1
284
    12
285
    12
286
    12
287
     5
288
     0
  0
DIMSTYLE
105
7D19
102
{ACAD_XDICTIONARY
360
C0E9
102
}
100
AcDbSymbolTableRecord
100
AcDbDimStyleTableRecord
  2
STANDARD
 70
     0
  3

  4

  5

  6

  7

 40
1.0
 41
0.18
 42
0.0625
 43
0.38
 44
0.18
 45
0.0
 46
0.0
 47
0.0
 48
0.0
140
0.18
141
0.09
142
0.0
143
25.4
144
1.0
145
0.0
146
1.0
147
0.09
 71
     0
 72
     0
 73
     1
 74
     1
 75
     0
 76
     0
 77
     0
 78
     0
170
     0
171
     2
172
     0
173
     0
174
     0
175
     0
176
     0
177
     0
178
     0
270
     2
271
     1
272
     1
273
     2
274
     2
340
7CF9
275
     0
280
     0
281
     0
282
     0
283
     1
284
    12
285
    12
286
    12
287
     5
288
     0
  0
ENDTAB
  0
TABLE
  2
BLOCK_RECORD
  5
7CE9
100
AcDbSymbolTable
 70
     3
  0
BLOCK_RECORD
  5
7D06
102
{ACAD_XDICTIONARY
360
800F
102
}
100
AcDbSymbolTableRecord
100
AcDbBlockTableRecord
  2
*MODEL_SPACE
  0
BLOCK_RECORD
  5
7D02
102
{ACAD_XDICTIONARY
360
8011
102
}
100
AcDbSymbolTableRecord
100
AcDbBlockTableRecord
  2
*PAPER_SPACE
  0
BLOCK_RECORD
  5
7D0A
100
AcDbSymbolTableRecord
100
AcDbBlockTableRecord
  2
COTE
  0
BLOCK_RECORD
  5
7D0B
100
AcDbSymbolTableRecord
100
AcDbBlockTableRecord
  2
FOND
  0
BLOCK_RECORD
  5
7D0C
100
AcDbSymbolTableRecord
100
AcDbBlockTableRecord
  2
_OPEN30
  0
ENDTAB
  0
ENDSEC
  0
SECTION
  2
BLOCKS
  0
BLOCK
  5
7D24
100
AcDbEntity
  8
0
100
AcDbBlockBegin
  2
*MODEL_SPACE
 70
     0
 10
0.0
 20
0.0
 30
0.0
  3
*MODEL_SPACE
  1

  0
ENDBLK
  5
7D25
100
AcDbEntity
  8
0
100
AcDbBlockEnd
  0
BLOCK
  5
7D22
100
AcDbEntity
 67
     1
  8
0
100
AcDbBlockBegin
  2
*PAPER_SPACE
 70
     0
 10
0.0
 20
0.0
 30
0.0
  3
*PAPER_SPACE
  1

  0
ENDBLK
  5
7D23
100
AcDbEntity
 67
     1
  8
0
100
AcDbBlockEnd
  0
BLOCK
  5
E
100
AcDbEntity
  8
0
100
AcDbBlockBegin
  2
COTE
 70
     0
 10
0.0
 20
0.0
 30
0.0
  3
COTE
  1

  0
ENDBLK
  5
F
100
AcDbEntity
  8
0
100
AcDbBlockEnd
  0
BLOCK
  5
74
100
AcDbEntity
  8
0
100
AcDbBlockBegin
  2
FOND
 70
     0
 10
0.0
 20
0.0
 30
0.0
  3
FOND
  1

  0
ENDBLK
  5
75
100
AcDbEntity
  8
0
100
AcDbBlockEnd
  0
BLOCK
  5
4B08
100
AcDbEntity
  8
0
100
AcDbBlockBegin
  2
_OPEN30
 70
     0
 10
0.0
 20
0.0
 30
0.0
  3
_OPEN30
  1

  0
LINE
  5
4B05
100
AcDbEntity
  8
COTATION1
 62
     0
100
AcDbLine
 10
-1.0
 20
0.267949
 30
0.0
 11
0.0
 21
0.0
 31
0.0
1001
ACAD
1000
RTLwPs
1070
   158
  0
LINE
  5
4B06
100
AcDbEntity
  8
COTATION1
 62
     0
100
AcDbLine
 10
0.0
 20
0.0
 30
0.0
 11
-1.0
 21
-0.267949
 31
0.0
1001
ACAD
1000
RTLwPs
1070
   158
  0
LINE
  5
4B07
100
AcDbEntity
  8
COTATION1
 62
     0
100
AcDbLine
 10
0.0
 20
0.0
 30
0.0
 11
-1.0
 21
0.0
 31
0.0
1001
ACAD
1000
RTLwPs
1070
   158
  0
ENDBLK
  5
4B09
100
AcDbEntity
  8
0
100
AcDbBlockEnd
  0
ENDSEC
  0
SECTION
  2
ENTITIES
  0
INSERT
  5
A
100
AcDbEntity
  8
0
100
AcDbBlockReference
  2
COTE
 10
0.0
 20
0.0
 30
0.0
  0
INSERT
  5
17
100
AcDbEntity
  8
0
100
AcDbBlockReference
  2
COTE
 10
284.010391
 20
6.373258
 30
0.0
  0
INSERT
  5
72
100
AcDbEntity
  8
0
100
AcDbBlockReference
  2
FOND
 10
0.0
 20
0.0
 30
0.0
  0
LINE
  5
BC9F
100
AcDbEntity
  8
AXE
100
AcDbLine
 10
9.737142
 20
69.592702
 30
0.0
 11
104.026608
 21
69.592702
 31
0.0
  0
TEXT
  5
BCA0
100
AcDbEntity
  8
AXE
100
AcDbText
 10
96.723219
 20
70.592702
 30
0.0
 40
8.0
  1
X
 72
     2
 11
103.19941
 21
70.592702
 31
0.0
100
AcDbText
  0
LINE
  5
BCA1
100
AcDbEntity
  8
AXE
100
AcDbLine
 10
52.737142
 20
16.600663
 30
0.0
 11
52.737142
 21
112.592702
 31
0.0
  0
TEXT
  5
BCA2
100
AcDbEntity
  8
AXE
100
AcDbText
 10
45.260951
 20
16.600663
 30
0.0
 40
8.0
  1
Z
 72
     2
 11
51.737142
 21
16.600663
 31
0.0
100
AcDbText
  0
CIRCLE
  5
C083
100
AcDbEntity
  8
0
  6
CONTINUOUS
 62
     9
100
AcDbCircle
 10
52.737142
 20
69.592702
 30
0.0
 40
33.870968
  0
CIRCLE
  5
C084
100
AcDbEntity
  8
0
  6
CONTINUOUS
 62
     7
100
AcDbCircle
 10
52.737142
 20
69.592702
 30
0.0
 40
35.0
  0
CIRCLE
  5
C085
100
AcDbEntity
  8
0
  6
CONTINUOUS
 62
     9
100
AcDbCircle
 10
52.737142
 20
69.592702
 30
0.0
 40
36.575
  0
CIRCLE
  5
C086
100
AcDbEntity
  8
0
  6
CONTINUOUS
 62
     7
100
AcDbCircle
 10
52.737142
 20
69.592702
 30
0.0
 40
35.075
  0
CIRCLE
  5
C087
100
AcDbEntity
  8
0
  6
CONTINUOUS
 62
     7
100
AcDbCircle
 10
52.737142
 20
69.592702
 30
0.0
 40
38.0
  0
ARC
  5
C088
100
AcDbEntity
  8
0
  6
CONTINUOUS
 62
     7
100
AcDbCircle
 10
52.737142
 20
69.592702
 30
0.0
 40
38.061959
100
AcDbArc
 50
246.804083
 51
263.430547
  0
ARC
  5
C089
100
AcDbEntity
  8
0
  6
CONTINUOUS
 62
     7
100
AcDbCircle
 10
52.737142
 20
69.592702
 30
0.0
 40
38.061959
100
AcDbArc
 50
66.804083
 51
115.195917
  0
ARC
  5
C08A
100
AcDbEntity
  8
0
  6
CONTINUOUS
 62
     7
100
AcDbCircle
 10
52.737142
 20
69.592702
 30
0.0
 40
38.051831
100
AcDbArc
 50
233.811536
 51
244.464062
  0
LINE
  5
C08B
100
AcDbEntity
  8
0
  6
CONTINUOUS
 62
     7
100
AcDbLine
 10
28.845755
 20
39.941534
 30
0.0
 11
30.271005
 21
38.806983
 31
0.0
  0
LINE
  5
C08C
100
AcDbEntity
  8
0
  6
CONTINUOUS
 62
     7
100
AcDbLine
 10
30.268124
 20
38.972024
 30
0.0
 11
30.271005
 21
38.806983
 31
0.0
  0
POLYLINE
  5
C08D
100
AcDbEntity
  8
0
  6
CONTINUOUS
 62
     7
100
AcDb2dPolyline
 66
     1
 10
0.0
 20
0.0
 30
0.0
  0
VERTEX
  5
C104
100
AcDbEntity
  8
0
  6
CONTINUOUS
 62
     7
100
AcDbVertex
100
AcDb2dVertex
 10
26.208745
 20
42.338966
 30
0.0
  0
VERTEX
  5
C105
100
AcDbEntity
  8
0
  6
CONTINUOUS
 62
     7
100
AcDbVertex
100
AcDb2dVertex
 10
27.491487
 20
41.120265
 30
0.0
  0
VERTEX
  5
C106
100
AcDbEntity
  8
0
  6
CONTINUOUS
 62
     7
100
AcDbVertex
100
AcDb2dVertex
 10
28.845755
 20
39.941534
 30
0.0
  0
SEQEND
  5
C107
100
AcDbEntity
  8
0
  6
CONTINUOUS
 62
     7
  0
LINE
  5
C08E
100
AcDbEntity
  8
0
  6
CONTINUOUS
 62
     7
100
AcDbLine
 10
26.20763
 20
42.402847
 30
0.0
 11
26.208745
 21
42.338966
 31
0.0
  0
LINE
  5
C08F
100
AcDbEntity
  8
0
  6
CONTINUOUS
 62
     7
100
AcDbLine
 10
37.742877
 20
34.754026
 30
0.0
 11
37.745434
 21
34.607542
 31
0.0
  0
LINE
  5
C090
100
AcDbEntity
  8
0
  6
CONTINUOUS
 62
     7
100
AcDbLine
 10
46.654324
 20
35.095325
 30
0.0
 11
46.670169
 21
35.185186
 31
0.0
  0
POLYLINE
  5
C091
100
AcDbEntity
  8
0
  6
CONTINUOUS
 62
     7
100
AcDb2dPolyline
 66
     1
 10
0.0
 20
0.0
 30
0.0
  0
VERTEX
  5
C108
100
AcDbEntity
  8
0
  6
CONTINUOUS
 62
     7
100
AcDbVertex
100
AcDb2dVertex
 10
29.210285
 20
99.57561
 30
0.0
  0
VERTEX
  5
C109
100
AcDbEntity
  8
0
  6
CONTINUOUS
 62
     7
100
AcDbVertex
100
AcDb2dVertex
 10
27.825498
 20
98.39201
 30
0.0
  0
VERTEX
  5
C10A
100
AcDbEntity
  8
0
  6
CONTINUOUS
 62
     7
100
AcDbVertex
100
AcDb2dVertex
 10
26.513192
 20
97.166734
 30
0.0
  0
VERTEX
  5
C10B
100
AcDbEntity
  8
0
  6
CONTINUOUS
 62
     7
100
AcDbVertex
100
AcDb2dVertex
 10
25.273763
 20
95.904008
 30
0.0
  0
SEQEND
  5
C10C
100
AcDbEntity
  8
0
  6
CONTINUOUS
 62
     7
  0
LINE
  5
C092
100
AcDbEntity
  8
0
  6
CONTINUOUS
 62
     7
100
AcDbLine
 10
17.748715
 20
70.492702
 30
0.0
 11
17.730017
 21
70.492702
 31
0.0
  0
LINE
  5
C093
100
AcDbEntity
  8
0
  6
CONTINUOUS
 62
     7
100
AcDbLine
 10
17.721598
 20
68.692702
 30
0.0
 11
17.748715
 21
68.692702
 31
0.0
  0
LINE
  5
C094
100
AcDbEntity
  8
0
  6
CONTINUOUS
 62
     7
100
AcDbLine
 10
25.27665
 20
95.738613
 30
0.0
 11
25.273763
 21
95.904008
 31
0.0
  0
ARC
  5
C095
100
AcDbEntity
  8
0
  6
CONTINUOUS
 62
     7
100
AcDbCircle
 10
52.737142
 20
69.592702
 30
0.0
 40
38.051831
100
AcDbArc
 50
117.535938
 51
128.188464
  0
LINE
  5
C096
100
AcDbEntity
  8
0
  6
CONTINUOUS
 62
     7
100
AcDbLine
 10
29.214602
 20
99.32826
 30
0.0
 11
29.210285
 21
99.57561
 31
0.0
  0
LINE
  5
C097
100
AcDbEntity
  8
0
  6
CONTINUOUS
 62
     7
100
AcDbLine
 10
35.147808
 20
103.207242
 30
0.0
 11
35.145595
 21
103.334061
 31
0.0
  0
LINE
  5
C098
100
AcDbEntity
  8
0
  6
CONTINUOUS
 62
     7
100
AcDbLine
 10
36.535279
 20
103.937277
 30
0.0
 11
36.533602
 21
104.033347
 31
0.0
  0
ARC
  5
C099
100
AcDbEntity
  8
0
  6
CONTINUOUS
 62
     7
100
AcDbCircle
 10
52.737142
 20
69.592702
 30
0.0
 40
38.061959
100
AcDbArc
 50
278.569453
 51
295.195917
  0
ARC
  5
C09A
100
AcDbEntity
  8
0
  6
CONTINUOUS
 62
     7
100
AcDbCircle
 10
52.737142
 20
69.592702
 30
0.0
 40
38.16
100
AcDbArc
 50
263.471043
 51
278.528957
  0
ARC
  5
C09B
100
AcDbEntity
  8
0
  6
CONTINUOUS
 62
     7
100
AcDbCircle
 10
52.737142
 20
69.592702
 30
0.0
 40
38.36
100
AcDbArc
 50
263.510523
 51
278.489477
  0
LINE
  5
C09C
100
AcDbEntity
  8
0
  6
CONTINUOUS
 62
     7
100
AcDbLine
 10
48.401666
 20
31.478489
 30
0.0
 11
48.395065
 21
31.856653
 31
0.0
  0
LINE
  5
C09D
100
AcDbEntity
  8
0
  6
CONTINUOUS
 62
     7
100
AcDbLine
 10
58.400143
 20
31.653013
 30
0.0
 11
58.393542
 21
32.031177
 31
0.0
  0
LINE
  5
C09E
100
AcDbEntity
  8
0
  6
CONTINUOUS
 62
     7
100
AcDbLine
 10
58.804115
 20
35.185186
 30
0.0
 11
58.814716
 21
35.125064
 31
0.0
  0
ARC
  5
C09F
100
AcDbEntity
  8
0
  6
CONTINUOUS
 62
     7
100
AcDbCircle
 10
52.737142
 20
69.592702
 30
0.0
 40
38.051831
100
AcDbArc
 50
297.535938
 51
308.188464
  0
LINE
  5
C0A0
100
AcDbEntity
  8
0
  6
CONTINUOUS
 62
     7
100
AcDbLine
 10
70.326475
 20
35.978162
 30
0.0
 11
70.328689
 21
35.851344
 31
0.0
  0
LINE
  5
C0A1
100
AcDbEntity
  8
0
  6
CONTINUOUS
 62
     7
100
AcDbLine
 10
68.939005
 20
35.248127
 30
0.0
 11
68.940682
 21
35.152057
 31
0.0
  0
POLYLINE
  5
C0A2
100
AcDbEntity
  8
0
  6
CONTINUOUS
 62
     7
100
AcDb2dPolyline
 66
     1
 10
0.0
 20
0.0
 30
0.0
  0
VERTEX
  5
C10D
100
AcDbEntity
  8
0
  6
CONTINUOUS
 62
     7
100
AcDbVertex
100
AcDb2dVertex
 10
76.263999
 20
39.609794
 30
0.0
  0
VERTEX
  5
C10E
100
AcDbEntity
  8
0
  6
CONTINUOUS
 62
     7
100
AcDbVertex
100
AcDb2dVertex
 10
77.648786
 20
40.793394
 30
0.0
  0
VERTEX
  5
C10F
100
AcDbEntity
  8
0
  6
CONTINUOUS
 62
     7
100
AcDbVertex
100
AcDb2dVertex
 10
78.961092
 20
42.01867
 30
0.0
  0
VERTEX
  5
C110
100
AcDbEntity
  8
0
  6
CONTINUOUS
 62
     7
100
AcDbVertex
100
AcDb2dVertex
 10
80.20052
 20
43.281396
 30
0.0
  0
SEQEND
  5
C111
100
AcDbEntity
  8
0
  6
CONTINUOUS
 62
     7
  0
LINE
  5
C0A3
100
AcDbEntity
  8
0
  6
CONTINUOUS
 62
     7
100
AcDbLine
 10
76.259682
 20
39.857144
 30
0.0
 11
76.263999
 21
39.609794
 31
0.0
  0
LINE
  5
C0A4
100
AcDbEntity
  8
0
  6
CONTINUOUS
 62
     7
100
AcDbLine
 10
80.197633
 20
43.446791
 30
0.0
 11
80.20052
 21
43.281396
 31
0.0
  0
POLYLINE
  5
C0A5
100
AcDbEntity
  8
0
  6
CONTINUOUS
 62
     7
100
AcDb2dPolyline
 66
     1
 10
0.0
 20
0.0
 30
0.0
  0
VERTEX
  5
C112
100
AcDbEntity
  8
0
  6
CONTINUOUS
 62
     7
100
AcDbVertex
100
AcDb2dVertex
 10
79.265539
 20
96.846438
 30
0.0
  0
VERTEX
  5
C113
100
AcDbEntity
  8
0
  6
CONTINUOUS
 62
     7
100
AcDbVertex
100
AcDb2dVertex
 10
77.982797
 20
98.06514
 30
0.0
  0
VERTEX
  5
C114
100
AcDbEntity
  8
0
  6
CONTINUOUS
 62
     7
100
AcDbVertex
100
AcDb2dVertex
 10
76.628529
 20
99.243871
 30
0.0
  0
SEQEND
  5
C115
100
AcDbEntity
  8
0
  6
CONTINUOUS
 62
     7
  0
CIRCLE
  5
C0A6
100
AcDbEntity
  8
0
  6
CONTINUOUS
 62
     7
100
AcDbCircle
 10
52.737142
 20
69.592702
 30
0.0
 40
0.75
  0
CIRCLE
  5
C0A7
100
AcDbEntity
  8
0
  6
CONTINUOUS
 62
     9
100
AcDbCircle
 10
52.737142
 20
69.592702
 30
0.0
 40
1.790279
  0
LINE
  5
C0A8
100
AcDbEntity
  8
0
  6
CONTINUOUS
 62
     7
100
AcDbLine
 10
79.266654
 20
96.782557
 30
0.0
 11
79.265539
 21
96.846438
 31
0.0
  0
LINE
  5
C0A9
100
AcDbEntity
  8
0
  6
CONTINUOUS
 62
     7
100
AcDbLine
 10
57.239402
 20
104.367867
 30
0.0
 11
54.492627
 21
104.559941
 31
0.0
  0
ARC
  5
C0AA
100
AcDbEntity
  8
0
  6
CONTINUOUS
 62
     7
100
AcDbCircle
 10
52.737142
 20
69.592702
 30
0.0
 40
38.051831
100
AcDbArc
 50
53.811536
 51
64.464062
  0
ARC
  5
C0AB
100
AcDbEntity
  8
0
  6
CONTINUOUS
 62
     7
100
AcDbCircle
 10
52.737142
 20
69.592702
 30
0.0
 40
36.175
100
AcDbArc
 50
63.396173
 51
66.584052
  0
LINE
  5
C0AC
100
AcDbEntity
  8
0
  6
CONTINUOUS
 62
     7
100
AcDbLine
 10
68.460759
 20
100.945907
 30
0.0
 11
68.936987
 21
101.93765
 31
0.0
  0
LINE
  5
C0AD
100
AcDbEntity
  8
0
  6
CONTINUOUS
 62
     7
100
AcDbLine
 10
67.113207
 20
102.788475
 30
0.0
 11
66.648144
 21
101.791144
 31
0.0
  0
ARC
  5
C0AE
100
AcDbEntity
  8
0
  6
CONTINUOUS
 62
     7
100
AcDbCircle
 10
65.526894
 20
102.72073
 30
0.0
 40
0.5
100
AcDbArc
 50
250.0
 51
290.0
  0
LINE
  5
C0AF
100
AcDbEntity
  8
0
  6
CONTINUOUS
 62
     7
100
AcDbLine
 10
68.34657
 20
102.226541
 30
0.0
 11
67.068149
 21
102.691848
 31
0.0
  0
LINE
  5
C0B0
100
AcDbEntity
  8
0
  6
CONTINUOUS
 62
     7
100
AcDbLine
 10
67.731407
 20
104.431378
 30
0.0
 11
67.72885
 21
104.577862
 31
0.0
  0
LINE
  5
C0B1
100
AcDbEntity
  8
0
  6
CONTINUOUS
 62
     7
100
AcDbLine
 10
76.628529
 20
99.243871
 30
0.0
 11
75.203279
 21
100.378421
 31
0.0
  0
LINE
  5
C0B2
100
AcDbEntity
  8
0
  6
CONTINUOUS
 62
     7
100
AcDbLine
 10
75.20616
 20
100.21338
 30
0.0
 11
75.203279
 21
100.378421
 31
0.0
  0
VIEWPORT
  5
494D
102
{ACAD_XDICTIONARY
360
C0DD
102
}
100
AcDbEntity
 67
     1
  8
0
100
AcDbViewport
 10
6.0
 20
4.5
 30
0.0
 40
13.37404
 41
9.064748
 68
    -1
 69
     1
1001
ACAD
1000
MVIEW
1002
{
1070
    16
1010
0.0
1020
0.0
1030
0.0
1010
0.0
1020
0.0
1030
1.0
1040
0.0
1040
9.064748
1040
6.0
1040
4.5
1040
50.0
1040
0.0
1040
0.0
1070
     0
1070
   100
1070
     1
1070
     1
1070
     0
1070
     0
1070
     0
1070
     0
1040
0.0
1040
0.0
1040
0.0
1040
10.0
1040
10.0
1040
10.0
1040
10.0
1070
     0
1002
{
1002
}
1002
}
  0
ENDSEC
  0
SECTION
  2
OBJECTS
  0
DICTIONARY
  5
7CF4
102
{ACAD_XDICTIONARY
360
C0DF
102
}
100
AcDbDictionary
  3
ACAD_GROUP
350
7CF5
  3
ACAD_LAYOUT
350
7D01
  3
ACAD_MLINESTYLE
350
7CFE
  3
ACAD_PLOTSETTINGS
350
7D00
  3
ACAD_PLOTSTYLENAME
350
7CF6
  3
ACDBHEADERROUNDTRIPXREC
350
C0BC
  3
ACDBVARIABLEDICTIONARY
350
8048
  0
DICTIONARY
  5
C0B6
100
AcDbDictionary
  3
ACAD_XREC_ROUNDTRIP
360
C0B7
  0
DICTIONARY
  5
C0B8
100
AcDbDictionary
  3
ACAD_XREC_ROUNDTRIP
360
C0B9
  0
DICTIONARY
  5
C0EB
100
AcDbDictionary
  3
ACAD_XREC_ROUNDTRIP
360
C0EC
  0
DICTIONARY
  5
C0E7
100
AcDbDictionary
  3
ACAD_XREC_ROUNDTRIP
360
C0E8
  0
DICTIONARY
  5
C0E9
100
AcDbDictionary
  3
ACAD_XREC_ROUNDTRIP
360
C0EA
  0
DICTIONARY
  5
800F
100
AcDbDictionary
  3
ACAD_LAYOUTSELFREF
360
C0E6
  3
ACAD_XREC_ROUNDTRIP
360
C0B4
  0
DICTIONARY
  5
8011
100
AcDbDictionary
  3
ACAD_LAYOUTSELFREF
360
C0E5
  3
ACAD_XREC_ROUNDTRIP
360
C0B5
  0
DICTIONARY
  5
C0DD
100
AcDbDictionary
  3
ACAD_XREC_ROUNDTRIP
360
C0DE
  0
DICTIONARY
  5
C0DF
100
AcDbDictionary
  3
ACAD_XREC_ROUNDTRIP
360
C0E0
  0
DICTIONARY
  5
7CF5
102
{ACAD_REACTORS
330
7CF4
102
}
100
AcDbDictionary
  0
DICTIONARY
  5
7D01
102
{ACAD_XDICTIONARY
360
C0E3
102
}
102
{ACAD_REACTORS
330
7CF4
102
}
100
AcDbDictionary
  3
MODEL
350
7D09
  3
PRÉSENTATION1
350
7D05
  0
DICTIONARY
  5
7CFE
102
{ACAD_XDICTIONARY
360
C0E1
102
}
102
{ACAD_REACTORS
330
7CF4
102
}
100
AcDbDictionary
  3
STANDARD
350
7CFF
  0
DICTIONARY
  5
7D00
102
{ACAD_REACTORS
330
7CF4
102
}
100
AcDbDictionary
  0
ACAD_ZOMBIE_OBJECT
  5
7CF6
102
{ACAD_REACTORS
330
7CF4
102
}
100
AcDbZombieObject
 90
      499
 91
      500
 93
       86
310
405010041939BDC9B585B1
350
7CF7
340
7CF7
 94
        0
  0
DICTIONARY
  5
C0BC
102
{ACAD_REACTORS
330
7CF4
102
}
100
AcDbDictionary
  3
CEPSNTYPE
350
C0C6
  3
DIMSTYLEDATA
350
C0CA
  3
FINGERPRINTGUID
350
C0C7
  3
HYPERLINKBASE
350
C0BF
  3
INSUNITS
350
C0C5
  3
LAYOUTDICT
350
C0C1
  3
LWETCUNION
350
C0C4
  3
PLOTSETDICT
350
C0C2
  3
PLOTSTYLNAMDICT
350
C0C3
  3
PSVPSCALE
350
C0C9
  3
PUCSBASE
350
C0CD
  3
PUCSORGBACK
350
C0D3
  3
PUCSORGBOTTOM
350
C0CF
  3
PUCSORGFRONT
350
C0D2
  3
PUCSORGLEFT
350
C0D0
  3
PUCSORGRIGHT
350
C0D1
  3
PUCSORGTOP
350
C0CE
  3
PUCSORTHOREF
350
C0CB
  3
PUCSORTHOVIEW
350
C0CC
  3
STYLESHEET
350
C0C0
  3
TSTACKALIGN
350
C0BD
  3
TSTACKSIZE
350
C0BE
  3
UCSBASE
350
C0D6
  3
UCSORGBACK
350
C0DC
  3
UCSORGBOTTOM
350
C0D8
  3
UCSORGFRONT
350
C0DB
  3
UCSORGLEFT
350
C0D9
  3
UCSORGRIGHT
350
C0DA
  3
UCSORGTOP
350
C0D7
  3
UCSORTHOREF
350
C0D4
  3
UCSORTHOVIEW
350
C0D5
  3
VERSIONGUID
350
C0C8
  0
DICTIONARY
  5
8048
102
{ACAD_REACTORS
330
7CF4
102
}
100
AcDbDictionary
  3
DIMASSOC
350
804A
  3
HIDETEXT
350
8049
  0
XRECORD
  5
C0B7
102
{ACAD_REACTORS
330
C0B6
102
}
100
AcDbXrecord
102
EXTNAMES
  1
BYBLOCK
  2
ByBlock
  0
XRECORD
  5
C0B9
102
{ACAD_REACTORS
330
C0B8
102
}
100
AcDbXrecord
102
EXTNAMES
  1
BYLAYER
  2
ByLayer
  0
XRECORD
  5
C0EC
102
{ACAD_REACTORS
330
C0EB
102
}
100
AcDbXrecord
102
PLOTBIT
280
     0
  0
XRECORD
  5
C0E8
102
{ACAD_REACTORS
330
C0E7
102
}
100
AcDbXrecord
102
ACADR14ROUNDTRIP
1000
DSTYLE
1002
{
1070
   279
 70
     2
1070
   341
340
7D0C
1070
   342
340
7D0C
1002
}
  0
XRECORD
  5
C0EA
102
{ACAD_REACTORS
330
C0E9
102
}
100
AcDbXrecord
102
ACADR14ROUNDTRIP
1000
DSTYLE
1002
{
1070
   279
 70
     2
1002
}
  0
XRECORD
  5
C0E6
102
{ACAD_REACTORS
330
800F
102
}
100
AcDbXrecord
340
7D06
  0
XRECORD
  5
C0B4
102
{ACAD_REACTORS
330
800F
102
}
100
AcDbXrecord
102
EXTNAMES
  1
*MODEL_SPACE
  2
*Model_Space
  0
XRECORD
  5
C0E5
102
{ACAD_REACTORS
330
8011
102
}
100
AcDbXrecord
340
7D02
  0
XRECORD
  5
C0B5
102
{ACAD_REACTORS
330
8011
102
}
100
AcDbXrecord
102
EXTNAMES
  1
*PAPER_SPACE
  2
*Paper_Space
  0
XRECORD
  5
C0DE
102
{ACAD_REACTORS
330
C0DD
102
}
100
AcDbXrecord
102
UCS
 74
     0
 71
     0
 10
0.0
 20
0.0
 30
0.0
 10
0.0
 20
0.0
 30
0.0
 10
0.0
 20
0.0
 30
0.0
146
0.0
 79
     0
102
VIEW
281
     0
102
NEWVIEWCONTROL
280
     4
  0
XRECORD
  5
C0E0
102
{ACAD_REACTORS
330
C0DF
102
}
100
AcDbXrecord
102
EXTNAMES
  1
ACDBVARIABLEDICTIONARY
  2
AcDbVariableDictionary
  0
DICTIONARY
  5
C0E3
100
AcDbDictionary
  3
ACAD_XREC_ROUNDTRIP
360
C0E4
  0
ACAD_ZOMBIE_OBJECT
  5
7D09
102
{ACAD_REACTORS
330
7D01
102
}
100
AcDbZombieObject
 90
      499
 91
      502
 93
      428
310
A2C01AAAAAAAAA5A69054D6F64656C901A800000000000000000000000000000000000000000000A1000000000000008902A6A6AAAAF
330
7D06
330
0
340
0
340
0
 94
        0
  0
ACAD_ZOMBIE_OBJECT
  5
7D05
102
{ACAD_REACTORS
330
7D01
102
}
100
AcDbZombieObject
 90
      499
 91
      502
 93
     1484
310
9154850204C617365724A65742035303030204E2050532C00800000040B87E17400000003838A84550000000000444F1640000000000611C510000000080253F6A40000000101FA3DC901024134A901416AA5910690D5072E973656E746174696F6E31406A800000000000000000000000000000000000000000000A100000
310
0000000008902A6A6A10232D5E076BC5510408CB5781DAF154410232D5E076BC5510408CB5781DAF15C410232D5E076BC5710408CB5781DAF15C47
330
7D02
330
494D
340
0
340
0
 94
        0
  0
DICTIONARY
  5
C0E1
100
AcDbDictionary
  3
ACAD_XREC_ROUNDTRIP
360
C0E2
  0
MLINESTYLE
  5
7CFF
102
{ACAD_REACTORS
330
7CFE
102
}
100
AcDbMlineStyle
  2
STANDARD
 70
     0
  3

 62
   256
 51
90.0
 52
90.0
 71
     2
 49
0.5
 62
   256
  6
BYLAYER
 49
-0.5
 62
   256
  6
BYLAYER
  0
ACAD_ZOMBIE_OBJECT
  5
7CF7
102
{ACAD_REACTORS
330
7CF6
102
}
100
AcDbZombieObject
 90
      499
 91
      501
 93
        0
 94
        0
  0
XRECORD
  5
C0C6
102
{ACAD_REACTORS
330
C0BC
102
}
100
AcDbXrecord
 90
        0
  0
XRECORD
  5
C0CA
102
{ACAD_REACTORS
330
C0BC
102
}
100
AcDbXrecord
1000
DSTYLE
1002
{
1070
   279
 70
     2
1070
   341
340
7D0C
1070
   342
340
7D0C
1002
}
  0
XRECORD
  5
C0C7
102
{ACAD_REACTORS
330
C0BC
102
}
100
AcDbXrecord
  1
{20110D97-5561-4CA7-8FED-06A9B97BF164}
  0
XRECORD
  5
C0BF
102
{ACAD_REACTORS
330
C0BC
102
}
100
AcDbXrecord
  1

  0
XRECORD
  5
C0C5
102
{ACAD_REACTORS
330
C0BC
102
}
100
AcDbXrecord
 90
        0
  0
XRECORD
  5
C0C1
102
{ACAD_REACTORS
330
C0BC
102
}
100
AcDbXrecord
340
7D01
  0
XRECORD
  5
C0C4
102
{ACAD_REACTORS
330
C0BC
102
}
100
AcDbXrecord
 90
    14877
  0
XRECORD
  5
C0C2
102
{ACAD_REACTORS
330
C0BC
102
}
100
AcDbXrecord
340
7D00
  0
XRECORD
  5
C0C3
102
{ACAD_REACTORS
330
C0BC
102
}
100
AcDbXrecord
340
7CF6
  0
XRECORD
  5
C0C9
102
{ACAD_REACTORS
330
C0BC
102
}
100
AcDbXrecord
 40
0.0
  0
XRECORD
  5
C0CD
102
{ACAD_REACTORS
330
C0BC
102
}
100
AcDbXrecord
340
0
  0
XRECORD
  5
C0D3
102
{ACAD_REACTORS
330
C0BC
102
}
100
AcDbXrecord
 10
0.0
 20
0.0
 30
0.0
  0
XRECORD
  5
C0CF
102
{ACAD_REACTORS
330
C0BC
102
}
100
AcDbXrecord
 10
0.0
 20
0.0
 30
0.0
  0
XRECORD
  5
C0D2
102
{ACAD_REACTORS
330
C0BC
102
}
100
AcDbXrecord
 10
0.0
 20
0.0
 30
0.0
  0
XRECORD
  5
C0D0
102
{ACAD_REACTORS
330
C0BC
102
}
100
AcDbXrecord
 10
0.0
 20
0.0
 30
0.0
  0
XRECORD
  5
C0D1
102
{ACAD_REACTORS
330
C0BC
102
}
100
AcDbXrecord
 10
0.0
 20
0.0
 30
0.0
  0
XRECORD
  5
C0CE
102
{ACAD_REACTORS
330
C0BC
102
}
100
AcDbXrecord
 10
0.0
 20
0.0
 30
0.0
  0
XRECORD
  5
C0CB
102
{ACAD_REACTORS
330
C0BC
102
}
100
AcDbXrecord
340
0
  0
XRECORD
  5
C0CC
102
{ACAD_REACTORS
330
C0BC
102
}
100
AcDbXrecord
 70
     0
  0
XRECORD
  5
C0C0
102
{ACAD_REACTORS
330
C0BC
102
}
100
AcDbXrecord
  1

  0
XRECORD
  5
C0BD
102
{ACAD_REACTORS
330
C0BC
102
}
100
AcDbXrecord
 90
        1
  0
XRECORD
  5
C0BE
102
{ACAD_REACTORS
330
C0BC
102
}
100
AcDbXrecord
 90
       70
  0
XRECORD
  5
C0D6
102
{ACAD_REACTORS
330
C0BC
102
}
100
AcDbXrecord
340
0
  0
XRECORD
  5
C0DC
102
{ACAD_REACTORS
330
C0BC
102
}
100
AcDbXrecord
 10
0.0
 20
0.0
 30
0.0
  0
XRECORD
  5
C0D8
102
{ACAD_REACTORS
330
C0BC
102
}
100
AcDbXrecord
 10
0.0
 20
0.0
 30
0.0
  0
XRECORD
  5
C0DB
102
{ACAD_REACTORS
330
C0BC
102
}
100
AcDbXrecord
 10
0.0
 20
0.0
 30
0.0
  0
XRECORD
  5
C0D9
102
{ACAD_REACTORS
330
C0BC
102
}
100
AcDbXrecord
 10
0.0
 20
0.0
 30
0.0
  0
XRECORD
  5
C0DA
102
{ACAD_REACTORS
330
C0BC
102
}
100
AcDbXrecord
 10
0.0
 20
0.0
 30
0.0
  0
XRECORD
  5
C0D7
102
{ACAD_REACTORS
330
C0BC
102
}
100
AcDbXrecord
 10
0.0
 20
0.0
 30
0.0
  0
XRECORD
  5
C0D4
102
{ACAD_REACTORS
330
C0BC
102
}
100
AcDbXrecord
340
0
  0
XRECORD
  5
C0D5
102
{ACAD_REACTORS
330
C0BC
102
}
100
AcDbXrecord
 70
     0
  0
XRECORD
  5
C0C8
102
{ACAD_REACTORS
330
C0BC
102
}
100
AcDbXrecord
  1
{81151A05-FB34-42DE-B3CA-C86FAEBE60C6}
  0
DICTIONARYVAR
  5
804A
102
{ACAD_REACTORS
330
8048
102
}
100
DictionaryVariables
280
     0
  1
2
  0
DICTIONARYVAR
  5
8049
102
{ACAD_REACTORS
330
8048
102
}
100
DictionaryVariables
280
     0
  1
1
  0
XRECORD
  5
C0E4
102
{ACAD_REACTORS
330
C0E3
102
}
100
AcDbXrecord
102
EXTNAMES
  1
MODEL
  2
Model
  1
PRÉSENTATION1
  2
Présentation1
  0
XRECORD
  5
C0E2
102
{ACAD_REACTORS
330
C0E1
102
}
100
AcDbXrecord
102
EXTNAMES
  1
STANDARD
  2
Standard
  0
ENDSEC
  0
EOF
