999
DXF file: Y:\001_SCHNEIDER_PARIS\maxime fuentes - génération CAD 2D\TRAVAIL\XB6DA11B_2D-Views\xb6da11b_2d-views_5.dxf
999
Pro/ENGINEER 2018260 by Parametric Technology Corporation
  0
SECTION
  2
HEADER
  9
$ACADVER
  1
AC1027
  9
$DWGCODEPAGE
  3
ANSI_1252
  9
$EXTMAX
 10
558.8
 20
431.8
 30
0.0
  9
$EXTMIN
 10
0.0
 20
0.0
 30
0.0
  9
$LIMMIN
 10
0.0
 20
0.0
  9
$LIMMAX
 10
558.8
 20
431.8
  9
$VIEWCTR
 10
279.4
 20
215.9
  9
$VIEWSIZE
 40
431.8
  9
$CLAYER
  8
0
  9
$LTSCALE
 40
30.734
  9
$CELTYPE
  6
BYLAYER
  9
$DIMSCALE
 40
1.0
  9
$DIMASZ
 40
0.1875
  9
$DIMEXO
 40
0.0625
  9
$DIMDLI
 40
21.2344
  9
$DIMEXE
 40
0.125
  9
$DIMCEN
 40
5.0292
  9
$DIMLFAC
 40
1.0
  9
$DIMBLK
  1
_CLOSED
  9
$DIMALT
 70
0
  9
$DIMALTF
 40
0.0393700787
  9
$DIMTXT
 40
0.15625
  9
$DIMTOL
 70
0
  9
$DIMLIM
 70
0
  9
$DIMTFAC
 40
1.0
  9
$DIMGAP
 40
0.625
  9
$DIMDSEP
 70
46
  9
$AUNITS
 70
0
  9
$PDMODE
 70
3
  9
$PDSIZE
 40
0.3125
  9
$HANDSEED
  5
304
  9
$TILEMODE
 70
1
  9
$MEASUREMENT
 70
1
  9
$INSUNITS
 70
4
  0
ENDSEC
  0
SECTION
  2
CLASSES
  0
CLASS
  1
ACDBDICTIONARYWDFLT
  2
AcDbDictionaryWithDefault
  3
AutoCAD 2000
 90
0
 91
1
280
0
281
0
  0
CLASS
  1
ACDBPLACEHOLDER
  2
AcDbPlaceHolder
  3
AutoCAD 2000
 90
0
 91
1
280
0
281
0
  0
CLASS
  1
LAYOUT
  2
AcDbLayout
  3
AutoCAD 2000
 90
0
 91
0
280
0
281
0
  0
ENDSEC
  0
SECTION
  2
TABLES
  0
TABLE
  2
VPORT
  5
8
100
AcDbSymbolTable
 70
2
  0
VPORT
  5
1F4
100
AcDbSymbolTableRecord
100
AcDbViewportTableRecord
  2
*ACTIVE
 70
0
 10
0.0
 20
0.0
 11
1.0
 21
1.0
 12
279.4
 22
215.9
 13
0.0
 23
0.0
 14
1.0
 24
1.0
 15
0.0
 25
0.0
 16
0.0
 26
0.0
 36
1.0
 17
0.0
 27
0.0
 37
0.0
 40
431.8
 41
1.2941176471
 42
50.0
 43
0.0
 44
0.0
 50
0.0
 51
0.0
 71
0
 72
100
 73
1
 74
1
 75
0
 76
0
 77
0
 78
0
  0
ENDTAB
  0
TABLE
  2
LTYPE
  5
5
100
AcDbSymbolTable
 70
6
  0
LTYPE
  5
14
100
AcDbSymbolTableRecord
100
AcDbLinetypeTableRecord
  2
BYBLOCK
 70
0
  3

 72
65
 73
0
 40
0.0
  0
LTYPE
  5
15
100
AcDbSymbolTableRecord
100
AcDbLinetypeTableRecord
  2
BYLAYER
 70
0
  3

 72
65
 73
0
 40
0.0
  0
LTYPE
  5
16
100
AcDbSymbolTableRecord
100
AcDbLinetypeTableRecord
  2
CONTINUOUS
 70
64
  3
Solid line
 72
65
 73
0
 40
0.0
  0
LTYPE
  5
1F5
100
AcDbSymbolTableRecord
100
AcDbLinetypeTableRecord
  2
CENTER
 70
64
  3
____ _ ____ _ ____ _ ____ _ ____ _ ____ _ ____
 72
65
 73
4
 40
0.6
 49
0.375
 74
0
 49
-0.075
 74
0
 49
0.075
 74
0
 49
-0.075
 74
0
  0
LTYPE
  5
1F6
100
AcDbSymbolTableRecord
100
AcDbLinetypeTableRecord
  2
HIDDEN
 70
64
  3
- - - - - - - - - - - - - - - - - - - -
 72
65
 73
2
 40
0.2
 49
0.1
 74
0
 49
-0.1
 74
0
  0
LTYPE
  5
1F7
100
AcDbSymbolTableRecord
100
AcDbLinetypeTableRecord
  2
PHANTOM
 70
64
  3
_____ _ _ _____ _ _ _____ _ _ _____
 72
65
 73
6
 40
0.8
 49
0.45
 74
0
 49
-0.05
 74
0
 49
0.1
 74
0
 49
-0.05
 74
0
 49
0.1
 74
0
 49
-0.05
 74
0
  0
LTYPE
  5
1F8
100
AcDbSymbolTableRecord
100
AcDbLinetypeTableRecord
  2
DOT
 70
64
  3
. . . . . . . . . . . . . . . . . . . .
 72
65
 73
2
 40
0.2
 49
0.1
 74
0
 49
-0.1
 74
0
  0
LTYPE
  5
1F9
100
AcDbSymbolTableRecord
100
AcDbLinetypeTableRecord
  2
DASHED
 70
64
  3
- - - - - - - - - - - - - - - - - - - -
 72
65
 73
2
 40
0.2
 49
0.1
 74
0
 49
-0.1
 74
0
  0
ENDTAB
  0
TABLE
  2
LAYER
  5
2
100
AcDbSymbolTable
 70
36
  0
LAYER
  5
10
100
AcDbSymbolTableRecord
100
AcDbLayerTableRecord
  2
0
 70
0
 62
7
  6
CONTINUOUS
370
-3
390
F
  0
LAYER
  5
1FA
100
AcDbSymbolTableRecord
100
AcDbLayerTableRecord
  2
DEFAULT_1
 70
0
 62
7
  6
CENTER
370
-3
390
F
  0
LAYER
  5
1FB
100
AcDbSymbolTableRecord
100
AcDbLayerTableRecord
  2
DEFAULT_2
 70
0
 62
8
  6
HIDDEN
370
-3
390
F
  0
LAYER
  5
1FC
100
AcDbSymbolTableRecord
100
AcDbLayerTableRecord
  2
DEFAULT_3
 70
0
 62
7
  6
PHANTOM
370
-3
390
F
  0
LAYER
  5
1FD
100
AcDbSymbolTableRecord
100
AcDbLayerTableRecord
  2
01_ALL_DTM_PLN
 70
0
 62
7
  6
CONTINUOUS
370
-3
390
F
  0
LAYER
  5
1FE
100
AcDbSymbolTableRecord
100
AcDbLayerTableRecord
  2
01__ASM_ALL_DTM_PLN
 70
0
 62
7
  6
CONTINUOUS
370
-3
390
F
  0
LAYER
  5
1FF
100
AcDbSymbolTableRecord
100
AcDbLayerTableRecord
  2
01__ASM_DEF_DTM_PLN
 70
0
 62
7
  6
CONTINUOUS
370
-3
390
F
  0
LAYER
  5
200
100
AcDbSymbolTableRecord
100
AcDbLayerTableRecord
  2
01___PRT_ALL_DTM_PLN
 70
0
 62
7
  6
CONTINUOUS
370
-3
390
F
  0
LAYER
  5
201
100
AcDbSymbolTableRecord
100
AcDbLayerTableRecord
  2
01___PRT_DEF_DTM_PLN
 70
0
 62
7
  6
CONTINUOUS
370
-3
390
F
  0
LAYER
  5
202
100
AcDbSymbolTableRecord
100
AcDbLayerTableRecord
  2
02_ALL_AXES
 70
0
 62
7
  6
CONTINUOUS
370
-3
390
F
  0
LAYER
  5
203
100
AcDbSymbolTableRecord
100
AcDbLayerTableRecord
  2
02__ASM_ALL_AXES
 70
0
 62
7
  6
CONTINUOUS
370
-3
390
F
  0
LAYER
  5
204
100
AcDbSymbolTableRecord
100
AcDbLayerTableRecord
  2
02___PRT_ALL_AXES
 70
0
 62
7
  6
CONTINUOUS
370
-3
390
F
  0
LAYER
  5
205
100
AcDbSymbolTableRecord
100
AcDbLayerTableRecord
  2
03_ALL_CURVES
 70
0
 62
7
  6
CONTINUOUS
370
-3
390
F
  0
LAYER
  5
206
100
AcDbSymbolTableRecord
100
AcDbLayerTableRecord
  2
03__ASM_ALL_CURVES
 70
0
 62
7
  6
CONTINUOUS
370
-3
390
F
  0
LAYER
  5
207
100
AcDbSymbolTableRecord
100
AcDbLayerTableRecord
  2
03___PRT_ALL_CURVES
 70
0
 62
7
  6
CONTINUOUS
370
-3
390
F
  0
LAYER
  5
208
100
AcDbSymbolTableRecord
100
AcDbLayerTableRecord
  2
04_ALL_DTM_PNT
 70
0
 62
7
  6
CONTINUOUS
370
-3
390
F
  0
LAYER
  5
209
100
AcDbSymbolTableRecord
100
AcDbLayerTableRecord
  2
04__ASM_ALL_DTM_PNT
 70
0
 62
7
  6
CONTINUOUS
370
-3
390
F
  0
LAYER
  5
20A
100
AcDbSymbolTableRecord
100
AcDbLayerTableRecord
  2
04___PRT_ALL_DTM_PNT
 70
0
 62
7
  6
CONTINUOUS
370
-3
390
F
  0
LAYER
  5
20B
100
AcDbSymbolTableRecord
100
AcDbLayerTableRecord
  2
05_ALL_DTM_CSYS
 70
0
 62
7
  6
CONTINUOUS
370
-3
390
F
  0
LAYER
  5
20C
100
AcDbSymbolTableRecord
100
AcDbLayerTableRecord
  2
05__ASM_ALL_DTM_CSYS
 70
0
 62
7
  6
CONTINUOUS
370
-3
390
F
  0
LAYER
  5
20D
100
AcDbSymbolTableRecord
100
AcDbLayerTableRecord
  2
05__ASM_DEF_DTM_CSYS
 70
0
 62
7
  6
CONTINUOUS
370
-3
390
F
  0
LAYER
  5
20E
100
AcDbSymbolTableRecord
100
AcDbLayerTableRecord
  2
05___PRT_ALL_DTM_CSYS
 70
0
 62
7
  6
CONTINUOUS
370
-3
390
F
  0
LAYER
  5
20F
100
AcDbSymbolTableRecord
100
AcDbLayerTableRecord
  2
05___PRT_DEF_DTM_CSYS
 70
0
 62
7
  6
CONTINUOUS
370
-3
390
F
  0
LAYER
  5
210
100
AcDbSymbolTableRecord
100
AcDbLayerTableRecord
  2
06_ALL_SURFS
 70
0
 62
7
  6
CONTINUOUS
370
-3
390
F
  0
LAYER
  5
211
100
AcDbSymbolTableRecord
100
AcDbLayerTableRecord
  2
06__ASM_ALL_SURFS
 70
0
 62
7
  6
CONTINUOUS
370
-3
390
F
  0
LAYER
  5
212
100
AcDbSymbolTableRecord
100
AcDbLayerTableRecord
  2
06___PRT_ALL_SURFS
 70
0
 62
7
  6
CONTINUOUS
370
-3
390
F
  0
LAYER
  5
213
100
AcDbSymbolTableRecord
100
AcDbLayerTableRecord
  2
07__ASM_ALL_SKELETONS
 70
0
 62
7
  6
CONTINUOUS
370
-3
390
F
  0
LAYER
  5
214
100
AcDbSymbolTableRecord
100
AcDbLayerTableRecord
  2
CLOSED_SHELL
 70
0
 62
7
  6
CONTINUOUS
370
-3
390
F
  0
LAYER
  5
215
100
AcDbSymbolTableRecord
100
AcDbLayerTableRecord
  2
Colour
 70
0
 62
7
  6
CONTINUOUS
370
-3
390
F
  0
LAYER
  5
216
100
AcDbSymbolTableRecord
100
AcDbLayerTableRecord
  2
ORIENTED_CLOSED_SHE
 70
0
 62
7
  6
CONTINUOUS
370
-3
390
F
  0
ENDTAB
  0
TABLE
  2
STYLE
  5
3
100
AcDbSymbolTable
 70
1
  0
STYLE
  5
11
100
AcDbSymbolTableRecord
100
AcDbTextStyleTableRecord
  2
STANDARD
 70
0
 40
0.0
 41
0.8
 50
0.0
 71
0
 42
0.2
  3
txt
  4

  0
STYLE
  5
217
100
AcDbSymbolTableRecord
100
AcDbTextStyleTableRecord
  2
TEXTSTYLE_1
 70
0
 40
0.0
 41
0.8
 50
0.0
 71
0
 42
0.2
  3
gdt
  4

  0
ENDTAB
  0
TABLE
  2
VIEW
  5
6
100
AcDbSymbolTable
 70
0
  0
ENDTAB
  0
TABLE
  2
UCS
  5
7
100
AcDbSymbolTable
 70
0
  0
ENDTAB
  0
TABLE
  2
APPID
  5
9
100
AcDbSymbolTable
 70
1
  0
APPID
  5
218
100
AcDbSymbolTableRecord
100
AcDbRegAppTableRecord
  2
ACAD
 70
0
  0
ENDTAB
  0
TABLE
  2
BLOCK_RECORD
  5
1
100
AcDbSymbolTable
 70
0
  0
BLOCK_RECORD
  5
219
100
AcDbSymbolTableRecord
100
AcDbBlockTableRecord
  2
*Model_Space
  0
BLOCK_RECORD
  5
21A
100
AcDbSymbolTableRecord
100
AcDbBlockTableRecord
  2
*Paper_Space
  0
BLOCK_RECORD
  5
21B
100
AcDbSymbolTableRecord
100
AcDbBlockTableRecord
  2
_CLOSED
  0
ENDTAB
  0
TABLE
  2
DIMSTYLE
  5
A
100
AcDbSymbolTable
 70
1
100
AcDbDimStyleTable
 71
0
  0
DIMSTYLE
105
21C
100
AcDbSymbolTableRecord
100
AcDbDimStyleTableRecord
  2
STANDARD
 70
0
  3

  4

 40
1.0
 41
0.1875
 42
0.0625
 43
0.38
 44
0.125
 45
0.0
 46
0.0
 47
0.01
 48
0.01
140
0.15625
141
0.09
142
0.0
143
25.4
144
1.0
145
0.0
146
1.0
147
0.625
 71
0.0
 72
0.0
 73
1
 74
1
 75
0
 76
0
 77
0
 78
8
 79
2
170
0
171
1
172
0
173
0
174
0
175
0
176
0
177
0
178
0
270
2
179
2
271
2
272
2
273
2
274
2
275
0
280
0
281
0
282
0
283
1
284
8
285
0
286
0
287
3
288
0
340
11
278
46
341
21B
342
21B
343
21B
344
21B
  0
ENDTAB
  0
ENDSEC
  0
SECTION
  2
BLOCKS
  0
BLOCK
  5
20
100
AcDbEntity
  8
0
100
AcDbBlockBegin
  2
*Model_Space
 70
0
 10
0.0
 20
0.0
 30
0.0
  3
*Model_Space
  1

  0
ENDBLK
  5
21
100
AcDbEntity
  8
0
100
AcDbBlockEnd
  0
BLOCK
  5
1C
100
AcDbEntity
  8
0
100
AcDbBlockBegin
  2
*Paper_Space
 70
0
 10
0.0
 20
0.0
 30
0.0
  3
*Paper_Space
  1

  0
ENDBLK
  5
1D
100
AcDbEntity
  8
0
100
AcDbBlockEnd
  0
BLOCK
  5
21D
100
AcDbEntity
  8
0
100
AcDbBlockBegin
  2
_CLOSED
 70
64
 10
0.0
 20
0.0
  3
_CLOSED
  1

  0
LINE
  5
21E
100
AcDbEntity
  8
0
  6
BYBLOCK
 62
0
100
AcDbLine
 10
0.0
 20
0.0
 11
-1.0
 21
0.1666666667
  0
LINE
  5
21F
100
AcDbEntity
  8
0
  6
BYBLOCK
 62
0
100
AcDbLine
 10
-1.0
 20
0.1666666667
 11
-1.0
 21
-0.1666666667
  0
LINE
  5
220
100
AcDbEntity
  8
0
  6
BYBLOCK
 62
0
100
AcDbLine
 10
-1.0
 20
-0.1666666667
 11
0.0
 21
0.0
  0
LINE
  5
221
100
AcDbEntity
  8
0
  6
BYBLOCK
 62
0
100
AcDbLine
 10
-1.0
 20
0.0
 11
0.0
 21
0.0
  0
ENDBLK
  5
222
100
AcDbEntity
  8
0
  6
BYBLOCK
 62
0
100
AcDbBlockEnd
  0
ENDSEC
  0
SECTION
  2
ENTITIES
  0
LINE
  5
223
100
AcDbEntity
  8
0
100
AcDbLine
 62
7
  6
CONTINUOUS
 10
226.2968480697
 20
212.3183431372
 11
226.2968480433
 21
212.5183431372
  0
LINE
  5
224
100
AcDbEntity
  8
0
100
AcDbLine
 62
7
  6
CONTINUOUS
 10
226.2968626237
 20
194.9683431365
 11
226.2968480283
 21
194.7683431372
  0
LINE
  5
225
100
AcDbEntity
  8
0
100
AcDbLine
 62
7
  6
CONTINUOUS
 10
233.1370258796
 20
194.7683431372
 11
233.1370258796
 21
212.5183431372
  0
LINE
  5
226
100
AcDbEntity
  8
0
100
AcDbLine
 62
7
  6
CONTINUOUS
 10
233.3370258796
 20
195.6933431372
 11
233.3370258796
 21
211.5933431372
  0
LINE
  5
227
100
AcDbEntity
  8
0
100
AcDbLine
 62
7
  6
CONTINUOUS
 10
235.3370258796
 20
197.7837582796
 11
235.3370258796
 21
200.5535413636
  0
LINE
  5
228
100
AcDbEntity
  8
0
100
AcDbLine
 62
7
  6
CONTINUOUS
 10
235.3370258796
 20
206.7331449108
 11
235.3370258796
 21
209.5029279948
  0
LINE
  5
229
100
AcDbEntity
  8
0
100
AcDbLine
 62
7
  6
CONTINUOUS
 10
235.4370258796
 20
208.8854792319
 11
235.4370197701
 21
198.4012070369
  0
LINE
  5
22A
100
AcDbEntity
  8
0
100
AcDbLine
 62
7
  6
CONTINUOUS
 10
236.2963525515
 20
194.7433431313
 11
236.2963525515
 21
197.6587453942
  0
LINE
  5
22B
100
AcDbEntity
  8
0
100
AcDbLine
 62
7
  6
CONTINUOUS
 10
236.2963525518
 20
209.6279408795
 11
236.2963525518
 21
212.5433431431
  0
LINE
  5
22C
100
AcDbEntity
  8
0
100
AcDbLine
 62
7
  6
CONTINUOUS
 10
236.4370258796
 20
212.5433431376
 11
236.4370258796
 21
194.7433431368
  0
LINE
  5
22D
100
AcDbEntity
  8
0
100
AcDbLine
 62
7
  6
CONTINUOUS
 10
234.2401191627
 20
195.0968965278
 11
235.4303250722
 21
198.0122936948
  0
LINE
  5
22E
100
AcDbEntity
  8
0
100
AcDbLine
 62
7
  6
CONTINUOUS
 10
234.2401191629
 20
212.1897897466
 11
235.1061445666
 21
212.5433431372
  0
LINE
  5
22F
100
AcDbEntity
  8
0
100
AcDbLine
 62
7
  6
CONTINUOUS
 10
234.2401191629
 20
195.0968965281
 11
235.1061445666
 21
194.7433431375
  0
LINE
  5
230
100
AcDbEntity
  8
0
100
AcDbLine
 62
7
  6
CONTINUOUS
 10
235.4303250724
 20
209.274392579
 11
234.2401191627
 21
212.1897897466
  0
LINE
  5
231
100
AcDbEntity
  8
0
100
AcDbLine
 62
7
  6
CONTINUOUS
 10
235.1061445659
 20
212.5433431379
 11
236.2963525518
 21
209.6279408795
  0
LINE
  5
232
100
AcDbEntity
  8
0
100
AcDbLine
 62
7
  6
CONTINUOUS
 10
236.2963525515
 20
197.6587453942
 11
235.1061445659
 21
194.7433431365
  0
LINE
  5
233
100
AcDbEntity
  8
0
100
AcDbLine
 62
7
  6
CONTINUOUS
 10
235.430317361
 20
209.2744051065
 11
236.2963525535
 21
209.6279408812
  0
LINE
  5
234
100
AcDbEntity
  8
0
100
AcDbLine
 62
7
  6
CONTINUOUS
 10
281.6470258802
 20
196.893343137
 11
282.1470258796
 21
196.9905332917
  0
LINE
  5
235
100
AcDbEntity
  8
0
100
AcDbLine
 62
7
  6
CONTINUOUS
 10
236.2963601461
 20
197.6587639912
 11
235.4303235648
 21
198.0122899978
  0
LINE
  5
236
100
AcDbEntity
  8
0
100
AcDbLine
 62
7
  6
CONTINUOUS
 10
242.2370258796
 20
212.5432626834
 11
242.2370258796
 21
212.0147171939
  0
LINE
  5
237
100
AcDbEntity
  8
0
100
AcDbLine
 62
7
  6
CONTINUOUS
 10
242.2370258796
 20
206.6649480755
 11
242.2370258796
 21
200.6217381989
  0
LINE
  5
238
100
AcDbEntity
  8
0
100
AcDbLine
 62
7
  6
CONTINUOUS
 10
242.2370258796
 20
195.2719690805
 11
242.2370258796
 21
194.743423591
  0
LINE
  5
239
100
AcDbEntity
  8
0
100
AcDbLine
 62
7
  6
CONTINUOUS
 10
243.4370258796
 20
212.0147171939
 11
243.4370258796
 21
206.3933431371
  0
LINE
  5
23A
100
AcDbEntity
  8
0
100
AcDbLine
 62
7
  6
CONTINUOUS
 10
243.4370258796
 20
200.8933431372
 11
243.4370258796
 21
195.2719690804
  0
LINE
  5
23B
100
AcDbEntity
  8
0
100
AcDbLine
 62
7
  6
CONTINUOUS
 10
281.6470258796
 20
200.6933431376
 11
282.1470258796
 21
200.7905332924
  0
LINE
  5
23C
100
AcDbEntity
  8
0
100
AcDbLine
 62
7
  6
CONTINUOUS
 10
235.1061445659
 20
194.7433431365
 11
236.2963525515
 21
194.7433431313
  0
LINE
  5
23D
100
AcDbEntity
  8
0
100
AcDbLine
 62
7
  6
CONTINUOUS
 10
236.4370258796
 20
194.7433431372
 11
242.2370258796
 21
194.7433431372
  0
LINE
  5
23E
100
AcDbEntity
  8
0
100
AcDbLine
 62
7
  6
CONTINUOUS
 10
226.2968480283
 20
194.7683431372
 11
233.1370258796
 21
194.7683431372
  0
LINE
  5
23F
100
AcDbEntity
  8
0
100
AcDbLine
 62
7
  6
CONTINUOUS
 10
264.7728589059
 20
194.9433431368
 11
268.9470258792
 21
194.9433431368
  0
LINE
  5
240
100
AcDbEntity
  8
0
100
AcDbLine
 62
7
  6
CONTINUOUS
 10
233.1370258798
 20
194.9683431365
 11
226.2968480496
 21
194.9683431365
  0
LINE
  5
241
100
AcDbEntity
  8
0
100
AcDbLine
 62
7
  6
CONTINUOUS
 10
270.1470258796
 20
195.0433431372
 11
254.1470258796
 21
195.0433431372
  0
LINE
  5
242
100
AcDbEntity
  8
0
100
AcDbLine
 62
7
  6
CONTINUOUS
 10
242.2370258796
 20
195.2719690805
 11
243.4370258796
 21
195.2719690805
  0
LINE
  5
243
100
AcDbEntity
  8
0
100
AcDbLine
 62
7
  6
CONTINUOUS
 10
250.1470258796
 20
195.3683431372
 11
251.3470258796
 21
195.3683431372
  0
LINE
  5
244
100
AcDbEntity
  8
0
100
AcDbLine
 62
7
  6
CONTINUOUS
 10
252.0470258796
 20
195.3683431372
 11
254.1470258796
 21
195.3683431372
  0
LINE
  5
245
100
AcDbEntity
  8
0
100
AcDbLine
 62
7
  6
CONTINUOUS
 10
272.7779659872
 20
195.4933431372
 11
274.3470258796
 21
195.4933431372
  0
LINE
  5
246
100
AcDbEntity
  8
0
100
AcDbLine
 62
7
  6
CONTINUOUS
 10
254.1470258803
 20
195.6433431372
 11
252.0470258796
 21
195.6433431372
  0
LINE
  5
247
100
AcDbEntity
  8
0
100
AcDbLine
 62
7
  6
CONTINUOUS
 10
250.1470258803
 20
195.6433431368
 11
251.3470258796
 21
195.6433431368
  0
LINE
  5
248
100
AcDbEntity
  8
0
100
AcDbLine
 62
7
  6
CONTINUOUS
 10
234.4836174713
 20
195.6933431372
 11
233.3370258796
 21
195.6933431372
  0
LINE
  5
249
100
AcDbEntity
  8
0
100
AcDbLine
 62
7
  6
CONTINUOUS
 10
243.4370258796
 20
195.6941490852
 11
246.3070258796
 21
195.6941490852
  0
LINE
  5
24A
100
AcDbEntity
  8
0
100
AcDbLine
 62
7
  6
CONTINUOUS
 10
258.3412606666
 20
195.8433431372
 11
269.5408080971
 21
195.8433431372
  0
LINE
  5
24B
100
AcDbEntity
  8
0
100
AcDbLine
 62
7
  6
CONTINUOUS
 10
254.1470258796
 20
195.8933431372
 11
274.3470258796
 21
195.8933431372
  0
LINE
  5
24C
100
AcDbEntity
  8
0
100
AcDbLine
 62
7
  6
CONTINUOUS
 10
225.8383012303
 20
196.0535548269
 11
225.8664662237
 21
196.0535548269
  0
LINE
  5
24D
100
AcDbEntity
  8
0
100
AcDbLine
 62
7
  6
CONTINUOUS
 10
246.2620259154
 20
202.7860217001
 11
246.2620259154
 21
204.5006645737
  0
LINE
  5
24E
100
AcDbEntity
  8
0
100
AcDbLine
 62
7
  6
CONTINUOUS
 10
246.3070258796
 20
195.6941291711
 11
246.3070258796
 21
202.7860217272
  0
LINE
  5
24F
100
AcDbEntity
  8
0
100
AcDbLine
 62
7
  6
CONTINUOUS
 10
246.3070258796
 20
204.5006645472
 11
246.3070258796
 21
211.592549502
  0
LINE
  5
250
100
AcDbEntity
  8
0
100
AcDbLine
 62
7
  6
CONTINUOUS
 10
246.7470258796
 20
197.2636389896
 11
246.7470258796
 21
196.3838235246
  0
LINE
  5
251
100
AcDbEntity
  8
0
100
AcDbLine
 62
7
  6
CONTINUOUS
 10
247.0870258796
 20
211.0183077229
 11
247.0870258796
 21
210.90286275
  0
LINE
  5
252
100
AcDbEntity
  8
0
100
AcDbLine
 62
7
  6
CONTINUOUS
 10
247.0870258796
 20
196.2683785522
 11
247.0870258796
 21
196.5870959051
  0
LINE
  5
253
100
AcDbEntity
  8
0
100
AcDbLine
 62
7
  6
CONTINUOUS
 10
247.0870258796
 20
196.2683431372
 11
246.3070258796
 21
196.2683431372
  0
LINE
  5
254
100
AcDbEntity
  8
0
100
AcDbLine
 62
7
  6
CONTINUOUS
 10
250.1470258796
 20
196.3838235252
 11
246.7470258796
 21
196.383823525
  0
LINE
  5
255
100
AcDbEntity
  8
0
100
AcDbLine
 62
7
  6
CONTINUOUS
 10
246.7470258796
 20
196.5870959051
 11
250.1470258796
 21
196.5870959051
  0
LINE
  5
256
100
AcDbEntity
  8
0
100
AcDbLine
 62
7
  6
CONTINUOUS
 10
258.7970258796
 20
196.6933431372
 11
258.3470258796
 21
196.6933431372
  0
LINE
  5
257
100
AcDbEntity
  8
0
100
AcDbLine
 62
7
  6
CONTINUOUS
 10
257.7470258796
 20
196.6933431372
 11
258.1470258796
 21
196.6933431372
  0
LINE
  5
258
100
AcDbEntity
  8
0
100
AcDbLine
 62
7
  6
CONTINUOUS
 10
257.8470258796
 20
196.7683431372
 11
258.6470258796
 21
196.7683431372
  0
LINE
  5
259
100
AcDbEntity
  8
0
100
AcDbLine
 62
7
  6
CONTINUOUS
 10
274.3470258788
 20
196.8933431368
 11
281.6470258802
 21
196.8933431368
  0
LINE
  5
25A
100
AcDbEntity
  8
0
100
AcDbLine
 62
7
  6
CONTINUOUS
 10
246.7470258796
 20
197.2636389911
 11
250.1470258796
 21
197.2636389911
  0
LINE
  5
25B
100
AcDbEntity
  8
0
100
AcDbLine
 62
7
  6
CONTINUOUS
 10
281.6470258802
 20
197.3933431368
 11
274.3470258788
 21
197.3933431368
  0
LINE
  5
25C
100
AcDbEntity
  8
0
100
AcDbLine
 62
7
  6
CONTINUOUS
 10
252.0470258796
 20
197.4266169482
 11
254.1470258803
 21
197.4266169482
  0
LINE
  5
25D
100
AcDbEntity
  8
0
100
AcDbLine
 62
7
  6
CONTINUOUS
 10
250.1470258796
 20
197.6433431372
 11
251.3470258796
 21
197.6433431372
  0
LINE
  5
25E
100
AcDbEntity
  8
0
100
AcDbLine
 62
7
  6
CONTINUOUS
 10
258.7970258796
 20
197.7933431372
 11
258.6470258796
 21
197.7933431372
  0
LINE
  5
25F
100
AcDbEntity
  8
0
100
AcDbLine
 62
7
  6
CONTINUOUS
 10
264.3996538236
 20
195.0433431372
 11
264.7728589059
 21
194.9433431368
  0
LINE
  5
260
100
AcDbEntity
  8
0
100
AcDbLine
 62
7
  6
CONTINUOUS
 10
249.6470258796
 20
210.9028627496
 11
249.6470258796
 21
210.5933431372
  0
LINE
  5
261
100
AcDbEntity
  8
0
100
AcDbLine
 62
7
  6
CONTINUOUS
 10
246.3070258796
 20
198.6077221341
 11
249.6894644789
 21
198.8519928468
  0
LINE
  5
262
100
AcDbEntity
  8
0
100
AcDbLine
 62
7
  6
CONTINUOUS
 10
246.3133265575
 20
199.0335446926
 11
246.8820349599
 21
199.0746152997
  0
LINE
  5
263
100
AcDbEntity
  8
0
100
AcDbLine
 62
7
  6
CONTINUOUS
 10
252.0470258796
 20
198.3911493851
 11
251.3470258796
 21
198.3911493851
  0
LINE
  5
264
100
AcDbEntity
  8
0
100
AcDbLine
 62
7
  6
CONTINUOUS
 10
235.4370197701
 20
198.4012070369
 11
236.4370258796
 21
198.4012075137
  0
LINE
  5
265
100
AcDbEntity
  8
0
100
AcDbLine
 62
7
  6
CONTINUOUS
 10
254.1470258796
 20
198.5933431372
 11
252.0470258796
 21
198.5933431372
  0
LINE
  5
266
100
AcDbEntity
  8
0
100
AcDbLine
 62
7
  6
CONTINUOUS
 10
252.1470258796
 20
198.7185969508
 11
254.1470258796
 21
198.7185969508
  0
LINE
  5
267
100
AcDbEntity
  8
0
100
AcDbLine
 62
7
  6
CONTINUOUS
 10
250.1470258796
 20
199.7433431372
 11
251.3470258796
 21
199.7433431372
  0
LINE
  5
268
100
AcDbEntity
  8
0
100
AcDbLine
 62
7
  6
CONTINUOUS
 10
252.0470258796
 20
199.7433431372
 11
254.1470258796
 21
199.7433431372
  0
LINE
  5
269
100
AcDbEntity
  8
0
100
AcDbLine
 62
7
  6
CONTINUOUS
 10
258.6470258796
 20
199.7933431372
 11
258.7970258796
 21
199.7933431372
  0
LINE
  5
26A
100
AcDbEntity
  8
0
100
AcDbLine
 62
7
  6
CONTINUOUS
 10
250.1470258796
 20
195.3683431372
 11
250.1470258796
 21
199.7433431372
  0
LINE
  5
26B
100
AcDbEntity
  8
0
100
AcDbLine
 62
7
  6
CONTINUOUS
 10
250.1470258796
 20
207.5433431372
 11
250.1470258796
 21
213.0433431376
  0
LINE
  5
26C
100
AcDbEntity
  8
0
100
AcDbLine
 62
7
  6
CONTINUOUS
 10
251.1470258796
 20
206.8320928933
 11
251.1470258796
 21
200.4545933819
  0
LINE
  5
26D
100
AcDbEntity
  8
0
100
AcDbLine
 62
7
  6
CONTINUOUS
 10
251.3470258796
 20
213.0433431373
 11
251.3470258796
 21
211.8933431372
  0
LINE
  5
26E
100
AcDbEntity
  8
0
100
AcDbLine
 62
7
  6
CONTINUOUS
 10
251.3470258796
 20
195.1128101798
 11
251.3470258796
 21
211.8771577344
  0
LINE
  5
26F
100
AcDbEntity
  8
0
100
AcDbLine
 62
7
  6
CONTINUOUS
 10
226.2968517094
 20
194.9683431372
 11
226.1016851944
 21
194.9246227287
  0
LINE
  5
270
100
AcDbEntity
  8
0
100
AcDbLine
 62
7
  6
CONTINUOUS
 10
281.6470258796
 20
205.9933431372
 11
282.1470258796
 21
206.0905332919
  0
LINE
  5
271
100
AcDbEntity
  8
0
100
AcDbLine
 62
7
  6
CONTINUOUS
 10
246.3070258796
 20
200.4270565958
 11
243.4370258796
 21
200.4270570375
  0
LINE
  5
272
100
AcDbEntity
  8
0
100
AcDbLine
 62
7
  6
CONTINUOUS
 10
235.4370209507
 20
200.4270566219
 11
235.3370258796
 21
200.4270565958
  0
LINE
  5
273
100
AcDbEntity
  8
0
100
AcDbLine
 62
7
  6
CONTINUOUS
 10
252.1470258796
 20
200.4545933828
 11
252.0470258796
 21
200.4545933828
  0
LINE
  5
274
100
AcDbEntity
  8
0
100
AcDbLine
 62
7
  6
CONTINUOUS
 10
251.3470258796
 20
200.4545933828
 11
251.1470258796
 21
200.4545933828
  0
LINE
  5
275
100
AcDbEntity
  8
0
100
AcDbLine
 62
7
  6
CONTINUOUS
 10
235.3370258796
 20
200.5535413636
 11
235.4370258796
 21
200.5535413636
  0
LINE
  5
276
100
AcDbEntity
  8
0
100
AcDbLine
 62
7
  6
CONTINUOUS
 10
243.4370258796
 20
200.6217381987
 11
242.2370258796
 21
200.6217381987
  0
LINE
  5
277
100
AcDbEntity
  8
0
100
AcDbLine
 62
7
  6
CONTINUOUS
 10
274.4135342781
 20
200.6933431376
 11
281.6470258796
 21
200.6933431376
  0
LINE
  5
278
100
AcDbEntity
  8
0
100
AcDbLine
 62
7
  6
CONTINUOUS
 10
257.8470258796
 20
200.8183431372
 11
258.6470258803
 21
200.8183431372
  0
LINE
  5
279
100
AcDbEntity
  8
0
100
AcDbLine
 62
7
  6
CONTINUOUS
 10
258.7970258788
 20
200.8933431372
 11
258.3470258796
 21
200.8933431372
  0
LINE
  5
27A
100
AcDbEntity
  8
0
100
AcDbLine
 62
7
  6
CONTINUOUS
 10
242.2370258796
 20
200.8933431372
 11
243.4370258796
 21
200.8933431372
  0
LINE
  5
27B
100
AcDbEntity
  8
0
100
AcDbLine
 62
7
  6
CONTINUOUS
 10
257.7470258792
 20
200.9933431368
 11
258.1470258796
 21
200.9933431368
  0
LINE
  5
27C
100
AcDbEntity
  8
0
100
AcDbLine
 62
7
  6
CONTINUOUS
 10
281.6470258796
 20
201.1933431372
 11
274.4135342784
 21
201.1933431372
  0
LINE
  5
27D
100
AcDbEntity
  8
0
100
AcDbLine
 62
7
  6
CONTINUOUS
 10
258.1470258796
 20
201.5933431379
 11
258.3470258796
 21
201.5933431379
  0
LINE
  5
27E
100
AcDbEntity
  8
0
100
AcDbLine
 62
7
  6
CONTINUOUS
 10
252.0470258796
 20
195.1128101798
 11
252.0470258796
 21
211.8933431372
  0
LINE
  5
27F
100
AcDbEntity
  8
0
100
AcDbLine
 62
7
  6
CONTINUOUS
 10
252.1470258796
 20
198.7185969514
 11
252.1470258796
 21
208.5680893243
  0
LINE
  5
280
100
AcDbEntity
  8
0
100
AcDbLine
 62
7
  6
CONTINUOUS
 10
252.1470258796
 20
211.5433431372
 11
252.1470258796
 21
211.9183431372
  0
LINE
  5
281
100
AcDbEntity
  8
0
100
AcDbLine
 62
7
  6
CONTINUOUS
 10
246.2620259154
 20
202.7860217272
 11
246.3070258796
 21
202.7860217272
  0
LINE
  5
282
100
AcDbEntity
  8
0
100
AcDbLine
 62
7
  6
CONTINUOUS
 10
281.6470258796
 20
197.3933431372
 11
282.1470258795
 21
197.2961529826
  0
LINE
  5
283
100
AcDbEntity
  8
0
100
AcDbLine
 62
7
  6
CONTINUOUS
 10
254.1470258796
 20
212.2433431368
 11
254.1470258796
 21
195.0433431372
  0
LINE
  5
284
100
AcDbEntity
  8
0
100
AcDbLine
 62
7
  6
CONTINUOUS
 10
269.4542055559
 20
211.3933431372
 11
270.1470258796
 21
211.7933431376
  0
LINE
  5
285
100
AcDbEntity
  8
0
100
AcDbLine
 62
7
  6
CONTINUOUS
 10
281.6470258802
 20
209.7933431373
 11
282.1470258796
 21
209.8905332918
  0
LINE
  5
286
100
AcDbEntity
  8
0
100
AcDbLine
 62
7
  6
CONTINUOUS
 10
246.3070258796
 20
204.5006645472
 11
246.2620259154
 21
204.5006645472
  0
LINE
  5
287
100
AcDbEntity
  8
0
100
AcDbLine
 62
7
  6
CONTINUOUS
 10
258.3470258796
 20
205.5933431372
 11
258.1470258796
 21
205.5933431372
  0
LINE
  5
288
100
AcDbEntity
  8
0
100
AcDbLine
 62
7
  6
CONTINUOUS
 10
274.4135341829
 20
205.9933431372
 11
281.6470258796
 21
205.9933431372
  0
LINE
  5
289
100
AcDbEntity
  8
0
100
AcDbLine
 62
7
  6
CONTINUOUS
 10
226.2968480133
 20
212.3183431372
 11
226.1016854836
 21
212.3620648366
  0
LINE
  5
28A
100
AcDbEntity
  8
0
100
AcDbLine
 62
7
  6
CONTINUOUS
 10
270.1470258796
 20
195.4933431372
 11
269.4542055566
 21
195.8933431372
  0
LINE
  5
28B
100
AcDbEntity
  8
0
100
AcDbLine
 62
7
  6
CONTINUOUS
 10
257.7470258792
 20
196.6933431379
 11
257.7470258792
 21
200.9933431368
  0
LINE
  5
28C
100
AcDbEntity
  8
0
100
AcDbLine
 62
7
  6
CONTINUOUS
 10
257.7470258792
 20
206.2933431376
 11
257.7470258792
 21
210.5933431364
  0
LINE
  5
28D
100
AcDbEntity
  8
0
100
AcDbLine
 62
7
  6
CONTINUOUS
 10
257.8470258796
 20
210.4183431372
 11
257.8470258796
 21
206.3683431372
  0
LINE
  5
28E
100
AcDbEntity
  8
0
100
AcDbLine
 62
7
  6
CONTINUOUS
 10
257.8470258796
 20
200.8183431372
 11
257.8470258796
 21
196.7683431372
  0
LINE
  5
28F
100
AcDbEntity
  8
0
100
AcDbLine
 62
7
  6
CONTINUOUS
 10
257.7470258796
 20
206.2933431372
 11
258.1470258796
 21
206.2933431372
  0
LINE
  5
290
100
AcDbEntity
  8
0
100
AcDbLine
 62
7
  6
CONTINUOUS
 10
258.3470258796
 20
206.2933431372
 11
258.7970258796
 21
206.2933431372
  0
LINE
  5
291
100
AcDbEntity
  8
0
100
AcDbLine
 62
7
  6
CONTINUOUS
 10
257.8470258796
 20
206.3683431372
 11
258.6470258796
 21
206.3683431372
  0
LINE
  5
292
100
AcDbEntity
  8
0
100
AcDbLine
 62
7
  6
CONTINUOUS
 10
243.4370258796
 20
206.3933431369
 11
242.2370258796
 21
206.3933431369
  0
LINE
  5
293
100
AcDbEntity
  8
0
100
AcDbLine
 62
7
  6
CONTINUOUS
 10
281.6470258796
 20
206.4933431365
 11
274.4135342781
 21
206.4933431365
  0
LINE
  5
294
100
AcDbEntity
  8
0
100
AcDbLine
 62
7
  6
CONTINUOUS
 10
242.2370258796
 20
206.6649480754
 11
243.4370258796
 21
206.6649480754
  0
LINE
  5
295
100
AcDbEntity
  8
0
100
AcDbLine
 62
7
  6
CONTINUOUS
 10
235.4370258796
 20
206.7331449108
 11
235.3370258796
 21
206.7331449108
  0
LINE
  5
296
100
AcDbEntity
  8
0
100
AcDbLine
 62
7
  6
CONTINUOUS
 10
251.1470258796
 20
206.8320928924
 11
251.3470258796
 21
206.8320928924
  0
LINE
  5
297
100
AcDbEntity
  8
0
100
AcDbLine
 62
7
  6
CONTINUOUS
 10
252.0470258796
 20
206.8320928924
 11
252.1470258796
 21
206.8320928924
  0
LINE
  5
298
100
AcDbEntity
  8
0
100
AcDbLine
 62
7
  6
CONTINUOUS
 10
235.3370258796
 20
206.8595916391
 11
235.4370246991
 21
206.8595916391
  0
LINE
  5
299
100
AcDbEntity
  8
0
100
AcDbLine
 62
7
  6
CONTINUOUS
 10
243.4370258796
 20
206.8595916391
 11
246.3070258796
 21
206.8595916391
  0
LINE
  5
29A
100
AcDbEntity
  8
0
100
AcDbLine
 62
7
  6
CONTINUOUS
 10
258.7970258796
 20
207.3933431372
 11
258.6470258796
 21
207.3933431372
  0
LINE
  5
29B
100
AcDbEntity
  8
0
100
AcDbLine
 62
7
  6
CONTINUOUS
 10
250.1470258796
 20
207.5433431372
 11
251.3470258796
 21
207.5433431372
  0
LINE
  5
29C
100
AcDbEntity
  8
0
100
AcDbLine
 62
7
  6
CONTINUOUS
 10
252.0470258796
 20
207.5433431372
 11
254.1470258796
 21
207.5433431372
  0
LINE
  5
29D
100
AcDbEntity
  8
0
100
AcDbLine
 62
7
  6
CONTINUOUS
 10
281.6470258803
 20
201.1933431371
 11
282.1470258804
 21
201.0961529825
  0
LINE
  5
29E
100
AcDbEntity
  8
0
100
AcDbLine
 62
7
  6
CONTINUOUS
 10
258.1470258796
 20
211.3933431372
 11
258.1470258796
 21
210.5933431372
  0
LINE
  5
29F
100
AcDbEntity
  8
0
100
AcDbLine
 62
7
  6
CONTINUOUS
 10
258.1470258796
 20
206.2933431376
 11
258.1470258796
 21
200.9933431372
  0
LINE
  5
2A0
100
AcDbEntity
  8
0
100
AcDbLine
 62
7
  6
CONTINUOUS
 10
258.1470258796
 20
196.6933431379
 11
258.1470258796
 21
195.8933431372
  0
LINE
  5
2A1
100
AcDbEntity
  8
0
100
AcDbLine
 62
7
  6
CONTINUOUS
 10
258.3412606659
 20
195.8933431379
 11
258.3412606659
 21
195.8433431372
  0
LINE
  5
2A2
100
AcDbEntity
  8
0
100
AcDbLine
 62
7
  6
CONTINUOUS
 10
258.3470258796
 20
206.3683431372
 11
258.3470258796
 21
200.8183431372
  0
LINE
  5
2A3
100
AcDbEntity
  8
0
100
AcDbLine
 62
7
  6
CONTINUOUS
 10
258.3470258796
 20
195.8933431372
 11
258.3470258796
 21
196.7683431379
  0
LINE
  5
2A4
100
AcDbEntity
  8
0
100
AcDbLine
 62
7
  6
CONTINUOUS
 10
258.3470258796
 20
210.4183431372
 11
258.3470258796
 21
211.2933431375
  0
LINE
  5
2A5
100
AcDbEntity
  8
0
100
AcDbLine
 62
7
  6
CONTINUOUS
 10
258.4470258796
 20
196.7683431372
 11
258.4470258796
 21
200.8183431372
  0
LINE
  5
2A6
100
AcDbEntity
  8
0
100
AcDbLine
 62
7
  6
CONTINUOUS
 10
258.4470258792
 20
206.3683431372
 11
258.4470258792
 21
210.4183431372
  0
LINE
  5
2A7
100
AcDbEntity
  8
0
100
AcDbLine
 62
7
  6
CONTINUOUS
 10
258.6470258796
 20
210.4183431372
 11
258.6470258796
 21
206.3683431372
  0
LINE
  5
2A8
100
AcDbEntity
  8
0
100
AcDbLine
 62
7
  6
CONTINUOUS
 10
258.6470258796
 20
200.8183431372
 11
258.6470258796
 21
196.7683431372
  0
LINE
  5
2A9
100
AcDbEntity
  8
0
100
AcDbLine
 62
7
  6
CONTINUOUS
 10
258.7970258796
 20
196.6933431372
 11
258.7970258796
 21
200.8933431372
  0
LINE
  5
2AA
100
AcDbEntity
  8
0
100
AcDbLine
 62
7
  6
CONTINUOUS
 10
258.7970258796
 20
206.2933431375
 11
258.7970258796
 21
210.4933431372
  0
LINE
  5
2AB
100
AcDbEntity
  8
0
100
AcDbLine
 62
7
  6
CONTINUOUS
 10
252.0470258796
 20
208.5680893235
 11
252.1470258796
 21
208.5680893235
  0
LINE
  5
2AC
100
AcDbEntity
  8
0
100
AcDbLine
 62
7
  6
CONTINUOUS
 10
250.1470258796
 20
208.7433431368
 11
251.3470258796
 21
208.7433431368
  0
LINE
  5
2AD
100
AcDbEntity
  8
0
100
AcDbLine
 62
7
  6
CONTINUOUS
 10
251.3470258796
 20
208.7902565581
 11
252.0470258796
 21
208.7902565583
  0
LINE
  5
2AE
100
AcDbEntity
  8
0
100
AcDbLine
 62
7
  6
CONTINUOUS
 10
235.4370258796
 20
208.8854792319
 11
236.4370258796
 21
208.8854787607
  0
LINE
  5
2AF
100
AcDbEntity
  8
0
100
AcDbLine
 62
7
  6
CONTINUOUS
 10
250.1470258796
 20
209.2433431372
 11
251.3470258796
 21
209.2433431372
  0
LINE
  5
2B0
100
AcDbEntity
  8
0
100
AcDbLine
 62
7
  6
CONTINUOUS
 10
258.6470258796
 20
209.3933431372
 11
258.7970258796
 21
209.3933431372
  0
LINE
  5
2B1
100
AcDbEntity
  8
0
100
AcDbLine
 62
7
  6
CONTINUOUS
 10
274.3470258788
 20
209.7933431372
 11
281.6470258802
 21
209.7933431372
  0
LINE
  5
2B2
100
AcDbEntity
  8
0
100
AcDbLine
 62
7
  6
CONTINUOUS
 10
236.4370132989
 20
212.5433525827
 11
236.4368830595
 21
212.5433751494
  0
LINE
  5
2B3
100
AcDbEntity
  8
0
100
AcDbLine
 62
7
  6
CONTINUOUS
 10
281.6470258802
 20
210.2933431372
 11
274.3470258788
 21
210.2933431372
  0
LINE
  5
2B4
100
AcDbEntity
  8
0
100
AcDbLine
 62
7
  6
CONTINUOUS
 10
257.8470258796
 20
210.4183431372
 11
258.6470258803
 21
210.4183431372
  0
LINE
  5
2B5
100
AcDbEntity
  8
0
100
AcDbLine
 62
7
  6
CONTINUOUS
 10
258.7970258796
 20
210.4933431372
 11
258.3470258796
 21
210.4933431372
  0
LINE
  5
2B6
100
AcDbEntity
  8
0
100
AcDbLine
 62
7
  6
CONTINUOUS
 10
250.1470258796
 20
210.5933431372
 11
249.6470258796
 21
210.5933431372
  0
LINE
  5
2B7
100
AcDbEntity
  8
0
100
AcDbLine
 62
7
  6
CONTINUOUS
 10
257.7470258792
 20
210.5933431364
 11
258.1470258796
 21
210.5933431364
  0
LINE
  5
2B8
100
AcDbEntity
  8
0
100
AcDbLine
 62
7
  6
CONTINUOUS
 10
251.3470258796
 20
210.8873492802
 11
250.1470258796
 21
210.8873492802
  0
LINE
  5
2B9
100
AcDbEntity
  8
0
100
AcDbLine
 62
7
  6
CONTINUOUS
 10
249.6470258796
 20
210.90286275
 11
247.0870258792
 21
210.90286275
  0
LINE
  5
2BA
100
AcDbEntity
  8
0
100
AcDbLine
 62
7
  6
CONTINUOUS
 10
247.0870258796
 20
211.0183431372
 11
246.3070258796
 21
211.0183431372
  0
LINE
  5
2BB
100
AcDbEntity
  8
0
100
AcDbLine
 62
7
  6
CONTINUOUS
 10
225.8665487752
 20
211.2335547927
 11
225.8383012307
 21
211.2335547927
  0
LINE
  5
2BC
100
AcDbEntity
  8
0
100
AcDbLine
 62
7
  6
CONTINUOUS
 10
258.3470258796
 20
211.2933431372
 11
274.3470258796
 21
211.2933431372
  0
LINE
  5
2BD
100
AcDbEntity
  8
0
100
AcDbLine
 62
7
  6
CONTINUOUS
 10
254.1470258796
 20
211.3933431372
 11
269.454205556
 21
211.3933431372
  0
LINE
  5
2BE
100
AcDbEntity
  8
0
100
AcDbLine
 62
7
  6
CONTINUOUS
 10
252.1470258796
 20
211.5433431372
 11
252.0470258796
 21
211.5433431372
  0
LINE
  5
2BF
100
AcDbEntity
  8
0
100
AcDbLine
 62
7
  6
CONTINUOUS
 10
246.3070258796
 20
211.5925316229
 11
243.4370258796
 21
211.5925316229
  0
LINE
  5
2C0
100
AcDbEntity
  8
0
100
AcDbLine
 62
7
  6
CONTINUOUS
 10
234.4836174713
 20
211.5933431372
 11
233.3370258796
 21
211.5933431372
  0
LINE
  5
2C1
100
AcDbEntity
  8
0
100
AcDbLine
 62
7
  6
CONTINUOUS
 10
274.3470258796
 20
211.6933431368
 11
272.777965987
 21
211.6933431368
  0
LINE
  5
2C2
100
AcDbEntity
  8
0
100
AcDbLine
 62
7
  6
CONTINUOUS
 10
252.1470258796
 20
211.9183431372
 11
254.1470258796
 21
211.9183431372
  0
LINE
  5
2C3
100
AcDbEntity
  8
0
100
AcDbLine
 62
7
  6
CONTINUOUS
 10
243.4370258796
 20
212.0147171946
 11
242.2370258796
 21
212.0147171946
  0
LINE
  5
2C4
100
AcDbEntity
  8
0
100
AcDbLine
 62
7
  6
CONTINUOUS
 10
282.1470258796
 20
206.3961529819
 11
281.6470258796
 21
206.4933431368
  0
LINE
  5
2C5
100
AcDbEntity
  8
0
100
AcDbLine
 62
7
  6
CONTINUOUS
 10
262.3470258796
 20
211.3933431372
 11
262.3470258796
 21
211.2933431364
  0
LINE
  5
2C6
100
AcDbEntity
  8
0
100
AcDbLine
 62
7
  6
CONTINUOUS
 10
262.3470258796
 20
195.8933431379
 11
262.3470258796
 21
195.8433431372
  0
LINE
  5
2C7
100
AcDbEntity
  8
0
100
AcDbLine
 62
7
  6
CONTINUOUS
 10
270.1470258796
 20
212.2433431368
 11
254.1470258796
 21
212.2433431368
  0
LINE
  5
2C8
100
AcDbEntity
  8
0
100
AcDbLine
 62
7
  6
CONTINUOUS
 10
226.296848013
 20
212.3183431372
 11
233.1370258798
 21
212.3183431372
  0
LINE
  5
2C9
100
AcDbEntity
  8
0
100
AcDbLine
 62
7
  6
CONTINUOUS
 10
233.1370258796
 20
212.5183431372
 11
226.2968480133
 21
212.5183431372
  0
LINE
  5
2CA
100
AcDbEntity
  8
0
100
AcDbLine
 62
7
  6
CONTINUOUS
 10
236.2963525518
 20
212.5433431431
 11
235.1061445659
 21
212.5433431379
  0
LINE
  5
2CB
100
AcDbEntity
  8
0
100
AcDbLine
 62
7
  6
CONTINUOUS
 10
236.4370258796
 20
212.5433431372
 11
242.2370258796
 21
212.5433431372
  0
LINE
  5
2CC
100
AcDbEntity
  8
0
100
AcDbLine
 62
7
  6
CONTINUOUS
 10
250.1470258796
 20
212.5433431369
 11
251.3470258796
 21
212.5433431369
  0
LINE
  5
2CD
100
AcDbEntity
  8
0
100
AcDbLine
 62
7
  6
CONTINUOUS
 10
250.1470258796
 20
213.0433431372
 11
251.3470258796
 21
213.0433431372
  0
LINE
  5
2CE
100
AcDbEntity
  8
0
100
AcDbLine
 62
7
  6
CONTINUOUS
 10
236.4370134054
 20
212.5433221154
 11
236.435893735
 21
212.5433431372
  0
LINE
  5
2CF
100
AcDbEntity
  8
0
100
AcDbLine
 62
7
  6
CONTINUOUS
 10
282.1470258796
 20
210.1961529826
 11
281.6470258802
 21
210.2933431371
  0
LINE
  5
2D0
100
AcDbEntity
  8
0
100
AcDbLine
 62
7
  6
CONTINUOUS
 10
272.777965987
 20
211.6933431368
 11
272.5470258791
 21
211.2933431364
  0
LINE
  5
2D1
100
AcDbEntity
  8
0
100
AcDbLine
 62
7
  6
CONTINUOUS
 10
272.5470258792
 20
195.8933431379
 11
272.7779659872
 21
195.4933431372
  0
LINE
  5
2D2
100
AcDbEntity
  8
0
100
AcDbLine
 62
7
  6
CONTINUOUS
 10
268.9470258792
 20
194.9433431368
 11
268.9470258792
 21
195.0433431372
  0
LINE
  5
2D3
100
AcDbEntity
  8
0
100
AcDbLine
 62
7
  6
CONTINUOUS
 10
268.9470258792
 20
195.8433431372
 11
268.9470258792
 21
195.8933431379
  0
LINE
  5
2D4
100
AcDbEntity
  8
0
100
AcDbLine
 62
7
  6
CONTINUOUS
 10
268.9470258792
 20
211.2933431364
 11
268.9470258792
 21
211.3933431372
  0
LINE
  5
2D5
100
AcDbEntity
  8
0
100
AcDbLine
 62
7
  6
CONTINUOUS
 10
270.1470258796
 20
195.0433431372
 11
270.1470258796
 21
195.4933431372
  0
LINE
  5
2D6
100
AcDbEntity
  8
0
100
AcDbLine
 62
7
  6
CONTINUOUS
 10
270.1470258796
 20
211.7933431376
 11
270.1470258796
 21
212.2433431368
  0
LINE
  5
2D7
100
AcDbEntity
  8
0
100
AcDbLine
 62
7
  6
CONTINUOUS
 10
274.3470258796
 20
195.4933431372
 11
274.3470258796
 21
211.6933431368
  0
LINE
  5
2D8
100
AcDbEntity
  8
0
100
AcDbLine
 62
7
  6
CONTINUOUS
 10
281.6470258802
 20
196.8933431368
 11
281.6470258802
 21
197.3933431368
  0
LINE
  5
2D9
100
AcDbEntity
  8
0
100
AcDbLine
 62
7
  6
CONTINUOUS
 10
281.6470258796
 20
200.6933431376
 11
281.6470258796
 21
201.1933431372
  0
LINE
  5
2DA
100
AcDbEntity
  8
0
100
AcDbLine
 62
7
  6
CONTINUOUS
 10
281.6470258796
 20
205.9933431372
 11
281.6470258796
 21
206.4933431365
  0
LINE
  5
2DB
100
AcDbEntity
  8
0
100
AcDbLine
 62
7
  6
CONTINUOUS
 10
281.6470258802
 20
209.7933431372
 11
281.6470258802
 21
210.2933431372
  0
LINE
  5
2DC
100
AcDbEntity
  8
0
100
AcDbLine
 62
7
  6
CONTINUOUS
 10
282.1470258796
 20
201.0961529824
 11
282.1470258796
 21
200.7905332912
  0
LINE
  5
2DD
100
AcDbEntity
  8
0
100
AcDbLine
 62
7
  6
CONTINUOUS
 10
282.1470258796
 20
197.2961529829
 11
282.1470258796
 21
196.9905332923
  0
LINE
  5
2DE
100
AcDbEntity
  8
0
100
AcDbLine
 62
7
  6
CONTINUOUS
 10
282.1470258796
 20
206.0905332919
 11
282.1470258796
 21
206.3961529819
  0
LINE
  5
2DF
100
AcDbEntity
  8
0
100
AcDbLine
 62
7
  6
CONTINUOUS
 10
282.1470258796
 20
209.8905332918
 11
282.1470258796
 21
210.1961529826
  0
ARC
  5
2E0
100
AcDbEntity
  8
0
100
AcDbCircle
 62
7
  6
CONTINUOUS
 10
326.6959082706
 20
1187.9008193116
 40
992.0424977274
100
AcDbArc
 50
265.352014216
 51
265.5744920035
  0
ARC
  5
2E1
100
AcDbEntity
  8
0
100
AcDbCircle
 62
7
  6
CONTINUOUS
 10
183.991715508
 20
1184.8479781093
 40
988.9954607824
100
AcDbArc
 50
273.612525163
 51
273.835459904
  0
ARC
  5
2E2
100
AcDbEntity
  8
0
100
AcDbCircle
 62
7
  6
CONTINUOUS
 10
265.1115987749
 20
203.6436334803
 40
40.0
100
AcDbArc
 50
169.0619158156
 51
190.9383054498
  0
ARC
  5
2E3
100
AcDbEntity
  8
0
100
AcDbCircle
 62
7
  6
CONTINUOUS
 10
265.0198383796
 20
203.6433431372
 40
39.8828125
100
AcDbArc
 50
167.3726820546
 51
192.627316477
  0
ARC
  5
2E4
100
AcDbEntity
  8
0
100
AcDbCircle
 62
7
  6
CONTINUOUS
 10
265.0198383796
 20
203.6433431372
 40
39.6828125
100
AcDbArc
 50
167.3726835231
 51
192.6273164894
  0
ARC
  5
2E5
100
AcDbEntity
  8
0
100
AcDbCircle
 62
7
  6
CONTINUOUS
 10
236.4087537568
 20
191.1075659222
 40
21.4360841682
100
AcDbArc
 50
90.0966751312
 51
90.2462910035
  0
ARC
  5
2E6
100
AcDbEntity
  8
0
100
AcDbCircle
 62
7
  6
CONTINUOUS
 10
223.9258318908
 20
198.4053648056
 40
11.5111947253
100
AcDbArc
 50
358.0448236298
 51
359.9795042521
  0
ARC
  5
2E7
100
AcDbEntity
  8
0
100
AcDbCircle
 62
7
  6
CONTINUOUS
 10
223.9258591774
 20
208.8813219722
 40
11.5111674385
100
AcDbArc
 50
0.0204932528
 51
1.9551786261
  0
ARC
  5
2E8
100
AcDbEntity
  8
0
100
AcDbCircle
 62
7
  6
CONTINUOUS
 10
274.4135342784
 20
200.3933431372
 40
0.8
100
AcDbArc
 50
90.0
 51
94.7688173338
  0
ARC
  5
2E9
100
AcDbEntity
  8
0
100
AcDbCircle
 62
7
  6
CONTINUOUS
 10
274.4135342784
 20
206.7933431372
 40
0.8
100
AcDbArc
 50
265.231182662
 51
269.9999931602
  0
ARC
  5
2EA
100
AcDbEntity
  8
0
100
AcDbCircle
 62
7
  6
CONTINUOUS
 10
251.6970258796
 20
211.8933431372
 40
0.35
100
AcDbArc
 50
0.0
 51
180.0
  0
ARC
  5
2EB
100
AcDbEntity
  8
0
100
AcDbCircle
 62
7
  6
CONTINUOUS
 10
274.4135342784
 20
200.3933431372
 40
0.3
100
AcDbArc
 50
90.0000000573
 51
102.8095027925
  0
ARC
  5
2EC
100
AcDbEntity
  8
0
100
AcDbCircle
 62
7
  6
CONTINUOUS
 10
274.4135342784
 20
206.7933431372
 40
0.3
100
AcDbArc
 50
257.1904972244
 51
269.9999999427
  0
ARC
  5
2ED
100
AcDbEntity
  8
0
100
AcDbCircle
 62
7
  6
CONTINUOUS
 10
233.3370258796
 20
195.4933431372
 40
0.2
100
AcDbArc
 50
90.0
 51
180.0
  0
ARC
  5
2EE
100
AcDbEntity
  8
0
100
AcDbCircle
 62
7
  6
CONTINUOUS
 10
226.2968480133
 20
194.9683431372
 40
0.2
100
AcDbArc
 50
192.6273164735
 51
270.0000034746
  0
ARC
  5
2EF
100
AcDbEntity
  8
0
100
AcDbCircle
 62
7
  6
CONTINUOUS
 10
226.2968480133
 20
212.3183431372
 40
0.2
100
AcDbArc
 50
90.0
 51
167.3726835237
  0
ARC
  5
2F0
100
AcDbEntity
  8
0
100
AcDbCircle
 62
7
  6
CONTINUOUS
 10
233.3370258796
 20
211.7933431372
 40
0.2
100
AcDbArc
 50
180.0
 51
270.0
  0
SPLINE
  5
2F1
100
AcDbEntity
  8
0
100
AcDbSpline
 62
7
  6
CONTINUOUS
 70
0
 71
3
 72
12
 73
8
 74
0
 42
0.0000001
 43
0.0000001
 44
0.0000000001
 40
0.0
 40
0.0
 40
0.0
 40
0.0
 40
0.2874706056
 40
0.5543066222
 40
0.7890497146
 40
0.8964080315
 40
1.0
 40
1.0
 40
1.0
 40
1.0
 10
251.6970258796
 20
194.8653228066
 30
0.0
 10
251.7421175693
 20
194.8653228066
 30
0.0
 10
251.8296093917
 20
194.8771809177
 30
0.0
 10
251.9441801415
 20
194.9286975346
 30
0.0
 10
252.0140230268
 20
194.9985730112
 30
0.0
 10
252.0423026687
 20
195.0633024845
 30
0.0
 10
252.0470169699
 20
195.096561088
 30
0.0
 10
252.0470172467
 20
195.112810182
 30
0.0
  0
SPLINE
  5
2F2
100
AcDbEntity
  8
0
100
AcDbSpline
 62
7
  6
CONTINUOUS
 70
0
 71
3
 72
12
 73
8
 74
0
 42
0.0000001
 43
0.0000001
 44
0.0000000001
 40
0.0
 40
0.0
 40
0.0
 40
0.0
 40
0.1035878051
 40
0.2109409921
 40
0.4456840283
 40
0.7125280931
 40
1.0
 40
1.0
 40
1.0
 40
1.0
 10
252.0470172467
 20
195.2091688674
 30
0.0
 10
252.0470175234
 20
195.1929204448
 30
0.0
 10
252.0423015743
 20
195.1596636301
 30
0.0
 10
252.0140265121
 20
195.0949341766
 30
0.0
 10
251.9441815727
 20
195.0250591086
 30
0.0
 10
251.8296112521
 20
194.9735396549
 30
0.0
 10
251.7421177224
 20
194.9616814965
 30
0.0
 10
251.6970258796
 20
194.9616814965
 30
0.0
  0
SPLINE
  5
2F3
100
AcDbEntity
  8
0
100
AcDbSpline
 62
7
  6
CONTINUOUS
 70
0
 71
3
 72
12
 73
8
 74
0
 42
0.0000001
 43
0.0000001
 44
0.0000000001
 40
0.0
 40
0.0
 40
0.0
 40
0.0
 40
0.2874706056
 40
0.5543066222
 40
0.7890497146
 40
0.8964080315
 40
1.0
 40
1.0
 40
1.0
 40
1.0
 10
251.6970258796
 20
194.9616814965
 30
0.0
 10
251.6519341898
 20
194.9616814965
 30
0.0
 10
251.5644423674
 20
194.9735396076
 30
0.0
 10
251.4498716177
 20
195.0250562245
 30
0.0
 10
251.3800287324
 20
195.0949317011
 30
0.0
 10
251.3517490905
 20
195.1596611744
 30
0.0
 10
251.3470347892
 20
195.1929197779
 30
0.0
 10
251.3470345125
 20
195.2091688719
 30
0.0
  0
SPLINE
  5
2F4
100
AcDbEntity
  8
0
100
AcDbSpline
 62
7
  6
CONTINUOUS
 70
0
 71
3
 72
12
 73
8
 74
0
 42
0.0000001
 43
0.0000001
 44
0.0000000001
 40
0.0
 40
0.0
 40
0.0
 40
0.0
 40
0.1035878051
 40
0.2109409921
 40
0.4456840283
 40
0.7125280931
 40
1.0
 40
1.0
 40
1.0
 40
1.0
 10
251.3470345125
 20
195.1128101775
 30
0.0
 10
251.3470342358
 20
195.0965617549
 30
0.0
 10
251.3517501849
 20
195.0633049402
 30
0.0
 10
251.3800252471
 20
194.9985754867
 30
0.0
 10
251.4498701865
 20
194.9287004187
 30
0.0
 10
251.5644405071
 20
194.877180965
 30
0.0
 10
251.6519340367
 20
194.8653228066
 30
0.0
 10
251.6970258796
 20
194.8653228066
 30
0.0
  0
SPLINE
  5
2F5
100
AcDbEntity
  8
0
100
AcDbSpline
 62
7
  6
CONTINUOUS
 70
0
 71
3
 72
12
 73
8
 74
0
 42
0.0000001
 43
0.0000001
 44
0.0000000001
 40
0.0
 40
0.0
 40
0.0
 40
0.0
 40
0.2792075082
 40
0.5420210535
 40
0.779860488
 40
0.8913322496
 40
1.0
 40
1.0
 40
1.0
 40
1.0
 10
251.6970258796
 20
211.6937241048
 30
0.0
 10
251.742192042
 20
211.6937241048
 30
0.0
 10
251.8304985646
 20
211.680696057
 30
0.0
 10
251.9456710587
 20
211.6240458802
 30
0.0
 10
252.0145519212
 20
211.5483486925
 30
0.0
 10
252.0423611413
 20
211.478959566
 30
0.0
 10
252.047019838
 20
211.4431872506
 30
0.0
 10
252.047019838
 20
211.4256085497
 30
0.0
  0
SPLINE
  5
2F6
100
AcDbEntity
  8
0
100
AcDbSpline
 62
7
  6
CONTINUOUS
 70
0
 71
3
 72
12
 73
8
 74
0
 42
0.0000001
 43
0.0000001
 44
0.0000000001
 40
0.0
 40
0.0
 40
0.0
 40
0.0
 40
0.2792075082
 40
0.5420210535
 40
0.779860488
 40
0.8913322496
 40
1.0
 40
1.0
 40
1.0
 40
1.0
 10
251.6970258796
 20
210.694851229
 30
0.0
 10
251.6518597172
 20
210.694851229
 30
0.0
 10
251.5635531946
 20
210.6818231812
 30
0.0
 10
251.4483807005
 20
210.6251730044
 30
0.0
 10
251.379499838
 20
210.5494758166
 30
0.0
 10
251.3516906179
 20
210.4800866902
 30
0.0
 10
251.3470319212
 20
210.4443143748
 30
0.0
 10
251.3470319212
 20
210.4267356739
 30
0.0
  0
SPLINE
  5
2F7
100
AcDbEntity
  8
0
100
AcDbSpline
 62
7
  6
CONTINUOUS
 70
0
 71
3
 72
12
 73
8
 74
0
 42
0.0000001
 43
0.0000001
 44
0.0000000001
 40
0.0
 40
0.0
 40
0.0
 40
0.0
 40
0.1086677504
 40
0.220139512
 40
0.4579789465
 40
0.7207924918
 40
1.0
 40
1.0
 40
1.0
 40
1.0
 10
251.3470319212
 20
211.4256085497
 30
0.0
 10
251.3470319212
 20
211.4431872506
 30
0.0
 10
251.3516906179
 20
211.478959566
 30
0.0
 10
251.379499838
 20
211.5483486925
 30
0.0
 10
251.4483807005
 20
211.6240458802
 30
0.0
 10
251.5635531946
 20
211.680696057
 30
0.0
 10
251.6518597172
 20
211.6937241048
 30
0.0
 10
251.6970258796
 20
211.6937241048
 30
0.0
  0
SPLINE
  5
2F8
100
AcDbEntity
  8
0
100
AcDbSpline
 62
7
  6
CONTINUOUS
 70
0
 71
3
 72
12
 73
8
 74
0
 42
0.0000001
 43
0.0000001
 44
0.0000000001
 40
0.0
 40
0.0
 40
0.0
 40
0.0
 40
0.2874600855
 40
0.5543011876
 40
0.7890519721
 40
0.8964084757
 40
1.0
 40
1.0
 40
1.0
 40
1.0
 10
251.6970258796
 20
196.7294484493
 30
0.0
 10
251.7421161462
 20
196.7294484493
 30
0.0
 10
251.829607607
 20
196.7413056833
 30
0.0
 10
251.9441795351
 20
196.7928215164
 30
0.0
 10
252.0140258479
 20
196.862697429
 30
0.0
 10
252.0423050523
 20
196.927428349
 30
0.0
 10
252.047019838
 20
196.9606867165
 30
0.0
 10
252.047019838
 20
196.9769358227
 30
0.0
  0
SPLINE
  5
2F9
100
AcDbEntity
  8
0
100
AcDbSpline
 62
7
  6
CONTINUOUS
 70
0
 71
3
 72
8
 73
4
 74
0
 42
0.0000001
 43
0.0000001
 44
0.0000000001
 40
0.0
 40
0.0
 40
0.0
 40
0.0
 40
1.0
 40
1.0
 40
1.0
 40
1.0
 10
251.3538085133
 20
195.1612784065
 30
0.0
 10
251.3493704209
 20
195.1455806136
 30
0.0
 10
251.3470347903
 20
195.1291232817
 30
0.0
 10
251.3470345125
 20
195.1128101775
 30
0.0
  0
SPLINE
  5
2FA
100
AcDbEntity
  8
0
100
AcDbSpline
 62
7
  6
CONTINUOUS
 70
0
 71
3
 72
8
 73
4
 74
0
 42
0.0000001
 43
0.0000001
 44
0.0000000001
 40
0.0
 40
0.0
 40
0.0
 40
0.0
 40
1.0
 40
1.0
 40
1.0
 40
1.0
 10
252.0470172467
 20
195.112810182
 30
0.0
 10
252.0470175247
 20
195.1291352248
 30
0.0
 10
252.0446772282
 20
195.1456047139
 30
0.0
 10
252.0402327503
 20
195.1613131077
 30
0.0
  0
SPLINE
  5
2FB
100
AcDbEntity
  8
0
100
AcDbSpline
 62
7
  6
CONTINUOUS
 70
0
 71
3
 72
12
 73
8
 74
0
 42
0.0000001
 43
0.0000001
 44
0.0000000001
 40
0.0
 40
0.0
 40
0.0
 40
0.0
 40
0.1035616361
 40
0.2109621259
 40
0.4456948874
 40
0.7125484092
 40
1.0
 40
1.0
 40
1.0
 40
1.0
 10
251.3470258796
 20
196.9769358227
 30
0.0
 10
251.3470258796
 20
196.9606913525
 30
0.0
 10
251.3517557354
 20
196.9274334147
 30
0.0
 10
251.3800166689
 20
196.8626968107
 30
0.0
 10
251.4498731779
 20
196.7928155285
 30
0.0
 10
251.5644448979
 20
196.74130803
 30
0.0
 10
251.6519368007
 20
196.7294484493
 30
0.0
 10
251.6970258796
 20
196.7294484493
 30
0.0
  0
SPLINE
  5
2FC
100
AcDbEntity
  8
0
100
AcDbSpline
 62
7
  6
CONTINUOUS
 70
0
 71
3
 72
12
 73
8
 74
0
 42
0.0000001
 43
0.0000001
 44
0.0000000001
 40
0.0
 40
0.0
 40
0.0
 40
0.0
 40
0.1086677504
 40
0.220139512
 40
0.4579789465
 40
0.7207924918
 40
1.0
 40
1.0
 40
1.0
 40
1.0
 10
252.047019838
 20
210.4267356739
 30
0.0
 10
252.047019838
 20
210.4443143748
 30
0.0
 10
252.0423611413
 20
210.4800866902
 30
0.0
 10
252.0145519212
 20
210.5494758167
 30
0.0
 10
251.9456710587
 20
210.6251730044
 30
0.0
 10
251.8304985646
 20
210.6818231812
 30
0.0
 10
251.742192042
 20
210.694851229
 30
0.0
 10
251.6970258796
 20
210.694851229
 30
0.0
  0
SPLINE
  5
2FD
100
AcDbEntity
  8
0
100
AcDbSpline
 62
7
  6
CONTINUOUS
 70
0
 71
3
 72
9
 73
5
 74
0
 42
0.0000001
 43
0.0000001
 44
0.0000000001
 40
0.0
 40
0.0
 40
0.0
 40
0.0
 40
0.2709122834
 40
1.0
 40
1.0
 40
1.0
 40
1.0
 10
236.4368830595
 20
212.5433751494
 30
0.0
 10
236.4311130782
 20
212.544026132
 30
0.0
 10
236.4095984528
 20
212.5431168929
 30
0.0
 10
236.3882115291
 20
212.5436486737
 30
0.0
 10
236.3725846832
 20
212.5436195764
 30
0.0
  0
LINE
  5
2FE
100
AcDbEntity
  8
0
100
AcDbLine
 62
7
  6
CONTINUOUS
 10
236.3166091265
 20
212.5434520442
 11
236.2963525518
 21
212.5433431435
  0
SPLINE
  5
2FF
100
AcDbEntity
  8
0
100
AcDbSpline
 62
7
  6
CONTINUOUS
 70
0
 71
3
 72
17
 73
13
 74
0
 42
0.0000001
 43
0.0000001
 44
0.0000000001
 40
0.0
 40
0.0
 40
0.0
 40
0.0
 40
0.2377578931
 40
0.4421934635
 40
0.61393768
 40
0.7535684445
 40
0.8616093637
 40
0.9385500813
 40
0.9654404226
 40
0.984632184
 40
0.9961425729
 40
1.0
 40
1.0
 40
1.0
 40
1.0
 10
236.2963525515
 20
194.7433431308
 30
0.0
 10
236.3075016909
 20
194.7432749912
 30
0.0
 10
236.328236791
 20
194.7431640057
 30
0.0
 10
236.3570290271
 20
194.7430498497
 30
0.0
 10
236.3812097694
 20
194.7429888698
 30
0.0
 10
236.4008980659
 20
194.7429443765
 30
0.0
 10
236.4160685708
 20
194.7430042262
 30
0.0
 10
236.4261107973
 20
194.7429898084
 30
0.0
 10
236.4317358225
 20
194.743190718
 30
0.0
 10
236.4346710487
 20
194.7430690308
 30
0.0
 10
236.4358753931
 20
194.7434517015
 30
0.0
 10
236.4370258796
 20
194.7431622481
 30
0.0
 10
236.4370258796
 20
194.7433431371
 30
0.0
  0
SPLINE
  5
300
100
AcDbEntity
  8
0
100
AcDbSpline
 62
7
  6
CONTINUOUS
 70
0
 71
3
 72
9
 73
5
 74
0
 42
0.0000001
 43
0.0000001
 44
0.0000000001
 40
0.0
 40
0.0
 40
0.0
 40
0.0
 40
0.2505898877
 40
1.0
 40
1.0
 40
1.0
 40
1.0
 10
236.4370258796
 20
198.4012075135
 30
0.0
 10
236.4370258796
 20
198.3378740635
 30
0.0
 10
236.4256089143
 20
198.0853647336
 30
0.0
 10
236.367787734
 20
197.8341617309
 30
0.0
 10
236.2963525515
 20
197.6587453945
 30
0.0
  0
SPLINE
  5
301
100
AcDbEntity
  8
0
100
AcDbSpline
 62
7
  6
CONTINUOUS
 70
0
 71
3
 72
9
 73
5
 74
0
 42
0.0000001
 43
0.0000001
 44
0.0000000001
 40
0.0
 40
0.0
 40
0.0
 40
0.0
 40
0.2505196275
 40
1.0
 40
1.0
 40
1.0
 40
1.0
 10
236.2963525518
 20
209.627940879
 30
0.0
 10
236.3202377453
 20
209.5692883653
 30
0.0
 10
236.4027707993
 20
209.3300523245
 30
0.0
 10
236.4370258796
 20
209.0749416933
 30
0.0
 10
236.4370258796
 20
208.8854787608
 30
0.0
  0
ENDSEC
  0
SECTION
  2
OBJECTS
  0
DICTIONARY
  5
C
100
AcDbDictionary
280
0
281
1
  3
ACAD_GROUP
350
D
  3
ACAD_MLINESTYLE
350
17
  3
ACAD_LAYOUT
350
1A
  3
ACAD_PLOTSETTINGS
350
19
  3
ACAD_PLOTSTYLENAME
350
E
  0
DICTIONARY
  5
D
102
{ACAD_REACTORS
330
C
102
}
100
AcDbDictionary
280
0
281
1
  0
ACDBDICTIONARYWDFLT
  5
E
102
{ACAD_REACTORS
330
C
102
}
100
AcDbDictionary
281
1
  3
Normal
350
F
100
AcDbDictionaryWithDefault
340
F
  0
DICTIONARY
  5
17
102
{ACAD_REACTORS
330
C
102
}
100
AcDbDictionary
280
0
281
1
  3
Standard
350
18
  0
DICTIONARY
  5
19
102
{ACAD_REACTORS
330
C
102
}
100
AcDbDictionary
281
1
  0
DICTIONARY
  5
1A
102
{ACAD_REACTORS
330
C
102
}
100
AcDbDictionary
281
1
  3
Model
350
302
  3
Layout1
350
303
  0
ACDBPLACEHOLDER
  5
F
102
{ACAD_REACTORS
330
E
102
}
  0
MLINESTYLE
  5
18
102
{ACAD_REACTORS
330
17
102
}
100
AcDbMlineStyle
  2
STANDARD
 70
0
  3

 62
256
 51
90.0
 52
90.0
 71
2
 49
0.5
 62
256
  6
BYLAYER
 49
-0.5
 62
256
  6
BYLAYER
  0
LAYOUT
  5
302
102
{ACAD_REACTORS
330
1A
102
}
100
AcDbPlotSettings
  1

  2
none_device
  4
ANSI_C_(22.00_x_17.00_Inches)
  6

 40
0.0
 41
0.0
 42
0.0
 43
0.0
 44
558.8
 45
431.8
 46
0.0
 47
0.0
 48
0.0
 49
0.0
140
0.0
141
0.0
142
1.0
143
1.0
 70
1024
 72
1
 73
0
 74
0
  7

 75
0
147
1.0
148
0.0
149
0.0
100
AcDbLayout
  1
Model
 70
0
 71
0
 10
0.0
 20
0.0
 11
558.8
 21
431.8
 12
0.0
 22
0.0
 32
0.0
 14
0.0
 24
0.0
 34
0.0
 15
0.0
 25
0.0
 35
0.0
146
0.0
 13
0.0
 23
0.0
 33
0.0
 16
1.0
 26
0.0
 36
0.0
 17
0.0
 27
1.0
 37
0.0
 76
0
330
219
345
0
346
0
  0
LAYOUT
  5
303
102
{ACAD_REACTORS
330
1A
102
}
100
AcDbPlotSettings
  1

  2
none_device
  4
ANSI_C_(22.00_x_17.00_Inches)
  6

 40
0.0
 41
0.0
 42
0.0
 43
0.0
 44
558.8
 45
431.8
 46
0.0
 47
0.0
 48
0.0
 49
0.0
140
0.0
141
0.0
142
1.0
143
1.0
 70
0
 72
1
 73
0
 74
0
  7

 75
0
147
1.0
148
0.0
149
0.0
100
AcDbLayout
  1
Layout1
 70
0
 71
1
 10
0.0
 20
0.0
 11
558.8
 21
431.8
 12
0.0
 22
0.0
 32
0.0
 14
0.0
 24
0.0
 34
0.0
 15
0.0
 25
0.0
 35
0.0
146
0.0
 13
0.0
 23
0.0
 33
0.0
 16
1.0
 26
0.0
 36
0.0
 17
0.0
 27
1.0
 37
0.0
 76
0
330
21A
345
0
346
0
  0
ENDSEC
  0
EOF
