999
DXF file: C:\Users\sesa63760\Dev\_Creo\CAD\MCADID0005827_3D-CAD\mcadid0005827_3d-simplified_3.dxf
999
Pro/ENGINEER 2019471 by Parametric Technology Corporation
  0
SECTION
  2
HEADER
  9
$ACADVER
  1
AC1024
  9
$DWGCODEPAGE
  3
ANSI_1252
  9
$EXTMAX
 10
45.444069421
 20
64.2708981812
 30
0.0
  9
$EXTMIN
 10
0.0
 20
0.0
 30
0.0
  9
$LIMMIN
 10
0.0
 20
0.0
  9
$LIMMAX
 10
45.444069421
 20
64.2708981812
  9
$VIEWCTR
 10
22.7220347105
 20
32.1354490906
  9
$VIEWSIZE
 40
64.2708981812
  9
$CLAYER
  8
0
  9
$LTSCALE
 40
4.1895104
  9
$CELTYPE
  6
BYLAYER
  9
$DIMSCALE
 40
1.0
  9
$DIMASZ
 40
0.5410008264
  9
$DIMEXO
 40
1.0
  9
$DIMDLI
 40
2.8945708218
  9
$DIMEXE
 40
1.0
  9
$DIMCEN
 40
0.6855562473
  9
$DIMLFAC
 40
1.0
  9
$DIMBLK
  1
_FILLED
  9
$DIMALT
 70
0
  9
$DIMALTF
 40
0.0393700787
  9
$DIMTXT
 40
0.757401157
  9
$DIMTOL
 70
1
  9
$DIMLIM
 70
0
  9
$DIMTFAC
 40
1.0
  9
$DIMTP
 40
0.01
  9
$DIMTM
 40
0.01
  9
$DIMGAP
 40
0.625
  9
$DIMDSEP
 70
46
  9
$AUNITS
 70
0
  9
$PDMODE
 70
3
  9
$PDSIZE
 40
0.3125
  9
$HANDSEED
  5
289
  9
$TILEMODE
 70
1
  9
$MEASUREMENT
 70
1
  9
$INSUNITS
 70
4
  0
ENDSEC
  0
SECTION
  2
CLASSES
  0
CLASS
  1
ACDBDICTIONARYWDFLT
  2
AcDbDictionaryWithDefault
  3
AutoCAD 2000
 90
0
 91
1
280
0
281
0
  0
CLASS
  1
ACDBPLACEHOLDER
  2
AcDbPlaceHolder
  3
AutoCAD 2000
 90
0
 91
1
280
0
281
0
  0
CLASS
  1
LAYOUT
  2
AcDbLayout
  3
AutoCAD 2000
 90
0
 91
0
280
0
281
0
  0
ENDSEC
  0
SECTION
  2
TABLES
  0
TABLE
  2
VPORT
  5
8
100
AcDbSymbolTable
 70
2
  0
VPORT
  5
1F4
100
AcDbSymbolTableRecord
100
AcDbViewportTableRecord
  2
*ACTIVE
 70
0
 10
0.0
 20
0.0
 11
1.0
 21
1.0
 12
22.7220347105
 22
32.1354490906
 13
0.0
 23
0.0
 14
1.0
 24
1.0
 15
0.0
 25
0.0
 16
0.0
 26
0.0
 36
1.0
 17
0.0
 27
0.0
 37
0.0
 40
64.2708981812
 41
0.7070707071
 42
50.0
 43
0.0
 44
0.0
 50
0.0
 51
0.0
 71
0
 72
100
 73
1
 74
1
 75
0
 76
0
 77
0
 78
0
  0
ENDTAB
  0
TABLE
  2
LTYPE
  5
5
100
AcDbSymbolTable
 70
6
  0
LTYPE
  5
14
100
AcDbSymbolTableRecord
100
AcDbLinetypeTableRecord
  2
BYBLOCK
 70
0
  3

 72
65
 73
0
 40
0.0
  0
LTYPE
  5
15
100
AcDbSymbolTableRecord
100
AcDbLinetypeTableRecord
  2
BYLAYER
 70
0
  3

 72
65
 73
0
 40
0.0
  0
LTYPE
  5
16
100
AcDbSymbolTableRecord
100
AcDbLinetypeTableRecord
  2
CONTINUOUS
 70
64
  3
Solid line
 72
65
 73
0
 40
0.0
  0
LTYPE
  5
1F5
100
AcDbSymbolTableRecord
100
AcDbLinetypeTableRecord
  2
CENTER
 70
64
  3
____ _ ____ _ ____ _ ____ _ ____ _ ____ _ ____
 72
65
 73
4
 40
0.6
 49
0.375
 74
0
 49
-0.075
 74
0
 49
0.075
 74
0
 49
-0.075
 74
0
  0
LTYPE
  5
1F6
100
AcDbSymbolTableRecord
100
AcDbLinetypeTableRecord
  2
HIDDEN
 70
64
  3
- - - - - - - - - - - - - - - - - - - -
 72
65
 73
2
 40
0.2
 49
0.1
 74
0
 49
-0.1
 74
0
  0
LTYPE
  5
1F7
100
AcDbSymbolTableRecord
100
AcDbLinetypeTableRecord
  2
PHANTOM
 70
64
  3
_____ _ _ _____ _ _ _____ _ _ _____
 72
65
 73
6
 40
0.8
 49
0.45
 74
0
 49
-0.05
 74
0
 49
0.1
 74
0
 49
-0.05
 74
0
 49
0.1
 74
0
 49
-0.05
 74
0
  0
LTYPE
  5
1F8
100
AcDbSymbolTableRecord
100
AcDbLinetypeTableRecord
  2
DOT
 70
64
  3
. . . . . . . . . . . . . . . . . . . .
 72
65
 73
2
 40
0.2
 49
0.1
 74
0
 49
-0.1
 74
0
  0
LTYPE
  5
1F9
100
AcDbSymbolTableRecord
100
AcDbLinetypeTableRecord
  2
DASHED
 70
64
  3
- - - - - - - - - - - - - - - - - - - -
 72
65
 73
2
 40
0.2
 49
0.1
 74
0
 49
-0.1
 74
0
  0
ENDTAB
  0
TABLE
  2
LAYER
  5
2
100
AcDbSymbolTable
 70
36
  0
LAYER
  5
10
100
AcDbSymbolTableRecord
100
AcDbLayerTableRecord
  2
0
 70
0
 62
7
  6
CONTINUOUS
370
-3
390
F
  0
LAYER
  5
1FA
100
AcDbSymbolTableRecord
100
AcDbLayerTableRecord
  2
DEFAULT_1
 70
0
 62
7
  6
CENTER
370
-3
390
F
  0
LAYER
  5
1FB
100
AcDbSymbolTableRecord
100
AcDbLayerTableRecord
  2
DEFAULT_2
 70
0
 62
7
  6
HIDDEN
370
-3
390
F
  0
LAYER
  5
1FC
100
AcDbSymbolTableRecord
100
AcDbLayerTableRecord
  2
DEFAULT_3
 70
0
 62
7
  6
PHANTOM
370
-3
390
F
  0
LAYER
  5
1FD
100
AcDbSymbolTableRecord
100
AcDbLayerTableRecord
  2
00_COMPONENTS
 70
0
 62
7
  6
CONTINUOUS
370
-3
390
F
  0
LAYER
  5
1FE
100
AcDbSymbolTableRecord
100
AcDbLayerTableRecord
  2
01_1_DEFAULT_DATUMS
 70
0
 62
7
  6
CONTINUOUS
370
-3
390
F
  0
LAYER
  5
1FF
100
AcDbSymbolTableRecord
100
AcDbLayerTableRecord
  2
01_PLANES
 70
0
 62
7
  6
CONTINUOUS
370
-3
390
F
  0
LAYER
  5
200
100
AcDbSymbolTableRecord
100
AcDbLayerTableRecord
  2
02_COORD_SYS
 70
0
 62
7
  6
CONTINUOUS
370
-3
390
F
  0
LAYER
  5
201
100
AcDbSymbolTableRecord
100
AcDbLayerTableRecord
  2
03_AXES
 70
0
 62
7
  6
CONTINUOUS
370
-3
390
F
  0
LAYER
  5
202
100
AcDbSymbolTableRecord
100
AcDbLayerTableRecord
  2
04_POINTS
 70
0
 62
7
  6
CONTINUOUS
370
-3
390
F
  0
LAYER
  5
203
100
AcDbSymbolTableRecord
100
AcDbLayerTableRecord
  2
05_CURVES
 70
0
 62
7
  6
CONTINUOUS
370
-3
390
F
  0
LAYER
  5
204
100
AcDbSymbolTableRecord
100
AcDbLayerTableRecord
  2
06_SURFS
 70
0
 62
7
  6
CONTINUOUS
370
-3
390
F
  0
LAYER
  5
205
100
AcDbSymbolTableRecord
100
AcDbLayerTableRecord
  2
07_COSMETICS
 70
0
 62
7
  6
CONTINUOUS
370
-3
390
F
  0
LAYER
  5
206
100
AcDbSymbolTableRecord
100
AcDbLayerTableRecord
  2
10_NOTES
 70
0
 62
7
  6
CONTINUOUS
370
-3
390
F
  0
LAYER
  5
207
100
AcDbSymbolTableRecord
100
AcDbLayerTableRecord
  2
11_NOTES_PUB
 70
0
 62
7
  6
CONTINUOUS
370
-3
390
F
  0
LAYER
  5
208
100
AcDbSymbolTableRecord
100
AcDbLayerTableRecord
  2
13_REF_GTOL
 70
0
 62
7
  6
CONTINUOUS
370
-3
390
F
  0
LAYER
  5
209
100
AcDbSymbolTableRecord
100
AcDbLayerTableRecord
  2
16_MISC
 70
0
 62
7
  6
CONTINUOUS
370
-3
390
F
  0
LAYER
  5
20A
100
AcDbSymbolTableRecord
100
AcDbLayerTableRecord
  2
17_NO_PRINT
 70
0
 62
7
  6
CONTINUOUS
370
-3
390
F
  0
LAYER
  5
20B
100
AcDbSymbolTableRecord
100
AcDbLayerTableRecord
  2
18_DATUM_CAMS_JOINTS
 70
0
 62
7
  6
CONTINUOUS
370
-3
390
F
  0
LAYER
  5
20C
100
AcDbSymbolTableRecord
100
AcDbLayerTableRecord
  2
19_DATUM_FUNCTIONAL
 70
0
 62
7
  6
CONTINUOUS
370
-3
390
F
  0
LAYER
  5
20D
100
AcDbSymbolTableRecord
100
AcDbLayerTableRecord
  2
20_DATUM_KINEMATIC_SCHEME
 70
0
 62
7
  6
CONTINUOUS
370
-3
390
F
  0
ENDTAB
  0
TABLE
  2
STYLE
  5
3
100
AcDbSymbolTable
 70
1
  0
STYLE
  5
11
100
AcDbSymbolTableRecord
100
AcDbTextStyleTableRecord
  2
STANDARD
 70
0
 40
0.0
 41
1.0
 50
0.0
 71
0
 42
0.2
  3
ARIAL.TTF
  4

  0
STYLE
  5
20E
100
AcDbSymbolTableRecord
100
AcDbTextStyleTableRecord
  2
TEXTSTYLE_1
 70
0
 40
0.0
 41
0.8
 50
0.0
 71
0
 42
0.2
  3
gdt
  4

  0
ENDTAB
  0
TABLE
  2
VIEW
  5
6
100
AcDbSymbolTable
 70
0
  0
ENDTAB
  0
TABLE
  2
UCS
  5
7
100
AcDbSymbolTable
 70
0
  0
ENDTAB
  0
TABLE
  2
APPID
  5
9
100
AcDbSymbolTable
 70
1
  0
APPID
  5
20F
100
AcDbSymbolTableRecord
100
AcDbRegAppTableRecord
  2
ACAD
 70
0
  0
ENDTAB
  0
TABLE
  2
BLOCK_RECORD
  5
1
100
AcDbSymbolTable
 70
0
  0
BLOCK_RECORD
  5
210
100
AcDbSymbolTableRecord
100
AcDbBlockTableRecord
  2
*Model_Space
  0
BLOCK_RECORD
  5
211
100
AcDbSymbolTableRecord
100
AcDbBlockTableRecord
  2
*Paper_Space
  0
BLOCK_RECORD
  5
212
100
AcDbSymbolTableRecord
100
AcDbBlockTableRecord
  2
_FILLED
  0
ENDTAB
  0
TABLE
  2
DIMSTYLE
  5
A
100
AcDbSymbolTable
 70
1
100
AcDbDimStyleTable
 71
0
  0
DIMSTYLE
105
213
100
AcDbSymbolTableRecord
100
AcDbDimStyleTableRecord
  2
STANDARD
 70
0
  3

  4

 40
1.0
 41
0.5410008264
 42
1.0
 43
0.38
 44
1.0
 45
0.0
 46
0.0
 47
0.01
 48
0.01
140
0.757401157
141
0.09
142
0.0
143
25.4
144
1.0
145
0.0
146
1.0
147
0.625
 71
1
 72
0
 73
0
 74
0
 75
0
 76
0
 77
1
 78
8
 79
2
170
0
171
1
172
0
173
0
174
0
175
0
176
0
177
0
178
0
270
2
179
2
271
2
272
2
273
2
274
2
275
0
280
0
281
0
282
0
283
1
284
8
285
0
286
0
287
3
288
0
340
11
278
46
341
212
342
212
343
212
344
212
  0
ENDTAB
  0
ENDSEC
  0
SECTION
  2
BLOCKS
  0
BLOCK
  5
20
100
AcDbEntity
  8
0
100
AcDbBlockBegin
  2
*Model_Space
 70
0
 10
0.0
 20
0.0
 30
0.0
  3
*Model_Space
  1

  0
ENDBLK
  5
21
100
AcDbEntity
  8
0
100
AcDbBlockEnd
  0
BLOCK
  5
1C
100
AcDbEntity
  8
0
100
AcDbBlockBegin
  2
*Paper_Space
 70
0
 10
0.0
 20
0.0
 30
0.0
  3
*Paper_Space
  1

  0
ENDBLK
  5
1D
100
AcDbEntity
  8
0
100
AcDbBlockEnd
  0
BLOCK
  5
214
100
AcDbEntity
  8
0
100
AcDbBlockBegin
  2
_FILLED
 70
64
 10
0.0
 20
0.0
  3
_FILLED
  1

  0
SOLID
  5
215
100
AcDbEntity
  8
0
  6
BYBLOCK
 62
0
100
AcDbTrace
 10
0.0
 20
0.0
 11
-1.0
 21
0.25
 12
-1.0
 22
-0.25
 13
-1.0
 23
-0.25
  0
ENDBLK
  5
216
100
AcDbEntity
  8
0
  6
BYBLOCK
 62
0
100
AcDbBlockEnd
  0
ENDSEC
  0
SECTION
  2
ENTITIES
  0
LINE
  5
217
100
AcDbEntity
  8
0
100
AcDbLine
 62
7
  6
BYLAYER
 10
18.4513703108
 20
5.1527925635
 11
28.2513703108
 21
5.1527925635
  0
LINE
  5
218
100
AcDbEntity
  8
0
100
AcDbLine
 62
7
  6
BYLAYER
 10
18.4513703108
 20
9.2740086927
 11
28.2513703108
 21
9.2740086927
  0
LINE
  5
219
100
AcDbEntity
  8
0
100
AcDbLine
 62
7
  6
BYLAYER
 10
19.8891414498
 20
11.2687265742
 11
26.1907897042
 21
11.2570784855
  0
LINE
  5
21A
100
AcDbEntity
  8
0
100
AcDbLine
 62
7
  6
BYLAYER
 10
26.1513703108
 20
12.2675383592
 11
19.8844379047
 21
12.2370964278
  0
LINE
  5
21B
100
AcDbEntity
  8
0
100
AcDbLine
 62
7
  6
BYLAYER
 10
26.1745481671
 20
14.6006447595
 11
19.8730571682
 21
14.5801720975
  0
LINE
  5
21C
100
AcDbEntity
  8
0
100
AcDbLine
 62
7
  6
BYLAYER
 10
28.2513703108
 20
15.1398148697
 11
18.4513703108
 21
15.1398148697
  0
LINE
  5
21D
100
AcDbEntity
  8
0
100
AcDbLine
 62
7
  6
BYLAYER
 10
8.4013703108
 20
29.1527925635
 11
8.4013703108
 21
19.3527925635
  0
LINE
  5
21E
100
AcDbEntity
  8
0
100
AcDbLine
 62
7
  6
BYLAYER
 10
8.6013703108
 20
39.3827925635
 11
8.6013703108
 21
45.3827925635
  0
LINE
  5
21F
100
AcDbEntity
  8
0
100
AcDbLine
 62
7
  6
BYLAYER
 10
8.6863703108
 20
29.1527925635
 11
8.6863703108
 21
35.1527925635
  0
LINE
  5
220
100
AcDbEntity
  8
0
100
AcDbLine
 62
7
  6
BYLAYER
 10
9.1016233587
 20
52.8827925635
 11
9.1016233587
 21
56.0268167985
  0
LINE
  5
221
100
AcDbEntity
  8
0
100
AcDbLine
 62
7
  6
BYLAYER
 10
9.1105387364
 20
49.3827925635
 11
9.1105387364
 21
52.8827925635
  0
LINE
  5
222
100
AcDbEntity
  8
0
100
AcDbLine
 62
7
  6
BYLAYER
 10
9.7766113723
 20
47.8827925635
 11
9.7766113723
 21
49.3827925635
  0
LINE
  5
223
100
AcDbEntity
  8
0
100
AcDbLine
 62
7
  6
BYLAYER
 10
10.7013703108
 20
45.3827925635
 11
10.7013703108
 21
47.8827925635
  0
LINE
  5
224
100
AcDbEntity
  8
0
100
AcDbLine
 62
7
  6
BYLAYER
 10
8.4013703108
 20
19.3527925635
 11
20.9194419854
 21
19.3527925635
  0
LINE
  5
225
100
AcDbEntity
  8
0
100
AcDbLine
 62
7
  6
BYLAYER
 10
25.9838320631
 20
19.3527925635
 11
38.3013703108
 21
19.3527925635
  0
LINE
  5
226
100
AcDbEntity
  8
0
100
AcDbLine
 62
7
  6
BYLAYER
 10
8.4013703108
 20
19.8031257735
 11
14.7013703108
 21
19.8031257735
  0
LINE
  5
227
100
AcDbEntity
  8
0
100
AcDbLine
 62
7
  6
BYLAYER
 10
32.0013703108
 20
19.8031257735
 11
38.3013703108
 21
19.8031257735
  0
LINE
  5
228
100
AcDbEntity
  8
0
100
AcDbLine
 62
7
  6
BYLAYER
 10
14.7013703108
 20
20.091800908
 11
16.7013703108
 21
20.091800908
  0
LINE
  5
229
100
AcDbEntity
  8
0
100
AcDbLine
 62
7
  6
BYLAYER
 10
11.7263638741
 20
35.1527925635
 11
11.7263638741
 21
35.3527925635
  0
LINE
  5
22A
100
AcDbEntity
  8
0
100
AcDbLine
 62
7
  6
BYLAYER
 10
12.4863703108
 20
35.1527925635
 11
12.4863703108
 21
29.1527925635
  0
LINE
  5
22B
100
AcDbEntity
  8
0
100
AcDbLine
 62
7
  6
BYLAYER
 10
13.2241102422
 20
35.7322087257
 11
13.2241102422
 21
39.3827925635
  0
LINE
  5
22C
100
AcDbEntity
  8
0
100
AcDbLine
 62
7
  6
BYLAYER
 10
30.0013703108
 20
20.6691511772
 11
32.0013703108
 21
20.6691511772
  0
LINE
  5
22D
100
AcDbEntity
  8
0
100
AcDbLine
 62
7
  6
BYLAYER
 10
21.1247731464
 20
21.8527925635
 11
25.5779674107
 21
21.8527925635
  0
LINE
  5
22E
100
AcDbEntity
  8
0
100
AcDbLine
 62
7
  6
BYLAYER
 10
13.3515478883
 20
35.3527925635
 11
13.3515478883
 21
35.7322087257
  0
LINE
  5
22F
100
AcDbEntity
  8
0
100
AcDbLine
 62
7
  6
BYLAYER
 10
14.7013703108
 20
25.6527925635
 11
14.7013703108
 21
19.8031257735
  0
LINE
  5
230
100
AcDbEntity
  8
0
100
AcDbLine
 62
7
  6
BYLAYER
 10
14.8138062554
 20
35.1527925635
 11
14.8138062554
 21
35.3527925635
  0
LINE
  5
231
100
AcDbEntity
  8
0
100
AcDbLine
 62
7
  6
BYLAYER
 10
16.7013703108
 20
20.6691511772
 11
21.1247731464
 21
21.8527925635
  0
LINE
  5
232
100
AcDbEntity
  8
0
100
AcDbLine
 62
7
  6
BYLAYER
 10
22.6348357428
 20
24.0243749589
 11
24.0679047923
 21
24.0243749589
  0
LINE
  5
233
100
AcDbEntity
  8
0
100
AcDbLine
 62
7
  6
BYLAYER
 10
25.5779674107
 20
21.8527925635
 11
30.0013703108
 21
20.6691511772
  0
LINE
  5
234
100
AcDbEntity
  8
0
100
AcDbLine
 62
7
  6
BYLAYER
 10
16.6013703108
 20
29.1527925635
 11
16.6013703108
 21
35.1527925635
  0
LINE
  5
235
100
AcDbEntity
  8
0
100
AcDbLine
 62
7
  6
BYLAYER
 10
16.7013703108
 20
25.6527925635
 11
16.7013703108
 21
20.091800908
  0
LINE
  5
236
100
AcDbEntity
  8
0
100
AcDbLine
 62
7
  6
BYLAYER
 10
23.4523963506
 20
39.371483158
 11
22.0447319789
 21
38.6819611223
  0
LINE
  5
237
100
AcDbEntity
  8
0
100
AcDbLine
 62
7
  6
BYLAYER
 10
38.3013703108
 20
25.6527925635
 11
8.4013703108
 21
25.6527925635
  0
LINE
  5
238
100
AcDbEntity
  8
0
100
AcDbLine
 62
7
  6
BYLAYER
 10
22.6348357428
 20
24.0243749589
 11
20.908736708
 21
25.6527925635
  0
LINE
  5
239
100
AcDbEntity
  8
0
100
AcDbLine
 62
7
  6
BYLAYER
 10
18.4513703108
 20
19.3527925635
 11
18.4513703108
 21
5.1527925635
  0
LINE
  5
23A
100
AcDbEntity
  8
0
100
AcDbLine
 62
7
  6
BYLAYER
 10
22.0447319789
 20
38.6819611223
 11
21.8607418833
 21
38.5238579218
  0
LINE
  5
23B
100
AcDbEntity
  8
0
100
AcDbLine
 62
7
  6
BYLAYER
 10
38.3013703108
 20
27.1527925635
 11
25.4523963506
 21
27.1527925635
  0
LINE
  5
23C
100
AcDbEntity
  8
0
100
AcDbLine
 62
7
  6
BYLAYER
 10
21.4523963506
 20
27.1527925635
 11
8.4013703108
 21
27.1527925635
  0
LINE
  5
23D
100
AcDbEntity
  8
0
100
AcDbLine
 62
7
  6
BYLAYER
 10
19.8730571682
 20
14.5801720975
 11
19.8891414498
 21
11.2687265742
  0
LINE
  5
23E
100
AcDbEntity
  8
0
100
AcDbLine
 62
7
  6
BYLAYER
 10
20.4013703108
 20
35.1527925635
 11
20.4013703108
 21
29.1527925635
  0
LINE
  5
23F
100
AcDbEntity
  8
0
100
AcDbLine
 62
7
  6
BYLAYER
 10
20.7188809946
 20
35.3527925635
 11
20.7188809946
 21
35.1527925635
  0
LINE
  5
240
100
AcDbEntity
  8
0
100
AcDbLine
 62
7
  6
BYLAYER
 10
20.7214191135
 20
19.1203272431
 11
20.7214191135
 21
16.7094753485
  0
LINE
  5
241
100
AcDbEntity
  8
0
100
AcDbLine
 62
7
  6
BYLAYER
 10
21.4523963506
 20
37.4428016423
 11
21.4523963506
 21
35.1527925635
  0
LINE
  5
242
100
AcDbEntity
  8
0
100
AcDbLine
 62
7
  6
BYLAYER
 10
21.4523963506
 20
29.1527925635
 11
21.4523963506
 21
25.6527925635
  0
LINE
  5
243
100
AcDbEntity
  8
0
100
AcDbLine
 62
7
  6
BYLAYER
 10
21.4628282664
 20
37.4967948893
 11
21.4523963506
 21
37.4428016423
  0
LINE
  5
244
100
AcDbEntity
  8
0
100
AcDbLine
 62
7
  6
BYLAYER
 10
21.8607418833
 20
38.5238579218
 11
21.4628282664
 21
37.4967948893
  0
LINE
  5
245
100
AcDbEntity
  8
0
100
AcDbLine
 62
7
  6
BYLAYER
 10
8.4013703108
 20
29.1527925635
 11
38.3013703108
 21
29.1527925635
  0
LINE
  5
246
100
AcDbEntity
  8
0
100
AcDbLine
 62
7
  6
BYLAYER
 10
21.6523963506
 20
20.941424761
 11
21.6523963506
 21
19.6420168448
  0
LINE
  5
247
100
AcDbEntity
  8
0
100
AcDbLine
 62
7
  6
BYLAYER
 10
22.6348357428
 20
21.8527925635
 11
22.6348357428
 21
24.0243749589
  0
LINE
  5
248
100
AcDbEntity
  8
0
100
AcDbLine
 62
7
  6
BYLAYER
 10
26.1513703108
 20
12.2675383592
 11
26.1907897042
 21
11.2570784855
  0
LINE
  5
249
100
AcDbEntity
  8
0
100
AcDbLine
 62
7
  6
BYLAYER
 10
24.0679047923
 20
24.0243749589
 11
24.0679047923
 21
21.8527925635
  0
LINE
  5
24A
100
AcDbEntity
  8
0
100
AcDbLine
 62
7
  6
BYLAYER
 10
25.2523963506
 20
20.81690545
 11
25.2523963506
 21
19.641509374
  0
LINE
  5
24B
100
AcDbEntity
  8
0
100
AcDbLine
 62
7
  6
BYLAYER
 10
25.4523963506
 20
37.4428016423
 11
25.4523963506
 21
35.1527925635
  0
LINE
  5
24C
100
AcDbEntity
  8
0
100
AcDbLine
 62
7
  6
BYLAYER
 10
25.4523963506
 20
29.1527925635
 11
25.4523963506
 21
25.6527925635
  0
LINE
  5
24D
100
AcDbEntity
  8
0
100
AcDbLine
 62
7
  6
BYLAYER
 10
26.1907897042
 20
11.2570784855
 11
26.1745481671
 21
14.6006447595
  0
LINE
  5
24E
100
AcDbEntity
  8
0
100
AcDbLine
 62
7
  6
BYLAYER
 10
25.983859627
 20
35.1527925635
 11
25.983859627
 21
35.3527925635
  0
LINE
  5
24F
100
AcDbEntity
  8
0
100
AcDbLine
 62
7
  6
BYLAYER
 10
26.1513703108
 20
14.6006447595
 11
26.1513703108
 21
12.2675383592
  0
LINE
  5
250
100
AcDbEntity
  8
0
100
AcDbLine
 62
7
  6
BYLAYER
 10
26.1833735877
 20
19.1203272431
 11
26.1833735877
 21
16.7094753485
  0
LINE
  5
251
100
AcDbEntity
  8
0
100
AcDbLine
 62
7
  6
BYLAYER
 10
26.3013703108
 20
29.1527925635
 11
26.3013703108
 21
35.1527925635
  0
LINE
  5
252
100
AcDbEntity
  8
0
100
AcDbLine
 62
7
  6
BYLAYER
 10
8.6863703108
 20
35.1527925635
 11
38.0163703108
 21
35.1527925635
  0
LINE
  5
253
100
AcDbEntity
  8
0
100
AcDbLine
 62
7
  6
BYLAYER
 10
34.9763703108
 20
35.3527925635
 11
25.4523963506
 21
35.3527925635
  0
LINE
  5
254
100
AcDbEntity
  8
0
100
AcDbLine
 62
7
  6
BYLAYER
 10
21.4523963506
 20
35.3527925635
 11
11.7263638741
 21
35.3527925635
  0
LINE
  5
255
100
AcDbEntity
  8
0
100
AcDbLine
 62
7
  6
BYLAYER
 10
13.2241102422
 20
35.7322087257
 11
21.4523963506
 21
35.7322087257
  0
LINE
  5
256
100
AcDbEntity
  8
0
100
AcDbLine
 62
7
  6
BYLAYER
 10
25.4523963506
 20
35.7322087257
 11
33.4786303794
 21
35.7322087257
  0
LINE
  5
257
100
AcDbEntity
  8
0
100
AcDbLine
 62
7
  6
BYLAYER
 10
25.0440508179
 20
38.5238579218
 11
25.4419644348
 21
37.4967948893
  0
LINE
  5
258
100
AcDbEntity
  8
0
100
AcDbLine
 62
7
  6
BYLAYER
 10
25.4523963506
 20
37.4428016423
 11
25.4419644348
 21
37.4967948893
  0
LINE
  5
259
100
AcDbEntity
  8
0
100
AcDbLine
 62
7
  6
BYLAYER
 10
28.2513703108
 20
5.1527925635
 11
28.2513703108
 21
19.3527925635
  0
LINE
  5
25A
100
AcDbEntity
  8
0
100
AcDbLine
 62
7
  6
BYLAYER
 10
23.4523963506
 20
39.371483158
 11
24.8600607223
 21
38.6819611223
  0
LINE
  5
25B
100
AcDbEntity
  8
0
100
AcDbLine
 62
7
  6
BYLAYER
 10
25.0440508179
 20
38.5238579218
 11
24.8600607223
 21
38.6819611223
  0
LINE
  5
25C
100
AcDbEntity
  8
0
100
AcDbLine
 62
7
  6
BYLAYER
 10
30.0013703108
 20
20.6691511772
 11
30.0013703108
 21
25.6527925635
  0
LINE
  5
25D
100
AcDbEntity
  8
0
100
AcDbLine
 62
7
  6
BYLAYER
 10
30.1013703108
 20
35.1527925635
 11
30.1013703108
 21
29.1527925635
  0
LINE
  5
25E
100
AcDbEntity
  8
0
100
AcDbLine
 62
7
  6
BYLAYER
 10
31.8889343662
 20
35.3527925635
 11
31.8889343662
 21
35.1527925635
  0
LINE
  5
25F
100
AcDbEntity
  8
0
100
AcDbLine
 62
7
  6
BYLAYER
 10
25.7940038522
 20
25.6527925635
 11
24.0679047923
 21
24.0243749589
  0
LINE
  5
260
100
AcDbEntity
  8
0
100
AcDbLine
 62
7
  6
BYLAYER
 10
8.6013703108
 20
39.3827925635
 11
38.1013703108
 21
39.3827925635
  0
LINE
  5
261
100
AcDbEntity
  8
0
100
AcDbLine
 62
7
  6
BYLAYER
 10
32.0013703108
 20
19.8031257734
 11
32.0013703108
 21
25.6527925635
  0
LINE
  5
262
100
AcDbEntity
  8
0
100
AcDbLine
 62
7
  6
BYLAYER
 10
33.3511927333
 20
35.7322087257
 11
33.3511927333
 21
35.3527925635
  0
LINE
  5
263
100
AcDbEntity
  8
0
100
AcDbLine
 62
7
  6
BYLAYER
 10
33.4786303794
 20
39.3827925635
 11
33.4786303794
 21
35.7322087257
  0
LINE
  5
264
100
AcDbEntity
  8
0
100
AcDbLine
 62
7
  6
BYLAYER
 10
34.2163703108
 20
29.1527925635
 11
34.2163703108
 21
35.1527925635
  0
LINE
  5
265
100
AcDbEntity
  8
0
100
AcDbLine
 62
7
  6
BYLAYER
 10
34.9763703108
 20
35.3527925635
 11
34.9763703108
 21
35.1527925635
  0
LINE
  5
266
100
AcDbEntity
  8
0
100
AcDbLine
 62
7
  6
BYLAYER
 10
36.0013703108
 20
47.8827925635
 11
36.0013703108
 21
45.3827925635
  0
LINE
  5
267
100
AcDbEntity
  8
0
100
AcDbLine
 62
7
  6
BYLAYER
 10
36.9261292494
 20
49.3827925635
 11
36.9261292494
 21
47.8827925635
  0
LINE
  5
268
100
AcDbEntity
  8
0
100
AcDbLine
 62
7
  6
BYLAYER
 10
37.5922018852
 20
52.8827925635
 11
37.5922018852
 21
49.3827925635
  0
LINE
  5
269
100
AcDbEntity
  8
0
100
AcDbLine
 62
7
  6
BYLAYER
 10
37.6011172629
 20
56.0268167985
 11
37.6011172629
 21
52.8827925635
  0
LINE
  5
26A
100
AcDbEntity
  8
0
100
AcDbLine
 62
7
  6
BYLAYER
 10
38.0163703108
 20
35.1527925635
 11
38.0163703108
 21
29.1527925635
  0
LINE
  5
26B
100
AcDbEntity
  8
0
100
AcDbLine
 62
7
  6
BYLAYER
 10
38.1013703108
 20
45.3827925635
 11
8.6013703108
 21
45.3827925635
  0
LINE
  5
26C
100
AcDbEntity
  8
0
100
AcDbLine
 62
7
  6
BYLAYER
 10
38.1013703108
 20
45.3827925635
 11
38.1013703108
 21
39.3827925635
  0
LINE
  5
26D
100
AcDbEntity
  8
0
100
AcDbLine
 62
7
  6
BYLAYER
 10
38.3013703108
 20
19.3527925635
 11
38.3013703108
 21
29.1527925635
  0
LINE
  5
26E
100
AcDbEntity
  8
0
100
AcDbLine
 62
7
  6
BYLAYER
 10
9.7766113723
 20
47.8827925635
 11
36.9261292494
 21
47.8827925635
  0
LINE
  5
26F
100
AcDbEntity
  8
0
100
AcDbLine
 62
7
  6
BYLAYER
 10
9.1105387364
 20
49.3827925635
 11
37.5922018852
 21
49.3827925635
  0
LINE
  5
270
100
AcDbEntity
  8
0
100
AcDbLine
 62
7
  6
BYLAYER
 10
9.1016233587
 20
52.8827925635
 11
37.6011172629
 21
52.8827925635
  0
LINE
  5
271
100
AcDbEntity
  8
0
100
AcDbLine
 62
7
  6
BYLAYER
 10
37.6011172629
 20
56.0268167985
 11
9.1016233587
 21
56.0268167985
  0
LINE
  5
272
100
AcDbEntity
  8
0
100
AcDbLine
 62
7
  6
BYLAYER
 10
36.9525017825
 20
56.9632372848
 11
9.7502388392
 21
56.9632372848
  0
ARC
  5
273
100
AcDbEntity
  8
0
100
AcDbCircle
 62
7
  6
BYLAYER
 10
23.3513703108
 20
20.7451271223
 40
38.6877536315
100
AcDbArc
 50
69.4171360775
 51
110.5828639225
  0
ARC
  5
274
100
AcDbEntity
  8
0
100
AcDbCircle
 62
7
  6
BYLAYER
 10
23.3941690606
 20
17.9007324256
 40
3.6072598387
100
AcDbArc
 50
87.9733156248
 51
89.0803534864
  0
ARC
  5
275
100
AcDbEntity
  8
0
100
AcDbCircle
 62
7
  6
BYLAYER
 10
10.1018965621
 20
56.0268167985
 40
1.0002732033
100
AcDbArc
 50
110.5828639228
 51
180.0
  0
ARC
  5
276
100
AcDbEntity
  8
0
100
AcDbCircle
 62
7
  6
BYLAYER
 10
36.6008440596
 20
56.0268167985
 40
1.0002732033
100
AcDbArc
 50
0.0
 51
69.4171360772
  0
ARC
  5
277
100
AcDbEntity
  8
0
100
AcDbCircle
 62
7
  6
BYLAYER
 10
21.6263887285
 20
37.4334060645
 40
0.1754128725
100
AcDbArc
 50
155.3360573105
 51
158.8157016016
  0
ARC
  5
278
100
AcDbEntity
  8
0
100
AcDbCircle
 62
7
  6
BYLAYER
 10
25.2784039727
 20
37.4334060645
 40
0.1754128725
100
AcDbArc
 50
21.1842983984
 51
24.6639426895
  0
SPLINE
  5
279
100
AcDbEntity
  8
0
100
AcDbSpline
 62
7
  6
BYLAYER
 70
0
 71
3
 72
20
 73
16
 74
0
 42
0.0000001
 43
0.0000001
 44
0.0000000001
 40
0.0
 40
0.0
 40
0.0
 40
0.0
 40
0.0120902278
 40
0.024558103
 40
0.0518575838
 40
0.0840161401
 40
0.1221352296
 40
0.1667049371
 40
0.2178320437
 40
0.2753652397
 40
0.3390099239
 40
0.4827628414
 40
0.6446124702
 40
0.8191032476
 40
1.0
 40
1.0
 40
1.0
 40
1.0
 10
26.1833647815
 20
16.7094753484
 30
0.0
 10
26.1833643617
 20
16.6976027203
 30
0.0
 10
26.1810771067
 20
16.6734304949
 30
0.0
 10
26.1671340124
 20
16.6242027052
 30
0.0
 10
26.1307766695
 20
16.5623402208
 30
0.0
 10
26.0631982315
 20
16.4935810422
 30
0.0
 10
25.9714352819
 20
16.4273481805
 30
0.0
 10
25.8560531696
 20
16.3639675296
 30
0.0
 10
25.7179431014
 20
16.3038372802
 30
0.0
 10
25.5582840871
 20
16.247465479
 30
0.0
 10
25.3082506757
 20
16.175168049
 30
0.0
 10
24.9529946483
 20
16.1002229867
 30
0.0
 10
24.485717547
 20
16.0355127468
 30
0.0
 10
23.9790966343
 20
15.9956316851
 30
0.0
 10
23.6300373257
 20
15.9866846605
 30
0.0
 10
23.4523963506
 20
15.9866846605
 30
0.0
  0
SPLINE
  5
27A
100
AcDbEntity
  8
0
100
AcDbSpline
 62
7
  6
BYLAYER
 70
0
 71
3
 72
20
 73
16
 74
0
 42
0.0000001
 43
0.0000001
 44
0.0000000001
 40
0.0
 40
0.0
 40
0.0
 40
0.0
 40
0.0120902278
 40
0.024558103
 40
0.0518575838
 40
0.0840161401
 40
0.1221352296
 40
0.1667049371
 40
0.2178320437
 40
0.2753652397
 40
0.3390099239
 40
0.4827628414
 40
0.6446124702
 40
0.8191032476
 40
1.0
 40
1.0
 40
1.0
 40
1.0
 10
26.1833647815
 20
19.1203272432
 30
0.0
 10
26.1833643617
 20
19.1321998713
 30
0.0
 10
26.1810771067
 20
19.1563720967
 30
0.0
 10
26.1671340124
 20
19.2055998864
 30
0.0
 10
26.1307766695
 20
19.2674623708
 30
0.0
 10
26.0631982315
 20
19.3362215494
 30
0.0
 10
25.9714352819
 20
19.4024544112
 30
0.0
 10
25.8560531696
 20
19.465835062
 30
0.0
 10
25.7179431014
 20
19.5259653114
 30
0.0
 10
25.5582840871
 20
19.5823371126
 30
0.0
 10
25.3082506757
 20
19.6546345426
 30
0.0
 10
24.9529946483
 20
19.7295796049
 30
0.0
 10
24.485717547
 20
19.7942898448
 30
0.0
 10
23.9790966343
 20
19.8341709065
 30
0.0
 10
23.6300373257
 20
19.8431179311
 30
0.0
 10
23.4523963506
 20
19.8431179311
 30
0.0
  0
SPLINE
  5
27B
100
AcDbEntity
  8
0
100
AcDbSpline
 62
7
  6
BYLAYER
 70
0
 71
3
 72
20
 73
16
 74
0
 42
0.0000001
 43
0.0000001
 44
0.0000000001
 40
0.0
 40
0.0
 40
0.0
 40
0.0
 40
0.1808966377
 40
0.3553834829
 40
0.5172313319
 40
0.6609829102
 40
0.7246279833
 40
0.7821619677
 40
0.8332909573
 40
0.8778613722
 40
0.915982226
 40
0.9481412821
 40
0.9754415333
 40
0.9879096561
 40
1.0
 40
1.0
 40
1.0
 40
1.0
 10
23.4523963506
 20
15.9866846605
 30
0.0
 10
23.274755456
 20
15.9866846605
 30
0.0
 10
22.9257000348
 20
15.9956312266
 30
0.0
 10
22.4190847979
 20
16.0355119654
 30
0.0
 10
21.9518141381
 20
16.1002192392
 30
0.0
 10
21.5965607621
 20
16.1751635901
 30
0.0
 10
21.3465266368
 20
16.2474584743
 30
0.0
 10
21.1868651827
 20
16.3038320746
 30
0.0
 10
21.0487500624
 20
16.3639595612
 30
0.0
 10
20.9333658225
 20
16.4273448908
 30
0.0
 10
20.8415974855
 20
16.4935755372
 30
0.0
 10
20.7740186619
 20
16.5623386711
 30
0.0
 10
20.737659255
 20
16.6242013394
 30
0.0
 10
20.7237142276
 20
16.6734298228
 30
0.0
 10
20.7214274999
 20
16.6976026044
 30
0.0
 10
20.7214279197
 20
16.7094753486
 30
0.0
  0
SPLINE
  5
27C
100
AcDbEntity
  8
0
100
AcDbSpline
 62
7
  6
BYLAYER
 70
0
 71
3
 72
20
 73
16
 74
0
 42
0.0000001
 43
0.0000001
 44
0.0000000001
 40
0.0
 40
0.0
 40
0.0
 40
0.0
 40
0.1808966377
 40
0.3553834829
 40
0.5172313319
 40
0.6609829102
 40
0.7246279833
 40
0.7821619677
 40
0.8332909573
 40
0.8778613722
 40
0.915982226
 40
0.9481412821
 40
0.9754415333
 40
0.9879096561
 40
1.0
 40
1.0
 40
1.0
 40
1.0
 10
23.4523963506
 20
19.8431179311
 30
0.0
 10
23.274755456
 20
19.8431179311
 30
0.0
 10
22.9257000348
 20
19.834171365
 30
0.0
 10
22.4190847979
 20
19.7942906262
 30
0.0
 10
21.9518141381
 20
19.7295833524
 30
0.0
 10
21.5965607621
 20
19.6546390016
 30
0.0
 10
21.3465266368
 20
19.5823441173
 30
0.0
 10
21.1868651827
 20
19.525970517
 30
0.0
 10
21.0487500624
 20
19.4658430304
 30
0.0
 10
20.9333658225
 20
19.4024577008
 30
0.0
 10
20.8415974855
 20
19.3362270544
 30
0.0
 10
20.7740186619
 20
19.2674639205
 30
0.0
 10
20.737659255
 20
19.2056012522
 30
0.0
 10
20.7237142276
 20
19.1563727688
 30
0.0
 10
20.7214274999
 20
19.1321999872
 30
0.0
 10
20.7214279197
 20
19.120327243
 30
0.0
  0
SPLINE
  5
27D
100
AcDbEntity
  8
0
100
AcDbSpline
 62
7
  6
BYLAYER
 70
0
 71
3
 72
17
 73
13
 74
0
 42
0.0000001
 43
0.0000001
 44
0.0000000001
 40
0.0
 40
0.0
 40
0.0
 40
0.0
 40
0.0425788008
 40
0.0860060443
 40
0.1309285551
 40
0.1779374895
 40
0.2801056004
 40
0.3959679462
 40
0.5270931133
 40
0.673321133
 40
0.83245607
 40
1.0
 40
1.0
 40
1.0
 40
1.0
 10
25.5059362418
 20
20.2935202025
 30
0.0
 10
25.5055750677
 20
20.3293836943
 30
0.0
 10
25.4992253997
 20
20.4018852014
 30
0.0
 10
25.4730922851
 20
20.5094203571
 30
0.0
 10
25.4304019801
 20
20.6155537521
 30
0.0
 10
25.3493320436
 20
20.7580268741
 30
0.0
 10
25.202674276
 20
20.9291958026
 30
0.0
 10
24.9686910654
 20
21.1099644212
 30
0.0
 10
24.6750230937
 20
21.2660741941
 30
0.0
 10
24.3277329793
 20
21.3902076644
 30
0.0
 10
23.937512376
 20
21.4749994474
 30
0.0
 10
23.6627781449
 20
21.50074252
 30
0.0
 10
23.5217395862
 20
21.5057357966
 30
0.0
  0
SPLINE
  5
27E
100
AcDbEntity
  8
0
100
AcDbSpline
 62
7
  6
BYLAYER
 70
0
 71
3
 72
17
 73
13
 74
0
 42
0.0000001
 43
0.0000001
 44
0.0000000001
 40
0.0
 40
0.0
 40
0.0
 40
0.0
 40
0.166589029
 40
0.3267164922
 40
0.4745936729
 40
0.6069680309
 40
0.723170577
 40
0.8247314511
 40
0.8711628289
 40
0.9154044502
 40
0.9581124641
 40
1.0
 40
1.0
 40
1.0
 40
1.0
 10
23.4520661958
 20
21.5075276049
 30
0.0
 10
23.3022499492
 20
21.5099349008
 30
0.0
 10
23.0077972791
 20
21.4966536054
 30
0.0
 10
22.5860011075
 20
21.4240578236
 30
0.0
 10
22.2068193236
 20
21.3051013086
 30
0.0
 10
21.8849443272
 20
21.1480291368
 30
0.0
 10
21.628837952
 20
20.9616605288
 30
0.0
 10
21.4690121389
 20
20.7824138943
 30
0.0
 10
21.3818621798
 20
20.6324970846
 30
0.0
 10
21.3367357902
 20
20.5208577702
 30
0.0
 10
21.3100323348
 20
20.4076347291
 30
0.0
 10
21.3045610878
 20
20.3313506018
 30
0.0
 10
21.3049363732
 20
20.2936774601
 30
0.0
  0
SPLINE
  5
27F
100
AcDbEntity
  8
0
100
AcDbSpline
 62
7
  6
BYLAYER
 70
0
 71
3
 72
11
 73
7
 74
0
 42
0.0000001
 43
0.0000001
 44
0.0000000001
 40
0.0
 40
0.0
 40
0.0
 40
0.0
 40
0.2281372023
 40
0.465946971
 40
0.7210492556
 40
1.0
 40
1.0
 40
1.0
 40
1.0
 10
21.3049363732
 20
20.2936774601
 30
0.0
 10
21.3054861497
 20
20.2384879715
 30
0.0
 10
21.3202536516
 20
20.1255089465
 30
0.0
 10
21.3818648355
 20
19.9609097066
 30
0.0
 10
21.4822566605
 20
19.8021090527
 30
0.0
 10
21.570241318
 20
19.7065457081
 30
0.0
 10
21.6194800883
 20
19.6603958186
 30
0.0
  0
SPLINE
  5
280
100
AcDbEntity
  8
0
100
AcDbSpline
 62
7
  6
BYLAYER
 70
0
 71
3
 72
20
 73
16
 74
0
 42
0.0000001
 43
0.0000001
 44
0.0000000001
 40
0.0
 40
0.0
 40
0.0
 40
0.0
 40
0.0120902278
 40
0.024558103
 40
0.0518575838
 40
0.0840161401
 40
0.1221352296
 40
0.1667049371
 40
0.2178320437
 40
0.2753652397
 40
0.3390099239
 40
0.4827628414
 40
0.6446124702
 40
0.8191032476
 40
1.0
 40
1.0
 40
1.0
 40
1.0
 10
20.7214279197
 20
16.7094753486
 30
0.0
 10
20.7214283395
 20
16.7213479766
 30
0.0
 10
20.7237155945
 20
16.7455202021
 30
0.0
 10
20.7376586888
 20
16.7947479918
 30
0.0
 10
20.7740160317
 20
16.8566104762
 30
0.0
 10
20.8415944697
 20
16.9253696548
 30
0.0
 10
20.9333574193
 20
16.9916025165
 30
0.0
 10
21.0487395316
 20
17.0549831674
 30
0.0
 10
21.1868495998
 20
17.1151134168
 30
0.0
 10
21.3465086141
 20
17.1714852179
 30
0.0
 10
21.5965420255
 20
17.243782648
 30
0.0
 10
21.9517980529
 20
17.3187277103
 30
0.0
 10
22.4190751542
 20
17.3834379502
 30
0.0
 10
22.9256960669
 20
17.4233190119
 30
0.0
 10
23.2747553755
 20
17.4322660365
 30
0.0
 10
23.4523963506
 20
17.4322660365
 30
0.0
  0
SPLINE
  5
281
100
AcDbEntity
  8
0
100
AcDbSpline
 62
7
  6
BYLAYER
 70
0
 71
3
 72
14
 73
10
 74
0
 42
0.0000001
 43
0.0000001
 44
0.0000000001
 40
0.0
 40
0.0
 40
0.0
 40
0.0
 40
0.0866743393
 40
0.187540181
 40
0.3014445039
 40
0.4267207517
 40
0.5614436289
 40
0.7035182222
 40
1.0
 40
1.0
 40
1.0
 40
1.0
 10
24.8600577226
 20
38.6819606934
 30
0.0
 10
24.8228419769
 20
38.7001955945
 30
0.0
 10
24.7396583169
 20
38.7342324495
 30
0.0
 10
24.6019053584
 20
38.7770238516
 30
0.0
 10
24.4436188889
 20
38.814656893
 30
0.0
 10
24.2676255951
 20
38.8465003732
 30
0.0
 10
24.0769945345
 20
38.8718961683
 30
0.0
 10
23.8039741978
 20
38.8968933423
 30
0.0
 10
23.5941580109
 20
38.9041253308
 30
0.0
 10
23.4523963506
 20
38.9041253308
 30
0.0
  0
SPLINE
  5
282
100
AcDbEntity
  8
0
100
AcDbSpline
 62
7
  6
BYLAYER
 70
0
 71
3
 72
14
 73
10
 74
0
 42
0.0000001
 43
0.0000001
 44
0.0000000001
 40
0.0
 40
0.0
 40
0.0
 40
0.0
 40
0.2964817778
 40
0.4385563711
 40
0.5732792483
 40
0.6985554961
 40
0.812459819
 40
0.9133256607
 40
1.0
 40
1.0
 40
1.0
 40
1.0
 10
23.4523963506
 20
38.9041253308
 30
0.0
 10
23.3106346903
 20
38.9041253308
 30
0.0
 10
23.1008185034
 20
38.8968933423
 30
0.0
 10
22.8277981667
 20
38.8718961683
 30
0.0
 10
22.6371671061
 20
38.8465003732
 30
0.0
 10
22.4611738124
 20
38.814656893
 30
0.0
 10
22.3028873429
 20
38.7770238516
 30
0.0
 10
22.1651343843
 20
38.7342324495
 30
0.0
 10
22.0819507243
 20
38.7001955945
 30
0.0
 10
22.0447349786
 20
38.6819606934
 30
0.0
  0
SPLINE
  5
283
100
AcDbEntity
  8
0
100
AcDbSpline
 62
7
  6
BYLAYER
 70
0
 71
3
 72
19
 73
15
 74
0
 42
0.0000001
 43
0.0000001
 44
0.0000000001
 40
0.0
 40
0.0
 40
0.0
 40
0.0
 40
0.1723494492
 40
0.3395712421
 40
0.4964216834
 40
0.6384380842
 40
0.7026172506
 40
0.7616876533
 40
0.8153171087
 40
0.8632733563
 40
0.9054766041
 40
0.9420003882
 40
0.9732317791
 40
1.0
 40
1.0
 40
1.0
 40
1.0
 10
23.4523963506
 20
37.9721291505
 30
0.0
 10
23.3322245739
 20
37.9721291505
 30
0.0
 10
23.0954172157
 20
37.9665059418
 30
0.0
 10
22.7500441653
 20
37.9414590382
 30
0.0
 10
22.4274755221
 20
37.9006100996
 30
0.0
 10
22.1785607242
 20
37.8532593401
 30
0.0
 10
21.9992841449
 20
37.8075471137
 30
0.0
 10
21.8812846884
 20
37.7714973017
 30
0.0
 10
21.7760781242
 20
37.7328259807
 30
0.0
 10
21.6844870576
 20
37.6918095572
 30
0.0
 10
21.6071627903
 20
37.6488274083
 30
0.0
 10
21.5446356797
 20
37.6040616352
 30
0.0
 10
21.4973104354
 20
37.5577575363
 30
0.0
 10
21.4747613547
 20
37.523569264
 30
0.0
 10
21.4669786024
 20
37.5066050229
 30
0.0
  0
SPLINE
  5
284
100
AcDbEntity
  8
0
100
AcDbSpline
 62
7
  6
BYLAYER
 70
0
 71
3
 72
20
 73
16
 74
0
 42
0.0000001
 43
0.0000001
 44
0.0000000001
 40
0.0
 40
0.0
 40
0.0
 40
0.0
 40
0.1808966377
 40
0.3553834829
 40
0.5172313319
 40
0.6609829102
 40
0.7246279833
 40
0.7821619677
 40
0.8332909573
 40
0.8778613722
 40
0.915982226
 40
0.9481412821
 40
0.9754415333
 40
0.9879096561
 40
1.0
 40
1.0
 40
1.0
 40
1.0
 10
23.4523963506
 20
17.4322660365
 30
0.0
 10
23.6300372452
 20
17.4322660365
 30
0.0
 10
23.9790926665
 20
17.4233194704
 30
0.0
 10
24.4857079033
 20
17.3834387316
 30
0.0
 10
24.9529785631
 20
17.3187314578
 30
0.0
 10
25.3082319391
 20
17.2437871069
 30
0.0
 10
25.5582660644
 20
17.1714922227
 30
0.0
 10
25.7179275185
 20
17.1151186223
 30
0.0
 10
25.8560426388
 20
17.0549911358
 30
0.0
 10
25.9714268787
 20
16.9916058062
 30
0.0
 10
26.0631952157
 20
16.9253751598
 30
0.0
 10
26.1307740393
 20
16.8566120259
 30
0.0
 10
26.1671334462
 20
16.7947493576
 30
0.0
 10
26.1810784736
 20
16.7455208742
 30
0.0
 10
26.1833652013
 20
16.7213480926
 30
0.0
 10
26.1833647815
 20
16.7094753484
 30
0.0
  0
SPLINE
  5
285
100
AcDbEntity
  8
0
100
AcDbSpline
 62
7
  6
BYLAYER
 70
0
 71
3
 72
19
 73
15
 74
0
 42
0.0000001
 43
0.0000001
 44
0.0000000001
 40
0.0
 40
0.0
 40
0.0
 40
0.0
 40
0.0267682209
 40
0.0579996118
 40
0.0945233959
 40
0.1367266437
 40
0.1846828913
 40
0.2383123467
 40
0.2973827494
 40
0.3615619158
 40
0.5035783166
 40
0.6604287579
 40
0.8276505508
 40
1.0
 40
1.0
 40
1.0
 40
1.0
 10
25.4378140988
 20
37.5066050229
 30
0.0
 10
25.4300313465
 20
37.523569264
 30
0.0
 10
25.4074822658
 20
37.5577575363
 30
0.0
 10
25.3601570215
 20
37.6040616352
 30
0.0
 10
25.297629911
 20
37.6488274083
 30
0.0
 10
25.2203056436
 20
37.6918095572
 30
0.0
 10
25.1287145771
 20
37.7328259807
 30
0.0
 10
25.0235080128
 20
37.7714973017
 30
0.0
 10
24.9055085564
 20
37.8075471137
 30
0.0
 10
24.726231977
 20
37.8532593401
 30
0.0
 10
24.4773171791
 20
37.9006100996
 30
0.0
 10
24.1547485359
 20
37.9414590382
 30
0.0
 10
23.8093754856
 20
37.9665059418
 30
0.0
 10
23.5725681274
 20
37.9721291505
 30
0.0
 10
23.4523963506
 20
37.9721291505
 30
0.0
  0
SPLINE
  5
286
100
AcDbEntity
  8
0
100
AcDbSpline
 62
7
  6
BYLAYER
 70
0
 71
3
 72
11
 73
7
 74
0
 42
0.0000001
 43
0.0000001
 44
0.0000000001
 40
0.0
 40
0.0
 40
0.0
 40
0.0
 40
0.2734633666
 40
0.5272679283
 40
0.7672778003
 40
1.0
 40
1.0
 40
1.0
 40
1.0
 10
25.2680340915
 20
19.7257840255
 30
0.0
 10
25.3065274218
 20
19.7683329453
 30
0.0
 10
25.3749884876
 20
19.8559379455
 30
0.0
 10
25.451426212
 20
19.9986062645
 30
0.0
 10
25.4969014545
 20
20.1451142982
 30
0.0
 10
25.5064279645
 20
20.244693629
 30
0.0
 10
25.5059362418
 20
20.2935202025
 30
0.0
  0
ENDSEC
  0
SECTION
  2
OBJECTS
  0
DICTIONARY
  5
C
100
AcDbDictionary
280
0
281
1
  3
ACAD_GROUP
350
D
  3
ACAD_MLINESTYLE
350
17
  3
ACAD_LAYOUT
350
1A
  3
ACAD_PLOTSETTINGS
350
19
  3
ACAD_PLOTSTYLENAME
350
E
  0
DICTIONARY
  5
D
102
{ACAD_REACTORS
330
C
102
}
100
AcDbDictionary
280
0
281
1
  0
ACDBDICTIONARYWDFLT
  5
E
102
{ACAD_REACTORS
330
C
102
}
100
AcDbDictionary
281
1
  3
Normal
350
F
100
AcDbDictionaryWithDefault
340
F
  0
DICTIONARY
  5
17
102
{ACAD_REACTORS
330
C
102
}
100
AcDbDictionary
280
0
281
1
  3
Standard
350
18
  0
DICTIONARY
  5
19
102
{ACAD_REACTORS
330
C
102
}
100
AcDbDictionary
281
1
  0
DICTIONARY
  5
1A
102
{ACAD_REACTORS
330
C
102
}
100
AcDbDictionary
281
1
  3
Model
350
287
  3
Layout1
350
288
  0
ACDBPLACEHOLDER
  5
F
102
{ACAD_REACTORS
330
E
102
}
  0
MLINESTYLE
  5
18
102
{ACAD_REACTORS
330
17
102
}
100
AcDbMlineStyle
  2
STANDARD
 70
0
  3

 62
256
 51
90.0
 52
90.0
 71
2
 49
0.5
 62
256
  6
BYLAYER
 49
-0.5
 62
256
  6
BYLAYER
  0
LAYOUT
  5
287
102
{ACAD_REACTORS
330
1A
102
}
100
AcDbPlotSettings
  1

  2
none_device
  4

  6

 40
0.0
 41
0.0
 42
0.0
 43
0.0
 44
210.0
 45
297.0
 46
0.0
 47
0.0
 48
0.0
 49
0.0
140
0.0
141
0.0
142
1.0
143
1.0
 70
1024
 72
1
 73
0
 74
0
  7

 75
0
147
1.0
148
0.0
149
0.0
100
AcDbLayout
  1
Model
 70
0
 71
0
 10
0.0
 20
0.0
 11
210.0
 21
297.0
 12
0.0
 22
0.0
 32
0.0
 14
0.0
 24
0.0
 34
0.0
 15
0.0
 25
0.0
 35
0.0
146
0.0
 13
0.0
 23
0.0
 33
0.0
 16
1.0
 26
0.0
 36
0.0
 17
0.0
 27
1.0
 37
0.0
 76
0
330
210
345
0
346
0
  0
LAYOUT
  5
288
102
{ACAD_REACTORS
330
1A
102
}
100
AcDbPlotSettings
  1

  2
none_device
  4

  6

 40
0.0
 41
0.0
 42
0.0
 43
0.0
 44
210.0
 45
297.0
 46
0.0
 47
0.0
 48
0.0
 49
0.0
140
0.0
141
0.0
142
1.0
143
1.0
 70
0
 72
1
 73
0
 74
0
  7

 75
0
147
1.0
148
0.0
149
0.0
100
AcDbLayout
  1
Layout1
 70
0
 71
1
 10
0.0
 20
0.0
 11
210.0
 21
297.0
 12
0.0
 22
0.0
 32
0.0
 14
0.0
 24
0.0
 34
0.0
 15
0.0
 25
0.0
 35
0.0
146
0.0
 13
0.0
 23
0.0
 33
0.0
 16
1.0
 26
0.0
 36
0.0
 17
0.0
 27
1.0
 37
0.0
 76
0
330
211
345
0
346
0
  0
ENDSEC
  0
EOF
