999
DXF file: Y:\001_SCHNEIDER_PARIS\maxime fuentes - génération CAD 2D\TRAVAIL\XB5AV33_2D-Views\xb5av33_2d-views_7.dxf
999
Pro/ENGINEER 2018260 by Parametric Technology Corporation
  0
SECTION
  2
HEADER
  9
$ACADVER
  1
AC1027
  9
$DWGCODEPAGE
  3
ANSI_1252
  9
$EXTMAX
 10
558.8
 20
431.8
 30
0.0
  9
$EXTMIN
 10
0.0
 20
0.0
 30
0.0
  9
$LIMMIN
 10
0.0
 20
0.0
  9
$LIMMAX
 10
558.8
 20
431.8
  9
$VIEWCTR
 10
279.4
 20
215.9
  9
$VIEWSIZE
 40
431.8
  9
$CLAYER
  8
0
  9
$LTSCALE
 40
30.734
  9
$CELTYPE
  6
BYLAYER
  9
$DIMSCALE
 40
1.0
  9
$DIMASZ
 40
3.5
  9
$DIMEXO
 40
1.0
  9
$DIMDLI
 40
21.2344
  9
$DIMEXE
 40
3.0
  9
$DIMCEN
 40
5.0292
  9
$DIMLFAC
 40
1.0
  9
$DIMBLK
  1
_FILLED
  9
$DIMALT
 70
0
  9
$DIMALTF
 40
0.0393700787
  9
$DIMTXT
 40
4.0
  9
$DIMTOL
 70
1
  9
$DIMLIM
 70
0
  9
$DIMTFAC
 40
1.0
  9
$DIMTP
 40
0.0001
  9
$DIMTM
 40
0.0001
  9
$DIMGAP
 40
0.625
  9
$DIMDSEP
 70
46
  9
$AUNITS
 70
0
  9
$PDMODE
 70
0
  9
$PDSIZE
 40
0.01
  9
$HANDSEED
  5
51A
  9
$TILEMODE
 70
1
  9
$MEASUREMENT
 70
1
  9
$INSUNITS
 70
4
  0
ENDSEC
  0
SECTION
  2
CLASSES
  0
CLASS
  1
ACDBDICTIONARYWDFLT
  2
AcDbDictionaryWithDefault
  3
AutoCAD 2000
 90
0
 91
1
280
0
281
0
  0
CLASS
  1
ACDBPLACEHOLDER
  2
AcDbPlaceHolder
  3
AutoCAD 2000
 90
0
 91
1
280
0
281
0
  0
CLASS
  1
LAYOUT
  2
AcDbLayout
  3
AutoCAD 2000
 90
0
 91
0
280
0
281
0
  0
ENDSEC
  0
SECTION
  2
TABLES
  0
TABLE
  2
VPORT
  5
8
100
AcDbSymbolTable
 70
2
  0
VPORT
  5
1F4
100
AcDbSymbolTableRecord
100
AcDbViewportTableRecord
  2
*ACTIVE
 70
0
 10
0.0
 20
0.0
 11
1.0
 21
1.0
 12
279.4
 22
215.9
 13
0.0
 23
0.0
 14
1.0
 24
1.0
 15
0.0
 25
0.0
 16
0.0
 26
0.0
 36
1.0
 17
0.0
 27
0.0
 37
0.0
 40
431.8
 41
1.2941176471
 42
50.0
 43
0.0
 44
0.0
 50
0.0
 51
0.0
 71
0
 72
100
 73
1
 74
1
 75
0
 76
0
 77
0
 78
0
  0
ENDTAB
  0
TABLE
  2
LTYPE
  5
5
100
AcDbSymbolTable
 70
6
  0
LTYPE
  5
14
100
AcDbSymbolTableRecord
100
AcDbLinetypeTableRecord
  2
BYBLOCK
 70
0
  3

 72
65
 73
0
 40
0.0
  0
LTYPE
  5
15
100
AcDbSymbolTableRecord
100
AcDbLinetypeTableRecord
  2
BYLAYER
 70
0
  3

 72
65
 73
0
 40
0.0
  0
LTYPE
  5
16
100
AcDbSymbolTableRecord
100
AcDbLinetypeTableRecord
  2
CONTINUOUS
 70
64
  3
Solid line
 72
65
 73
0
 40
0.0
  0
LTYPE
  5
1F5
100
AcDbSymbolTableRecord
100
AcDbLinetypeTableRecord
  2
CENTER
 70
64
  3
____ _ ____ _ ____ _ ____ _ ____ _ ____ _ ____
 72
65
 73
4
 40
0.6
 49
0.375
 74
0
 49
-0.075
 74
0
 49
0.075
 74
0
 49
-0.075
 74
0
  0
LTYPE
  5
1F6
100
AcDbSymbolTableRecord
100
AcDbLinetypeTableRecord
  2
HIDDEN
 70
64
  3
- - - - - - - - - - - - - - - - - - - -
 72
65
 73
2
 40
0.2
 49
0.1
 74
0
 49
-0.1
 74
0
  0
LTYPE
  5
1F7
100
AcDbSymbolTableRecord
100
AcDbLinetypeTableRecord
  2
PHANTOM
 70
64
  3
_____ _ _ _____ _ _ _____ _ _ _____
 72
65
 73
6
 40
0.8
 49
0.45
 74
0
 49
-0.05
 74
0
 49
0.1
 74
0
 49
-0.05
 74
0
 49
0.1
 74
0
 49
-0.05
 74
0
  0
LTYPE
  5
1F8
100
AcDbSymbolTableRecord
100
AcDbLinetypeTableRecord
  2
DOT
 70
64
  3
. . . . . . . . . . . . . . . . . . . .
 72
65
 73
2
 40
0.2
 49
0.1
 74
0
 49
-0.1
 74
0
  0
LTYPE
  5
1F9
100
AcDbSymbolTableRecord
100
AcDbLinetypeTableRecord
  2
DASHED
 70
64
  3
- - - - - - - - - - - - - - - - - - - -
 72
65
 73
2
 40
0.2
 49
0.1
 74
0
 49
-0.1
 74
0
  0
ENDTAB
  0
TABLE
  2
LAYER
  5
2
100
AcDbSymbolTable
 70
36
  0
LAYER
  5
10
100
AcDbSymbolTableRecord
100
AcDbLayerTableRecord
  2
0
 70
0
 62
7
  6
CONTINUOUS
370
-3
390
F
  0
LAYER
  5
1FA
100
AcDbSymbolTableRecord
100
AcDbLayerTableRecord
  2
DEFAULT_1
 70
0
 62
7
  6
CENTER
370
-3
390
F
  0
LAYER
  5
1FB
100
AcDbSymbolTableRecord
100
AcDbLayerTableRecord
  2
DEFAULT_2
 70
0
 62
8
  6
HIDDEN
370
-3
390
F
  0
LAYER
  5
1FC
100
AcDbSymbolTableRecord
100
AcDbLayerTableRecord
  2
DEFAULT_3
 70
0
 62
7
  6
PHANTOM
370
-3
390
F
  0
LAYER
  5
1FD
100
AcDbSymbolTableRecord
100
AcDbLayerTableRecord
  2
00_COMPONENTS_11
 70
0
 62
7
  6
CONTINUOUS
370
-3
390
F
  0
LAYER
  5
1FE
100
AcDbSymbolTableRecord
100
AcDbLayerTableRecord
  2
00_COMPONENTS_14
 70
0
 62
7
  6
CONTINUOUS
370
-3
390
F
  0
LAYER
  5
1FF
100
AcDbSymbolTableRecord
100
AcDbLayerTableRecord
  2
00_COMPONENTS_4
 70
0
 62
7
  6
CONTINUOUS
370
-3
390
F
  0
LAYER
  5
200
100
AcDbSymbolTableRecord
100
AcDbLayerTableRecord
  2
00_COMPONENTS_7
 70
0
 62
7
  6
CONTINUOUS
370
-3
390
F
  0
LAYER
  5
201
100
AcDbSymbolTableRecord
100
AcDbLayerTableRecord
  2
01_ALL_DTM_PLN
 70
0
 62
7
  6
CONTINUOUS
370
-3
390
F
  0
LAYER
  5
202
100
AcDbSymbolTableRecord
100
AcDbLayerTableRecord
  2
01__ASM_ALL_DTM_PLN
 70
0
 62
7
  6
CONTINUOUS
370
-3
390
F
  0
LAYER
  5
203
100
AcDbSymbolTableRecord
100
AcDbLayerTableRecord
  2
01__ASM_DEF_DTM_PLN
 70
0
 62
7
  6
CONTINUOUS
370
-3
390
F
  0
LAYER
  5
204
100
AcDbSymbolTableRecord
100
AcDbLayerTableRecord
  2
01___PRT_ALL_DTM_PLN
 70
0
 62
7
  6
CONTINUOUS
370
-3
390
F
  0
LAYER
  5
205
100
AcDbSymbolTableRecord
100
AcDbLayerTableRecord
  2
01___PRT_DEF_DTM_PLN
 70
0
 62
7
  6
CONTINUOUS
370
-3
390
F
  0
LAYER
  5
206
100
AcDbSymbolTableRecord
100
AcDbLayerTableRecord
  2
02_ALL_AXES
 70
0
 62
7
  6
CONTINUOUS
370
-3
390
F
  0
LAYER
  5
207
100
AcDbSymbolTableRecord
100
AcDbLayerTableRecord
  2
02__ASM_ALL_AXES
 70
0
 62
7
  6
CONTINUOUS
370
-3
390
F
  0
LAYER
  5
208
100
AcDbSymbolTableRecord
100
AcDbLayerTableRecord
  2
02___PRT_ALL_AXES
 70
0
 62
7
  6
CONTINUOUS
370
-3
390
F
  0
LAYER
  5
209
100
AcDbSymbolTableRecord
100
AcDbLayerTableRecord
  2
03_ALL_CURVES
 70
0
 62
7
  6
CONTINUOUS
370
-3
390
F
  0
LAYER
  5
20A
100
AcDbSymbolTableRecord
100
AcDbLayerTableRecord
  2
03__ASM_ALL_CURVES
 70
0
 62
7
  6
CONTINUOUS
370
-3
390
F
  0
LAYER
  5
20B
100
AcDbSymbolTableRecord
100
AcDbLayerTableRecord
  2
03___PRT_ALL_CURVES
 70
0
 62
7
  6
CONTINUOUS
370
-3
390
F
  0
LAYER
  5
20C
100
AcDbSymbolTableRecord
100
AcDbLayerTableRecord
  2
04_ALL_DTM_PNT
 70
0
 62
7
  6
CONTINUOUS
370
-3
390
F
  0
LAYER
  5
20D
100
AcDbSymbolTableRecord
100
AcDbLayerTableRecord
  2
04__ASM_ALL_DTM_PNT
 70
0
 62
7
  6
CONTINUOUS
370
-3
390
F
  0
LAYER
  5
20E
100
AcDbSymbolTableRecord
100
AcDbLayerTableRecord
  2
04___PRT_ALL_DTM_PNT
 70
0
 62
7
  6
CONTINUOUS
370
-3
390
F
  0
LAYER
  5
20F
100
AcDbSymbolTableRecord
100
AcDbLayerTableRecord
  2
05_ALL_DTM_CSYS
 70
0
 62
7
  6
CONTINUOUS
370
-3
390
F
  0
LAYER
  5
210
100
AcDbSymbolTableRecord
100
AcDbLayerTableRecord
  2
05__ASM_ALL_DTM_CSYS
 70
0
 62
7
  6
CONTINUOUS
370
-3
390
F
  0
LAYER
  5
211
100
AcDbSymbolTableRecord
100
AcDbLayerTableRecord
  2
05__ASM_DEF_DTM_CSYS
 70
0
 62
7
  6
CONTINUOUS
370
-3
390
F
  0
LAYER
  5
212
100
AcDbSymbolTableRecord
100
AcDbLayerTableRecord
  2
05___PRT_ALL_DTM_CSYS
 70
0
 62
7
  6
CONTINUOUS
370
-3
390
F
  0
LAYER
  5
213
100
AcDbSymbolTableRecord
100
AcDbLayerTableRecord
  2
05___PRT_DEF_DTM_CSYS
 70
0
 62
7
  6
CONTINUOUS
370
-3
390
F
  0
LAYER
  5
214
100
AcDbSymbolTableRecord
100
AcDbLayerTableRecord
  2
06_ALL_SURFS
 70
0
 62
7
  6
CONTINUOUS
370
-3
390
F
  0
LAYER
  5
215
100
AcDbSymbolTableRecord
100
AcDbLayerTableRecord
  2
06__ASM_ALL_SURFS
 70
0
 62
7
  6
CONTINUOUS
370
-3
390
F
  0
LAYER
  5
216
100
AcDbSymbolTableRecord
100
AcDbLayerTableRecord
  2
06___PRT_ALL_SURFS
 70
0
 62
7
  6
CONTINUOUS
370
-3
390
F
  0
LAYER
  5
217
100
AcDbSymbolTableRecord
100
AcDbLayerTableRecord
  2
07__ASM_ALL_SKELETONS
 70
0
 62
7
  6
CONTINUOUS
370
-3
390
F
  0
ENDTAB
  0
TABLE
  2
STYLE
  5
3
100
AcDbSymbolTable
 70
1
  0
STYLE
  5
11
100
AcDbSymbolTableRecord
100
AcDbTextStyleTableRecord
  2
STANDARD
 70
0
 40
0.0
 41
0.6
 50
0.0
 71
0
 42
0.2
  3
txt
  4

  0
STYLE
  5
218
100
AcDbSymbolTableRecord
100
AcDbTextStyleTableRecord
  2
TEXTSTYLE_1
 70
0
 40
0.0
 41
0.8
 50
0.0
 71
0
 42
0.2
  3
gdt
  4

  0
ENDTAB
  0
TABLE
  2
VIEW
  5
6
100
AcDbSymbolTable
 70
0
  0
ENDTAB
  0
TABLE
  2
UCS
  5
7
100
AcDbSymbolTable
 70
0
  0
ENDTAB
  0
TABLE
  2
APPID
  5
9
100
AcDbSymbolTable
 70
1
  0
APPID
  5
219
100
AcDbSymbolTableRecord
100
AcDbRegAppTableRecord
  2
ACAD
 70
0
  0
ENDTAB
  0
TABLE
  2
BLOCK_RECORD
  5
1
100
AcDbSymbolTable
 70
0
  0
BLOCK_RECORD
  5
21A
100
AcDbSymbolTableRecord
100
AcDbBlockTableRecord
  2
*Model_Space
  0
BLOCK_RECORD
  5
21B
100
AcDbSymbolTableRecord
100
AcDbBlockTableRecord
  2
*Paper_Space
  0
BLOCK_RECORD
  5
21C
100
AcDbSymbolTableRecord
100
AcDbBlockTableRecord
  2
_FILLED
  0
ENDTAB
  0
TABLE
  2
DIMSTYLE
  5
A
100
AcDbSymbolTable
 70
1
100
AcDbDimStyleTable
 71
0
  0
DIMSTYLE
105
21D
100
AcDbSymbolTableRecord
100
AcDbDimStyleTableRecord
  2
STANDARD
 70
0
  3

  4

 40
1.0
 41
3.5
 42
1.0
 43
0.38
 44
3.0
 45
0.0
 46
0.0
 47
0.0001
 48
0.0001
140
4.0
141
0.09
142
0.0
143
25.4
144
1.0
145
0.0
146
1.0
147
0.625
 71
1.0
 72
0.0
 73
0
 74
0
 75
0
 76
0
 77
1
 78
8
 79
2
170
0
171
3
172
0
173
0
174
0
175
0
176
0
177
0
178
0
270
2
179
4
271
4
272
4
273
2
274
2
275
0
280
0
281
0
282
0
283
1
284
8
285
0
286
0
287
3
288
0
340
11
278
46
341
21C
342
21C
343
21C
344
21C
  0
ENDTAB
  0
ENDSEC
  0
SECTION
  2
BLOCKS
  0
BLOCK
  5
20
100
AcDbEntity
  8
0
100
AcDbBlockBegin
  2
*Model_Space
 70
0
 10
0.0
 20
0.0
 30
0.0
  3
*Model_Space
  1

  0
ENDBLK
  5
21
100
AcDbEntity
  8
0
100
AcDbBlockEnd
  0
BLOCK
  5
1C
100
AcDbEntity
  8
0
100
AcDbBlockBegin
  2
*Paper_Space
 70
0
 10
0.0
 20
0.0
 30
0.0
  3
*Paper_Space
  1

  0
ENDBLK
  5
1D
100
AcDbEntity
  8
0
100
AcDbBlockEnd
  0
BLOCK
  5
21E
100
AcDbEntity
  8
0
100
AcDbBlockBegin
  2
_FILLED
 70
64
 10
0.0
 20
0.0
  3
_FILLED
  1

  0
SOLID
  5
21F
100
AcDbEntity
  8
0
  6
BYBLOCK
 62
0
100
AcDbTrace
 10
0.0
 20
0.0
 11
-1.0
 21
0.2857142857
 12
-1.0
 22
-0.2857142857
 13
-1.0
 23
-0.2857142857
  0
ENDBLK
  5
220
100
AcDbEntity
  8
0
  6
BYBLOCK
 62
0
100
AcDbBlockEnd
  0
ENDSEC
  0
SECTION
  2
ENTITIES
  0
LINE
  5
221
100
AcDbEntity
  8
0
100
AcDbLine
 62
9
  6
CONTINUOUS
 10
361.5030386253
 20
226.7802123195
 11
361.5030386253
 21
199.5771239155
  0
LINE
  5
222
100
AcDbEntity
  8
0
100
AcDbLine
 62
9
  6
CONTINUOUS
 10
362.4391987737
 20
227.4286356356
 11
362.4391987737
 21
198.9286977719
  0
LINE
  5
223
100
AcDbEntity
  8
0
100
AcDbLine
 62
7
  6
CONTINUOUS
 10
365.5832230087
 20
198.9286977719
 11
365.5832230087
 21
198.9411649218
  0
LINE
  5
224
100
AcDbEntity
  8
0
100
AcDbLine
 62
7
  6
CONTINUOUS
 10
365.5832230087
 20
198.9568657087
 11
365.5832230087
 21
199.0814535243
  0
LINE
  5
225
100
AcDbEntity
  8
0
100
AcDbLine
 62
7
  6
CONTINUOUS
 10
365.5832230087
 20
199.1283838638
 11
365.5832230087
 21
199.3761944847
  0
LINE
  5
226
100
AcDbEntity
  8
0
100
AcDbLine
 62
7
  6
CONTINUOUS
 10
365.5832230087
 20
199.4538401982
 11
365.5832230087
 21
199.8221585595
  0
LINE
  5
227
100
AcDbEntity
  8
0
100
AcDbLine
 62
7
  6
CONTINUOUS
 10
365.5832230087
 20
199.9296689444
 11
365.5832230087
 21
200.414459673
  0
LINE
  5
228
100
AcDbEntity
  8
0
100
AcDbLine
 62
7
  6
CONTINUOUS
 10
365.5832230087
 20
200.5506568229
 11
365.5832230087
 21
201.1466084501
  0
LINE
  5
229
100
AcDbEntity
  8
0
100
AcDbLine
 62
7
  6
CONTINUOUS
 10
365.5832230087
 20
201.3100001606
 11
365.5832230087
 21
202.0105833158
  0
LINE
  5
22A
100
AcDbEntity
  8
0
100
AcDbLine
 62
7
  6
CONTINUOUS
 10
365.5832230087
 20
202.1993794331
 11
365.5832230087
 21
202.9969183805
  0
LINE
  5
22B
100
AcDbEntity
  8
0
100
AcDbLine
 62
7
  6
CONTINUOUS
 10
365.5832230087
 20
203.2090504149
 11
365.5832230087
 21
204.0948071509
  0
LINE
  5
22C
100
AcDbEntity
  8
0
100
AcDbLine
 62
7
  6
CONTINUOUS
 10
365.5832230087
 20
204.3279509393
 11
365.5832230087
 21
205.2922209279
  0
LINE
  5
22D
100
AcDbEntity
  8
0
100
AcDbLine
 62
7
  6
CONTINUOUS
 10
365.5832230087
 20
205.5438220983
 11
365.5832230087
 21
206.5760405955
  0
LINE
  5
22E
100
AcDbEntity
  8
0
100
AcDbLine
 62
7
  6
CONTINUOUS
 10
365.5832230087
 20
206.8433425528
 11
365.5832230087
 21
207.9322003568
  0
LINE
  5
22F
100
AcDbEntity
  8
0
100
AcDbLine
 62
7
  6
CONTINUOUS
 10
365.5832230087
 20
208.2122744848
 11
365.5832230087
 21
209.3458418418
  0
LINE
  5
230
100
AcDbEntity
  8
0
100
AcDbLine
 62
7
  6
CONTINUOUS
 10
365.5832230087
 20
209.6356195897
 11
365.5832230087
 21
210.8014768983
  0
LINE
  5
231
100
AcDbEntity
  8
0
100
AcDbLine
 62
7
  6
CONTINUOUS
 10
365.5832230087
 20
211.0977834005
 11
365.5832230087
 21
212.2831572843
  0
LINE
  5
232
100
AcDbEntity
  8
0
100
AcDbLine
 62
7
  6
CONTINUOUS
 10
365.5832230087
 20
212.5827461447
 11
365.5832230087
 21
213.7746493992
  0
LINE
  5
233
100
AcDbEntity
  8
0
100
AcDbLine
 62
7
  6
CONTINUOUS
 10
365.5832230087
 20
214.0742382596
 11
365.5832230087
 21
215.2596121434
  0
LINE
  5
234
100
AcDbEntity
  8
0
100
AcDbLine
 62
7
  6
CONTINUOUS
 10
365.5832230087
 20
215.5559186455
 11
365.5832230087
 21
216.7217759542
  0
LINE
  5
235
100
AcDbEntity
  8
0
100
AcDbLine
 62
7
  6
CONTINUOUS
 10
365.5832230087
 20
217.0115537021
 11
365.5832230087
 21
218.1451210591
  0
LINE
  5
236
100
AcDbEntity
  8
0
100
AcDbLine
 62
7
  6
CONTINUOUS
 10
365.5832230087
 20
218.425195187
 11
365.5832230087
 21
219.5140529911
  0
LINE
  5
237
100
AcDbEntity
  8
0
100
AcDbLine
 62
7
  6
CONTINUOUS
 10
365.5832230087
 20
219.7813549484
 11
365.5832230087
 21
220.8135734456
  0
LINE
  5
238
100
AcDbEntity
  8
0
100
AcDbLine
 62
7
  6
CONTINUOUS
 10
365.5832230087
 20
221.065174616
 11
365.5832230087
 21
222.0294446045
  0
LINE
  5
239
100
AcDbEntity
  8
0
100
AcDbLine
 62
7
  6
CONTINUOUS
 10
365.5832230087
 20
222.262588393
 11
365.5832230087
 21
223.148345129
  0
LINE
  5
23A
100
AcDbEntity
  8
0
100
AcDbLine
 62
7
  6
CONTINUOUS
 10
365.5832230087
 20
223.3604771634
 11
365.5832230087
 21
224.1580161108
  0
LINE
  5
23B
100
AcDbEntity
  8
0
100
AcDbLine
 62
7
  6
CONTINUOUS
 10
365.5832230087
 20
224.3468122281
 11
365.5832230087
 21
225.0473953832
  0
LINE
  5
23C
100
AcDbEntity
  8
0
100
AcDbLine
 62
7
  6
CONTINUOUS
 10
365.5832230087
 20
225.2107870937
 11
365.5832230087
 21
225.806738721
  0
LINE
  5
23D
100
AcDbEntity
  8
0
100
AcDbLine
 62
7
  6
CONTINUOUS
 10
365.5832230087
 20
225.9429358709
 11
365.5832230087
 21
226.4277265995
  0
LINE
  5
23E
100
AcDbEntity
  8
0
100
AcDbLine
 62
7
  6
CONTINUOUS
 10
365.5832230087
 20
226.5352369844
 11
365.5832230087
 21
226.9035553456
  0
LINE
  5
23F
100
AcDbEntity
  8
0
100
AcDbLine
 62
7
  6
CONTINUOUS
 10
365.5832230087
 20
226.9812010592
 11
365.5832230087
 21
227.2290116801
  0
LINE
  5
240
100
AcDbEntity
  8
0
100
AcDbLine
 62
7
  6
CONTINUOUS
 10
365.5832230087
 20
227.2759420196
 11
365.5832230087
 21
227.4005298352
  0
LINE
  5
241
100
AcDbEntity
  8
0
100
AcDbLine
 62
7
  6
CONTINUOUS
 10
365.5832230087
 20
227.416230622
 11
365.5832230087
 21
227.4286977719
  0
LINE
  5
242
100
AcDbEntity
  8
0
100
AcDbLine
 62
7
  6
CONTINUOUS
 10
369.1084446146
 20
206.8433854212
 11
369.1079489182
 21
206.8608751584
  0
LINE
  5
243
100
AcDbEntity
  8
0
100
AcDbLine
 62
7
  6
CONTINUOUS
 10
369.0832230087
 20
198.9411649218
 11
369.0832230087
 21
210.7988130651
  0
LINE
  5
244
100
AcDbEntity
  8
0
100
AcDbLine
 62
7
  6
CONTINUOUS
 10
369.0832230087
 20
210.8014768983
 11
369.0832230087
 21
215.5559186455
  0
LINE
  5
245
100
AcDbEntity
  8
0
100
AcDbLine
 62
7
  6
CONTINUOUS
 10
369.0832230087
 20
215.5585824787
 11
369.0832230087
 21
226.9812010592
  0
LINE
  5
246
100
AcDbEntity
  8
0
100
AcDbLine
 62
7
  6
CONTINUOUS
 10
369.0832230087
 20
227.0082941407
 11
369.0832230087
 21
227.416230622
  0
LINE
  5
247
100
AcDbEntity
  8
0
100
AcDbLine
 62
7
  6
CONTINUOUS
 10
369.3832230087
 20
227.4285481642
 11
369.3832230087
 21
214.2455381673
  0
LINE
  5
248
100
AcDbEntity
  8
0
100
AcDbLine
 62
7
  6
CONTINUOUS
 10
369.3832230087
 20
212.1118573766
 11
369.3832230087
 21
198.9288473797
  0
LINE
  5
249
100
AcDbEntity
  8
0
100
AcDbLine
 62
7
  6
CONTINUOUS
 10
370.0832230087
 20
198.9288460363
 11
370.0832230087
 21
227.4285495075
  0
LINE
  5
24A
100
AcDbEntity
  8
0
100
AcDbLine
 62
7
  6
CONTINUOUS
 10
371.3332230087
 20
199.6037035485
 11
371.3332230087
 21
226.7536919953
  0
LINE
  5
24B
100
AcDbEntity
  8
0
100
AcDbLine
 62
7
  6
CONTINUOUS
 10
372.0832230087
 20
224.4786977719
 11
372.0832230087
 21
224.9786977719
  0
LINE
  5
24C
100
AcDbEntity
  8
0
100
AcDbLine
 62
7
  6
CONTINUOUS
 10
372.5832230087
 20
202.5390020526
 11
372.5832230087
 21
202.3037976422
  0
LINE
  5
24D
100
AcDbEntity
  8
0
100
AcDbLine
 62
9
  6
CONTINUOUS
 10
373.9832230087
 20
202.3036977719
 11
373.9832230087
 21
224.0536977719
  0
LINE
  5
24E
100
AcDbEntity
  8
0
100
AcDbLine
 62
7
  6
CONTINUOUS
 10
374.2832230087
 20
202.6037098116
 11
374.2832230087
 21
223.7536925376
  0
LINE
  5
24F
100
AcDbEntity
  8
0
100
AcDbLine
 62
7
  6
CONTINUOUS
 10
374.6832230087
 20
202.6787012994
 11
374.6832230087
 21
211.4286977719
  0
LINE
  5
250
100
AcDbEntity
  8
0
100
AcDbLine
 62
7
  6
CONTINUOUS
 10
374.6832230087
 20
223.2786977719
 11
374.6832230087
 21
223.6786386877
  0
LINE
  5
251
100
AcDbEntity
  8
0
100
AcDbLine
 62
7
  6
CONTINUOUS
 10
374.8332230087
 20
225.819776642
 11
374.8332230087
 21
220.9926512841
  0
LINE
  5
252
100
AcDbEntity
  8
0
100
AcDbLine
 62
7
  6
CONTINUOUS
 10
374.8332230087
 20
220.9403555322
 11
374.8332230087
 21
220.2157011599
  0
LINE
  5
253
100
AcDbEntity
  8
0
100
AcDbLine
 62
7
  6
CONTINUOUS
 10
374.8332230087
 20
220.0402255208
 11
374.8332230087
 21
219.3851951909
  0
LINE
  5
254
100
AcDbEntity
  8
0
100
AcDbLine
 62
7
  6
CONTINUOUS
 10
374.8332230087
 20
219.0878751402
 11
374.8332230087
 21
218.5074540289
  0
LINE
  5
255
100
AcDbEntity
  8
0
100
AcDbLine
 62
7
  6
CONTINUOUS
 10
374.8332230087
 20
218.0905523517
 11
374.8332230087
 21
217.5891578143
  0
LINE
  5
256
100
AcDbEntity
  8
0
100
AcDbLine
 62
7
  6
CONTINUOUS
 10
374.8332230087
 20
217.055847384
 11
374.8332230087
 21
216.6372953356
  0
LINE
  5
257
100
AcDbEntity
  8
0
100
AcDbLine
 62
7
  6
CONTINUOUS
 10
374.8332230087
 20
215.9916349667
 11
374.8332230087
 21
215.6591108411
  0
LINE
  5
258
100
AcDbEntity
  8
0
100
AcDbLine
 62
7
  6
CONTINUOUS
 10
374.8332230087
 20
214.9060143988
 11
374.8332230087
 21
214.6620489054
  0
LINE
  5
259
100
AcDbEntity
  8
0
100
AcDbLine
 62
7
  6
CONTINUOUS
 10
374.8332230087
 20
213.8072479084
 11
374.8332230087
 21
213.6536977719
  0
LINE
  5
25A
100
AcDbEntity
  8
0
100
AcDbLine
 62
7
  6
CONTINUOUS
 10
374.8332230087
 20
212.7036977719
 11
374.8332230087
 21
212.5501476355
  0
LINE
  5
25B
100
AcDbEntity
  8
0
100
AcDbLine
 62
7
  6
CONTINUOUS
 10
374.8332230087
 20
211.6953466385
 11
374.8332230087
 21
211.4513811451
  0
LINE
  5
25C
100
AcDbEntity
  8
0
100
AcDbLine
 62
7
  6
CONTINUOUS
 10
374.8332230087
 20
210.6982847028
 11
374.8332230087
 21
210.3657605772
  0
LINE
  5
25D
100
AcDbEntity
  8
0
100
AcDbLine
 62
7
  6
CONTINUOUS
 10
374.8332230087
 20
209.7201002083
 11
374.8332230087
 21
209.3015481599
  0
LINE
  5
25E
100
AcDbEntity
  8
0
100
AcDbLine
 62
7
  6
CONTINUOUS
 10
374.8332230087
 20
208.7682377296
 11
374.8332230087
 21
208.2668431922
  0
LINE
  5
25F
100
AcDbEntity
  8
0
100
AcDbLine
 62
7
  6
CONTINUOUS
 10
374.8332230087
 20
207.8499415149
 11
374.8332230087
 21
207.2695204037
  0
LINE
  5
260
100
AcDbEntity
  8
0
100
AcDbLine
 62
7
  6
CONTINUOUS
 10
374.8332230087
 20
206.972200353
 11
374.8332230087
 21
206.317170023
  0
LINE
  5
261
100
AcDbEntity
  8
0
100
AcDbLine
 62
7
  6
CONTINUOUS
 10
374.8332230087
 20
206.141694384
 11
374.8332230087
 21
205.4170400116
  0
LINE
  5
262
100
AcDbEntity
  8
0
100
AcDbLine
 62
7
  6
CONTINUOUS
 10
374.8332230087
 20
205.3647442598
 11
374.8332230087
 21
200.5443230456
  0
LINE
  5
263
100
AcDbEntity
  8
0
100
AcDbLine
 62
7
  6
CONTINUOUS
 10
372.0832230087
 20
224.4786977719
 11
371.5832230087
 21
223.9786977719
  0
LINE
  5
264
100
AcDbEntity
  8
0
100
AcDbLine
 62
7
  6
CONTINUOUS
 10
375.1603189711
 20
211.0989143548
 11
375.1596219628
 21
211.1285737559
  0
LINE
  5
265
100
AcDbEntity
  8
0
100
AcDbLine
 62
7
  6
CONTINUOUS
 10
375.1620967279
 20
211.0239672799
 11
375.1614956926
 21
211.0499084259
  0
LINE
  5
266
100
AcDbEntity
  8
0
100
AcDbLine
 62
9
  6
CONTINUOUS
 10
375.2375123306
 20
200.5708688774
 11
375.2375123306
 21
200.5831945607
  0
LINE
  5
267
100
AcDbEntity
  8
0
100
AcDbLine
 62
9
  6
CONTINUOUS
 10
375.2375123306
 20
200.7087955435
 11
375.2375123306
 21
200.7333531043
  0
LINE
  5
268
100
AcDbEntity
  8
0
100
AcDbLine
 62
9
  6
CONTINUOUS
 10
375.2375123306
 20
200.9416256951
 11
375.2375123306
 21
200.9782282355
  0
LINE
  5
269
100
AcDbEntity
  8
0
100
AcDbLine
 62
9
  6
CONTINUOUS
 10
375.2375123306
 20
201.2675873542
 11
375.2375123306
 21
201.3159563067
  0
LINE
  5
26A
100
AcDbEntity
  8
0
100
AcDbLine
 62
9
  6
CONTINUOUS
 10
375.2375123306
 20
201.6841997557
 11
375.2375123306
 21
201.7439670034
  0
LINE
  5
26B
100
AcDbEntity
  8
0
100
AcDbLine
 62
9
  6
CONTINUOUS
 10
375.2375123306
 20
202.1882922276
 11
375.2375123306
 21
202.2590029057
  0
LINE
  5
26C
100
AcDbEntity
  8
0
100
AcDbLine
 62
9
  6
CONTINUOUS
 10
375.2375123306
 20
202.7760283219
 11
375.2375123306
 21
202.8571442795
  0
LINE
  5
26D
100
AcDbEntity
  8
0
100
AcDbLine
 62
9
  6
CONTINUOUS
 10
375.2375123306
 20
203.4429350121
 11
375.2375123306
 21
203.5338389076
  0
LINE
  5
26E
100
AcDbEntity
  8
0
100
AcDbLine
 62
9
  6
CONTINUOUS
 10
375.2375123306
 20
204.1839367354
 11
375.2375123306
 21
204.2839367354
  0
LINE
  5
26F
100
AcDbEntity
  8
0
100
AcDbLine
 62
9
  6
CONTINUOUS
 10
375.2375123306
 20
204.9933940215
 11
375.2375123306
 21
205.1017290656
  0
LINE
  5
270
100
AcDbEntity
  8
0
100
AcDbLine
 62
9
  6
CONTINUOUS
 10
375.2375123306
 20
205.8651464115
 11
375.2375123306
 21
205.9809920045
  0
LINE
  5
271
100
AcDbEntity
  8
0
100
AcDbLine
 62
9
  6
CONTINUOUS
 10
375.2375123306
 20
206.7925593434
 11
375.2375123306
 21
206.9150338305
  0
LINE
  5
272
100
AcDbEntity
  8
0
100
AcDbLine
 62
9
  6
CONTINUOUS
 10
375.2375123306
 20
207.7685746448
 11
375.2375123306
 21
207.8967459212
  0
LINE
  5
273
100
AcDbEntity
  8
0
100
AcDbLine
 62
9
  6
CONTINUOUS
 10
375.2375123306
 20
208.7857642499
 11
375.2375123306
 21
208.9186568548
  0
LINE
  5
274
100
AcDbEntity
  8
0
100
AcDbLine
 62
9
  6
CONTINUOUS
 10
375.2375123306
 20
209.8363867316
 11
375.2375123306
 21
209.972989272
  0
LINE
  5
275
100
AcDbEntity
  8
0
100
AcDbLine
 62
9
  6
CONTINUOUS
 10
375.2375123306
 20
210.9124462185
 11
375.2375123306
 21
211.0517190666
  0
LINE
  5
276
100
AcDbEntity
  8
0
100
AcDbLine
 62
9
  6
CONTINUOUS
 10
375.2375123306
 20
212.0057532481
 11
375.2375123306
 21
212.1022205456
  0
LINE
  5
277
100
AcDbEntity
  8
0
100
AcDbLine
 62
9
  6
CONTINUOUS
 10
375.2375123306
 20
214.2551749983
 11
375.2375123306
 21
214.3516422957
  0
LINE
  5
278
100
AcDbEntity
  8
0
100
AcDbLine
 62
9
  6
CONTINUOUS
 10
375.2375123306
 20
215.3056764999
 11
375.2375123306
 21
215.4449493254
  0
LINE
  5
279
100
AcDbEntity
  8
0
100
AcDbLine
 62
9
  6
CONTINUOUS
 10
375.2375123306
 20
216.3844062941
 11
375.2375123306
 21
216.5210088123
  0
LINE
  5
27A
100
AcDbEntity
  8
0
100
AcDbLine
 62
9
  6
CONTINUOUS
 10
375.2375123306
 20
217.4387387107
 11
375.2375123306
 21
217.571631294
  0
LINE
  5
27B
100
AcDbEntity
  8
0
100
AcDbLine
 62
9
  6
CONTINUOUS
 10
375.2375123306
 20
218.4606496436
 11
375.2375123306
 21
218.5888208991
  0
LINE
  5
27C
100
AcDbEntity
  8
0
100
AcDbLine
 62
9
  6
CONTINUOUS
 10
375.2375123306
 20
219.4423617333
 11
375.2375123306
 21
219.5648362005
  0
LINE
  5
27D
100
AcDbEntity
  8
0
100
AcDbLine
 62
9
  6
CONTINUOUS
 10
375.2375123306
 20
220.3764035582
 11
375.2375123306
 21
220.4922491324
  0
LINE
  5
27E
100
AcDbEntity
  8
0
100
AcDbLine
 62
9
  6
CONTINUOUS
 10
375.2375123306
 20
221.255666496
 11
375.2375123306
 21
221.3640015224
  0
LINE
  5
27F
100
AcDbEntity
  8
0
100
AcDbLine
 62
9
  6
CONTINUOUS
 10
375.2375123306
 20
222.0734588248
 11
375.2375123306
 21
222.1734588084
  0
LINE
  5
280
100
AcDbEntity
  8
0
100
AcDbLine
 62
9
  6
CONTINUOUS
 10
375.2375123306
 20
222.8235566511
 11
375.2375123306
 21
222.9144605318
  0
LINE
  5
281
100
AcDbEntity
  8
0
100
AcDbLine
 62
9
  6
CONTINUOUS
 10
375.2375123306
 20
223.5002512777
 11
375.2375123306
 21
223.5813672219
  0
LINE
  5
282
100
AcDbEntity
  8
0
100
AcDbLine
 62
9
  6
CONTINUOUS
 10
375.2375123306
 20
224.0983926497
 11
375.2375123306
 21
224.1691033163
  0
LINE
  5
283
100
AcDbEntity
  8
0
100
AcDbLine
 62
9
  6
CONTINUOUS
 10
375.2375123306
 20
224.6134285503
 11
375.2375123306
 21
224.6731957882
  0
LINE
  5
284
100
AcDbEntity
  8
0
100
AcDbLine
 62
9
  6
CONTINUOUS
 10
375.2375123306
 20
225.3791673144
 11
375.2375123306
 21
225.4157698488
  0
LINE
  5
285
100
AcDbEntity
  8
0
100
AcDbLine
 62
9
  6
CONTINUOUS
 10
375.2375123306
 20
225.0414392451
 11
375.2375123306
 21
225.0898081897
  0
LINE
  5
286
100
AcDbEntity
  8
0
100
AcDbLine
 62
9
  6
CONTINUOUS
 10
375.2375123306
 20
225.7742009853
 11
375.2375123306
 21
225.7865266665
  0
LINE
  5
287
100
AcDbEntity
  8
0
100
AcDbLine
 62
9
  6
CONTINUOUS
 10
375.2375123306
 20
225.6240424437
 11
375.2375123306
 21
225.6486000004
  0
LINE
  5
288
100
AcDbEntity
  8
0
100
AcDbLine
 62
7
  6
CONTINUOUS
 10
375.3332230087
 20
227.6785772715
 11
375.3332230087
 21
198.6788182723
  0
LINE
  5
289
100
AcDbEntity
  8
0
100
AcDbLine
 62
7
  6
CONTINUOUS
 10
376.8332230087
 20
198.6787922125
 11
376.8332230087
 21
200.1008442085
  0
LINE
  5
28A
100
AcDbEntity
  8
0
100
AcDbLine
 62
7
  6
CONTINUOUS
 10
376.8332230087
 20
201.2162288239
 11
376.8332230087
 21
212.0633131565
  0
LINE
  5
28B
100
AcDbEntity
  8
0
100
AcDbLine
 62
7
  6
CONTINUOUS
 10
376.8332230087
 20
214.2940823874
 11
376.8332230087
 21
225.14116672
  0
LINE
  5
28C
100
AcDbEntity
  8
0
100
AcDbLine
 62
7
  6
CONTINUOUS
 10
376.8332230087
 20
226.2565513354
 11
376.8332230087
 21
227.6786033313
  0
LINE
  5
28D
100
AcDbEntity
  8
0
100
AcDbLine
 62
7
  6
CONTINUOUS
 10
385.4832230087
 20
194.6786977719
 11
387.0832230087
 21
194.6786977719
  0
LINE
  5
28E
100
AcDbEntity
  8
0
100
AcDbLine
 62
7
  6
CONTINUOUS
 10
393.5832230087
 20
195.8248231465
 11
387.0832230086
 21
194.6786977719
  0
LINE
  5
28F
100
AcDbEntity
  8
0
100
AcDbLine
 62
7
  6
CONTINUOUS
 10
393.7832230087
 20
196.7786977719
 11
393.5832230087
 21
196.7682162161
  0
LINE
  5
290
100
AcDbEntity
  8
0
100
AcDbLine
 62
7
  6
CONTINUOUS
 10
385.3832230087
 20
195.360907569
 11
383.8832230087
 21
195.360907569
  0
LINE
  5
291
100
AcDbEntity
  8
0
100
AcDbLine
 62
7
  6
CONTINUOUS
 10
381.7832230087
 20
195.3786977719
 11
383.7832230087
 21
195.3786977719
  0
LINE
  5
292
100
AcDbEntity
  8
0
100
AcDbLine
 62
7
  6
CONTINUOUS
 10
423.0464587276
 20
195.8786977719
 11
425.1832230087
 21
195.8786977719
  0
LINE
  5
293
100
AcDbEntity
  8
0
100
AcDbLine
 62
7
  6
CONTINUOUS
 10
385.3832230087
 20
196.257721037
 11
385.4832230087
 21
196.257721037
  0
LINE
  5
294
100
AcDbEntity
  8
0
100
AcDbLine
 62
7
  6
CONTINUOUS
 10
381.7832230087
 20
196.9896524477
 11
383.7832230087
 21
196.9896524477
  0
LINE
  5
295
100
AcDbEntity
  8
0
100
AcDbLine
 62
7
  6
CONTINUOUS
 10
423.5832230087
 20
197.0786977719
 11
433.9832230087
 21
197.0786977719
  0
LINE
  5
296
100
AcDbEntity
  8
0
100
AcDbLine
 62
7
  6
CONTINUOUS
 10
374.8332230087
 20
213.6536977719
 11
375.2375123306
 21
213.2494084501
  0
LINE
  5
297
100
AcDbEntity
  8
0
100
AcDbLine
 62
9
  6
CONTINUOUS
 10
381.0332230087
 20
199.9537256116
 11
381.0332230087
 21
203.4980753746
  0
LINE
  5
298
100
AcDbEntity
  8
0
100
AcDbLine
 62
9
  6
CONTINUOUS
 10
381.0332230087
 20
210.6786977719
 11
381.0332230087
 21
215.6786977719
  0
LINE
  5
299
100
AcDbEntity
  8
0
100
AcDbLine
 62
9
  6
CONTINUOUS
 10
381.0332230087
 20
222.8593201692
 11
381.0332230087
 21
226.4036699323
  0
LINE
  5
29A
100
AcDbEntity
  8
0
100
AcDbLine
 62
9
  6
CONTINUOUS
 10
381.1358290518
 20
203.9219135189
 11
381.1358290518
 21
210.4401072127
  0
LINE
  5
29B
100
AcDbEntity
  8
0
100
AcDbLine
 62
9
  6
CONTINUOUS
 10
381.1358290518
 20
215.9172883312
 11
381.1358290518
 21
222.435482025
  0
LINE
  5
29C
100
AcDbEntity
  8
0
100
AcDbLine
 62
7
  6
CONTINUOUS
 10
381.3332230087
 20
200.2537787893
 11
381.3332230087
 21
226.1036168938
  0
LINE
  5
29D
100
AcDbEntity
  8
0
100
AcDbLine
 62
7
  6
CONTINUOUS
 10
381.7832230087
 20
234.4786977719
 11
381.7832230087
 21
226.9786977719
  0
LINE
  5
29E
100
AcDbEntity
  8
0
100
AcDbLine
 62
7
  6
CONTINUOUS
 10
381.7832230087
 20
200.1786977719
 11
381.7832230087
 21
195.3786977719
  0
LINE
  5
29F
100
AcDbEntity
  8
0
100
AcDbLine
 62
9
  6
CONTINUOUS
 10
382.6832230087
 20
230.726064368
 11
382.6832230087
 21
231.9806707347
  0
LINE
  5
2A0
100
AcDbEntity
  8
0
100
AcDbLine
 62
7
  6
CONTINUOUS
 10
383.2688636547
 20
220.5501048699
 11
383.2688636547
 21
223.2786979059
  0
LINE
  5
2A1
100
AcDbEntity
  8
0
100
AcDbLine
 62
7
  6
CONTINUOUS
 10
383.472500085
 20
203.2122031928
 11
383.472505041
 21
203.1644801807
  0
LINE
  5
2A2
100
AcDbEntity
  8
0
100
AcDbLine
 62
7
  6
CONTINUOUS
 10
383.472505041
 20
203.1644801807
 11
383.472505041
 21
203.0787388331
  0
LINE
  5
2A3
100
AcDbEntity
  8
0
100
AcDbLine
 62
7
  6
CONTINUOUS
 10
383.4832230087
 20
203.0786977719
 11
383.4832230087
 21
211.4286977719
  0
LINE
  5
2A4
100
AcDbEntity
  8
0
100
AcDbLine
 62
7
  6
CONTINUOUS
 10
383.4832230087
 20
214.9286977719
 11
383.4832230087
 21
223.2786977719
  0
LINE
  5
2A5
100
AcDbEntity
  8
0
100
AcDbLine
 62
9
  6
CONTINUOUS
 10
383.1213611029
 20
222.0986695478
 11
382.9375385156
 21
221.5437962693
  0
LINE
  5
2A6
100
AcDbEntity
  8
0
100
AcDbLine
 62
7
  6
CONTINUOUS
 10
390.5832230087
 20
228.7786977719
 11
391.0832230087
 21
229.2786977719
  0
LINE
  5
2A7
100
AcDbEntity
  8
0
100
AcDbLine
 62
7
  6
CONTINUOUS
 10
375.2375123306
 20
213.1079870938
 11
374.8332230087
 21
212.7036977719
  0
LINE
  5
2A8
100
AcDbEntity
  8
0
100
AcDbLine
 62
7
  6
CONTINUOUS
 10
393.7832230087
 20
198.5489104818
 11
393.5832230087
 21
198.5201175287
  0
LINE
  5
2A9
100
AcDbEntity
  8
0
100
AcDbLine
 62
9
  6
CONTINUOUS
 10
429.6832230087
 20
198.0786977719
 11
423.5832230087
 21
198.0786977719
  0
LINE
  5
2AA
100
AcDbEntity
  8
0
100
AcDbLine
 62
7
  6
CONTINUOUS
 10
430.0832230087
 20
198.4786977719
 11
423.5832230087
 21
198.4786977719
  0
LINE
  5
2AB
100
AcDbEntity
  8
0
100
AcDbLine
 62
9
  6
CONTINUOUS
 10
385.3832230087
 20
198.5114843775
 11
383.8832230087
 21
198.5114843775
  0
LINE
  5
2AC
100
AcDbEntity
  8
0
100
AcDbLine
 62
7
  6
CONTINUOUS
 10
376.8332230087
 20
198.6786977719
 11
375.3332230087
 21
198.6786977719
  0
LINE
  5
2AD
100
AcDbEntity
  8
0
100
AcDbLine
 62
7
  6
CONTINUOUS
 10
396.7832230087
 20
198.7786977719
 11
419.590373309
 21
198.7786977719
  0
LINE
  5
2AE
100
AcDbEntity
  8
0
100
AcDbLine
 62
7
  6
CONTINUOUS
 10
362.4391987737
 20
198.9286977719
 11
365.5832230087
 21
198.9286977719
  0
LINE
  5
2AF
100
AcDbEntity
  8
0
100
AcDbLine
 62
7
  6
CONTINUOUS
 10
369.3832230087
 20
198.9286977719
 11
370.0832230087
 21
198.9286977719
  0
LINE
  5
2B0
100
AcDbEntity
  8
0
100
AcDbLine
 62
7
  6
CONTINUOUS
 10
369.0832230087
 20
198.9411649218
 11
365.5832230087
 21
198.9411649218
  0
LINE
  5
2B1
100
AcDbEntity
  8
0
100
AcDbLine
 62
7
  6
CONTINUOUS
 10
365.5832230087
 20
198.9568657087
 11
369.0832230087
 21
198.9568657087
  0
LINE
  5
2B2
100
AcDbEntity
  8
0
100
AcDbLine
 62
7
  6
CONTINUOUS
 10
369.0832230087
 20
199.0814535243
 11
365.5832230087
 21
199.0814535243
  0
LINE
  5
2B3
100
AcDbEntity
  8
0
100
AcDbLine
 62
7
  6
CONTINUOUS
 10
365.5832230087
 20
199.1283838638
 11
369.0832230087
 21
199.1283838638
  0
LINE
  5
2B4
100
AcDbEntity
  8
0
100
AcDbLine
 62
7
  6
CONTINUOUS
 10
365.5832230087
 20
199.2809947681
 11
369.0832230087
 21
199.2809961794
  0
LINE
  5
2B5
100
AcDbEntity
  8
0
100
AcDbLine
 62
7
  6
CONTINUOUS
 10
369.0832230087
 20
199.3761944847
 11
365.5832230087
 21
199.3761944847
  0
LINE
  5
2B6
100
AcDbEntity
  8
0
100
AcDbLine
 62
7
  6
CONTINUOUS
 10
365.5832230087
 20
199.4538401982
 11
369.0832230087
 21
199.4538401982
  0
LINE
  5
2B7
100
AcDbEntity
  8
0
100
AcDbLine
 62
7
  6
CONTINUOUS
 10
371.3332230087
 20
199.6036977719
 11
370.0832230087
 21
199.6036977719
  0
LINE
  5
2B8
100
AcDbEntity
  8
0
100
AcDbLine
 62
7
  6
CONTINUOUS
 10
365.5832230087
 20
199.6058935305
 11
369.0832230087
 21
199.6058949588
  0
LINE
  5
2B9
100
AcDbEntity
  8
0
100
AcDbLine
 62
7
  6
CONTINUOUS
 10
369.0832230087
 20
199.8221585595
 11
365.5832230087
 21
199.8221585595
  0
LINE
  5
2BA
100
AcDbEntity
  8
0
100
AcDbLine
 62
7
  6
CONTINUOUS
 10
365.5832230087
 20
199.9296689444
 11
369.0832230087
 21
199.9296689444
  0
LINE
  5
2BB
100
AcDbEntity
  8
0
100
AcDbLine
 62
7
  6
CONTINUOUS
 10
381.0332230087
 20
199.9537256116
 11
376.8332230087
 21
199.9537256116
  0
LINE
  5
2BC
100
AcDbEntity
  8
0
100
AcDbLine
 62
7
  6
CONTINUOUS
 10
423.5832230087
 20
199.9786977719
 11
396.3234314569
 21
199.9786977719
  0
LINE
  5
2BD
100
AcDbEntity
  8
0
100
AcDbLine
 62
7
  6
CONTINUOUS
 10
385.3832230087
 20
200.0286977719
 11
385.4832230087
 21
200.0286977719
  0
LINE
  5
2BE
100
AcDbEntity
  8
0
100
AcDbLine
 62
7
  6
CONTINUOUS
 10
365.5832230087
 20
200.0794987764
 11
369.0832230087
 21
200.0795002125
  0
LINE
  5
2BF
100
AcDbEntity
  8
0
100
AcDbLine
 62
9
  6
CONTINUOUS
 10
376.8332230087
 20
200.1008442085
 11
381.0332230087
 21
200.1008442085
  0
LINE
  5
2C0
100
AcDbEntity
  8
0
100
AcDbLine
 62
7
  6
CONTINUOUS
 10
381.7832230087
 20
200.1786977719
 11
383.2832230087
 21
200.1786977719
  0
LINE
  5
2C1
100
AcDbEntity
  8
0
100
AcDbLine
 62
7
  6
CONTINUOUS
 10
369.3832230087
 20
200.3786977719
 11
369.0832230087
 21
200.3786977719
  0
LINE
  5
2C2
100
AcDbEntity
  8
0
100
AcDbLine
 62
7
  6
CONTINUOUS
 10
369.0832230087
 20
200.414459673
 11
365.5832230087
 21
200.414459673
  0
LINE
  5
2C3
100
AcDbEntity
  8
0
100
AcDbLine
 62
9
  6
CONTINUOUS
 10
383.8832230087
 20
200.4533025398
 11
385.3832230087
 21
200.4533025398
  0
LINE
  5
2C4
100
AcDbEntity
  8
0
100
AcDbLine
 62
7
  6
CONTINUOUS
 10
390.4832230087
 20
200.4786977719
 11
385.4832230087
 21
200.4786977719
  0
LINE
  5
2C5
100
AcDbEntity
  8
0
100
AcDbLine
 62
7
  6
CONTINUOUS
 10
375.3332230087
 20
200.5286977719
 11
375.2668016524
 21
200.5286977719
  0
LINE
  5
2C6
100
AcDbEntity
  8
0
100
AcDbLine
 62
7
  6
CONTINUOUS
 10
365.5832230087
 20
200.5506568229
 11
369.0832230087
 21
200.5506568229
  0
LINE
  5
2C7
100
AcDbEntity
  8
0
100
AcDbLine
 62
7
  6
CONTINUOUS
 10
365.5832230087
 20
200.6966215877
 11
369.0832230087
 21
200.6966230156
  0
LINE
  5
2C8
100
AcDbEntity
  8
0
100
AcDbLine
 62
7
  6
CONTINUOUS
 10
434.4832230087
 20
200.8786977719
 11
433.9832230087
 21
200.8786977719
  0
LINE
  5
2C9
100
AcDbEntity
  8
0
100
AcDbLine
 62
7
  6
CONTINUOUS
 10
375.2667995087
 20
200.5286977719
 11
375.2375123305
 21
200.5288954019
  0
LINE
  5
2CA
100
AcDbEntity
  8
0
100
AcDbLine
 62
7
  6
CONTINUOUS
 10
393.7832230087
 20
198.9914637755
 11
393.5832230087
 21
198.9952793983
  0
LINE
  5
2CB
100
AcDbEntity
  8
0
100
AcDbLine
 62
7
  6
CONTINUOUS
 10
393.7832230087
 20
199.3786977719
 11
393.5832230087
 21
199.3891793278
  0
LINE
  5
2CC
100
AcDbEntity
  8
0
100
AcDbLine
 62
7
  6
CONTINUOUS
 10
393.5832230087
 20
199.2262164718
 11
390.4832230087
 21
200.4786977719
  0
LINE
  5
2CD
100
AcDbEntity
  8
0
100
AcDbLine
 62
7
  6
CONTINUOUS
 10
396.3234314569
 20
199.9786977719
 11
393.5832230087
 21
201.0858138493
  0
LINE
  5
2CE
100
AcDbEntity
  8
0
100
AcDbLine
 62
9
  6
CONTINUOUS
 10
382.5404413669
 20
233.6126723682
 11
382.6832230087
 21
231.9806707347
  0
LINE
  5
2CF
100
AcDbEntity
  8
0
100
AcDbLine
 62
9
  6
CONTINUOUS
 10
382.5127927267
 20
234.4786977719
 11
382.5884017835
 21
233.6144822977
  0
LINE
  5
2D0
100
AcDbEntity
  8
0
100
AcDbLine
 62
7
  6
CONTINUOUS
 10
383.7832230087
 20
232.0286977719
 11
383.568875783
 21
234.4786977719
  0
LINE
  5
2D1
100
AcDbEntity
  8
0
100
AcDbLine
 62
7
  6
CONTINUOUS
 10
383.783258988
 20
230.7189282441
 11
383.7832230087
 21
230.726064368
  0
LINE
  5
2D2
100
AcDbEntity
  8
0
100
AcDbLine
 62
7
  6
CONTINUOUS
 10
383.7832230087
 20
232.0286977719
 11
383.7832230087
 21
230.726064368
  0
LINE
  5
2D3
100
AcDbEntity
  8
0
100
AcDbLine
 62
7
  6
CONTINUOUS
 10
383.7832230087
 20
226.6786977719
 11
383.7832230087
 21
220.8786977719
  0
LINE
  5
2D4
100
AcDbEntity
  8
0
100
AcDbLine
 62
7
  6
CONTINUOUS
 10
383.7832230087
 20
195.3786977719
 11
383.7832230087
 21
199.2204073951
  0
LINE
  5
2D5
100
AcDbEntity
  8
0
100
AcDbLine
 62
7
  6
CONTINUOUS
 10
383.7832230087
 20
200.6786977719
 11
383.7832230087
 21
206.1786977719
  0
LINE
  5
2D6
100
AcDbEntity
  8
0
100
AcDbLine
 62
7
  6
CONTINUOUS
 10
383.8032230087
 20
210.1786977719
 11
383.8032230087
 21
216.1786977719
  0
LINE
  5
2D7
100
AcDbEntity
  8
0
100
AcDbLine
 62
7
  6
CONTINUOUS
 10
383.8832230087
 20
232.6627500287
 11
383.8832230087
 21
195.360907569
  0
LINE
  5
2D8
100
AcDbEntity
  8
0
100
AcDbLine
 62
7
  6
CONTINUOUS
 10
385.3832230087
 20
195.360907569
 11
385.3832230087
 21
232.6627500287
  0
LINE
  5
2D9
100
AcDbEntity
  8
0
100
AcDbLine
 62
7
  6
CONTINUOUS
 10
385.4832230087
 20
235.9285795363
 11
385.4832230087
 21
194.6786977719
  0
LINE
  5
2DA
100
AcDbEntity
  8
0
100
AcDbLine
 62
7
  6
CONTINUOUS
 10
383.8032230087
 20
210.1786977719
 11
383.4843773819
 21
207.9099932529
  0
LINE
  5
2DB
100
AcDbEntity
  8
0
100
AcDbLine
 62
7
  6
CONTINUOUS
 10
385.4832230087
 20
216.8902347442
 11
385.3832230087
 21
216.1786977719
  0
LINE
  5
2DC
100
AcDbEntity
  8
0
100
AcDbLine
 62
7
  6
CONTINUOUS
 10
413.9832230087
 20
201.0786977719
 11
398.9832230087
 21
201.0786977719
  0
LINE
  5
2DD
100
AcDbEntity
  8
0
100
AcDbLine
 62
7
  6
CONTINUOUS
 10
393.6008359181
 20
201.0786977719
 11
393.5832230087
 21
201.0786977719
  0
LINE
  5
2DE
100
AcDbEntity
  8
0
100
AcDbLine
 62
7
  6
CONTINUOUS
 10
369.0832230087
 20
201.1466084501
 11
365.5832230087
 21
201.1466084501
  0
LINE
  5
2DF
100
AcDbEntity
  8
0
100
AcDbLine
 62
9
  6
CONTINUOUS
 10
376.8332230087
 20
201.2162288239
 11
381.0332230087
 21
201.2162288239
  0
LINE
  5
2E0
100
AcDbEntity
  8
0
100
AcDbLine
 62
7
  6
CONTINUOUS
 10
365.5832230087
 20
201.3100001607
 11
369.0832230087
 21
201.3100001607
  0
LINE
  5
2E1
100
AcDbEntity
  8
0
100
AcDbLine
 62
7
  6
CONTINUOUS
 10
365.5832230087
 20
201.4505006377
 11
369.0832230087
 21
201.4505020379
  0
LINE
  5
2E2
100
AcDbEntity
  8
0
100
AcDbLine
 62
7
  6
CONTINUOUS
 10
369.0832230087
 20
202.0105833158
 11
365.5832230087
 21
202.0105833158
  0
LINE
  5
2E3
100
AcDbEntity
  8
0
100
AcDbLine
 62
7
  6
CONTINUOUS
 10
365.5832230087
 20
202.1993794331
 11
369.0832230087
 21
202.1993794331
  0
LINE
  5
2E4
100
AcDbEntity
  8
0
100
AcDbLine
 62
7
  6
CONTINUOUS
 10
373.9832230087
 20
202.3036977719
 11
372.5832230087
 21
202.3036977719
  0
LINE
  5
2E5
100
AcDbEntity
  8
0
100
AcDbLine
 62
7
  6
CONTINUOUS
 10
365.5832230087
 20
202.3328762698
 11
369.0832230087
 21
202.3328776224
  0
LINE
  5
2E6
100
AcDbEntity
  8
0
100
AcDbLine
 62
7
  6
CONTINUOUS
 10
372.5832230087
 20
202.5390020526
 11
371.3332230087
 21
202.5390020526
  0
LINE
  5
2E7
100
AcDbEntity
  8
0
100
AcDbLine
 62
7
  6
CONTINUOUS
 10
374.2832230087
 20
202.6786977719
 11
374.6832230087
 21
202.6786977719
  0
LINE
  5
2E8
100
AcDbEntity
  8
0
100
AcDbLine
 62
7
  6
CONTINUOUS
 10
434.4832230087
 20
202.9212509584
 11
433.9832230087
 21
202.9212509584
  0
LINE
  5
2E9
100
AcDbEntity
  8
0
100
AcDbLine
 62
7
  6
CONTINUOUS
 10
369.0832230087
 20
202.9969183805
 11
365.5832230087
 21
202.9969183805
  0
LINE
  5
2EA
100
AcDbEntity
  8
0
100
AcDbLine
 62
7
  6
CONTINUOUS
 10
374.8332230087
 20
203.0786977719
 11
374.6832230087
 21
203.0786977719
  0
LINE
  5
2EB
100
AcDbEntity
  8
0
100
AcDbLine
 62
7
  6
CONTINUOUS
 10
381.3332230087
 20
203.0786977719
 11
383.472505041
 21
203.0786977719
  0
LINE
  5
2EC
100
AcDbEntity
  8
0
100
AcDbLine
 62
9
  6
CONTINUOUS
 10
380.1209968701
 20
203.2037256116
 11
381.0332230087
 21
203.2037256116
  0
LINE
  5
2ED
100
AcDbEntity
  8
0
100
AcDbLine
 62
7
  6
CONTINUOUS
 10
365.5832230087
 20
203.2090504149
 11
369.0832230087
 21
203.2090504149
  0
LINE
  5
2EE
100
AcDbEntity
  8
0
100
AcDbLine
 62
7
  6
CONTINUOUS
 10
365.5832230087
 20
203.3340809919
 11
369.0832230087
 21
203.3340822776
  0
LINE
  5
2EF
100
AcDbEntity
  8
0
100
AcDbLine
 62
7
  6
CONTINUOUS
 10
372.0280862475
 20
203.3939251834
 11
371.3332230087
 21
203.3939251834
  0
LINE
  5
2F0
100
AcDbEntity
  8
0
100
AcDbLine
 62
7
  6
CONTINUOUS
 10
383.7832230087
 20
203.5226260324
 11
383.4832230087
 21
203.5226285779
  0
LINE
  5
2F1
100
AcDbEntity
  8
0
100
AcDbLine
 62
9
  6
CONTINUOUS
 10
382.3862201046
 20
221.5437983839
 11
382.2024006399
 21
222.0986617201
  0
LINE
  5
2F2
100
AcDbEntity
  8
0
100
AcDbLine
 62
7
  6
CONTINUOUS
 10
383.4843773819
 20
218.447402291
 11
383.8032230087
 21
216.1786977719
  0
LINE
  5
2F3
100
AcDbEntity
  8
0
100
AcDbLine
 62
7
  6
CONTINUOUS
 10
385.3832230087
 20
210.1786977719
 11
385.4832230087
 21
209.4671607997
  0
LINE
  5
2F4
100
AcDbEntity
  8
0
100
AcDbLine
 62
7
  6
CONTINUOUS
 10
387.7832230087
 20
232.6519028527
 11
387.7832230087
 21
235.9285795363
  0
LINE
  5
2F5
100
AcDbEntity
  8
0
100
AcDbLine
 62
7
  6
CONTINUOUS
 10
389.0305690473
 20
223.6786977719
 11
389.3832230087
 21
225.6786977719
  0
LINE
  5
2F6
100
AcDbEntity
  8
0
100
AcDbLine
 62
7
  6
CONTINUOUS
 10
393.6832230087
 20
225.3786977719
 11
395.4832230087
 21
226.7583345523
  0
LWPOLYLINE
  5
2F7
100
AcDbEntity
  8
0
100
AcDbPolyline
 62
7
  6
CONTINUOUS
 90
4
 70
0
 10
372.0280877986
 20
203.3939267027
 10
372.0736081636
 20
203.3960030383
 10
372.1791267166
 20
203.4172835257
 10
372.2293361767
 20
203.4362128974
  0
LINE
  5
2F8
100
AcDbEntity
  8
0
100
AcDbLine
 62
7
  6
CONTINUOUS
 10
369.0832230087
 20
204.0948071509
 11
365.5832230087
 21
204.0948071509
  0
LINE
  5
2F9
100
AcDbEntity
  8
0
100
AcDbLine
 62
7
  6
CONTINUOUS
 10
365.5832230087
 20
204.3279509393
 11
369.0832230087
 21
204.3279509393
  0
LINE
  5
2FA
100
AcDbEntity
  8
0
100
AcDbLine
 62
7
  6
CONTINUOUS
 10
365.5832230087
 20
204.4431453956
 11
369.0832230087
 21
204.4431465962
  0
LINE
  5
2FB
100
AcDbEntity
  8
0
100
AcDbLine
 62
7
  6
CONTINUOUS
 10
434.4832230087
 20
204.8786977719
 11
433.9832230087
 21
204.8786977719
  0
LINE
  5
2FC
100
AcDbEntity
  8
0
100
AcDbLine
 62
7
  6
CONTINUOUS
 10
369.0832230087
 20
205.2922209279
 11
365.5832230087
 21
205.2922209279
  0
LINE
  5
2FD
100
AcDbEntity
  8
0
100
AcDbLine
 62
7
  6
CONTINUOUS
 10
365.5832230087
 20
205.5438220983
 11
369.0832230087
 21
205.5438220983
  0
LINE
  5
2FE
100
AcDbEntity
  8
0
100
AcDbLine
 62
7
  6
CONTINUOUS
 10
365.5832230087
 20
205.6479183391
 11
369.0832230087
 21
205.6479194376
  0
LINE
  5
2FF
100
AcDbEntity
  8
0
100
AcDbLine
 62
7
  6
CONTINUOUS
 10
371.3332230087
 20
206.1402416817
 11
372.0264272319
 21
206.1402416817
  0
LINE
  5
300
100
AcDbEntity
  8
0
100
AcDbLine
 62
7
  6
CONTINUOUS
 10
385.4832230087
 20
206.1786977719
 11
385.3832230087
 21
206.1786977719
  0
LINE
  5
301
100
AcDbEntity
  8
0
100
AcDbLine
 62
7
  6
CONTINUOUS
 10
383.8832230087
 20
206.1786977719
 11
383.7832230087
 21
206.1786977719
  0
LINE
  5
302
100
AcDbEntity
  8
0
100
AcDbLine
 62
7
  6
CONTINUOUS
 10
369.0832230087
 20
206.5760405955
 11
365.5832230087
 21
206.5760405955
  0
LINE
  5
303
100
AcDbEntity
  8
0
100
AcDbLine
 62
7
  6
CONTINUOUS
 10
365.5832230087
 20
206.8433425528
 11
369.0832230087
 21
206.8433425528
  0
LINE
  5
304
100
AcDbEntity
  8
0
100
AcDbLine
 62
7
  6
CONTINUOUS
 10
390.3832230087
 20
208.2786977719
 11
393.5832230087
 21
205.8232514104
  0
LINE
  5
305
100
AcDbEntity
  8
0
100
AcDbLine
 62
7
  6
CONTINUOUS
 10
389.9065215716
 20
231.252810775
 11
389.9065215716
 21
225.6786977719
  0
LINE
  5
306
100
AcDbEntity
  8
0
100
AcDbLine
 62
7
  6
CONTINUOUS
 10
390.3832230087
 20
208.2786977719
 11
390.3832230087
 21
230.977587072
  0
LINE
  5
307
100
AcDbEntity
  8
0
100
AcDbLine
 62
7
  6
CONTINUOUS
 10
390.5832230087
 20
214.1286977719
 11
390.5832230087
 21
211.6286977719
  0
LINE
  5
308
100
AcDbEntity
  8
0
100
AcDbLine
 62
7
  6
CONTINUOUS
 10
390.6065215716
 20
231.2809347452
 11
390.6065215716
 21
229.055399209
  0
LINE
  5
309
100
AcDbEntity
  8
0
100
AcDbLine
 62
7
  6
CONTINUOUS
 10
391.0832230087
 20
231.0786977719
 11
391.0832230087
 21
229.2786977719
  0
LINE
  5
30A
100
AcDbEntity
  8
0
100
AcDbLine
 62
7
  6
CONTINUOUS
 10
391.3832230087
 20
212.0786977719
 11
391.3832230087
 21
223.5786977719
  0
LINE
  5
30B
100
AcDbEntity
  8
0
100
AcDbLine
 62
9
  6
CONTINUOUS
 10
392.2832230087
 20
225.3786977719
 11
392.2832230087
 21
228.7786977719
  0
LINE
  5
30C
100
AcDbEntity
  8
0
100
AcDbLine
 62
7
  6
CONTINUOUS
 10
383.4838038303
 20
207.9100738603
 11
383.8832230087
 21
207.9102173819
  0
LINE
  5
30D
100
AcDbEntity
  8
0
100
AcDbLine
 62
7
  6
CONTINUOUS
 10
385.3832230087
 20
207.9107563704
 11
385.4832230087
 21
207.910792303
  0
LINE
  5
30E
100
AcDbEntity
  8
0
100
AcDbLine
 62
7
  6
CONTINUOUS
 10
434.4832230087
 20
206.8786977719
 11
434.2832230087
 21
206.8786977719
  0
LINE
  5
30F
100
AcDbEntity
  8
0
100
AcDbLine
 62
7
  6
CONTINUOUS
 10
365.5832230087
 20
206.935200078
 11
369.0832230087
 21
206.9352010585
  0
LINE
  5
310
100
AcDbEntity
  8
0
100
AcDbLine
 62
7
  6
CONTINUOUS
 10
436.9832230087
 20
207.7447231757
 11
435.9832230087
 21
207.7447231757
  0
LINE
  5
311
100
AcDbEntity
  8
0
100
AcDbLine
 62
7
  6
CONTINUOUS
 10
369.0832230087
 20
207.9322003568
 11
365.5832230087
 21
207.9322003568
  0
LINE
  5
312
100
AcDbEntity
  8
0
100
AcDbLine
 62
7
  6
CONTINUOUS
 10
370.0832230087
 20
208.1269035362
 11
371.3332230087
 21
208.1269035362
  0
LINE
  5
313
100
AcDbEntity
  8
0
100
AcDbLine
 62
7
  6
CONTINUOUS
 10
365.5832230087
 20
208.2122744848
 11
369.0832230087
 21
208.2122744848
  0
LINE
  5
314
100
AcDbEntity
  8
0
100
AcDbLine
 62
7
  6
CONTINUOUS
 10
365.5832230087
 20
208.2908868842
 11
369.0832230087
 21
208.2908877324
  0
LINE
  5
315
100
AcDbEntity
  8
0
100
AcDbLine
 62
9
  6
CONTINUOUS
 10
436.9832230087
 20
208.6786977719
 11
436.2832723024
 21
208.6786977719
  0
LINE
  5
316
100
AcDbEntity
  8
0
100
AcDbLine
 62
7
  6
CONTINUOUS
 10
434.6832230087
 20
208.8786977719
 11
434.2832230087
 21
208.8786977719
  0
LINE
  5
317
100
AcDbEntity
  8
0
100
AcDbLine
 62
7
  6
CONTINUOUS
 10
436.2832230087
 20
208.8786977719
 11
436.9832230087
 21
208.8786977719
  0
LINE
  5
318
100
AcDbEntity
  8
0
100
AcDbLine
 62
9
  6
CONTINUOUS
 10
435.7832230087
 20
209.1786977719
 11
435.9832230087
 21
209.1786977719
  0
LINE
  5
319
100
AcDbEntity
  8
0
100
AcDbLine
 62
7
  6
CONTINUOUS
 10
369.0832230087
 20
209.3458418418
 11
365.5832230087
 21
209.3458418418
  0
LINE
  5
31A
100
AcDbEntity
  8
0
100
AcDbLine
 62
7
  6
CONTINUOUS
 10
365.5832230087
 20
209.6356195897
 11
369.0832230087
 21
209.6356195897
  0
LINE
  5
31B
100
AcDbEntity
  8
0
100
AcDbLine
 62
7
  6
CONTINUOUS
 10
365.5832230087
 20
209.7001255693
 11
369.0832230087
 21
209.7001262723
  0
LINE
  5
31C
100
AcDbEntity
  8
0
100
AcDbLine
 62
7
  6
CONTINUOUS
 10
369.0832230087
 20
212.1389257786
 11
370.0832230087
 21
212.0486977719
  0
LINE
  5
31D
100
AcDbEntity
  8
0
100
AcDbLine
 62
7
  6
CONTINUOUS
 10
383.8832230087
 20
220.7786977719
 11
383.7832230087
 21
220.8786977719
  0
LINE
  5
31E
100
AcDbEntity
  8
0
100
AcDbLine
 62
7
  6
CONTINUOUS
 10
393.5832230087
 20
228.7786977719
 11
393.5832230087
 21
225.3786977719
  0
LINE
  5
31F
100
AcDbEntity
  8
0
100
AcDbLine
 62
7
  6
CONTINUOUS
 10
393.5832230087
 20
205.8232514104
 11
393.5832230087
 21
195.8248231465
  0
LINE
  5
320
100
AcDbEntity
  8
0
100
AcDbLine
 62
7
  6
CONTINUOUS
 10
393.7832230087
 20
196.7786977719
 11
393.7832230087
 21
199.3786977719
  0
LINE
  5
321
100
AcDbEntity
  8
0
100
AcDbLine
 62
7
  6
CONTINUOUS
 10
393.8832230087
 20
209.9786977719
 11
393.8832230087
 21
200.9646059815
  0
LINE
  5
322
100
AcDbEntity
  8
0
100
AcDbLine
 62
7
  6
CONTINUOUS
 10
394.8832230087
 20
223.5786977719
 11
394.8832230087
 21
212.0786977719
  0
LINE
  5
323
100
AcDbEntity
  8
0
100
AcDbLine
 62
7
  6
CONTINUOUS
 10
393.8832230087
 20
209.9786977719
 11
390.3832230087
 21
209.9786977719
  0
LINE
  5
324
100
AcDbEntity
  8
0
100
AcDbLine
 62
7
  6
CONTINUOUS
 10
381.0332230087
 20
210.6786977719
 11
380.1209968701
 21
210.6786977719
  0
LINE
  5
325
100
AcDbEntity
  8
0
100
AcDbLine
 62
7
  6
CONTINUOUS
 10
369.0832230087
 20
210.8014768983
 11
365.5832230087
 21
210.8014768983
  0
LINE
  5
326
100
AcDbEntity
  8
0
100
AcDbLine
 62
7
  6
CONTINUOUS
 10
393.8832230087
 20
211.0786977719
 11
392.3832230087
 21
211.0786977719
  0
LINE
  5
327
100
AcDbEntity
  8
0
100
AcDbLine
 62
7
  6
CONTINUOUS
 10
365.5832230087
 20
211.0977834005
 11
369.0832230087
 21
211.0977834005
  0
LINE
  5
328
100
AcDbEntity
  8
0
100
AcDbLine
 62
7
  6
CONTINUOUS
 10
365.5832230087
 20
211.1474762195
 11
369.0832230087
 21
211.1474767661
  0
LINE
  5
329
100
AcDbEntity
  8
0
100
AcDbLine
 62
7
  6
CONTINUOUS
 10
385.3832230087
 20
211.1887228977
 11
385.4832230087
 21
211.1887228977
  0
LINE
  5
32A
100
AcDbEntity
  8
0
100
AcDbLine
 62
7
  6
CONTINUOUS
 10
434.9832230087
 20
211.3786977719
 11
435.9832230087
 21
211.3786977719
  0
LINE
  5
32B
100
AcDbEntity
  8
0
100
AcDbLine
 62
7
  6
CONTINUOUS
 10
374.2832230087
 20
211.4286977719
 11
374.8561261075
 21
211.4286977719
  0
LINE
  5
32C
100
AcDbEntity
  8
0
100
AcDbLine
 62
7
  6
CONTINUOUS
 10
381.3332230087
 20
211.4286977719
 11
383.4832230087
 21
211.4286977719
  0
LINE
  5
32D
100
AcDbEntity
  8
0
100
AcDbLine
 62
7
  6
CONTINUOUS
 10
390.5832230087
 20
211.6286977719
 11
390.3832230087
 21
211.6286977719
  0
LINE
  5
32E
100
AcDbEntity
  8
0
100
AcDbLine
 62
7
  6
CONTINUOUS
 10
390.5832230087
 20
211.9286977719
 11
390.3832230087
 21
211.9286977719
  0
LINE
  5
32F
100
AcDbEntity
  8
0
100
AcDbLine
 62
9
  6
CONTINUOUS
 10
376.8332230087
 20
212.0633131565
 11
381.0332230087
 21
212.0633131565
  0
LINE
  5
330
100
AcDbEntity
  8
0
100
AcDbLine
 62
7
  6
CONTINUOUS
 10
365.5832230087
 20
212.2645558605
 11
369.0832230087
 21
212.2645558587
  0
LINE
  5
331
100
AcDbEntity
  8
0
100
AcDbLine
 62
7
  6
CONTINUOUS
 10
369.0832230087
 20
212.2831572843
 11
365.5832230087
 21
212.2831572843
  0
LINE
  5
332
100
AcDbEntity
  8
0
100
AcDbLine
 62
7
  6
CONTINUOUS
 10
365.5832230087
 20
212.5827461447
 11
369.0832230087
 21
212.5827461447
  0
LINE
  5
333
100
AcDbEntity
  8
0
100
AcDbLine
 62
7
  6
CONTINUOUS
 10
365.5832230087
 20
212.6170813579
 11
369.0832230087
 21
212.6170817391
  0
LINE
  5
334
100
AcDbEntity
  8
0
100
AcDbLine
 62
7
  6
CONTINUOUS
 10
382.0832230087
 20
226.6786977719
 11
381.7832230087
 21
226.9786977719
  0
LINE
  5
335
100
AcDbEntity
  8
0
100
AcDbLine
 62
7
  6
CONTINUOUS
 10
396.7832230087
 20
228.3191973112
 11
396.7832230087
 21
227.082460956
  0
LINE
  5
336
100
AcDbEntity
  8
0
100
AcDbLine
 62
7
  6
CONTINUOUS
 10
396.7832230087
 20
199.9786977719
 11
396.7832230087
 21
198.7786977719
  0
LINE
  5
337
100
AcDbEntity
  8
0
100
AcDbLine
 62
7
  6
CONTINUOUS
 10
365.5832230087
 20
213.7403141859
 11
369.0832230087
 21
213.7403141829
  0
LINE
  5
338
100
AcDbEntity
  8
0
100
AcDbLine
 62
7
  6
CONTINUOUS
 10
369.0832230087
 20
213.7746493992
 11
365.5832230087
 21
213.7746493992
  0
LINE
  5
339
100
AcDbEntity
  8
0
100
AcDbLine
 62
7
  6
CONTINUOUS
 10
390.5832230087
 20
213.8286977719
 11
390.3832230087
 21
213.8286977719
  0
LINE
  5
33A
100
AcDbEntity
  8
0
100
AcDbLine
 62
7
  6
CONTINUOUS
 10
365.5832230087
 20
214.0742382596
 11
369.0832230087
 21
214.0742382596
  0
LINE
  5
33B
100
AcDbEntity
  8
0
100
AcDbLine
 62
7
  6
CONTINUOUS
 10
365.5832230087
 20
214.0928396834
 11
369.0832230087
 21
214.0928398916
  0
LINE
  5
33C
100
AcDbEntity
  8
0
100
AcDbLine
 62
7
  6
CONTINUOUS
 10
390.5832230087
 20
214.1286977719
 11
390.3832230087
 21
214.1286977719
  0
LINE
  5
33D
100
AcDbEntity
  8
0
100
AcDbLine
 62
9
  6
CONTINUOUS
 10
376.8332230087
 20
214.2940823873
 11
381.0332230087
 21
214.2940823873
  0
LINE
  5
33E
100
AcDbEntity
  8
0
100
AcDbLine
 62
7
  6
CONTINUOUS
 10
435.9832230087
 20
214.8786977719
 11
433.9832230087
 21
214.8786977719
  0
LINE
  5
33F
100
AcDbEntity
  8
0
100
AcDbLine
 62
7
  6
CONTINUOUS
 10
383.4832230087
 20
214.9286977719
 11
381.3332230087
 21
214.9286977719
  0
LINE
  5
340
100
AcDbEntity
  8
0
100
AcDbLine
 62
7
  6
CONTINUOUS
 10
374.8561261075
 20
214.9286977719
 11
374.2832230087
 21
214.9286977719
  0
LINE
  5
341
100
AcDbEntity
  8
0
100
AcDbLine
 62
7
  6
CONTINUOUS
 10
385.4832230087
 20
215.1686726461
 11
385.3832230087
 21
215.1686726461
  0
LINE
  5
342
100
AcDbEntity
  8
0
100
AcDbLine
 62
7
  6
CONTINUOUS
 10
365.5832230087
 20
215.2099193244
 11
369.0832230087
 21
215.2099193205
  0
LINE
  5
343
100
AcDbEntity
  8
0
100
AcDbLine
 62
7
  6
CONTINUOUS
 10
369.0832230087
 20
215.2596121434
 11
365.5832230087
 21
215.2596121434
  0
LINE
  5
344
100
AcDbEntity
  8
0
100
AcDbLine
 62
7
  6
CONTINUOUS
 10
365.5832230087
 20
215.5559186455
 11
369.0832230087
 21
215.5559186455
  0
LINE
  5
345
100
AcDbEntity
  8
0
100
AcDbLine
 62
7
  6
CONTINUOUS
 10
380.1209968701
 20
215.6786977719
 11
381.0332230087
 21
215.6786977719
  0
LINE
  5
346
100
AcDbEntity
  8
0
100
AcDbLine
 62
7
  6
CONTINUOUS
 10
398.9832230087
 20
201.0786977719
 11
398.9832230087
 21
226.2786977719
  0
LWPOLYLINE
  5
347
100
AcDbEntity
  8
0
100
AcDbPolyline
 62
7
  6
CONTINUOUS
 90
3
 70
0
 10
372.2294067007
 20
203.4362785505
 10
372.7381491482
 20
203.6584935927
 10
372.8244122385
 20
203.6958238233
  0
LINE
  5
348
100
AcDbEntity
  8
0
100
AcDbLine
 62
7
  6
CONTINUOUS
 10
370.0832230087
 20
214.3086977719
 11
369.2483485369
 21
214.2333687125
  0
LINE
  5
349
100
AcDbEntity
  8
0
100
AcDbLine
 62
7
  6
CONTINUOUS
 10
369.0832230087
 20
214.2184697653
 11
369.2476830563
 21
214.2333086675
  0
LINE
  5
34A
100
AcDbEntity
  8
0
100
AcDbLine
 62
7
  6
CONTINUOUS
 10
393.8832230087
 20
216.5786977719
 11
392.3832230087
 21
216.5786977719
  0
LINE
  5
34B
100
AcDbEntity
  8
0
100
AcDbLine
 62
7
  6
CONTINUOUS
 10
371.3332230087
 20
216.5991148415
 11
372.0263223665
 21
216.5991148415
  0
LINE
  5
34C
100
AcDbEntity
  8
0
100
AcDbLine
 62
7
  6
CONTINUOUS
 10
365.5832230087
 20
216.6572699745
 11
369.0832230087
 21
216.6572699699
  0
LINE
  5
34D
100
AcDbEntity
  8
0
100
AcDbLine
 62
7
  6
CONTINUOUS
 10
369.0832230087
 20
216.7217759542
 11
365.5832230087
 21
216.7217759542
  0
LINE
  5
34E
100
AcDbEntity
  8
0
100
AcDbLine
 62
7
  6
CONTINUOUS
 10
365.5832230087
 20
217.0115537021
 11
369.0832230087
 21
217.0115537021
  0
LINE
  5
34F
100
AcDbEntity
  8
0
100
AcDbLine
 62
7
  6
CONTINUOUS
 10
365.5832230087
 20
218.0665086596
 11
369.0832230087
 21
218.0665086545
  0
LINE
  5
350
100
AcDbEntity
  8
0
100
AcDbLine
 62
7
  6
CONTINUOUS
 10
369.0832230087
 20
218.1451210591
 11
365.5832230087
 21
218.1451210591
  0
LINE
  5
351
100
AcDbEntity
  8
0
100
AcDbLine
 62
7
  6
CONTINUOUS
 10
371.3332230087
 20
218.2304920076
 11
370.0832230087
 21
218.2304920076
  0
LINE
  5
352
100
AcDbEntity
  8
0
100
AcDbLine
 62
7
  6
CONTINUOUS
 10
365.5832230087
 20
218.425195187
 11
369.0832230087
 21
218.425195187
  0
LINE
  5
353
100
AcDbEntity
  8
0
100
AcDbLine
 62
7
  6
CONTINUOUS
 10
385.4832230087
 20
218.4466032409
 11
385.3832230087
 21
218.4466391735
  0
LINE
  5
354
100
AcDbEntity
  8
0
100
AcDbLine
 62
7
  6
CONTINUOUS
 10
383.8832230087
 20
218.447178162
 11
383.4838038303
 21
218.4473216835
  0
LINE
  5
355
100
AcDbEntity
  8
0
100
AcDbLine
 62
9
  6
CONTINUOUS
 10
381.0332230087
 20
222.8593201692
 11
380.1209968701
 21
223.1536699323
  0
LINE
  5
356
100
AcDbEntity
  8
0
100
AcDbLine
 62
7
  6
CONTINUOUS
 10
423.0464587276
 20
195.8786977719
 11
419.590373309
 21
198.7786977719
  0
LINE
  5
357
100
AcDbEntity
  8
0
100
AcDbLine
 62
7
  6
CONTINUOUS
 10
389.9065215716
 20
225.6786977719
 11
390.3832230087
 21
225.2786977719
  0
LINE
  5
358
100
AcDbEntity
  8
0
100
AcDbLine
 62
9
  6
CONTINUOUS
 10
380.1209968701
 20
203.2037256116
 11
381.0332230087
 21
203.4980753746
  0
LINE
  5
359
100
AcDbEntity
  8
0
100
AcDbLine
 62
7
  6
CONTINUOUS
 10
433.9832230087
 20
218.8786977719
 11
435.9832230087
 21
218.8786977719
  0
LINE
  5
35A
100
AcDbEntity
  8
0
100
AcDbLine
 62
7
  6
CONTINUOUS
 10
365.5832230087
 20
219.4221954658
 11
369.0832230087
 21
219.4221954604
  0
LINE
  5
35B
100
AcDbEntity
  8
0
100
AcDbLine
 62
7
  6
CONTINUOUS
 10
369.0832230087
 20
219.5140529911
 11
365.5832230087
 21
219.5140529911
  0
LINE
  5
35C
100
AcDbEntity
  8
0
100
AcDbLine
 62
7
  6
CONTINUOUS
 10
365.5832230087
 20
219.7813549484
 11
369.0832230087
 21
219.7813549484
  0
LINE
  5
35D
100
AcDbEntity
  8
0
100
AcDbLine
 62
7
  6
CONTINUOUS
 10
385.3832230087
 20
220.1786977719
 11
385.4832230087
 21
220.1786977719
  0
LINE
  5
35E
100
AcDbEntity
  8
0
100
AcDbLine
 62
7
  6
CONTINUOUS
 10
371.3332230087
 20
220.4085555
 11
372.0264272319
 21
220.4085555
  0
LINE
  5
35F
100
AcDbEntity
  8
0
100
AcDbLine
 62
7
  6
CONTINUOUS
 10
365.5832230087
 20
220.7094772047
 11
369.0832230087
 21
220.7094771992
  0
LINE
  5
360
100
AcDbEntity
  8
0
100
AcDbLine
 62
7
  6
CONTINUOUS
 10
369.0832230087
 20
220.8135734456
 11
365.5832230087
 21
220.8135734456
  0
LINE
  5
361
100
AcDbEntity
  8
0
100
AcDbLine
 62
7
  6
CONTINUOUS
 10
365.5832230087
 20
221.065174616
 11
369.0832230087
 21
221.065174616
  0
LINE
  5
362
100
AcDbEntity
  8
0
100
AcDbLine
 62
9
  6
CONTINUOUS
 10
382.936804408
 20
221.5418069135
 11
382.3868643949
 21
221.5418077161
  0
LINE
  5
363
100
AcDbEntity
  8
0
100
AcDbLine
 62
7
  6
CONTINUOUS
 10
379.3413783685
 20
226.4036699323
 11
376.8332230087
 21
227.3165638261
  0
LINE
  5
364
100
AcDbEntity
  8
0
100
AcDbLine
 62
7
  6
CONTINUOUS
 10
390.6065215716
 20
229.055399209
 11
390.7332230087
 21
228.9286977719
  0
LINE
  5
365
100
AcDbEntity
  8
0
100
AcDbLine
 62
7
  6
CONTINUOUS
 10
379.3413783685
 20
199.9537256116
 11
376.8332230087
 21
199.0408317177
  0
LINE
  5
366
100
AcDbEntity
  8
0
100
AcDbLine
 62
7
  6
CONTINUOUS
 10
365.5832230087
 20
221.9142501483
 11
369.0832230087
 21
221.9142501427
  0
LINE
  5
367
100
AcDbEntity
  8
0
100
AcDbLine
 62
7
  6
CONTINUOUS
 10
369.0832230087
 20
222.0294446045
 11
365.5832230087
 21
222.0294446045
  0
LINE
  5
368
100
AcDbEntity
  8
0
100
AcDbLine
 62
7
  6
CONTINUOUS
 10
365.5832230087
 20
222.262588393
 11
369.0832230087
 21
222.262588393
  0
LINE
  5
369
100
AcDbEntity
  8
0
100
AcDbLine
 62
7
  6
CONTINUOUS
 10
434.9832230087
 20
222.3786977719
 11
435.9832230087
 21
222.3786977719
  0
LINE
  5
36A
100
AcDbEntity
  8
0
100
AcDbLine
 62
7
  6
CONTINUOUS
 10
365.5832230087
 20
223.023314552
 11
369.0832230087
 21
223.0233145465
  0
LINE
  5
36B
100
AcDbEntity
  8
0
100
AcDbLine
 62
7
  6
CONTINUOUS
 10
369.0832230087
 20
223.148345129
 11
365.5832230087
 21
223.148345129
  0
LINE
  5
36C
100
AcDbEntity
  8
0
100
AcDbLine
 62
9
  6
CONTINUOUS
 10
381.0332230087
 20
223.1536699323
 11
380.1209968701
 21
223.1536699323
  0
LINE
  5
36D
100
AcDbEntity
  8
0
100
AcDbLine
 62
7
  6
CONTINUOUS
 10
383.7832230087
 20
223.1786977719
 11
383.4832230087
 21
223.1786977719
  0
LINE
  5
36E
100
AcDbEntity
  8
0
100
AcDbLine
 62
7
  6
CONTINUOUS
 10
374.6832230087
 20
223.2786977719
 11
374.8332230087
 21
223.2786977719
  0
LINE
  5
36F
100
AcDbEntity
  8
0
100
AcDbLine
 62
7
  6
CONTINUOUS
 10
381.3384324252
 20
223.2786977719
 11
383.4832230087
 21
223.2786977719
  0
LINE
  5
370
100
AcDbEntity
  8
0
100
AcDbLine
 62
7
  6
CONTINUOUS
 10
365.5832230087
 20
223.3604771634
 11
369.0832230087
 21
223.3604771634
  0
LINE
  5
371
100
AcDbEntity
  8
0
100
AcDbLine
 62
7
  6
CONTINUOUS
 10
374.8332230087
 20
223.3786977719
 11
374.6832230087
 21
223.3786977719
  0
LINE
  5
372
100
AcDbEntity
  8
0
100
AcDbLine
 62
7
  6
CONTINUOUS
 10
374.2832230087
 20
223.6786977719
 11
374.6832230087
 21
223.6786977719
  0
LINE
  5
373
100
AcDbEntity
  8
0
100
AcDbLine
 62
7
  6
CONTINUOUS
 10
385.4832230087
 20
223.6786977719
 11
389.0305690473
 21
223.6786977719
  0
LINE
  5
374
100
AcDbEntity
  8
0
100
AcDbLine
 62
7
  6
CONTINUOUS
 10
365.5832230087
 20
224.0245192741
 11
369.0832230087
 21
224.0245192688
  0
LINE
  5
375
100
AcDbEntity
  8
0
100
AcDbLine
 62
7
  6
CONTINUOUS
 10
373.9832230087
 20
224.0536977719
 11
371.6582230087
 21
224.0536977719
  0
LINE
  5
376
100
AcDbEntity
  8
0
100
AcDbLine
 62
7
  6
CONTINUOUS
 10
369.0832230087
 20
224.1580161108
 11
365.5832230087
 21
224.1580161108
  0
LINE
  5
377
100
AcDbEntity
  8
0
100
AcDbLine
 62
7
  6
CONTINUOUS
 10
365.5832230087
 20
224.3468122281
 11
369.0832230087
 21
224.3468122281
  0
LINE
  5
378
100
AcDbEntity
  8
0
100
AcDbLine
 62
7
  6
CONTINUOUS
 10
395.4832230087
 20
226.7583345523
 11
402.3832230087
 21
228.4786977719
  0
LINE
  5
379
100
AcDbEntity
  8
0
100
AcDbLine
 62
7
  6
CONTINUOUS
 10
375.2375123535
 20
225.8285001421
 11
375.2667995087
 21
225.8286977719
  0
LINE
  5
37A
100
AcDbEntity
  8
0
100
AcDbLine
 62
9
  6
CONTINUOUS
 10
435.9832230087
 20
224.5786977726
 11
435.7832230087
 21
224.5786977726
  0
LINE
  5
37B
100
AcDbEntity
  8
0
100
AcDbLine
 62
7
  6
CONTINUOUS
 10
392.3832230087
 20
224.5786977719
 11
393.8832230087
 21
224.5786977719
  0
LINE
  5
37C
100
AcDbEntity
  8
0
100
AcDbLine
 62
7
  6
CONTINUOUS
 10
436.9832230087
 20
224.8786977719
 11
436.2832230087
 21
224.8786977719
  0
LINE
  5
37D
100
AcDbEntity
  8
0
100
AcDbLine
 62
7
  6
CONTINUOUS
 10
434.6832230087
 20
224.8786977719
 11
434.2832230087
 21
224.8786977719
  0
LINE
  5
37E
100
AcDbEntity
  8
0
100
AcDbLine
 62
7
  6
CONTINUOUS
 10
432.9832230087
 20
224.8786977719
 11
433.9832230087
 21
224.8786977719
  0
LINE
  5
37F
100
AcDbEntity
  8
0
100
AcDbLine
 62
7
  6
CONTINUOUS
 10
365.5832230087
 20
224.9068949062
 11
369.0832230087
 21
224.9068949012
  0
LINE
  5
380
100
AcDbEntity
  8
0
100
AcDbLine
 62
9
  6
CONTINUOUS
 10
372.0832230087
 20
224.9786977719
 11
371.3332230087
 21
224.9786977719
  0
LINE
  5
381
100
AcDbEntity
  8
0
100
AcDbLine
 62
7
  6
CONTINUOUS
 10
369.0832230087
 20
225.0473953832
 11
365.5832230087
 21
225.0473953832
  0
LINE
  5
382
100
AcDbEntity
  8
0
100
AcDbLine
 62
9
  6
CONTINUOUS
 10
436.2832723121
 20
225.0786977719
 11
436.9832230087
 21
225.0786977719
  0
LINE
  5
383
100
AcDbEntity
  8
0
100
AcDbLine
 62
9
  6
CONTINUOUS
 10
376.8332230087
 20
225.14116672
 11
381.0332230087
 21
225.14116672
  0
LINE
  5
384
100
AcDbEntity
  8
0
100
AcDbLine
 62
7
  6
CONTINUOUS
 10
371.3332230087
 20
225.1786977719
 11
371.8832230087
 21
225.1786977719
  0
LINE
  5
385
100
AcDbEntity
  8
0
100
AcDbLine
 62
7
  6
CONTINUOUS
 10
365.5832230087
 20
225.2107870937
 11
369.0832230087
 21
225.2107870937
  0
LINE
  5
386
100
AcDbEntity
  8
0
100
AcDbLine
 62
7
  6
CONTINUOUS
 10
393.6832230087
 20
225.3786977719
 11
390.3832230087
 21
225.3786977719
  0
LINE
  5
387
100
AcDbEntity
  8
0
100
AcDbLine
 62
7
  6
CONTINUOUS
 10
365.5832230087
 20
225.6607739562
 11
369.0832230087
 21
225.6607739515
  0
LINE
  5
388
100
AcDbEntity
  8
0
100
AcDbLine
 62
7
  6
CONTINUOUS
 10
389.9065215716
 20
225.6786977719
 11
389.3832230087
 21
225.6786977719
  0
LINE
  5
389
100
AcDbEntity
  8
0
100
AcDbLine
 62
7
  6
CONTINUOUS
 10
369.0832230087
 20
225.806738721
 11
365.5832230087
 21
225.806738721
  0
LINE
  5
38A
100
AcDbEntity
  8
0
100
AcDbLine
 62
7
  6
CONTINUOUS
 10
375.3332230087
 20
225.8286977719
 11
375.2668016524
 21
225.8286977719
  0
LINE
  5
38B
100
AcDbEntity
  8
0
100
AcDbLine
 62
7
  6
CONTINUOUS
 10
365.5832230087
 20
225.9429358709
 11
369.0832230087
 21
225.9429358709
  0
LINE
  5
38C
100
AcDbEntity
  8
0
100
AcDbLine
 62
7
  6
CONTINUOUS
 10
369.0832230087
 20
225.9786977719
 11
369.3832230087
 21
225.9786977719
  0
LINE
  5
38D
100
AcDbEntity
  8
0
100
AcDbLine
 62
7
  6
CONTINUOUS
 10
435.9832230087
 20
226.0126723682
 11
436.9832230087
 21
226.0126723682
  0
LINE
  5
38E
100
AcDbEntity
  8
0
100
AcDbLine
 62
9
  6
CONTINUOUS
 10
376.8332230087
 20
226.2565513354
 11
381.0332230087
 21
226.2565513354
  0
LINE
  5
38F
100
AcDbEntity
  8
0
100
AcDbLine
 62
7
  6
CONTINUOUS
 10
365.5832230087
 20
226.2778967675
 11
369.0832230087
 21
226.2778967632
  0
LINE
  5
390
100
AcDbEntity
  8
0
100
AcDbLine
 62
7
  6
CONTINUOUS
 10
398.9832230087
 20
226.2786977719
 11
413.9832230087
 21
226.2786977719
  0
LINE
  5
391
100
AcDbEntity
  8
0
100
AcDbLine
 62
7
  6
CONTINUOUS
 10
381.0332230087
 20
226.4036699323
 11
376.8332230087
 21
226.4036699323
  0
LINE
  5
392
100
AcDbEntity
  8
0
100
AcDbLine
 62
7
  6
CONTINUOUS
 10
369.0832230087
 20
226.4277265995
 11
365.5832230087
 21
226.4277265995
  0
LINE
  5
393
100
AcDbEntity
  8
0
100
AcDbLine
 62
7
  6
CONTINUOUS
 10
365.5832230087
 20
226.5352369844
 11
369.0832230087
 21
226.5352369844
  0
LINE
  5
394
100
AcDbEntity
  8
0
100
AcDbLine
 62
7
  6
CONTINUOUS
 10
382.0832230087
 20
226.6786977719
 11
383.7832230087
 21
226.6786977719
  0
LINE
  5
395
100
AcDbEntity
  8
0
100
AcDbLine
 62
7
  6
CONTINUOUS
 10
365.5832230087
 20
226.7515020134
 11
369.0832230087
 21
226.7515020096
  0
LINE
  5
396
100
AcDbEntity
  8
0
100
AcDbLine
 62
7
  6
CONTINUOUS
 10
371.3332230087
 20
226.7536977719
 11
370.0832230087
 21
226.7536977719
  0
LINE
  5
397
100
AcDbEntity
  8
0
100
AcDbLine
 62
7
  6
CONTINUOUS
 10
434.2832230087
 20
226.8786977719
 11
434.4832230087
 21
226.8786977719
  0
LINE
  5
398
100
AcDbEntity
  8
0
100
AcDbLine
 62
7
  6
CONTINUOUS
 10
369.0832230087
 20
226.9035553456
 11
365.5832230087
 21
226.9035553456
  0
LINE
  5
399
100
AcDbEntity
  8
0
100
AcDbLine
 62
7
  6
CONTINUOUS
 10
365.5832230087
 20
226.9812010592
 11
369.0832230087
 21
226.9812010592
  0
LINE
  5
39A
100
AcDbEntity
  8
0
100
AcDbLine
 62
7
  6
CONTINUOUS
 10
365.5832230087
 20
227.0764007757
 11
369.0832230087
 21
227.0764007724
  0
LINE
  5
39B
100
AcDbEntity
  8
0
100
AcDbLine
 62
7
  6
CONTINUOUS
 10
369.0832230087
 20
227.2290116801
 11
365.5832230087
 21
227.2290116801
  0
LINE
  5
39C
100
AcDbEntity
  8
0
100
AcDbLine
 62
7
  6
CONTINUOUS
 10
365.5832230087
 20
227.2759420196
 11
369.0832230087
 21
227.2759420196
  0
LINE
  5
39D
100
AcDbEntity
  8
0
100
AcDbLine
 62
7
  6
CONTINUOUS
 10
369.0832230087
 20
227.4005298352
 11
365.5832230087
 21
227.4005298352
  0
LINE
  5
39E
100
AcDbEntity
  8
0
100
AcDbLine
 62
7
  6
CONTINUOUS
 10
365.5832230087
 20
227.416230622
 11
369.0832230087
 21
227.416230622
  0
LINE
  5
39F
100
AcDbEntity
  8
0
100
AcDbLine
 62
7
  6
CONTINUOUS
 10
362.4391987737
 20
227.4286977719
 11
365.5832230087
 21
227.4286977719
  0
LINE
  5
3A0
100
AcDbEntity
  8
0
100
AcDbLine
 62
7
  6
CONTINUOUS
 10
369.3832230087
 20
227.4286977719
 11
370.0832230087
 21
227.4286977719
  0
LINE
  5
3A1
100
AcDbEntity
  8
0
100
AcDbLine
 62
7
  6
CONTINUOUS
 10
387.9660580547
 20
232.4011313888
 11
391.0832230087
 21
231.0786977719
  0
LINE
  5
3A2
100
AcDbEntity
  8
0
100
AcDbLine
 62
7
  6
CONTINUOUS
 10
387.9332230087
 20
232.3920952316
 11
390.3832230087
 21
230.977587072
  0
LINE
  5
3A3
100
AcDbEntity
  8
0
100
AcDbLine
 62
7
  6
CONTINUOUS
 10
396.7832230087
 20
228.3191973112
 11
402.2358815356
 21
229.6786977719
  0
LINE
  5
3A4
100
AcDbEntity
  8
0
100
AcDbLine
 62
7
  6
CONTINUOUS
 10
376.8332230087
 20
227.6786977719
 11
375.3332230087
 21
227.6786977719
  0
LINE
  5
3A5
100
AcDbEntity
  8
0
100
AcDbLine
 62
7
  6
CONTINUOUS
 10
402.3832230087
 20
228.4786977719
 11
433.9832230087
 21
228.4786977719
  0
LINE
  5
3A6
100
AcDbEntity
  8
0
100
AcDbLine
 62
7
  6
CONTINUOUS
 10
390.3832230087
 20
228.7786977719
 11
393.5832230087
 21
228.7786977719
  0
LINE
  5
3A7
100
AcDbEntity
  8
0
100
AcDbLine
 62
9
  6
CONTINUOUS
 10
385.4832230087
 20
228.8286977719
 11
385.3832230087
 21
228.8286977719
  0
LINE
  5
3A8
100
AcDbEntity
  8
0
100
AcDbLine
 62
7
  6
CONTINUOUS
 10
390.6065215716
 20
229.055399209
 11
390.3832230087
 21
229.055399209
  0
LINE
  5
3A9
100
AcDbEntity
  8
0
100
AcDbLine
 62
9
  6
CONTINUOUS
 10
385.3832230087
 20
229.1123092525
 11
383.8832230087
 21
229.1123092525
  0
LINE
  5
3AA
100
AcDbEntity
  8
0
100
AcDbLine
 62
7
  6
CONTINUOUS
 10
429.9832230087
 20
229.6786977719
 11
402.2358815356
 21
229.6786977719
  0
LINE
  5
3AB
100
AcDbEntity
  8
0
100
AcDbLine
 62
7
  6
CONTINUOUS
 10
385.3832230087
 20
230.0286977719
 11
385.4832230087
 21
230.0286977719
  0
LINE
  5
3AC
100
AcDbEntity
  8
0
100
AcDbLine
 62
7
  6
CONTINUOUS
 10
413.9832230087
 20
226.2786977719
 11
413.9832230087
 21
201.0786977719
  0
LINE
  5
3AD
100
AcDbEntity
  8
0
100
AcDbLine
 62
7
  6
CONTINUOUS
 10
383.7832232057
 20
232.0286955199
 11
382.6832230087
 21
231.9806707347
  0
LINE
  5
3AE
100
AcDbEntity
  8
0
100
AcDbLine
 62
9
  6
CONTINUOUS
 10
382.6832230087
 20
230.726064368
 11
383.7832230087
 21
230.726064368
  0
LINE
  5
3AF
100
AcDbEntity
  8
0
100
AcDbLine
 62
7
  6
CONTINUOUS
 10
383.8832230087
 20
231.8786977719
 11
385.3832230087
 21
231.8786977719
  0
LINE
  5
3B0
100
AcDbEntity
  8
0
100
AcDbLine
 62
9
  6
CONTINUOUS
 10
388.4368128472
 20
232.1013475027
 11
385.4832230087
 21
232.1013475027
  0
LINE
  5
3B1
100
AcDbEntity
  8
0
100
AcDbLine
 62
7
  6
CONTINUOUS
 10
385.3832230087
 20
232.6627500287
 11
383.8832230087
 21
232.6627500287
  0
LINE
  5
3B2
100
AcDbEntity
  8
0
100
AcDbLine
 62
9
  6
CONTINUOUS
 10
385.4832230087
 20
232.9673729065
 11
387.7832230087
 21
232.9673729065
  0
LINE
  5
3B3
100
AcDbEntity
  8
0
100
AcDbLine
 62
7
  6
CONTINUOUS
 10
381.7832230087
 20
233.6126723682
 11
382.5404413669
 21
233.6126723682
  0
LINE
  5
3B4
100
AcDbEntity
  8
0
100
AcDbLine
 62
9
  6
CONTINUOUS
 10
387.7832230087
 20
234.3447231757
 11
385.4832230087
 21
234.3447231757
  0
LINE
  5
3B5
100
AcDbEntity
  8
0
100
AcDbLine
 62
7
  6
CONTINUOUS
 10
381.7832230087
 20
234.4786977719
 11
383.568875783
 21
234.4786977719
  0
LINE
  5
3B6
100
AcDbEntity
  8
0
100
AcDbLine
 62
7
  6
CONTINUOUS
 10
385.4832230087
 20
234.4786977719
 11
387.7832230087
 21
234.4786977719
  0
LINE
  5
3B7
100
AcDbEntity
  8
0
100
AcDbLine
 62
9
  6
CONTINUOUS
 10
387.7832230087
 20
234.8519557044
 11
385.4832230087
 21
234.8519557044
  0
LINE
  5
3B8
100
AcDbEntity
  8
0
100
AcDbLine
 62
7
  6
CONTINUOUS
 10
387.7832230087
 20
235.9286977719
 11
385.4832230087
 21
235.9286977719
  0
LINE
  5
3B9
100
AcDbEntity
  8
0
100
AcDbLine
 62
7
  6
CONTINUOUS
 10
423.5832230087
 20
199.9786977719
 11
423.5832230087
 21
197.0786977719
  0
LINE
  5
3BA
100
AcDbEntity
  8
0
100
AcDbLine
 62
7
  6
CONTINUOUS
 10
435.9832230087
 20
207.7447231757
 11
434.4832230087
 21
206.8786977719
  0
LINE
  5
3BB
100
AcDbEntity
  8
0
100
AcDbLine
 62
7
  6
CONTINUOUS
 10
425.1832230087
 20
195.8786977719
 11
425.1832230087
 21
197.0786977719
  0
LINE
  5
3BC
100
AcDbEntity
  8
0
100
AcDbLine
 62
7
  6
CONTINUOUS
 10
434.4832230087
 20
226.8786977719
 11
435.9832230087
 21
226.0126723682
  0
LINE
  5
3BD
100
AcDbEntity
  8
0
100
AcDbLine
 62
7
  6
CONTINUOUS
 10
429.9832230087
 20
225.1086634559
 11
432.3261079648
 21
223.1427495533
  0
LINE
  5
3BE
100
AcDbEntity
  8
0
100
AcDbLine
 62
9
  6
CONTINUOUS
 10
429.6832230087
 20
197.0786977719
 11
429.6832230087
 21
198.0786977719
  0
LINE
  5
3BF
100
AcDbEntity
  8
0
100
AcDbLine
 62
7
  6
CONTINUOUS
 10
429.9832230087
 20
225.1086634559
 11
429.9832230087
 21
229.6786977719
  0
LINE
  5
3C0
100
AcDbEntity
  8
0
100
AcDbLine
 62
7
  6
CONTINUOUS
 10
430.0832230087
 20
198.4786977719
 11
430.0832230087
 21
197.0786977719
  0
LINE
  5
3C1
100
AcDbEntity
  8
0
100
AcDbLine
 62
7
  6
CONTINUOUS
 10
432.9832230087
 20
224.8786977719
 11
432.9832230087
 21
223.4491673305
  0
LINE
  5
3C2
100
AcDbEntity
  8
0
100
AcDbLine
 62
7
  6
CONTINUOUS
 10
430.0832230087
 20
198.4786977719
 11
429.6832230087
 21
198.0786977719
  0
LINE
  5
3C3
100
AcDbEntity
  8
0
100
AcDbLine
 62
7
  6
CONTINUOUS
 10
433.9832230087
 20
197.0786977719
 11
433.9832230087
 21
228.4786977719
  0
LINE
  5
3C4
100
AcDbEntity
  8
0
100
AcDbLine
 62
7
  6
CONTINUOUS
 10
434.4832230087
 20
200.8786977719
 11
434.4832230087
 21
204.8786977719
  0
LINE
  5
3C5
100
AcDbEntity
  8
0
100
AcDbLine
 62
7
  6
CONTINUOUS
 10
434.9832230087
 20
209.1786977719
 11
434.9832230087
 21
211.3786977719
  0
LINE
  5
3C6
100
AcDbEntity
  8
0
100
AcDbLine
 62
7
  6
CONTINUOUS
 10
434.9832230087
 20
222.3786977719
 11
434.9832230087
 21
224.5786977719
  0
LINE
  5
3C7
100
AcDbEntity
  8
0
100
AcDbLine
 62
9
  6
CONTINUOUS
 10
435.7832230087
 20
209.1787470594
 11
435.7832230087
 21
211.3786977719
  0
LINE
  5
3C8
100
AcDbEntity
  8
0
100
AcDbLine
 62
9
  6
CONTINUOUS
 10
435.7832230087
 20
222.3786977719
 11
435.7832230087
 21
224.5786484623
  0
LINE
  5
3C9
100
AcDbEntity
  8
0
100
AcDbLine
 62
7
  6
CONTINUOUS
 10
435.9832230087
 20
224.5786977723
 11
435.9832230087
 21
222.3786977719
  0
LINE
  5
3CA
100
AcDbEntity
  8
0
100
AcDbLine
 62
7
  6
CONTINUOUS
 10
435.9832230087
 20
218.8786977719
 11
435.9832230087
 21
214.8786977719
  0
LINE
  5
3CB
100
AcDbEntity
  8
0
100
AcDbLine
 62
7
  6
CONTINUOUS
 10
435.9832230087
 20
211.3786977719
 11
435.9832230087
 21
209.1786977717
  0
LINE
  5
3CC
100
AcDbEntity
  8
0
100
AcDbLine
 62
9
  6
CONTINUOUS
 10
436.2832230087
 20
225.0786977719
 11
436.2832230087
 21
224.8786977719
  0
LINE
  5
3CD
100
AcDbEntity
  8
0
100
AcDbLine
 62
9
  6
CONTINUOUS
 10
436.2832230089
 20
208.8786977719
 11
436.2832230089
 21
208.6786977719
  0
LINE
  5
3CE
100
AcDbEntity
  8
0
100
AcDbLine
 62
7
  6
CONTINUOUS
 10
436.9832230087
 20
207.7447231757
 11
436.9832230087
 21
208.8786977719
  0
LINE
  5
3CF
100
AcDbEntity
  8
0
100
AcDbLine
 62
7
  6
CONTINUOUS
 10
436.9832230087
 20
224.8786977719
 11
436.9832230087
 21
226.0126723682
  0
ARC
  5
3D0
100
AcDbEntity
  8
0
100
AcDbCircle
 62
7
  6
CONTINUOUS
 10
362.4391987737
 20
199.9286977719
 40
1.0
100
AcDbArc
 50
200.5836094569
 51
270.0
  0
ARC
  5
3D1
100
AcDbEntity
  8
0
100
AcDbCircle
 62
7
  6
CONTINUOUS
 10
373.9832230087
 20
202.6036977719
 40
0.3
100
AcDbArc
 50
270.0
 51
360.0
  0
ARC
  5
3D2
100
AcDbEntity
  8
0
100
AcDbCircle
 62
7
  6
CONTINUOUS
 10
381.0332230087
 20
215.3786977719
 40
0.3
100
AcDbArc
 50
0.0
 51
89.9999999969
  0
ARC
  5
3D3
100
AcDbEntity
  8
0
100
AcDbCircle
 62
7
  6
CONTINUOUS
 10
381.0332230087
 20
210.9786977719
 40
0.3
100
AcDbArc
 50
270.000000003
 51
360.0
  0
ARC
  5
3D4
100
AcDbEntity
  8
0
100
AcDbCircle
 62
7
  6
CONTINUOUS
 10
381.0332230087
 20
200.2537256116
 40
0.3
100
AcDbArc
 50
270.0
 51
360.0
  0
ARC
  5
3D5
100
AcDbEntity
  8
0
100
AcDbCircle
 62
7
  6
CONTINUOUS
 10
375.1649560479
 20
212.1740179365
 40
0.102074872
100
AcDbArc
 50
315.3012108664
 51
330.4724355643
  0
ARC
  5
3D6
100
AcDbEntity
  8
0
100
AcDbCircle
 62
7
  6
CONTINUOUS
 10
375.1649644208
 20
214.1833741881
 40
0.1020713259
100
AcDbArc
 50
29.5572928654
 51
44.7034592967
  0
ARC
  5
3D7
100
AcDbEntity
  8
0
100
AcDbCircle
 62
7
  6
CONTINUOUS
 10
375.1668016524
 20
213.1786977719
 40
0.1
100
AcDbArc
 50
315.0000000001
 51
45.0
  0
ARC
  5
3D8
100
AcDbEntity
  8
0
100
AcDbCircle
 62
7
  6
CONTINUOUS
 10
375.1674244432
 20
214.2811930778
 40
0.0993750687
100
AcDbArc
 50
314.8796976437
 51
45.1473110779
  0
ARC
  5
3D9
100
AcDbEntity
  8
0
100
AcDbCircle
 62
7
  6
CONTINUOUS
 10
375.1674244777
 20
212.0762024518
 40
0.0993750341
100
AcDbArc
 50
314.8526993411
 51
45.1203127622
  0
ARC
  5
3DA
100
AcDbEntity
  8
0
100
AcDbCircle
 62
7
  6
CONTINUOUS
 10
303.5846618288
 20
219.0232269122
 40
71.3083670883
100
AcDbArc
 50
2.3469154603
 51
2.7014020733
  0
ARC
  5
3DB
100
AcDbEntity
  8
0
100
AcDbCircle
 62
7
  6
CONTINUOUS
 10
325.3856143937
 20
220.0587056335
 40
49.4828271615
100
AcDbArc
 50
2.799162678
 51
2.9159345453
  0
ARC
  5
3DC
100
AcDbEntity
  8
0
100
AcDbCircle
 62
7
  6
CONTINUOUS
 10
342.6098118652
 20
220.9657070813
 40
32.234804569
100
AcDbArc
 50
2.8632859874
 51
3.5532148925
  0
ARC
  5
3DD
100
AcDbEntity
  8
0
100
AcDbCircle
 62
7
  6
CONTINUOUS
 10
349.3710023946
 20
221.1898906471
 40
25.5062247803
100
AcDbArc
 50
3.3664255641
 51
3.7142796153
  0
ARC
  5
3DE
100
AcDbEntity
  8
0
100
AcDbCircle
 62
7
  6
CONTINUOUS
 10
356.0956652718
 20
221.623054067
 40
18.7676265683
100
AcDbArc
 50
3.724589006
 51
4.0942386105
  0
ARC
  5
3DF
100
AcDbEntity
  8
0
100
AcDbCircle
 62
7
  6
CONTINUOUS
 10
357.9726715512
 20
221.927926557
 40
16.8418453394
100
AcDbArc
 50
3.525155275
 51
4.2662638721
  0
ARC
  5
3E0
100
AcDbEntity
  8
0
100
AcDbCircle
 62
7
  6
CONTINUOUS
 10
364.1235822321
 20
222.3872634857
 40
10.6738073821
100
AcDbArc
 50
4.2636428103
 51
4.7906976598
  0
ARC
  5
3E1
100
AcDbEntity
  8
0
100
AcDbCircle
 62
7
  6
CONTINUOUS
 10
368.4354276207
 20
222.5993455442
 40
6.3889396935
100
AcDbArc
 50
5.2635230481
 51
5.954739204
  0
ARC
  5
3E2
100
AcDbEntity
  8
0
100
AcDbCircle
 62
7
  6
CONTINUOUS
 10
369.9477763177
 20
222.7541745156
 40
4.8686898645
100
AcDbArc
 50
5.9888877625
 51
6.1555144459
  0
ARC
  5
3E3
100
AcDbEntity
  8
0
100
AcDbCircle
 62
7
  6
CONTINUOUS
 10
362.4391987737
 20
226.4286977719
 40
1.0
100
AcDbArc
 50
90.0
 51
159.4163905431
  0
ARC
  5
3E4
100
AcDbEntity
  8
0
100
AcDbCircle
 62
7
  6
CONTINUOUS
 10
373.9832230087
 20
223.7536977719
 40
0.3
100
AcDbArc
 50
0.0
 51
90.0
  0
ARC
  5
3E5
100
AcDbEntity
  8
0
100
AcDbCircle
 62
7
  6
CONTINUOUS
 10
381.0332230087
 20
226.1036699323
 40
0.3
100
AcDbArc
 50
0.0
 51
90.0
  0
ARC
  5
3E6
100
AcDbEntity
  8
0
100
AcDbCircle
 62
7
  6
CONTINUOUS
 10
371.8832230087
 20
224.9786977719
 40
0.2
100
AcDbArc
 50
0.0
 51
90.0
  0
ARC
  5
3E7
100
AcDbEntity
  8
0
100
AcDbCircle
 62
7
  6
CONTINUOUS
 10
375.2076975009
 20
225.4701680804
 40
0.1809057051
100
AcDbArc
 50
78.2399154646
 51
80.5138797698
  0
ARC
  5
3E8
100
AcDbEntity
  8
0
100
AcDbCircle
 62
7
  6
CONTINUOUS
 10
462.7516545821
 20
207.9738163786
 40
81.4761018827
100
AcDbArc
 50
182.1556918045
 51
182.6848742098
  0
ARC
  5
3E9
100
AcDbEntity
  8
0
100
AcDbCircle
 62
7
  6
CONTINUOUS
 10
397.7208884499
 20
213.1786977719
 40
38.6876654412
100
AcDbArc
 50
159.4163871889
 51
200.5836128111
  0
ARC
  5
3EA
100
AcDbEntity
  8
0
100
AcDbCircle
 62
7
  6
CONTINUOUS
 10
392.3832230087
 20
212.0786977719
 40
1.0
100
AcDbArc
 50
180.0
 51
270.0
  0
ARC
  5
3EB
100
AcDbEntity
  8
0
100
AcDbCircle
 62
7
  6
CONTINUOUS
 10
393.8832230087
 20
212.0786977719
 40
1.0
100
AcDbArc
 50
270.0
 51
360.0
  0
ARC
  5
3EC
100
AcDbEntity
  8
0
100
AcDbCircle
 62
7
  6
CONTINUOUS
 10
383.2832230087
 20
200.6786977719
 40
0.5
100
AcDbArc
 50
270.0
 51
360.0
  0
ARC
  5
3ED
100
AcDbEntity
  8
0
100
AcDbCircle
 62
9
  6
CONTINUOUS
 10
436.2832230087
 20
209.1786977719
 40
0.4999921667
100
AcDbArc
 50
179.9943520678
 51
270.005648643
  0
ARC
  5
3EE
100
AcDbEntity
  8
0
100
AcDbCircle
 62
7
  6
CONTINUOUS
 10
434.2832230087
 20
214.5786977719
 40
0.3
100
AcDbArc
 50
90.0
 51
180.0
  0
ARC
  5
3EF
100
AcDbEntity
  8
0
100
AcDbCircle
 62
7
  6
CONTINUOUS
 10
436.2832230087
 20
209.1786977719
 40
0.3
100
AcDbArc
 50
180.0000000181
 51
270.0
  0
ARC
  5
3F0
100
AcDbEntity
  8
0
100
AcDbCircle
 62
7
  6
CONTINUOUS
 10
434.6832230087
 20
209.1786977719
 40
0.3
100
AcDbArc
 50
270.0
 51
360.0
  0
ARC
  5
3F1
100
AcDbEntity
  8
0
100
AcDbCircle
 62
7
  6
CONTINUOUS
 10
434.2832230087
 20
209.1786977719
 40
0.3
100
AcDbArc
 50
180.0
 51
270.0
  0
ARC
  5
3F2
100
AcDbEntity
  8
0
100
AcDbCircle
 62
7
  6
CONTINUOUS
 10
434.2832230087
 20
206.5786977719
 40
0.3
100
AcDbArc
 50
90.0
 51
180.0
  0
ARC
  5
3F3
100
AcDbEntity
  8
0
100
AcDbCircle
 62
7
  6
CONTINUOUS
 10
392.3832230087
 20
217.5786977719
 40
1.0
100
AcDbArc
 50
180.0
 51
270.0
  0
ARC
  5
3F4
100
AcDbEntity
  8
0
100
AcDbCircle
 62
7
  6
CONTINUOUS
 10
393.8832230087
 20
217.5786977719
 40
1.0
100
AcDbArc
 50
270.0
 51
360.0
  0
ARC
  5
3F5
100
AcDbEntity
  8
0
100
AcDbCircle
 62
7
  6
CONTINUOUS
 10
393.8832230087
 20
223.5786977719
 40
1.0
100
AcDbArc
 50
0.0
 51
90.0
  0
ARC
  5
3F6
100
AcDbEntity
  8
0
100
AcDbCircle
 62
7
  6
CONTINUOUS
 10
392.3832230087
 20
223.5786977719
 40
1.0
100
AcDbArc
 50
90.0
 51
180.0
  0
ARC
  5
3F7
100
AcDbEntity
  8
0
100
AcDbCircle
 62
9
  6
CONTINUOUS
 10
384.5506396074
 20
230.7467164207
 40
0.7713620047
100
AcDbArc
 50
204.8289397838
 51
209.9319176194
  0
ARC
  5
3F8
100
AcDbEntity
  8
0
100
AcDbCircle
 62
9
  6
CONTINUOUS
 10
384.5199379022
 20
230.7325185969
 40
0.7375363803
100
AcDbArc
 50
194.7558468241
 51
204.8294458718
  0
ARC
  5
3F9
100
AcDbEntity
  8
0
100
AcDbCircle
 62
9
  6
CONTINUOUS
 10
384.506104948
 20
230.7282920893
 40
0.7230833633
100
AcDbArc
 50
194.0953124142
 51
194.7111680006
  0
ARC
  5
3FA
100
AcDbEntity
  8
0
100
AcDbCircle
 62
9
  6
CONTINUOUS
 10
384.5017792562
 20
230.727275217
 40
0.7186402682
100
AcDbArc
 50
188.3569577418
 51
194.1006704535
  0
ARC
  5
3FB
100
AcDbEntity
  8
0
100
AcDbCircle
 62
9
  6
CONTINUOUS
 10
384.4955290962
 20
230.7262508846
 40
0.7123076052
100
AcDbArc
 50
180.5887332777
 51
188.3485071448
  0
ARC
  5
3FC
100
AcDbEntity
  8
0
100
AcDbCircle
 62
7
  6
CONTINUOUS
 10
384.4832230087
 20
230.7286977719
 40
0.7
100
AcDbArc
 50
180.812979635
 51
210.0
  0
ARC
  5
3FD
100
AcDbEntity
  8
0
100
AcDbCircle
 62
9
  6
CONTINUOUS
 10
436.2832230087
 20
224.5786977719
 40
0.4999921642
100
AcDbArc
 50
89.9943502398
 51
180.0056504699
  0
ARC
  5
3FE
100
AcDbEntity
  8
0
100
AcDbCircle
 62
7
  6
CONTINUOUS
 10
432.5832230087
 20
223.4491673305
 40
0.4
100
AcDbArc
 50
230.0000000014
 51
360.0
  0
ARC
  5
3FF
100
AcDbEntity
  8
0
100
AcDbCircle
 62
7
  6
CONTINUOUS
 10
388.0832230087
 20
232.6773059234
 40
0.3
100
AcDbArc
 50
196.8294595867
 51
247.0112832068
  0
ARC
  5
400
100
AcDbEntity
  8
0
100
AcDbCircle
 62
7
  6
CONTINUOUS
 10
388.0832230087
 20
232.6519028527
 40
0.3
100
AcDbArc
 50
180.0
 51
240.0
  0
ARC
  5
401
100
AcDbEntity
  8
0
100
AcDbCircle
 62
7
  6
CONTINUOUS
 10
434.2832230087
 20
219.1786977719
 40
0.3
100
AcDbArc
 50
180.0
 51
270.0
  0
ARC
  5
402
100
AcDbEntity
  8
0
100
AcDbCircle
 62
7
  6
CONTINUOUS
 10
436.2832230087
 20
224.5786977719
 40
0.3
100
AcDbArc
 50
90.0
 51
179.9999999636
  0
ARC
  5
403
100
AcDbEntity
  8
0
100
AcDbCircle
 62
7
  6
CONTINUOUS
 10
434.2832230087
 20
227.1786977719
 40
0.3
100
AcDbArc
 50
180.0
 51
270.0
  0
ARC
  5
404
100
AcDbEntity
  8
0
100
AcDbCircle
 62
7
  6
CONTINUOUS
 10
434.2832230087
 20
224.5786977719
 40
0.3
100
AcDbArc
 50
90.0
 51
180.0
  0
ARC
  5
405
100
AcDbEntity
  8
0
100
AcDbCircle
 62
7
  6
CONTINUOUS
 10
434.6832230087
 20
224.5786977719
 40
0.3
100
AcDbArc
 50
0.0
 51
90.0
  0
SPLINE
  5
406
100
AcDbEntity
  8
0
100
AcDbSpline
 62
7
  6
CONTINUOUS
 70
0
 71
3
 72
21
 73
17
 74
0
 42
0.0000001
 43
0.0000001
 44
0.0000000001
 40
0.0
 40
0.0
 40
0.0
 40
0.0
 40
0.1244057234
 40
0.186366634
 40
0.2479405153
 40
0.3088677514
 40
0.3688334313
 40
0.4277395783
 40
0.486258445
 40
0.5458247072
 40
0.6073750619
 40
0.670759407
 40
0.73542056
 40
0.800901679
 40
0.8669241006
 40
1.0
 40
1.0
 40
1.0
 40
1.0
 10
372.2303617705
 20
220.3519691058
 30
0.0
 10
372.4122558256
 20
220.2450284952
 30
0.0
 10
372.681415024
 20
220.0787627862
 30
0.0
 10
373.025227907
 20
219.8363585723
 30
0.0
 10
373.2700716805
 20
219.6411784963
 30
0.0
 10
373.4946996499
 20
219.4274601909
 30
0.0
 10
373.6858643586
 20
219.1880159638
 30
0.0
 10
373.8212662835
 20
218.9157113854
 30
0.0
 10
373.8718233413
 20
218.6143283118
 30
0.0
 10
373.8198167105
 20
218.3089800794
 30
0.0
 10
373.6848821588
 20
218.0236259076
 30
0.0
 10
373.4942981509
 20
217.7631336567
 30
0.0
 10
373.2698391813
 20
217.523014663
 30
0.0
 10
373.0249849144
 20
217.2974735651
 30
0.0
 10
372.680618526
 20
217.0095907121
 30
0.0
 10
372.4117250428
 20
216.8050711363
 30
0.0
 10
372.2303618311
 20
216.6707169142
 30
0.0
  0
SPLINE
  5
407
100
AcDbEntity
  8
0
100
AcDbSpline
 62
7
  6
CONTINUOUS
 70
0
 71
3
 72
9
 73
5
 74
0
 42
0.0000001
 43
0.0000001
 44
0.0000000001
 40
0.0
 40
0.0
 40
0.0
 40
0.0
 40
0.502361574
 40
1.0
 40
1.0
 40
1.0
 40
1.0
 10
372.0263223665
 20
216.5991148415
 30
0.0
 10
372.0630043835
 20
216.5991148794
 30
0.0
 10
372.1365373858
 20
216.6127854164
 30
0.0
 10
372.201161827
 20
216.6490894485
 30
0.0
 10
372.2303618311
 20
216.6707169142
 30
0.0
  0
SPLINE
  5
408
100
AcDbEntity
  8
0
100
AcDbSpline
 62
7
  6
CONTINUOUS
 70
0
 71
3
 72
9
 73
5
 74
0
 42
0.0000001
 43
0.0000001
 44
0.0000000001
 40
0.0
 40
0.0
 40
0.0
 40
0.0
 40
0.4879883154
 40
1.0
 40
1.0
 40
1.0
 40
1.0
 10
372.2303617705
 20
220.3519691058
 30
0.0
 10
372.2004016135
 20
220.3695748376
 30
0.0
 10
372.1343574302
 20
220.3983554264
 30
0.0
 10
372.0627833262
 20
220.4085456644
 30
0.0
 10
372.0263224505
 20
220.4085551967
 30
0.0
  0
SPLINE
  5
409
100
AcDbEntity
  8
0
100
AcDbSpline
 62
9
  6
CONTINUOUS
 70
0
 71
3
 72
28
 73
24
 74
0
 42
0.0000001
 43
0.0000001
 44
0.0000000001
 40
0.0
 40
0.0
 40
0.0
 40
0.0
 40
0.0002868206
 40
0.0011534051
 40
0.0026020852
 40
0.0046324787
 40
0.0072439071
 40
0.010435612
 40
0.018556676
 40
0.0289892287
 40
0.041726542
 40
0.0567470963
 40
0.0740045264
 40
0.115034994
 40
0.1644278776
 40
0.2217930793
 40
0.286720424
 40
0.3586349654
 40
0.4368809275
 40
0.520801977
 40
0.6097400628
 40
0.7996404128
 40
1.0
 40
1.0
 40
1.0
 40
1.0
 10
372.2293456843
 20
203.4364324049
 30
0.0
 10
372.229097058
 20
203.436385465
 30
0.0
 10
372.2293551603
 20
203.4381008213
 30
0.0
 10
372.2288847906
 20
203.4397116725
 30
0.0
 10
372.2289602763
 20
203.4439333083
 30
0.0
 10
372.2287479699
 20
203.4491319443
 30
0.0
 10
372.2286632392
 20
203.4561082328
 30
0.0
 10
372.228481199
 20
203.4683584173
 30
0.0
 10
372.2283112029
 20
203.4875611597
 30
0.0
 10
372.228121287
 20
203.5151546888
 30
0.0
 10
372.227958105
 20
203.5488472428
 30
0.0
 10
372.2278120103
 20
203.5885560658
 30
0.0
 10
372.2276341211
 20
203.6532252934
 30
0.0
 10
372.2274728941
 20
203.7482153994
 30
0.0
 10
372.2273593158
 20
203.87858702
 30
0.0
 10
372.227315188
 20
204.0300391372
 30
0.0
 10
372.2273364207
 20
204.2013587693
 30
0.0
 10
372.2274262226
 20
204.39109831
 30
0.0
 10
372.2275891607
 20
204.5975930928
 30
0.0
 10
372.2278294173
 20
204.8191051133
 30
0.0
 10
372.22826722
 20
205.1391127888
 30
0.0
 10
372.2290334302
 20
205.5618362498
 30
0.0
 10
372.2298990985
 20
205.906102676
 30
0.0
 10
372.2304198837
 20
206.0828489481
 30
0.0
  0
SPLINE
  5
40A
100
AcDbEntity
  8
0
100
AcDbSpline
 62
7
  6
CONTINUOUS
 70
0
 71
3
 72
9
 73
5
 74
0
 42
0.0000001
 43
0.0000001
 44
0.0000000001
 40
0.0
 40
0.0
 40
0.0
 40
0.0
 40
0.4883936448
 40
1.0
 40
1.0
 40
1.0
 40
1.0
 10
372.2303617706
 20
206.0828439487
 30
0.0
 10
372.200405297
 20
206.1005924528
 30
0.0
 10
372.1344605159
 20
206.129782937
 30
0.0
 10
372.0627969065
 20
206.1402316419
 30
0.0
 10
372.0263224505
 20
206.140241373
 30
0.0
  0
SPLINE
  5
40B
100
AcDbEntity
  8
0
100
AcDbSpline
 62
9
  6
CONTINUOUS
 70
0
 71
3
 72
13
 73
9
 74
0
 42
0.0000001
 43
0.0000001
 44
0.0000000001
 40
0.0
 40
0.0
 40
0.0
 40
0.0
 40
0.0519743469
 40
0.1341343395
 40
0.2430197477
 40
0.3740363188
 40
0.6796645302
 40
1.0
 40
1.0
 40
1.0
 40
1.0
 10
372.0264272319
 20
220.4085555
 30
0.0
 10
372.0276815031
 20
220.3425693467
 30
0.0
 10
372.0285567642
 20
220.1722377952
 30
0.0
 10
372.0301605128
 20
219.8636547655
 30
0.0
 10
372.0308098862
 20
219.4546920632
 30
0.0
 10
372.0312292281
 20
218.7619678284
 30
0.0
 10
372.0299032769
 20
217.8007390349
 30
0.0
 10
372.028126258
 20
217.0058788844
 30
0.0
 10
372.0263259939
 20
216.5991144347
 30
0.0
  0
SPLINE
  5
40C
100
AcDbEntity
  8
0
100
AcDbSpline
 62
7
  6
CONTINUOUS
 70
0
 71
3
 72
22
 73
18
 74
0
 42
0.0000001
 43
0.0000001
 44
0.0000000001
 40
0.0
 40
0.0
 40
0.0
 40
0.0
 40
0.1461892033
 40
0.2180216772
 40
0.2886108287
 40
0.3574411459
 40
0.4237053492
 40
0.4862079285
 40
0.5436530993
 40
0.5957814857
 40
0.6206068911
 40
0.6452499186
 40
0.6959075088
 40
0.7505411457
 40
0.8092238664
 40
0.8709633016
 40
1.0
 40
1.0
 40
1.0
 40
1.0
 10
372.2303617706
 20
206.0828439487
 30
0.0
 10
372.3857956601
 20
205.9907096778
 30
0.0
 10
372.6167523884
 20
205.8518047585
 30
0.0
 10
372.9175231459
 20
205.6599567068
 30
0.0
 10
373.1337564679
 20
205.5135168748
 30
0.0
 10
373.3381227099
 20
205.3621197393
 30
0.0
 10
373.524552894
 20
205.2039402628
 30
0.0
 10
373.683567288
 20
205.0365752049
 30
0.0
 10
373.8022626104
 20
204.8582641474
 30
0.0
 10
373.8541632418
 20
204.6967879547
 30
0.0
 10
373.8563056382
 20
204.5704126451
 30
0.0
 10
373.8336539184
 20
204.447951
 30
0.0
 10
373.7592870768
 20
204.3019051783
 30
0.0
 10
373.6207034833
 20
204.1520439342
 30
0.0
 10
373.4484133402
 20
204.0200863642
 30
0.0
 10
373.1845537319
 20
203.8599202831
 30
0.0
 10
372.9707380349
 20
203.7591260403
 30
0.0
 10
372.8243309007
 20
203.6958687044
 30
0.0
  0
SPLINE
  5
40D
100
AcDbEntity
  8
0
100
AcDbSpline
 62
9
  6
CONTINUOUS
 70
0
 71
3
 72
28
 73
24
 74
0
 42
0.0000001
 43
0.0000001
 44
0.0000000001
 40
0.0
 40
0.0
 40
0.0
 40
0.0
 40
0.1994357547
 40
0.3888288546
 40
0.477701313
 40
0.5616683618
 40
0.639991412
 40
0.7120037915
 40
0.7770790026
 40
0.8346642784
 40
0.8842538403
 40
0.9254290148
 40
0.9427423858
 40
0.95782602
 40
0.9706481218
 40
0.9811771771
 40
0.9893897161
 40
0.9926229131
 40
0.99527186
 40
0.9973349548
 40
0.9988107061
 40
0.9996980285
 40
1.0
 40
1.0
 40
1.0
 40
1.0
 10
372.0264272319
 20
206.1402416817
 30
0.0
 10
372.0272020318
 20
205.9576690525
 30
0.0
 10
372.0281670848
 20
205.6017152088
 30
0.0
 10
372.029399227
 20
205.1644033815
 30
0.0
 10
372.0301133263
 20
204.8327968146
 30
0.0
 10
372.0305135547
 20
204.6028693741
 30
0.0
 10
372.0308014144
 20
204.3883764018
 30
0.0
 10
372.0309704134
 20
204.1911779202
 30
0.0
 10
372.0310155833
 20
204.0129638351
 30
0.0
 10
372.0309382015
 20
203.8552768588
 30
0.0
 10
372.0307391901
 20
203.7194692605
 30
0.0
 10
372.030467602
 20
203.6205292875
 30
0.0
 10
372.0301787158
 20
203.5531775313
 30
0.0
 10
372.0299446207
 20
203.5117831262
 30
0.0
 10
372.0296836778
 20
203.4765959429
 30
0.0
 10
372.0293855023
 20
203.4477101919
 30
0.0
 10
372.0291125488
 20
203.4275770039
 30
0.0
 10
372.0288460286
 20
203.4147041485
 30
0.0
 10
372.0287036915
 20
203.4073743494
 30
0.0
 10
372.028439911
 20
203.4018633978
 30
0.0
 10
372.0284629054
 20
203.397472778
 30
0.0
 10
372.0279556125
 20
203.3956407723
 30
0.0
 10
372.0281841771
 20
203.3939281251
 30
0.0
 10
372.0279077753
 20
203.3939327845
 30
0.0
  0
SPLINE
  5
40E
100
AcDbEntity
  8
0
100
AcDbSpline
 62
9
  6
CONTINUOUS
 70
0
 71
3
 72
12
 73
8
 74
0
 42
0.0000001
 43
0.0000001
 44
0.0000000001
 40
0.0
 40
0.0
 40
0.0
 40
0.0
 40
0.3191377057
 40
0.6228595755
 40
0.8626138051
 40
0.9458777732
 40
1.0
 40
1.0
 40
1.0
 40
1.0
 10
372.2304198977
 20
216.6707254826
 30
0.0
 10
372.2292250068
 20
217.0623289321
 30
0.0
 10
372.2278012041
 20
217.8266225081
 30
0.0
 10
372.227185665
 20
218.8851118272
 30
0.0
 10
372.2274221827
 20
219.6541694759
 30
0.0
 10
372.2287128257
 20
220.116945278
 30
0.0
 10
372.2296076536
 20
220.2855279403
 30
0.0
 10
372.230419897
 20
220.351934898
 30
0.0
  0
SPLINE
  5
40F
100
AcDbEntity
  8
0
100
AcDbSpline
 62
7
  6
CONTINUOUS
 70
0
 71
3
 72
11
 73
7
 74
0
 42
0.0000001
 43
0.0000001
 44
0.0000000001
 40
0.0
 40
0.0
 40
0.0
 40
0.0
 40
0.0847132502
 40
0.2798618803
 40
0.5893427821
 40
1.0
 40
1.0
 40
1.0
 40
1.0
 10
375.2667995087
 20
200.5768348411
 30
0.0
 10
375.2667995083
 20
200.5776930946
 30
0.0
 10
375.2635012647
 20
200.5792537948
 30
0.0
 10
375.2582946986
 20
200.5805000382
 30
0.0
 10
375.2488108337
 20
200.5820621377
 30
0.0
 10
375.2416550424
 20
200.5828104305
 30
0.0
 10
375.2375123305
 20
200.5831945607
 30
0.0
  0
SPLINE
  5
410
100
AcDbEntity
  8
0
100
AcDbSpline
 62
7
  6
CONTINUOUS
 70
0
 71
3
 72
9
 73
5
 74
0
 42
0.0000001
 43
0.0000001
 44
0.0000000001
 40
0.0
 40
0.0
 40
0.0
 40
0.0
 40
0.3113097413
 40
1.0
 40
1.0
 40
1.0
 40
1.0
 10
375.2667995087
 20
200.7208796963
 30
0.0
 10
375.266799508
 20
200.7242597543
 30
0.0
 10
375.254007833
 20
200.7302487899
 30
0.0
 10
375.244872628
 20
200.732034484
 30
0.0
 10
375.2375123305
 20
200.7333531043
 30
0.0
  0
SPLINE
  5
411
100
AcDbEntity
  8
0
100
AcDbSpline
 62
7
  6
CONTINUOUS
 70
0
 71
3
 72
9
 73
5
 74
0
 42
0.0000001
 43
0.0000001
 44
0.0000000001
 40
0.0
 40
0.0
 40
0.0
 40
0.0
 40
0.3498201127
 40
1.0
 40
1.0
 40
1.0
 40
1.0
 10
375.2667995087
 20
200.9597360694
 30
0.0
 10
375.2667995081
 20
200.9639141088
 30
0.0
 10
375.2559293646
 20
200.9733065879
 30
0.0
 10
375.2450200439
 20
200.9762445592
 30
0.0
 10
375.2375123305
 20
200.9782282355
 30
0.0
  0
SPLINE
  5
412
100
AcDbEntity
  8
0
100
AcDbSpline
 62
7
  6
CONTINUOUS
 70
0
 71
3
 72
9
 73
5
 74
0
 42
0.0000001
 43
0.0000001
 44
0.0000000001
 40
0.0
 40
0.0
 40
0.0
 40
0.0
 40
0.3834978761
 40
1.0
 40
1.0
 40
1.0
 40
1.0
 10
375.2667995087
 20
201.291586119
 30
0.0
 10
375.2667995082
 20
201.2966481294
 30
0.0
 10
375.2574239697
 20
201.3085600721
 30
0.0
 10
375.2451995564
 20
201.3132867415
 30
0.0
 10
375.2375123305
 20
201.3159563067
 30
0.0
  0
SPLINE
  5
413
100
AcDbEntity
  8
0
100
AcDbSpline
 62
7
  6
CONTINUOUS
 70
0
 71
3
 72
9
 73
5
 74
0
 42
0.0000001
 43
0.0000001
 44
0.0000000001
 40
0.0
 40
0.0
 40
0.0
 40
0.0
 40
0.1949418327
 40
1.0
 40
1.0
 40
1.0
 40
1.0
 10
375.2667995087
 20
201.7139042659
 30
0.0
 10
375.2667995085
 20
201.7167288086
 30
0.0
 10
375.2629264819
 20
201.7312810568
 30
0.0
 10
375.2482372435
 20
201.7393801255
 30
0.0
 10
375.2375123305
 20
201.7439670034
 30
0.0
  0
SPLINE
  5
414
100
AcDbEntity
  8
0
100
AcDbSpline
 62
7
  6
CONTINUOUS
 70
0
 71
3
 72
9
 73
5
 74
0
 42
0.0000001
 43
0.0000001
 44
0.0000000001
 40
0.0
 40
0.0
 40
0.0
 40
0.0
 40
0.4318675877
 40
1.0
 40
1.0
 40
1.0
 40
1.0
 10
375.2667995087
 20
202.2234764141
 30
0.0
 10
375.2667995082
 20
202.2303553579
 30
0.0
 10
375.2593525675
 20
202.2460897477
 30
0.0
 10
375.2455906742
 20
202.2549246269
 30
0.0
 10
375.2375123305
 20
202.2590029057
 30
0.0
  0
SPLINE
  5
415
100
AcDbEntity
  8
0
100
AcDbSpline
 62
7
  6
CONTINUOUS
 70
0
 71
3
 72
9
 73
5
 74
0
 42
0.0000001
 43
0.0000001
 44
0.0000000001
 40
0.0
 40
0.0
 40
0.0
 40
0.0
 40
0.4482823956
 40
1.0
 40
1.0
 40
1.0
 40
1.0
 10
375.2667995087
 20
202.8164244117
 30
0.0
 10
375.2667995082
 20
202.824182545
 30
0.0
 10
375.2599549744
 20
202.8415149778
 30
0.0
 10
375.2457784479
 20
202.8523651792
 30
0.0
 10
375.2375123305
 20
202.8571442795
 30
0.0
  0
SPLINE
  5
416
100
AcDbEntity
  8
0
100
AcDbSpline
 62
7
  6
CONTINUOUS
 70
0
 71
3
 72
9
 73
5
 74
0
 42
0.0000001
 43
0.0000001
 44
0.0000000001
 40
0.0
 40
0.0
 40
0.0
 40
0.0
 40
0.4609738058
 40
1.0
 40
1.0
 40
1.0
 40
1.0
 10
375.2667995087
 20
203.4882355665
 30
0.0
 10
375.2667995082
 20
203.4968318274
 30
0.0
 10
375.2604008442
 20
203.5156276095
 30
0.0
 10
375.2459514678
 20
203.5283781977
 30
0.0
 10
375.2375123305
 20
203.5338389076
 30
0.0
  0
SPLINE
  5
417
100
AcDbEntity
  8
0
100
AcDbSpline
 62
7
  6
CONTINUOUS
 70
0
 71
3
 72
9
 73
5
 74
0
 42
0.0000001
 43
0.0000001
 44
0.0000000001
 40
0.0
 40
0.0
 40
0.0
 40
0.0
 40
0.4708169319
 40
1.0
 40
1.0
 40
1.0
 40
1.0
 10
375.2667995087
 20
204.2337969899
 30
0.0
 10
375.2667995082
 20
204.2431791322
 30
0.0
 10
375.260732885
 20
204.2633195836
 30
0.0
 10
375.2461064282
 20
204.2778258214
 30
0.0
 10
375.2375123305
 20
204.2839367354
 30
0.0
  0
SPLINE
  5
418
100
AcDbEntity
  8
0
100
AcDbSpline
 62
7
  6
CONTINUOUS
 70
0
 71
3
 72
9
 73
5
 74
0
 42
0.0000001
 43
0.0000001
 44
0.0000000001
 40
0.0
 40
0.0
 40
0.0
 40
0.0
 40
0.4784789771
 40
1.0
 40
1.0
 40
1.0
 40
1.0
 10
375.2667995087
 20
205.0474345094
 30
0.0
 10
375.2667995082
 20
205.0575412403
 30
0.0
 10
375.2609816874
 20
205.0789101707
 30
0.0
 10
375.2462420742
 20
205.0950103271
 30
0.0
 10
375.2375123305
 20
205.1017290656
 30
0.0
  0
SPLINE
  5
419
100
AcDbEntity
  8
0
100
AcDbSpline
 62
7
  6
CONTINUOUS
 70
0
 71
3
 72
9
 73
5
 74
0
 42
0.0000001
 43
0.0000001
 44
0.0000000001
 40
0.0
 40
0.0
 40
0.0
 40
0.0
 40
0.4844555316
 40
1.0
 40
1.0
 40
1.0
 40
1.0
 10
375.2667995087
 20
205.9229558521
 30
0.0
 10
375.2667995082
 20
205.9337183275
 30
0.0
 10
375.2611690225
 20
205.9561953828
 30
0.0
 10
375.2463584336
 20
205.9737173386
 30
0.0
 10
375.2375123305
 20
205.9809920045
 30
0.0
  0
SPLINE
  5
41A
100
AcDbEntity
  8
0
100
AcDbSpline
 62
7
  6
CONTINUOUS
 70
0
 71
3
 72
9
 73
5
 74
0
 42
0.0000001
 43
0.0000001
 44
0.0000000001
 40
0.0
 40
0.0
 40
0.0
 40
0.0
 40
0.4891105956
 40
1.0
 40
1.0
 40
1.0
 40
1.0
 10
375.2667995087
 20
206.8536977719
 30
0.0
 10
375.2667995082
 20
206.8650407605
 30
0.0
 10
375.2613103423
 20
206.8884985049
 30
0.0
 10
375.2464562415
 20
206.9072631788
 30
0.0
 10
375.2375123305
 20
206.9150338305
 30
0.0
  0
SPLINE
  5
41B
100
AcDbEntity
  8
0
100
AcDbSpline
 62
7
  6
CONTINUOUS
 70
0
 71
3
 72
9
 73
5
 74
0
 42
0.0000001
 43
0.0000001
 44
0.0000000001
 40
0.0
 40
0.0
 40
0.0
 40
0.0
 40
0.4927099939
 40
1.0
 40
1.0
 40
1.0
 40
1.0
 10
375.2667995087
 20
207.8325767609
 30
0.0
 10
375.2667995082
 20
207.8444196337
 30
0.0
 10
375.261416596
 20
207.8687226932
 30
0.0
 10
375.2465365468
 20
207.8885458851
 30
0.0
 10
375.2375123305
 20
207.8967459212
 30
0.0
  0
SPLINE
  5
41C
100
AcDbEntity
  8
0
100
AcDbSpline
 62
7
  6
CONTINUOUS
 70
0
 71
3
 72
9
 73
5
 74
0
 42
0.0000001
 43
0.0000001
 44
0.0000000001
 40
0.0
 40
0.0
 40
0.0
 40
0.0
 40
0.4954466731
 40
1.0
 40
1.0
 40
1.0
 40
1.0
 10
375.2667995087
 20
208.8521429589
 30
0.0
 10
375.2667995082
 20
208.8644005872
 30
0.0
 10
375.2614955161
 20
208.8894059362
 30
0.0
 10
375.2466004601
 20
208.9100994314
 30
0.0
 10
375.2375123305
 20
208.9186568548
 30
0.0
  0
SPLINE
  5
41D
100
AcDbEntity
  8
0
100
AcDbSpline
 62
7
  6
CONTINUOUS
 70
0
 71
3
 72
9
 73
5
 74
0
 42
0.0000001
 43
0.0000001
 44
0.0000000001
 40
0.0
 40
0.0
 40
0.0
 40
0.0
 40
0.497458982
 40
1.0
 40
1.0
 40
1.0
 40
1.0
 10
375.2667995087
 20
209.9046368514
 30
0.0
 10
375.2667995082
 20
209.9172204567
 30
0.0
 10
375.2615525125
 20
209.9427783429
 30
0.0
 10
375.2466490017
 20
209.9641507068
 30
0.0
 10
375.2375123305
 20
209.972989272
 30
0.0
  0
SPLINE
  5
41E
100
AcDbEntity
  8
0
100
AcDbSpline
 62
7
  6
CONTINUOUS
 70
0
 71
3
 72
9
 73
5
 74
0
 42
0.0000001
 43
0.0000001
 44
0.0000000001
 40
0.0
 40
0.0
 40
0.0
 40
0.0
 40
0.4988434813
 40
1.0
 40
1.0
 40
1.0
 40
1.0
 10
375.2667995087
 20
210.9820483244
 30
0.0
 10
375.2667995082
 20
210.9948663041
 30
0.0
 10
375.2615912826
 20
211.0208215287
 30
0.0
 10
375.2466830147
 20
211.042678804
 30
0.0
 10
375.2375123305
 20
211.0517190666
 30
0.0
  0
SPLINE
  5
41F
100
AcDbEntity
  8
0
100
AcDbSpline
 62
7
  6
CONTINUOUS
 70
0
 71
3
 72
9
 73
5
 74
0
 42
0.0000001
 43
0.0000001
 44
0.0000000001
 40
0.0
 40
0.0
 40
0.0
 40
0.0
 40
0.501156518
 40
1.0
 40
1.0
 40
1.0
 40
1.0
 10
375.2375123535
 20
215.3056764999
 30
0.0
 10
375.246683034
 20
215.3147167589
 30
0.0
 10
375.2615912902
 20
215.3365740306
 30
0.0
 10
375.2667995092
 20
215.3625292448
 30
0.0
 10
375.2667995087
 20
215.3753472194
 30
0.0
  0
SPLINE
  5
420
100
AcDbEntity
  8
0
100
AcDbSpline
 62
7
  6
CONTINUOUS
 70
0
 71
3
 72
9
 73
5
 74
0
 42
0.0000001
 43
0.0000001
 44
0.0000000001
 40
0.0
 40
0.0
 40
0.0
 40
0.0
 40
0.5025410169
 40
1.0
 40
1.0
 40
1.0
 40
1.0
 10
375.2375123535
 20
216.3844062941
 30
0.0
 10
375.246649021
 20
216.3932448558
 30
0.0
 10
375.2615525201
 20
216.4146172162
 30
0.0
 10
375.2667995092
 20
216.4401750921
 30
0.0
 10
375.2667995087
 20
216.4527586925
 30
0.0
  0
SPLINE
  5
421
100
AcDbEntity
  8
0
100
AcDbSpline
 62
7
  6
CONTINUOUS
 70
0
 71
3
 72
9
 73
5
 74
0
 42
0.0000001
 43
0.0000001
 44
0.0000000001
 40
0.0
 40
0.0
 40
0.0
 40
0.0
 40
0.5045533251
 40
1.0
 40
1.0
 40
1.0
 40
1.0
 10
375.2375123535
 20
217.4387387107
 30
0.0
 10
375.2466004794
 20
217.4472961307
 30
0.0
 10
375.2614955239
 20
217.4679896226
 30
0.0
 10
375.2667995092
 20
217.4929949615
 30
0.0
 10
375.2667995087
 20
217.505252585
 30
0.0
  0
SPLINE
  5
422
100
AcDbEntity
  8
0
100
AcDbSpline
 62
7
  6
CONTINUOUS
 70
0
 71
3
 72
9
 73
5
 74
0
 42
0.0000001
 43
0.0000001
 44
0.0000000001
 40
0.0
 40
0.0
 40
0.0
 40
0.0
 40
0.5072900034
 40
1.0
 40
1.0
 40
1.0
 40
1.0
 10
375.2375123535
 20
218.4606496436
 30
0.0
 10
375.2465365661
 20
218.4688496763
 30
0.0
 10
375.261416604
 20
218.4886728652
 30
0.0
 10
375.2667995092
 20
218.5129759149
 30
0.0
 10
375.2667995087
 20
218.524818783
 30
0.0
  0
SPLINE
  5
423
100
AcDbEntity
  8
0
100
AcDbSpline
 62
7
  6
CONTINUOUS
 70
0
 71
3
 72
9
 73
5
 74
0
 42
0.0000001
 43
0.0000001
 44
0.0000000001
 40
0.0
 40
0.0
 40
0.0
 40
0.0
 40
0.5108894005
 40
1.0
 40
1.0
 40
1.0
 40
1.0
 10
375.2375123535
 20
219.4423617333
 30
0.0
 10
375.2464562608
 20
219.4501323818
 30
0.0
 10
375.2613103504
 20
219.468897053
 30
0.0
 10
375.2667995092
 20
219.492354788
 30
0.0
 10
375.2667995087
 20
219.5036977719
 30
0.0
  0
SPLINE
  5
424
100
AcDbEntity
  8
0
100
AcDbSpline
 62
7
  6
CONTINUOUS
 70
0
 71
3
 72
9
 73
5
 74
0
 42
0.0000001
 43
0.0000001
 44
0.0000000001
 40
0.0
 40
0.0
 40
0.0
 40
0.0
 40
0.5155444633
 40
1.0
 40
1.0
 40
1.0
 40
1.0
 10
375.2375123535
 20
220.3764035582
 30
0.0
 10
375.2463584528
 20
220.383678221
 30
0.0
 10
375.2611690309
 20
220.4012001746
 30
0.0
 10
375.2667995092
 20
220.4236772208
 30
0.0
 10
375.2667995087
 20
220.4344396918
 30
0.0
  0
SPLINE
  5
425
100
AcDbEntity
  8
0
100
AcDbSpline
 62
7
  6
CONTINUOUS
 70
0
 71
3
 72
9
 73
5
 74
0
 42
0.0000001
 43
0.0000001
 44
0.0000000001
 40
0.0
 40
0.0
 40
0.0
 40
0.0
 40
0.5215210162
 40
1.0
 40
1.0
 40
1.0
 40
1.0
 10
375.2375123535
 20
221.255666496
 30
0.0
 10
375.2462420934
 20
221.2623852315
 30
0.0
 10
375.2609816961
 20
221.278485386
 30
0.0
 10
375.2667995092
 20
221.2998543078
 30
0.0
 10
375.2667995087
 20
221.3099610345
 30
0.0
  0
SPLINE
  5
426
100
AcDbEntity
  8
0
100
AcDbSpline
 62
7
  6
CONTINUOUS
 70
0
 71
3
 72
9
 73
5
 74
0
 42
0.0000001
 43
0.0000001
 44
0.0000000001
 40
0.0
 40
0.0
 40
0.0
 40
0.0
 40
0.5291830598
 40
1.0
 40
1.0
 40
1.0
 40
1.0
 10
375.2375123535
 20
222.0734588248
 30
0.0
 10
375.2461064473
 20
222.079569736
 30
0.0
 10
375.260732894
 20
222.0940759724
 30
0.0
 10
375.2667995092
 20
222.1142164157
 30
0.0
 10
375.2667995087
 20
222.1235985539
 30
0.0
  0
SPLINE
  5
427
100
AcDbEntity
  8
0
100
AcDbSpline
 62
7
  6
CONTINUOUS
 70
0
 71
3
 72
9
 73
5
 74
0
 42
0.0000001
 43
0.0000001
 44
0.0000000001
 40
0.0
 40
0.0
 40
0.0
 40
0.0
 40
0.5390261843
 40
1.0
 40
1.0
 40
1.0
 40
1.0
 10
375.2375123535
 20
222.8235566511
 30
0.0
 10
375.2459514868
 20
222.8290173585
 30
0.0
 10
375.2604008537
 20
222.8417679456
 30
0.0
 10
375.2667995092
 20
222.8605637202
 30
0.0
 10
375.2667995087
 20
222.8691599774
 30
0.0
  0
SPLINE
  5
428
100
AcDbEntity
  8
0
100
AcDbSpline
 62
7
  6
CONTINUOUS
 70
0
 71
3
 72
9
 73
5
 74
0
 42
0.0000001
 43
0.0000001
 44
0.0000000001
 40
0.0
 40
0.0
 40
0.0
 40
0.0
 40
0.5517175934
 40
1.0
 40
1.0
 40
1.0
 40
1.0
 10
375.2375123535
 20
223.5002512777
 30
0.0
 10
375.2457784668
 20
223.5050303756
 30
0.0
 10
375.2599549845
 20
223.5158805764
 30
0.0
 10
375.2667995092
 20
223.5332130024
 30
0.0
 10
375.2667995087
 20
223.5409711322
 30
0.0
  0
SPLINE
  5
429
100
AcDbEntity
  8
0
100
AcDbSpline
 62
7
  6
CONTINUOUS
 70
0
 71
3
 72
9
 73
5
 74
0
 42
0.0000001
 43
0.0000001
 44
0.0000000001
 40
0.0
 40
0.0
 40
0.0
 40
0.0
 40
0.5681324012
 40
1.0
 40
1.0
 40
1.0
 40
1.0
 10
375.2375123535
 20
224.0983926497
 30
0.0
 10
375.245590693
 20
224.1024709264
 30
0.0
 10
375.2593525781
 20
224.1113058053
 30
0.0
 10
375.2667995092
 20
224.1270401892
 30
0.0
 10
375.2667995087
 20
224.1339191298
 30
0.0
  0
SPLINE
  5
42A
100
AcDbEntity
  8
0
100
AcDbSpline
 62
7
  6
CONTINUOUS
 70
0
 71
3
 72
9
 73
5
 74
0
 42
0.0000001
 43
0.0000001
 44
0.0000000001
 40
0.0
 40
0.0
 40
0.0
 40
0.0
 40
0.3252319999
 40
1.0
 40
1.0
 40
1.0
 40
1.0
 10
375.2375123535
 20
224.6134285503
 30
0.0
 10
375.2417988316
 20
224.6152618101
 30
0.0
 10
375.2542669695
 20
224.6213376623
 30
0.0
 10
375.2667995096
 20
224.6338187857
 30
0.0
 10
375.2667995087
 20
224.6434912779
 30
0.0
  0
SPLINE
  5
42B
100
AcDbEntity
  8
0
100
AcDbSpline
 62
7
  6
CONTINUOUS
 70
0
 71
3
 72
9
 73
5
 74
0
 42
0.0000001
 43
0.0000001
 44
0.0000000001
 40
0.0
 40
0.0
 40
0.0
 40
0.0
 40
0.6165021217
 40
1.0
 40
1.0
 40
1.0
 40
1.0
 10
375.2375123535
 20
225.0414392451
 30
0.0
 10
375.2451995749
 20
225.0441088088
 30
0.0
 10
375.2574239818
 20
225.0488354776
 30
0.0
 10
375.2667995093
 20
225.0607474173
 30
0.0
 10
375.2667995087
 20
225.0658094249
 30
0.0
  0
SPLINE
  5
42C
100
AcDbEntity
  8
0
100
AcDbSpline
 62
7
  6
CONTINUOUS
 70
0
 71
3
 72
9
 73
5
 74
0
 42
0.0000001
 43
0.0000001
 44
0.0000000001
 40
0.0
 40
0.0
 40
0.0
 40
0.0
 40
0.6501799001
 40
1.0
 40
1.0
 40
1.0
 40
1.0
 10
375.2375123535
 20
225.3791673144
 30
0.0
 10
375.2450200624
 20
225.3811509895
 30
0.0
 10
375.2559293773
 20
225.3840889597
 30
0.0
 10
375.2667995093
 20
225.3934814378
 30
0.0
 10
375.2667995087
 20
225.3976594745
 30
0.0
  0
SPLINE
  5
42D
100
AcDbEntity
  8
0
100
AcDbSpline
 62
7
  6
CONTINUOUS
 70
0
 71
3
 72
9
 73
5
 74
0
 42
0.0000001
 43
0.0000001
 44
0.0000000001
 40
0.0
 40
0.0
 40
0.0
 40
0.0
 40
0.6886902987
 40
1.0
 40
1.0
 40
1.0
 40
1.0
 10
375.2375123535
 20
225.6240424437
 30
0.0
 10
375.2448726464
 20
225.6253610631
 30
0.0
 10
375.2540078457
 20
225.627146755
 30
0.0
 10
375.2667995095
 20
225.6331357923
 30
0.0
 10
375.2667995087
 20
225.6365158475
 30
0.0
  0
SPLINE
  5
42E
100
AcDbEntity
  8
0
100
AcDbSpline
 62
7
  6
CONTINUOUS
 70
0
 71
3
 72
11
 73
7
 74
0
 42
0.0000001
 43
0.0000001
 44
0.0000000001
 40
0.0
 40
0.0
 40
0.0
 40
0.0
 40
0.4106572966
 40
0.7201381894
 40
0.9152867797
 40
1.0
 40
1.0
 40
1.0
 40
1.0
 10
375.2375123535
 20
225.7742009853
 30
0.0
 10
375.2416550631
 20
225.7745851153
 30
0.0
 10
375.2488108498
 20
225.7753334075
 30
0.0
 10
375.2582947078
 20
225.7768955073
 30
0.0
 10
375.2635012693
 20
225.7781417492
 30
0.0
 10
375.2667995091
 20
225.7797024502
 30
0.0
 10
375.2667995087
 20
225.7805607028
 30
0.0
  0
SPLINE
  5
42F
100
AcDbEntity
  8
0
100
AcDbSpline
 62
7
  6
CONTINUOUS
 70
0
 71
3
 72
9
 73
5
 74
0
 42
0.0000001
 43
0.0000001
 44
0.0000000001
 40
0.0
 40
0.0
 40
0.0
 40
0.0
 40
0.1953663515
 40
1.0
 40
1.0
 40
1.0
 40
1.0
 10
375.2667995087
 20
224.6434912779
 30
0.0
 10
375.2667995085
 20
224.6463068648
 30
0.0
 10
375.2629455617
 20
224.6607919415
 30
0.0
 10
375.2482131888
 20
224.6687276221
 30
0.0
 10
375.2375123305
 20
224.6731957882
 30
0.0
  0
SPLINE
  5
430
100
AcDbEntity
  8
0
100
AcDbSpline
 62
7
  6
CONTINUOUS
 70
0
 71
3
 72
9
 73
5
 74
0
 42
0.0000001
 43
0.0000001
 44
0.0000000001
 40
0.0
 40
0.0
 40
0.0
 40
0.0
 40
0.2148095829
 40
1.0
 40
1.0
 40
1.0
 40
1.0
 10
375.2667995087
 20
225.0658094249
 30
0.0
 10
375.2667995086
 20
225.0670453524
 30
0.0
 10
375.2658331718
 20
225.0728324279
 30
0.0
 10
375.261328158
 20
225.0773239202
 30
0.0
 10
375.2576913786
 20
225.0800040622
 30
0.0
  0
SPLINE
  5
431
100
AcDbEntity
  8
0
100
AcDbSpline
 62
7
  6
CONTINUOUS
 70
0
 71
3
 72
9
 73
5
 74
0
 42
0.0000001
 43
0.0000001
 44
0.0000000001
 40
0.0
 40
0.0
 40
0.0
 40
0.0
 40
0.2168792083
 40
1.0
 40
1.0
 40
1.0
 40
1.0
 10
375.2576913786
 20
225.0800040622
 30
0.0
 10
375.2563827225
 20
225.0809684825
 30
0.0
 10
375.2500821528
 20
225.0850531246
 30
0.0
 10
375.2430752877
 20
225.0879347671
 30
0.0
 10
375.2375123305
 20
225.0898081897
 30
0.0
  0
SPLINE
  5
432
100
AcDbEntity
  8
0
100
AcDbSpline
 62
7
  6
CONTINUOUS
 70
0
 71
3
 72
9
 73
5
 74
0
 42
0.0000001
 43
0.0000001
 44
0.0000000001
 40
0.0
 40
0.0
 40
0.0
 40
0.0
 40
0.1754269559
 40
1.0
 40
1.0
 40
1.0
 40
1.0
 10
375.2667995087
 20
225.3976594745
 30
0.0
 10
375.2667995085
 20
225.3989103825
 30
0.0
 10
375.2644431541
 20
225.4060076254
 30
0.0
 10
375.2567937632
 20
225.409169238
 30
0.0
 10
375.2513407084
 20
225.4113682246
 30
0.0
  0
SPLINE
  5
433
100
AcDbEntity
  8
0
100
AcDbSpline
 62
7
  6
CONTINUOUS
 70
0
 71
3
 72
9
 73
5
 74
0
 42
0.0000001
 43
0.0000001
 44
0.0000000001
 40
0.0
 40
0.0
 40
0.0
 40
0.0
 40
0.2285044169
 40
1.0
 40
1.0
 40
1.0
 40
1.0
 10
375.2513407084
 20
225.4113682246
 30
0.0
 10
375.2503151187
 20
225.4117818016
 30
0.0
 10
375.2457867777
 20
225.4134922849
 30
0.0
 10
375.2411315488
 20
225.4148526677
 30
0.0
 10
375.2375123305
 20
225.4157698488
 30
0.0
  0
SPLINE
  5
434
100
AcDbEntity
  8
0
100
AcDbSpline
 62
7
  6
CONTINUOUS
 70
0
 71
3
 72
9
 73
5
 74
0
 42
0.0000001
 43
0.0000001
 44
0.0000000001
 40
0.0
 40
0.0
 40
0.0
 40
0.0
 40
0.3191938235
 40
1.0
 40
1.0
 40
1.0
 40
1.0
 10
375.2667995087
 20
225.6365158475
 30
0.0
 10
375.2667995081
 20
225.6392145242
 30
0.0
 10
375.2575553249
 20
225.6446005206
 30
0.0
 10
375.2502025906
 20
225.6460975789
 30
0.0
 10
375.2445686286
 20
225.647276505
 30
0.0
  0
SPLINE
  5
435
100
AcDbEntity
  8
0
100
AcDbSpline
 62
7
  6
CONTINUOUS
 70
0
 71
3
 72
11
 73
7
 74
0
 42
0.0000001
 43
0.0000001
 44
0.0000000001
 40
0.0
 40
0.0
 40
0.0
 40
0.0
 40
0.0842742006
 40
0.2791634652
 40
0.5887826243
 40
1.0
 40
1.0
 40
1.0
 40
1.0
 10
375.2667995087
 20
225.7805607028
 30
0.0
 10
375.2667995083
 20
225.7814122596
 30
0.0
 10
375.263490189
 20
225.7829389253
 30
0.0
 10
375.2582918925
 20
225.7840919145
 30
0.0
 10
375.2488045298
 20
225.7855299148
 30
0.0
 10
375.2416537556
 20
225.7861887794
 30
0.0
 10
375.2375123305
 20
225.7865266665
 30
0.0
  0
SPLINE
  5
436
100
AcDbEntity
  8
0
100
AcDbSpline
 62
9
  6
CONTINUOUS
 70
0
 71
3
 72
14
 73
10
 74
0
 42
0.0000001
 43
0.0000001
 44
0.0000000001
 40
0.0
 40
0.0
 40
0.0
 40
0.0
 40
0.3793779899
 40
0.5508445028
 40
0.7012917131
 40
0.8251212986
 40
0.917647315
 40
0.9758248697
 40
1.0
 40
1.0
 40
1.0
 40
1.0
 10
381.0332230087
 20
214.2940823873
 30
0.0
 10
381.071500266
 20
214.2940823873
 30
0.0
 10
381.1271143181
 20
214.293299688
 30
0.0
 10
381.1977459085
 20
214.2904814573
 30
0.0
 10
381.2428096437
 20
214.287695398
 30
0.0
 10
381.2792017403
 20
214.2844850114
 30
0.0
 10
381.3078166822
 20
214.2805930602
 30
0.0
 10
381.3229255653
 20
214.2772873943
 30
0.0
 10
381.3332230087
 20
214.2734446086
 30
0.0
 10
381.3332230087
 20
214.2710054642
 30
0.0
  0
SPLINE
  5
437
100
AcDbEntity
  8
0
100
AcDbSpline
 62
9
  6
CONTINUOUS
 70
0
 71
3
 72
12
 73
8
 74
0
 42
0.0000001
 43
0.0000001
 44
0.0000000001
 40
0.0
 40
0.0
 40
0.0
 40
0.0
 40
0.3547685183
 40
0.6655630827
 40
0.7885638131
 40
0.8846199589
 40
1.0
 40
1.0
 40
1.0
 40
1.0
 10
381.1358290519
 20
215.9172883312
 30
0.0
 10
381.1610088494
 20
215.9152919376
 30
0.0
 10
381.2081801462
 20
215.9099344717
 30
0.0
 10
381.2632260115
 20
215.8990973938
 30
0.0
 10
381.2992687977
 20
215.8865124935
 30
0.0
 10
381.3199993899
 20
215.8765928907
 30
0.0
 10
381.3332230087
 20
215.864093721
 30
0.0
 10
381.3332230087
 20
215.8558788905
 30
0.0
  0
SPLINE
  5
438
100
AcDbEntity
  8
0
100
AcDbSpline
 62
9
  6
CONTINUOUS
 70
0
 71
3
 72
14
 73
10
 74
0
 42
0.0000001
 43
0.0000001
 44
0.0000000001
 40
0.0
 40
0.0
 40
0.0
 40
0.0
 40
0.3793779899
 40
0.5508445028
 40
0.7012917131
 40
0.8251212986
 40
0.917647315
 40
0.9758248697
 40
1.0
 40
1.0
 40
1.0
 40
1.0
 10
381.0332230087
 20
212.0633131565
 30
0.0
 10
381.071500266
 20
212.0633131565
 30
0.0
 10
381.1271143181
 20
212.0640958559
 30
0.0
 10
381.1977459085
 20
212.0669140866
 30
0.0
 10
381.2428096437
 20
212.0697001458
 30
0.0
 10
381.2792017403
 20
212.0729105325
 30
0.0
 10
381.3078166822
 20
212.0768024837
 30
0.0
 10
381.3229255653
 20
212.0801081496
 30
0.0
 10
381.3332230087
 20
212.0839509353
 30
0.0
 10
381.3332230087
 20
212.0863900796
 30
0.0
  0
SPLINE
  5
439
100
AcDbEntity
  8
0
100
AcDbSpline
 62
7
  6
CONTINUOUS
 70
0
 71
3
 72
9
 73
5
 74
0
 42
0.0000001
 43
0.0000001
 44
0.0000000001
 40
0.0
 40
0.0
 40
0.0
 40
0.0
 40
0.3020908803
 40
1.0
 40
1.0
 40
1.0
 40
1.0
 10
375.2375123535
 20
200.5708688792
 30
0.0
 10
375.2397175409
 20
200.5710487942
 30
0.0
 10
375.2470083211
 20
200.5717148136
 30
0.0
 10
375.2543031842
 20
200.5725569177
 30
0.0
 10
375.2593107866
 20
200.5735822153
 30
0.0
  0
SPLINE
  5
43A
100
AcDbEntity
  8
0
100
AcDbSpline
 62
7
  6
CONTINUOUS
 70
0
 71
3
 72
9
 73
5
 74
0
 42
0.0000001
 43
0.0000001
 44
0.0000000001
 40
0.0
 40
0.0
 40
0.0
 40
0.0
 40
0.6975233436
 40
1.0
 40
1.0
 40
1.0
 40
1.0
 10
375.2593107866
 20
200.5735822153
 30
0.0
 10
375.2612105838
 20
200.5739711954
 30
0.0
 10
375.263531578
 20
200.5744661158
 30
0.0
 10
375.2667995091
 20
200.5759939148
 30
0.0
 10
375.2667995087
 20
200.5768348411
 30
0.0
  0
SPLINE
  5
43B
100
AcDbEntity
  8
0
100
AcDbSpline
 62
7
  6
CONTINUOUS
 70
0
 71
3
 72
9
 73
5
 74
0
 42
0.0000001
 43
0.0000001
 44
0.0000000001
 40
0.0
 40
0.0
 40
0.0
 40
0.0
 40
0.2986735975
 40
1.0
 40
1.0
 40
1.0
 40
1.0
 10
375.2375123535
 20
200.7087955474
 30
0.0
 10
375.2397227049
 20
200.709167203
 30
0.0
 10
375.2470899393
 20
200.7105460369
 30
0.0
 10
375.2544500913
 20
200.7123239214
 30
0.0
 10
375.2593107866
 20
200.714342211
 30
0.0
  0
SPLINE
  5
43C
100
AcDbEntity
  8
0
100
AcDbSpline
 62
7
  6
CONTINUOUS
 70
0
 71
3
 72
9
 73
5
 74
0
 42
0.0000001
 43
0.0000001
 44
0.0000000001
 40
0.0
 40
0.0
 40
0.0
 40
0.0
 40
0.3564864407
 40
1.0
 40
1.0
 40
1.0
 40
1.0
 10
375.2593107866
 20
200.714342211
 30
0.0
 10
375.260423671
 20
200.7148043101
 30
0.0
 10
375.2633285478
 20
200.7161404988
 30
0.0
 10
375.2667995092
 20
200.7187044668
 30
0.0
 10
375.2667995087
 20
200.7208796963
 30
0.0
  0
SPLINE
  5
43D
100
AcDbEntity
  8
0
100
AcDbSpline
 62
7
  6
CONTINUOUS
 70
0
 71
3
 72
9
 73
5
 74
0
 42
0.0000001
 43
0.0000001
 44
0.0000000001
 40
0.0
 40
0.0
 40
0.0
 40
0.0
 40
0.6270019446
 40
1.0
 40
1.0
 40
1.0
 40
1.0
 10
375.2375123535
 20
200.9416257009
 30
0.0
 10
375.2442727402
 20
200.9433389158
 30
0.0
 10
375.2546073335
 20
200.9464858808
 30
0.0
 10
375.2648315742
 20
200.9533259353
 30
0.0
 10
375.2663151152
 20
200.95720045
 30
0.0
  0
SPLINE
  5
43E
100
AcDbEntity
  8
0
100
AcDbSpline
 62
7
  6
CONTINUOUS
 70
0
 71
3
 72
8
 73
4
 74
0
 42
0.0000001
 43
0.0000001
 44
0.0000000001
 40
0.0
 40
0.0
 40
0.0
 40
0.0
 40
1.0
 40
1.0
 40
1.0
 40
1.0
 10
375.2663151152
 20
200.95720045
 30
0.0
 10
375.2666228104
 20
200.9580040472
 30
0.0
 10
375.2667995088
 20
200.9588755784
 30
0.0
 10
375.2667995087
 20
200.9597360694
 30
0.0
  0
SPLINE
  5
43F
100
AcDbEntity
  8
0
100
AcDbSpline
 62
7
  6
CONTINUOUS
 70
0
 71
3
 72
9
 73
5
 74
0
 42
0.0000001
 43
0.0000001
 44
0.0000000001
 40
0.0
 40
0.0
 40
0.0
 40
0.0
 40
0.616808448
 40
1.0
 40
1.0
 40
1.0
 40
1.0
 10
375.2375123535
 20
201.2675873619
 30
0.0
 10
375.2451865325
 20
201.2701717751
 30
0.0
 10
375.2574144666
 20
201.2747162393
 30
0.0
 10
375.2667995093
 20
201.2865554524
 30
0.0
 10
375.2667995087
 20
201.291586119
 30
0.0
  0
SPLINE
  5
440
100
AcDbEntity
  8
0
100
AcDbSpline
 62
7
  6
CONTINUOUS
 70
0
 71
3
 72
9
 73
5
 74
0
 42
0.0000001
 43
0.0000001
 44
0.0000000001
 40
0.0
 40
0.0
 40
0.0
 40
0.0
 40
0.3256110475
 40
1.0
 40
1.0
 40
1.0
 40
1.0
 10
375.2375123535
 20
201.6841997652
 30
0.0
 10
375.2417951588
 20
201.6859880597
 30
0.0
 10
375.2542492146
 20
201.6919019956
 30
0.0
 10
375.2667995096
 20
201.704291721
 30
0.0
 10
375.2667995087
 20
201.7139042659
 30
0.0
  0
SPLINE
  5
441
100
AcDbEntity
  8
0
100
AcDbSpline
 62
7
  6
CONTINUOUS
 70
0
 71
3
 72
9
 73
5
 74
0
 42
0.0000001
 43
0.0000001
 44
0.0000000001
 40
0.0
 40
0.0
 40
0.0
 40
0.0
 40
0.5679279124
 40
1.0
 40
1.0
 40
1.0
 40
1.0
 10
375.2375123535
 20
202.188292239
 30
0.0
 10
375.2455787125
 20
202.1922863695
 30
0.0
 10
375.2593656144
 20
202.2009593547
 30
0.0
 10
375.2667995092
 20
202.2166285199
 30
0.0
 10
375.2667995087
 20
202.2234764141
 30
0.0
  0
SPLINE
  5
442
100
AcDbEntity
  8
0
100
AcDbSpline
 62
7
  6
CONTINUOUS
 70
0
 71
3
 72
9
 73
5
 74
0
 42
0.0000001
 43
0.0000001
 44
0.0000000001
 40
0.0
 40
0.0
 40
0.0
 40
0.0
 40
0.551380188
 40
1.0
 40
1.0
 40
1.0
 40
1.0
 10
375.2375123535
 20
202.776028335
 30
0.0
 10
375.2457679921
 20
202.7807257726
 30
0.0
 10
375.2599730668
 20
202.7914283321
 30
0.0
 10
375.2667995092
 20
202.8086961417
 30
0.0
 10
375.2667995087
 20
202.8164244117
 30
0.0
  0
SPLINE
  5
443
100
AcDbEntity
  8
0
100
AcDbSpline
 62
7
  6
CONTINUOUS
 70
0
 71
3
 72
9
 73
5
 74
0
 42
0.0000001
 43
0.0000001
 44
0.0000000001
 40
0.0
 40
0.0
 40
0.0
 40
0.0
 40
0.5386173431
 40
1.0
 40
1.0
 40
1.0
 40
1.0
 10
375.2375123535
 20
203.4429350267
 30
0.0
 10
375.2459427166
 20
203.4483178601
 30
0.0
 10
375.2604212451
 20
203.4609354525
 30
0.0
 10
375.2667995092
 20
203.4796675436
 30
0.0
 10
375.2667995087
 20
203.4882355665
 30
0.0
  0
SPLINE
  5
444
100
AcDbEntity
  8
0
100
AcDbSpline
 62
7
  6
CONTINUOUS
 70
0
 71
3
 72
9
 73
5
 74
0
 42
0.0000001
 43
0.0000001
 44
0.0000000001
 40
0.0
 40
0.0
 40
0.0
 40
0.0
 40
0.5287474067
 40
1.0
 40
1.0
 40
1.0
 40
1.0
 10
375.2375123535
 20
204.1839367516
 30
0.0
 10
375.2460993601
 20
204.1899747409
 30
0.0
 10
375.2607537086
 20
204.2043624237
 30
0.0
 10
375.2667995092
 20
204.2244411136
 30
0.0
 10
375.2667995087
 20
204.2337969899
 30
0.0
  0
SPLINE
  5
445
100
AcDbEntity
  8
0
100
AcDbSpline
 62
7
  6
CONTINUOUS
 70
0
 71
3
 72
9
 73
5
 74
0
 42
0.0000001
 43
0.0000001
 44
0.0000000001
 40
0.0
 40
0.0
 40
0.0
 40
0.0
 40
0.5210898303
 40
1.0
 40
1.0
 40
1.0
 40
1.0
 10
375.2375123535
 20
204.993394039
 30
0.0
 10
375.2462365379
 20
205.0000458051
 30
0.0
 10
375.2610016803
 20
205.0160414507
 30
0.0
 10
375.2667995092
 20
205.0373517864
 30
0.0
 10
375.2667995087
 20
205.0474345094
 30
0.0
  0
SPLINE
  5
446
100
AcDbEntity
  8
0
100
AcDbSpline
 62
7
  6
CONTINUOUS
 70
0
 71
3
 72
9
 73
5
 74
0
 42
0.0000001
 43
0.0000001
 44
0.0000000001
 40
0.0
 40
0.0
 40
0.0
 40
0.0
 40
0.5151392509
 40
1.0
 40
1.0
 40
1.0
 40
1.0
 10
375.2375123535
 20
205.8651464302
 30
0.0
 10
375.2463542163
 20
205.8723609113
 30
0.0
 10
375.2611873773
 20
205.8897920066
 30
0.0
 10
375.2667995092
 20
205.9122148856
 30
0.0
 10
375.2667995087
 20
205.9229558521
 30
0.0
  0
SPLINE
  5
447
100
AcDbEntity
  8
0
100
AcDbSpline
 62
7
  6
CONTINUOUS
 70
0
 71
3
 72
9
 73
5
 74
0
 42
0.0000001
 43
0.0000001
 44
0.0000000001
 40
0.0
 40
0.0
 40
0.0
 40
0.0
 40
0.5105247732
 40
1.0
 40
1.0
 40
1.0
 40
1.0
 10
375.2375123535
 20
206.7925593632
 30
0.0
 10
375.2464531148
 20
206.8002773008
 30
0.0
 10
375.2613265542
 20
206.8189644487
 30
0.0
 10
375.2667995092
 20
206.8423735891
 30
0.0
 10
375.2667995087
 20
206.8536977719
 30
0.0
  0
SPLINE
  5
448
100
AcDbEntity
  8
0
100
AcDbSpline
 62
7
  6
CONTINUOUS
 70
0
 71
3
 72
9
 73
5
 74
0
 42
0.0000001
 43
0.0000001
 44
0.0000000001
 40
0.0
 40
0.0
 40
0.0
 40
0.0
 40
0.5069757976
 40
1.0
 40
1.0
 40
1.0
 40
1.0
 10
375.2375123535
 20
207.7685746655
 30
0.0
 10
375.2465342942
 20
207.7767300074
 30
0.0
 10
375.2614303594
 20
207.7964887862
 30
0.0
 10
375.2667995092
 20
207.820749819
 30
0.0
 10
375.2667995087
 20
207.8325767609
 30
0.0
  0
SPLINE
  5
449
100
AcDbEntity
  8
0
100
AcDbSpline
 62
7
  6
CONTINUOUS
 70
0
 71
3
 72
9
 73
5
 74
0
 42
0.0000001
 43
0.0000001
 44
0.0000000001
 40
0.0
 40
0.0
 40
0.0
 40
0.0
 40
0.5042960959
 40
1.0
 40
1.0
 40
1.0
 40
1.0
 10
375.2375123535
 20
208.7857642714
 30
0.0
 10
375.2465988929
 20
208.7942854533
 30
0.0
 10
375.2615066523
 20
208.8149275087
 30
0.0
 10
375.2667995092
 20
208.8398982449
 30
0.0
 10
375.2667995087
 20
208.8521429589
 30
0.0
  0
SPLINE
  5
44A
100
AcDbEntity
  8
0
100
AcDbSpline
 62
7
  6
CONTINUOUS
 70
0
 71
3
 72
9
 73
5
 74
0
 42
0.0000001
 43
0.0000001
 44
0.0000000001
 40
0.0
 40
0.0
 40
0.0
 40
0.0
 40
0.5023450628
 40
1.0
 40
1.0
 40
1.0
 40
1.0
 10
375.2375123535
 20
209.8363867538
 30
0.0
 10
375.246647966
 20
209.8451978607
 30
0.0
 10
375.2615609215
 20
209.8665316804
 30
0.0
 10
375.2667995092
 20
209.8920630314
 30
0.0
 10
375.2667995087
 20
209.9046368514
 30
0.0
  0
SPLINE
  5
44B
100
AcDbEntity
  8
0
100
AcDbSpline
 62
7
  6
CONTINUOUS
 70
0
 71
3
 72
9
 73
5
 74
0
 42
0.0000001
 43
0.0000001
 44
0.0000000001
 40
0.0
 40
0.0
 40
0.0
 40
0.0
 40
0.5010245675
 40
1.0
 40
1.0
 40
1.0
 40
1.0
 10
375.2375123535
 20
210.9124462411
 30
0.0
 10
375.2466823948
 20
210.9214680678
 30
0.0
 10
375.2615969117
 20
210.9432996569
 30
0.0
 10
375.2667995092
 20
210.9692369168
 30
0.0
 10
375.2667995087
 20
210.9820483244
 30
0.0
  0
SPLINE
  5
44C
100
AcDbEntity
  8
0
100
AcDbSpline
 62
9
  6
CONTINUOUS
 70
0
 71
3
 72
10
 73
6
 74
0
 42
0.0000001
 43
0.0000001
 44
0.0000000001
 40
0.0
 40
0.0
 40
0.0
 40
0.0
 40
0.5107608888
 40
0.7591941527
 40
1.0
 40
1.0
 40
1.0
 40
1.0
 10
381.0332230087
 20
226.2565513354
 30
0.0
 10
381.0944734868
 20
226.2565513354
 30
0.0
 10
381.1885828913
 20
226.2298536708
 30
0.0
 10
381.2789523962
 20
226.1488444942
 30
0.0
 10
381.3087629495
 20
226.0967597177
 30
0.0
 10
381.3185399636
 20
226.0695877237
 30
0.0
  0
SPLINE
  5
44D
100
AcDbEntity
  8
0
100
AcDbSpline
 62
9
  6
CONTINUOUS
 70
0
 71
3
 72
8
 73
4
 74
0
 42
0.0000001
 43
0.0000001
 44
0.0000000001
 40
0.0
 40
0.0
 40
0.0
 40
0.0
 40
1.0
 40
1.0
 40
1.0
 40
1.0
 10
381.3185399636
 20
226.0695877237
 30
0.0
 10
381.3281205795
 20
226.0429615536
 30
0.0
 10
381.3332230087
 20
226.0142724245
 30
0.0
 10
381.3332230087
 20
225.9859750547
 30
0.0
  0
SPLINE
  5
44E
100
AcDbEntity
  8
0
100
AcDbSpline
 62
9
  6
CONTINUOUS
 70
0
 71
3
 72
13
 73
9
 74
0
 42
0.0000001
 43
0.0000001
 44
0.0000000001
 40
0.0
 40
0.0
 40
0.0
 40
0.0
 40
0.0822452088
 40
0.1731402531
 40
0.2778863345
 40
0.39845992
 40
0.6815811013
 40
1.0
 40
1.0
 40
1.0
 40
1.0
 10
381.3332230087
 20
223.3036699323
 30
0.0
 10
381.3332230087
 20
223.2937355879
 30
0.0
 10
381.328806608
 20
223.2726687043
 30
0.0
 10
381.3105103674
 20
223.2439062613
 30
0.0
 10
381.2819134644
 20
223.2180720209
 30
0.0
 10
381.2288139905
 20
223.1866349907
 30
0.0
 10
381.1444842355
 20
223.1605042278
 30
0.0
 10
381.0716846167
 20
223.1536699323
 30
0.0
 10
381.0332230087
 20
223.1536699323
 30
0.0
  0
SPLINE
  5
44F
100
AcDbEntity
  8
0
100
AcDbSpline
 62
9
  6
CONTINUOUS
 70
0
 71
3
 72
11
 73
7
 74
0
 42
0.0000001
 43
0.0000001
 44
0.0000000001
 40
0.0
 40
0.0
 40
0.0
 40
0.0
 40
0.2717115032
 40
0.5311941033
 40
0.7724584064
 40
1.0
 40
1.0
 40
1.0
 40
1.0
 10
381.0332230087
 20
225.14116672
 30
0.0
 10
381.0720077195
 20
225.14116672
 30
0.0
 10
381.1484496458
 20
225.1289992518
 30
0.0
 10
381.247560695
 20
225.0757636896
 30
0.0
 10
381.3163437919
 20
224.9939384706
 30
0.0
 10
381.3332230087
 20
224.9261471611
 30
0.0
 10
381.3332230087
 20
224.8936673624
 30
0.0
  0
SPLINE
  5
450
100
AcDbEntity
  8
0
100
AcDbSpline
 62
9
  6
CONTINUOUS
 70
0
 71
3
 72
11
 73
7
 74
0
 42
0.0000001
 43
0.0000001
 44
0.0000000001
 40
0.0
 40
0.0
 40
0.0
 40
0.0
 40
0.2228562347
 40
0.4849100948
 40
0.7507560699
 40
1.0
 40
1.0
 40
1.0
 40
1.0
 10
381.1359984952
 20
222.4358265061
 30
0.0
 10
381.1317219308
 20
222.467972988
 30
0.0
 10
381.1212844998
 20
222.5378173622
 30
0.0
 10
381.0963328069
 20
222.6442662897
 30
0.0
 10
381.0669659207
 20
222.7534699769
 30
0.0
 10
381.0449877484
 20
222.8251725274
 30
0.0
 10
381.0332226234
 20
222.8594809133
 30
0.0
  0
SPLINE
  5
451
100
AcDbEntity
  8
0
100
AcDbSpline
 62
9
  6
CONTINUOUS
 70
0
 71
3
 72
13
 73
9
 74
0
 42
0.0000001
 43
0.0000001
 44
0.0000000001
 40
0.0
 40
0.0
 40
0.0
 40
0.0
 40
0.3061304428
 40
0.6015499788
 40
0.7276130245
 40
0.8345530533
 40
0.9233339465
 40
1.0
 40
1.0
 40
1.0
 40
1.0
 10
381.0332230087
 20
222.8593201692
 30
0.0
 10
381.0701995061
 20
222.8593201692
 30
0.0
 10
381.1429286196
 20
222.8659497731
 30
0.0
 10
381.2282267878
 20
222.891642203
 30
0.0
 10
381.2832185153
 20
222.924673715
 30
0.0
 10
381.3120738811
 20
222.951290316
 30
0.0
 10
381.3293077655
 20
222.9799445999
 30
0.0
 10
381.3332230087
 20
223.0000599268
 30
0.0
 10
381.3332230087
 20
223.0093201692
 30
0.0
  0
SPLINE
  5
452
100
AcDbEntity
  8
0
100
AcDbSpline
 62
9
  6
CONTINUOUS
 70
0
 71
3
 72
11
 73
7
 74
0
 42
0.0000001
 43
0.0000001
 44
0.0000000001
 40
0.0
 40
0.0
 40
0.0
 40
0.0
 40
0.2069743192
 40
0.444392058
 40
0.7133091231
 40
1.0
 40
1.0
 40
1.0
 40
1.0
 10
381.3332230087
 20
222.2279103084
 30
0.0
 10
381.3332230087
 20
222.2490461233
 30
0.0
 10
381.3239964589
 20
222.2948253688
 30
0.0
 10
381.2828634145
 20
222.3568614751
 30
0.0
 10
381.2175052779
 20
222.4067461654
 30
0.0
 10
381.1641074752
 20
222.4279035442
 30
0.0
 10
381.1358290519
 20
222.4354820252
 30
0.0
  0
SPLINE
  5
453
100
AcDbEntity
  8
0
100
AcDbSpline
 62
9
  6
CONTINUOUS
 70
0
 71
3
 72
12
 73
8
 74
0
 42
0.0000001
 43
0.0000001
 44
0.0000000001
 40
0.0
 40
0.0
 40
0.0
 40
0.0
 40
0.3811730859
 40
0.6717625173
 40
0.7815346568
 40
0.8699428477
 40
1.0
 40
1.0
 40
1.0
 40
1.0
 10
381.1359984516
 20
210.4400065519
 30
0.0
 10
381.132664195
 20
210.4747114091
 30
0.0
 10
381.125415842
 20
210.5358893697
 30
0.0
 10
381.1043023107
 20
210.6047892827
 30
0.0
 10
381.0828712343
 20
210.6443477529
 30
0.0
 10
381.0645171778
 20
210.6678843967
 30
0.0
 10
381.0451185285
 20
210.6789937446
 30
0.0
 10
381.0332226377
 20
210.6790109806
 30
0.0
  0
SPLINE
  5
454
100
AcDbEntity
  8
0
100
AcDbSpline
 62
9
  6
CONTINUOUS
 70
0
 71
3
 72
12
 73
8
 74
0
 42
0.0000001
 43
0.0000001
 44
0.0000000001
 40
0.0
 40
0.0
 40
0.0
 40
0.0
 40
0.1032070269
 40
0.1902377572
 40
0.3056458903
 40
0.6166171608
 40
1.0
 40
1.0
 40
1.0
 40
1.0
 10
381.3332230087
 20
210.5015166534
 30
0.0
 10
381.3332230087
 20
210.4941633582
 30
0.0
 10
381.3222057704
 20
210.482440902
 30
0.0
 10
381.3034252716
 20
210.4726760018
 30
0.0
 10
381.2688170228
 20
210.4596800302
 30
0.0
 10
381.2122822996
 20
210.4479852628
 30
0.0
 10
381.1630588637
 20
210.4422661427
 30
0.0
 10
381.1358290519
 20
210.4401072126
 30
0.0
  0
SPLINE
  5
455
100
AcDbEntity
  8
0
100
AcDbSpline
 62
9
  6
CONTINUOUS
 70
0
 71
3
 72
12
 73
8
 74
0
 42
0.0000001
 43
0.0000001
 44
0.0000000001
 40
0.0
 40
0.0
 40
0.0
 40
0.0
 40
0.124522887
 40
0.2491060583
 40
0.4986330193
 40
0.7489164831
 40
1.0
 40
1.0
 40
1.0
 40
1.0
 10
376.8332230087
 20
215.194611406
 30
0.0
 10
376.9619092932
 20
215.246219708
 30
0.0
 10
377.2249454717
 20
215.3356882838
 30
0.0
 10
377.7628803903
 20
215.4743110422
 30
0.0
 10
378.4496923644
 20
215.5897649612
 30
0.0
 10
379.2830132164
 20
215.6637962318
 30
0.0
 10
379.841429733
 20
215.6786977385
 30
0.0
 10
380.1209968701
 20
215.6786977719
 30
0.0
  0
SPLINE
  5
456
100
AcDbEntity
  8
0
100
AcDbSpline
 62
9
  6
CONTINUOUS
 70
0
 71
3
 72
10
 73
6
 74
0
 42
0.0000001
 43
0.0000001
 44
0.0000000001
 40
0.0
 40
0.0
 40
0.0
 40
0.0
 40
0.2501051474
 40
0.5009982514
 40
1.0
 40
1.0
 40
1.0
 40
1.0
 10
376.8332230087
 20
202.0059420789
 30
0.0
 10
377.0924065098
 20
202.1407886803
 30
0.0
 10
377.6265390901
 20
202.3821432596
 30
0.0
 10
378.7188414246
 20
202.7969592452
 30
0.0
 10
379.5580533892
 20
203.0524460066
 30
0.0
 10
380.1209968701
 20
203.2037256116
 30
0.0
  0
LINE
  5
457
100
AcDbEntity
  8
0
100
AcDbLine
 62
9
  6
CONTINUOUS
 10
380.0182181134
 20
222.7944467368
 11
381.1359984952
 21
222.4358265061
  0
SPLINE
  5
458
100
AcDbEntity
  8
0
100
AcDbSpline
 62
9
  6
CONTINUOUS
 70
0
 71
3
 72
8
 73
4
 74
0
 42
0.0000001
 43
0.0000001
 44
0.0000000001
 40
0.0
 40
0.0
 40
0.0
 40
0.0
 40
1.0
 40
1.0
 40
1.0
 40
1.0
 10
381.1359984825
 20
215.9173885659
 30
0.0
 10
380.7634059547
 20
215.9184011292
 30
0.0
 10
380.3908107017
 20
215.918109589
 30
0.0
 10
380.0182180369
 20
215.9190703562
 30
0.0
  0
SPLINE
  5
459
100
AcDbEntity
  8
0
100
AcDbSpline
 62
9
  6
CONTINUOUS
 70
0
 71
3
 72
11
 73
7
 74
0
 42
0.0000001
 43
0.0000001
 44
0.0000000001
 40
0.0
 40
0.0
 40
0.0
 40
0.0
 40
0.2509466851
 40
0.5009623553
 40
0.7504237153
 40
1.0
 40
1.0
 40
1.0
 40
1.0
 10
380.0183908297
 20
215.9191717927
 30
0.0
 10
379.7468491888
 20
215.9196153865
 30
0.0
 10
379.2045505861
 20
215.9046009184
 30
0.0
 10
378.3957233006
 20
215.8232979657
 30
0.0
 10
377.5983312317
 20
215.672846496
 30
0.0
 10
377.0809951471
 20
215.508340723
 30
0.0
 10
376.8332341028
 20
215.4008865447
 30
0.0
  0
SPLINE
  5
45A
100
AcDbEntity
  8
0
100
AcDbSpline
 62
9
  6
CONTINUOUS
 70
0
 71
3
 72
12
 73
8
 74
0
 42
0.0000001
 43
0.0000001
 44
0.0000000001
 40
0.0
 40
0.0
 40
0.0
 40
0.0
 40
0.1245228898
 40
0.2491060551
 40
0.4986330105
 40
0.7489164767
 40
1.0
 40
1.0
 40
1.0
 40
1.0
 10
376.8332230087
 20
211.1627841378
 30
0.0
 10
376.9619092978
 20
211.1111758392
 30
0.0
 10
377.2249454704
 20
211.0217072578
 30
0.0
 10
377.7628803823
 20
210.883084512
 30
0.0
 10
378.4496923431
 20
210.7676305789
 30
0.0
 10
379.2830132001
 20
210.6935993207
 30
0.0
 10
379.8414297259
 20
210.6786978054
 30
0.0
 10
380.1209968701
 20
210.6786977719
 30
0.0
  0
SPLINE
  5
45B
100
AcDbEntity
  8
0
100
AcDbSpline
 62
9
  6
CONTINUOUS
 70
0
 71
3
 72
12
 73
8
 74
0
 42
0.0000001
 43
0.0000001
 44
0.0000000001
 40
0.0
 40
0.0
 40
0.0
 40
0.0
 40
0.1374453183
 40
0.2360702653
 40
0.3580368444
 40
0.6608940202
 40
1.0
 40
1.0
 40
1.0
 40
1.0
 10
380.1209965098
 20
210.6786977719
 30
0.0
 10
380.1083625646
 20
210.6786976446
 30
0.0
 10
380.0874594751
 20
210.6659789451
 30
0.0
 10
380.0683489979
 20
210.6394832427
 30
0.0
 10
380.0465940777
 20
210.5961972558
 30
0.0
 10
380.028138262
 20
210.5279655633
 30
0.0
 10
380.0205875523
 20
210.4693182178
 30
0.0
 10
380.0183909295
 20
210.4382251619
 30
0.0
  0
SPLINE
  5
45C
100
AcDbEntity
  8
0
100
AcDbSpline
 62
9
  6
CONTINUOUS
 70
0
 71
3
 72
8
 73
4
 74
0
 42
0.0000001
 43
0.0000001
 44
0.0000000001
 40
0.0
 40
0.0
 40
0.0
 40
0.0
 40
1.0
 40
1.0
 40
1.0
 40
1.0
 10
380.0182180709
 20
210.4383256154
 30
0.0
 10
380.3908107137
 20
210.4392863847
 30
0.0
 10
380.763405946
 20
210.438993991
 30
0.0
 10
381.1359984516
 20
210.4400065519
 30
0.0
  0
LINE
  5
45D
100
AcDbEntity
  8
0
100
AcDbLine
 62
9
  6
CONTINUOUS
 10
381.135998526
 20
203.9215687532
 11
380.0182180805
 21
203.5629490912
  0
SPLINE
  5
45E
100
AcDbEntity
  8
0
100
AcDbSpline
 62
9
  6
CONTINUOUS
 70
0
 71
3
 72
11
 73
7
 74
0
 42
0.0000001
 43
0.0000001
 44
0.0000000001
 40
0.0
 40
0.0
 40
0.0
 40
0.0
 40
0.2479702062
 40
0.4977050603
 40
0.7488237733
 40
1.0
 40
1.0
 40
1.0
 40
1.0
 10
380.0183908297
 20
203.5625972669
 30
0.0
 10
379.745221265
 20
203.4748125914
 30
0.0
 10
379.2001175908
 20
203.2884913163
 30
0.0
 10
378.3925965659
 20
202.9735038824
 30
0.0
 10
377.5979285231
 20
202.6181833468
 30
0.0
 10
377.0829150166
 20
202.3469956396
 30
0.0
 10
376.8332341026
 20
202.1982347448
 30
0.0
  0
SPLINE
  5
45F
100
AcDbEntity
  8
0
100
AcDbSpline
 62
9
  6
CONTINUOUS
 70
0
 71
3
 72
11
 73
7
 74
0
 42
0.0000001
 43
0.0000001
 44
0.0000000001
 40
0.0
 40
0.0
 40
0.0
 40
0.0
 40
0.2495762965
 40
0.4990376521
 40
0.7490533173
 40
1.0
 40
1.0
 40
1.0
 40
1.0
 10
376.8332340617
 20
210.9565090197
 30
0.0
 10
377.0809951207
 20
210.8490548332
 30
0.0
 10
377.5983312184
 20
210.6845490494
 30
0.0
 10
378.3957233013
 20
210.5340975773
 30
0.0
 10
379.2045505855
 20
210.4527946289
 30
0.0
 10
379.7468491875
 20
210.4377801572
 30
0.0
 10
380.0183908297
 20
210.438223751
 30
0.0
  0
SPLINE
  5
460
100
AcDbEntity
  8
0
100
AcDbSpline
 62
9
  6
CONTINUOUS
 70
0
 71
3
 72
11
 73
7
 74
0
 42
0.0000001
 43
0.0000001
 44
0.0000000001
 40
0.0
 40
0.0
 40
0.0
 40
0.0
 40
0.2641461276
 40
0.5276287749
 40
0.7743319544
 40
1.0
 40
1.0
 40
1.0
 40
1.0
 10
381.1358290519
 20
203.9219135187
 30
0.0
 10
381.1618800181
 20
203.9288950519
 30
0.0
 10
381.2126494066
 20
203.9484936377
 30
0.0
 10
381.2776789873
 20
203.9953366664
 30
0.0
 10
381.322444338
 20
204.0577311104
 30
0.0
 10
381.3332230087
 20
204.106443729
 30
0.0
 10
381.3332230087
 20
204.1294852354
 30
0.0
  0
SPLINE
  5
461
100
AcDbEntity
  8
0
100
AcDbSpline
 62
9
  6
CONTINUOUS
 70
0
 71
3
 72
11
 73
7
 74
0
 42
0.0000001
 43
0.0000001
 44
0.0000000001
 40
0.0
 40
0.0
 40
0.0
 40
0.0
 40
0.2511762383
 40
0.5022949469
 40
0.7520297959
 40
1.0
 40
1.0
 40
1.0
 40
1.0
 10
376.8332340618
 20
224.159160825
 30
0.0
 10
377.0829149904
 20
224.0103999206
 30
0.0
 10
377.5979285099
 20
223.7392122024
 30
0.0
 10
378.3925965661
 20
223.3838916609
 30
0.0
 10
379.2001175904
 20
223.0689042298
 30
0.0
 10
379.7452212635
 20
222.8825829529
 30
0.0
 10
380.0183908297
 20
222.7947982769
 30
0.0
  0
SPLINE
  5
462
100
AcDbEntity
  8
0
100
AcDbSpline
 62
9
  6
CONTINUOUS
 70
0
 71
3
 72
13
 73
9
 74
0
 42
0.0000001
 43
0.0000001
 44
0.0000000001
 40
0.0
 40
0.0
 40
0.0
 40
0.0
 40
0.0766660535
 40
0.1654469467
 40
0.2723869755
 40
0.3984500212
 40
0.6938695571
 40
1.0
 40
1.0
 40
1.0
 40
1.0
 10
381.3332230087
 20
203.3480753746
 30
0.0
 10
381.3332230087
 20
203.3573356171
 30
0.0
 10
381.3293077655
 20
203.3774509439
 30
0.0
 10
381.3120738811
 20
203.4061052279
 30
0.0
 10
381.2832185154
 20
203.4327218289
 30
0.0
 10
381.2282267879
 20
203.4657533409
 30
0.0
 10
381.1429286196
 20
203.4914457708
 30
0.0
 10
381.0701995061
 20
203.4980753746
 30
0.0
 10
381.0332230087
 20
203.4980753746
 30
0.0
  0
SPLINE
  5
463
100
AcDbEntity
  8
0
100
AcDbSpline
 62
9
  6
CONTINUOUS
 70
0
 71
3
 72
10
 73
6
 74
0
 42
0.0000001
 43
0.0000001
 44
0.0000000001
 40
0.0
 40
0.0
 40
0.0
 40
0.0
 40
0.5328137279
 40
0.7963925885
 40
1.0
 40
1.0
 40
1.0
 40
1.0
 10
380.1209965223
 20
203.2037264204
 30
0.0
 10
380.0947465897
 20
203.2647769827
 30
0.0
 10
380.0621430968
 20
203.3589864383
 30
0.0
 10
380.0313042996
 20
203.4798526882
 30
0.0
 10
380.0210763896
 20
203.5373442532
 30
0.0
 10
380.0183908992
 20
203.5625966138
 30
0.0
  0
SPLINE
  5
464
100
AcDbEntity
  8
0
100
AcDbSpline
 62
9
  6
CONTINUOUS
 70
0
 71
3
 72
10
 73
6
 74
0
 42
0.0000001
 43
0.0000001
 44
0.0000000001
 40
0.0
 40
0.0
 40
0.0
 40
0.0
 40
0.2097498919
 40
0.4671181955
 40
1.0
 40
1.0
 40
1.0
 40
1.0
 10
381.1358295425
 20
203.9219126002
 30
0.0
 10
381.1327329103
 20
203.8915405427
 30
0.0
 10
381.1214058335
 20
203.8243912132
 30
0.0
 10
381.0898394239
 20
203.6823108433
 30
0.0
 10
381.0579836258
 20
203.5715791317
 30
0.0
 10
381.0332236384
 20
203.4980753459
 30
0.0
  0
SPLINE
  5
465
100
AcDbEntity
  8
0
100
AcDbSpline
 62
9
  6
CONTINUOUS
 70
0
 71
3
 72
13
 73
9
 74
0
 42
0.0000001
 43
0.0000001
 44
0.0000000001
 40
0.0
 40
0.0
 40
0.0
 40
0.0
 40
0.3184188987
 40
0.60154008
 40
0.7221136655
 40
0.8268597469
 40
0.9177547912
 40
1.0
 40
1.0
 40
1.0
 40
1.0
 10
381.0332230087
 20
203.2037256116
 30
0.0
 10
381.0716846167
 20
203.2037256116
 30
0.0
 10
381.1444842355
 20
203.1968913161
 30
0.0
 10
381.2288139905
 20
203.1707605531
 30
0.0
 10
381.2819134644
 20
203.139323523
 30
0.0
 10
381.3105103674
 20
203.1134892826
 30
0.0
 10
381.328806608
 20
203.0847268396
 30
0.0
 10
381.3332230087
 20
203.0636599559
 30
0.0
 10
381.3332230087
 20
203.0537256116
 30
0.0
  0
SPLINE
  5
466
100
AcDbEntity
  8
0
100
AcDbSpline
 62
9
  6
CONTINUOUS
 70
0
 71
3
 72
11
 73
7
 74
0
 42
0.0000001
 43
0.0000001
 44
0.0000000001
 40
0.0
 40
0.0
 40
0.0
 40
0.0
 40
0.2717115032
 40
0.5311941033
 40
0.7724584064
 40
1.0
 40
1.0
 40
1.0
 40
1.0
 10
381.0332230087
 20
201.2162288239
 30
0.0
 10
381.0720077195
 20
201.2162288239
 30
0.0
 10
381.1484496458
 20
201.2283962921
 30
0.0
 10
381.247560695
 20
201.2816318542
 30
0.0
 10
381.3163437919
 20
201.3634570733
 30
0.0
 10
381.3332230087
 20
201.4312483828
 30
0.0
 10
381.3332230087
 20
201.4637281814
 30
0.0
  0
SPLINE
  5
467
100
AcDbEntity
  8
0
100
AcDbSpline
 62
9
  6
CONTINUOUS
 70
0
 71
3
 72
10
 73
6
 74
0
 42
0.0000001
 43
0.0000001
 44
0.0000000001
 40
0.0
 40
0.0
 40
0.0
 40
0.0
 40
0.5107608888
 40
0.7591941527
 40
1.0
 40
1.0
 40
1.0
 40
1.0
 10
381.0332230087
 20
200.1008442085
 30
0.0
 10
381.0944734868
 20
200.1008442085
 30
0.0
 10
381.1885828913
 20
200.1275418731
 30
0.0
 10
381.2789523962
 20
200.2085510496
 30
0.0
 10
381.3087629495
 20
200.2606358262
 30
0.0
 10
381.3185399636
 20
200.2878078201
 30
0.0
  0
SPLINE
  5
468
100
AcDbEntity
  8
0
100
AcDbSpline
 62
9
  6
CONTINUOUS
 70
0
 71
3
 72
8
 73
4
 74
0
 42
0.0000001
 43
0.0000001
 44
0.0000000001
 40
0.0
 40
0.0
 40
0.0
 40
0.0
 40
1.0
 40
1.0
 40
1.0
 40
1.0
 10
381.3185399636
 20
200.2878078201
 30
0.0
 10
381.3281205795
 20
200.3144339902
 30
0.0
 10
381.3332230087
 20
200.3431231193
 30
0.0
 10
381.3332230087
 20
200.3714204891
 30
0.0
  0
SPLINE
  5
469
100
AcDbEntity
  8
0
100
AcDbSpline
 62
9
  6
CONTINUOUS
 70
0
 71
3
 72
10
 73
6
 74
0
 42
0.0000001
 43
0.0000001
 44
0.0000000001
 40
0.0
 40
0.0
 40
0.0
 40
0.0
 40
0.2501051441
 40
0.5009982426
 40
1.0
 40
1.0
 40
1.0
 40
1.0
 10
376.8332230087
 20
224.3514534649
 30
0.0
 10
377.0924065098
 20
224.216606872
 30
0.0
 10
377.6265390776
 20
223.9752522917
 30
0.0
 10
378.7188414104
 20
223.5604363004
 30
0.0
 10
379.5580533793
 20
223.3049495401
 30
0.0
 10
380.1209968701
 20
223.1536699323
 30
0.0
  0
SPLINE
  5
46A
100
AcDbEntity
  8
0
100
AcDbSpline
 62
9
  6
CONTINUOUS
 70
0
 71
3
 72
10
 73
6
 74
0
 42
0.0000001
 43
0.0000001
 44
0.0000000001
 40
0.0
 40
0.0
 40
0.0
 40
0.0
 40
0.5328134898
 40
0.7963923741
 40
1.0
 40
1.0
 40
1.0
 40
1.0
 10
380.1209965223
 20
223.1536691235
 30
0.0
 10
380.0947466214
 20
223.0926186349
 30
0.0
 10
380.062143156
 20
222.9984092794
 30
0.0
 10
380.0313043606
 20
222.8775431268
 30
0.0
 10
380.0210764358
 20
222.8200515802
 30
0.0
 10
380.0183909294
 20
222.7947992138
 30
0.0
  0
SPLINE
  5
46B
100
AcDbEntity
  8
0
100
AcDbSpline
 62
9
  6
CONTINUOUS
 70
0
 71
3
 72
12
 73
8
 74
0
 42
0.0000001
 43
0.0000001
 44
0.0000000001
 40
0.0
 40
0.0
 40
0.0
 40
0.0
 40
0.1374452959
 40
0.2360702707
 40
0.3580368939
 40
0.6608941284
 40
1.0
 40
1.0
 40
1.0
 40
1.0
 10
380.1209965098
 20
215.6786977719
 30
0.0
 10
380.1083625472
 20
215.6786978993
 30
0.0
 10
380.0874594299
 20
215.6914166355
 30
0.0
 10
380.0683489398
 20
215.7179123943
 30
0.0
 10
380.0465940073
 20
215.7611984726
 30
0.0
 10
380.0281382001
 20
215.8294302788
 30
0.0
 10
380.0205875081
 20
215.8880777141
 30
0.0
 10
380.0183908993
 20
215.9191708092
 30
0.0
  0
SPLINE
  5
46C
100
AcDbEntity
  8
0
100
AcDbSpline
 62
9
  6
CONTINUOUS
 70
0
 71
3
 72
12
 73
8
 74
0
 42
0.0000001
 43
0.0000001
 44
0.0000000001
 40
0.0
 40
0.0
 40
0.0
 40
0.0
 40
0.3620351108
 40
0.6554374829
 40
0.7698654383
 40
0.8630838348
 40
1.0
 40
1.0
 40
1.0
 40
1.0
 10
381.1358295425
 20
215.9172867785
 30
0.0
 10
381.1334195061
 20
215.884314649
 30
0.0
 10
381.1252507536
 20
215.8248598715
 30
0.0
 10
381.105938636
 20
215.7567940966
 30
0.0
 10
381.0847160434
 20
215.7158964233
 30
0.0
 10
381.0659975243
 20
215.6908990655
 30
0.0
 10
381.0457264576
 20
215.6786977407
 30
0.0
 10
381.0332236348
 20
215.6786977719
 30
0.0
  0
SPLINE
  5
46D
100
AcDbEntity
  8
0
100
AcDbSpline
 62
7
  6
CONTINUOUS
 70
0
 71
3
 72
9
 73
5
 74
0
 42
0.0000001
 43
0.0000001
 44
0.0000000001
 40
0.0
 40
0.0
 40
0.0
 40
0.0
 40
0.4989754318
 40
1.0
 40
1.0
 40
1.0
 40
1.0
 10
375.2667995087
 20
215.3753472194
 30
0.0
 10
375.2667995082
 20
215.3881586321
 30
0.0
 10
375.2615969041
 20
215.4140959024
 30
0.0
 10
375.2466823754
 20
215.4359274951
 30
0.0
 10
375.2375123305
 20
215.4449493254
 30
0.0
  0
SPLINE
  5
46E
100
AcDbEntity
  8
0
100
AcDbSpline
 62
7
  6
CONTINUOUS
 70
0
 71
3
 72
9
 73
5
 74
0
 42
0.0000001
 43
0.0000001
 44
0.0000000001
 40
0.0
 40
0.0
 40
0.0
 40
0.0
 40
0.497654936
 40
1.0
 40
1.0
 40
1.0
 40
1.0
 10
375.2667995087
 20
216.4527586925
 30
0.0
 10
375.2667995082
 20
216.4653325175
 30
0.0
 10
375.2615609139
 20
216.4908638786
 30
0.0
 10
375.2466479467
 20
216.5121977018
 30
0.0
 10
375.2375123305
 20
216.5210088123
 30
0.0
  0
SPLINE
  5
46F
100
AcDbEntity
  8
0
100
AcDbSpline
 62
7
  6
CONTINUOUS
 70
0
 71
3
 72
9
 73
5
 74
0
 42
0.0000001
 43
0.0000001
 44
0.0000000001
 40
0.0
 40
0.0
 40
0.0
 40
0.0
 40
0.4957039023
 40
1.0
 40
1.0
 40
1.0
 40
1.0
 10
375.2667995087
 20
217.505252585
 30
0.0
 10
375.2667995082
 20
217.5174973038
 30
0.0
 10
375.2615066446
 20
217.54246805
 30
0.0
 10
375.2465988736
 20
217.5631101087
 30
0.0
 10
375.2375123305
 20
217.571631294
 30
0.0
  0
SPLINE
  5
470
100
AcDbEntity
  8
0
100
AcDbSpline
 62
7
  6
CONTINUOUS
 70
0
 71
3
 72
9
 73
5
 74
0
 42
0.0000001
 43
0.0000001
 44
0.0000000001
 40
0.0
 40
0.0
 40
0.0
 40
0.0
 40
0.4930241996
 40
1.0
 40
1.0
 40
1.0
 40
1.0
 10
375.2667995087
 20
218.524818783
 30
0.0
 10
375.2667995082
 20
218.5366457296
 30
0.0
 10
375.2614303515
 20
218.5609067722
 30
0.0
 10
375.246534275
 20
218.5806655539
 30
0.0
 10
375.2375123305
 20
218.5888208991
 30
0.0
  0
SPLINE
  5
471
100
AcDbEntity
  8
0
100
AcDbSpline
 62
7
  6
CONTINUOUS
 70
0
 71
3
 72
9
 73
5
 74
0
 42
0.0000001
 43
0.0000001
 44
0.0000000001
 40
0.0
 40
0.0
 40
0.0
 40
0.0
 40
0.4894752229
 40
1.0
 40
1.0
 40
1.0
 40
1.0
 10
375.2667995087
 20
219.5036977719
 30
0.0
 10
375.2667995082
 20
219.5150219593
 30
0.0
 10
375.2613265461
 20
219.5384311092
 30
0.0
 10
375.2464530956
 20
219.5571182597
 30
0.0
 10
375.2375123305
 20
219.5648362005
 30
0.0
  0
SPLINE
  5
472
100
AcDbEntity
  8
0
100
AcDbSpline
 62
7
  6
CONTINUOUS
 70
0
 71
3
 72
9
 73
5
 74
0
 42
0.0000001
 43
0.0000001
 44
0.0000000001
 40
0.0
 40
0.0
 40
0.0
 40
0.0
 40
0.4848607438
 40
1.0
 40
1.0
 40
1.0
 40
1.0
 10
375.2667995087
 20
220.4344396918
 30
0.0
 10
375.2667995082
 20
220.4451806627
 30
0.0
 10
375.2611873689
 20
220.4676035507
 30
0.0
 10
375.2463541971
 20
220.4850346482
 30
0.0
 10
375.2375123305
 20
220.4922491324
 30
0.0
  0
SPLINE
  5
473
100
AcDbEntity
  8
0
100
AcDbSpline
 62
7
  6
CONTINUOUS
 70
0
 71
3
 72
9
 73
5
 74
0
 42
0.0000001
 43
0.0000001
 44
0.0000000001
 40
0.0
 40
0.0
 40
0.0
 40
0.0
 40
0.4789101629
 40
1.0
 40
1.0
 40
1.0
 40
1.0
 10
375.2667995087
 20
221.3099610345
 30
0.0
 10
375.2667995082
 20
221.3200437616
 30
0.0
 10
375.2610016716
 20
221.341354106
 30
0.0
 10
375.2462365188
 20
221.3573497533
 30
0.0
 10
375.2375123305
 20
221.3640015224
 30
0.0
  0
SPLINE
  5
474
100
AcDbEntity
  8
0
100
AcDbSpline
 62
7
  6
CONTINUOUS
 70
0
 71
3
 72
9
 73
5
 74
0
 42
0.0000001
 43
0.0000001
 44
0.0000000001
 40
0.0
 40
0.0
 40
0.0
 40
0.0
 40
0.4712525849
 40
1.0
 40
1.0
 40
1.0
 40
1.0
 10
375.2667995087
 20
222.1235985539
 30
0.0
 10
375.2667995082
 20
222.1329544342
 30
0.0
 10
375.2607536996
 20
222.1530331323
 30
0.0
 10
375.246099341
 20
222.1674208164
 30
0.0
 10
375.2375123305
 20
222.1734588084
 30
0.0
  0
SPLINE
  5
475
100
AcDbEntity
  8
0
100
AcDbSpline
 62
7
  6
CONTINUOUS
 70
0
 71
3
 72
9
 73
5
 74
0
 42
0.0000001
 43
0.0000001
 44
0.0000000001
 40
0.0
 40
0.0
 40
0.0
 40
0.0
 40
0.4613826468
 40
1.0
 40
1.0
 40
1.0
 40
1.0
 10
375.2667995087
 20
222.8691599774
 30
0.0
 10
375.2667995082
 20
222.8777280039
 30
0.0
 10
375.2604212356
 20
222.8964601025
 30
0.0
 10
375.2459426976
 20
222.9090776959
 30
0.0
 10
375.2375123305
 20
222.9144605318
 30
0.0
  0
SPLINE
  5
476
100
AcDbEntity
  8
0
100
AcDbSpline
 62
7
  6
CONTINUOUS
 70
0
 71
3
 72
9
 73
5
 74
0
 42
0.0000001
 43
0.0000001
 44
0.0000000001
 40
0.0
 40
0.0
 40
0.0
 40
0.0
 40
0.4486198006
 40
1.0
 40
1.0
 40
1.0
 40
1.0
 10
375.2667995087
 20
223.5409711322
 30
0.0
 10
375.2667995082
 20
223.5486994057
 30
0.0
 10
375.2599730568
 20
223.565967222
 30
0.0
 10
375.2457679732
 20
223.576669782
 30
0.0
 10
375.2375123305
 20
223.5813672219
 30
0.0
  0
SPLINE
  5
477
100
AcDbEntity
  8
0
100
AcDbSpline
 62
7
  6
CONTINUOUS
 70
0
 71
3
 72
9
 73
5
 74
0
 42
0.0000001
 43
0.0000001
 44
0.0000000001
 40
0.0
 40
0.0
 40
0.0
 40
0.0
 40
0.4320720761
 40
1.0
 40
1.0
 40
1.0
 40
1.0
 10
375.2667995087
 20
224.1339191298
 30
0.0
 10
375.2667995082
 20
224.1407670272
 30
0.0
 10
375.2593656038
 20
224.1564361982
 30
0.0
 10
375.2455786937
 20
224.1651091837
 30
0.0
 10
375.2375123305
 20
224.1691033163
 30
0.0
  0
SPLINE
  5
478
100
AcDbEntity
  8
0
100
AcDbSpline
 62
7
  6
CONTINUOUS
 70
0
 71
3
 72
9
 73
5
 74
0
 42
0.0000001
 43
0.0000001
 44
0.0000000001
 40
0.0
 40
0.0
 40
0.0
 40
0.0
 40
0.4546718927
 40
1.0
 40
1.0
 40
1.0
 40
1.0
 10
383.7832230087
 20
195.9758542291
 30
0.0
 10
383.7832230087
 20
196.0044667728
 30
0.0
 10
383.8043099387
 20
196.0680789657
 30
0.0
 10
383.8533257885
 20
196.1107650248
 30
0.0
 10
383.8817444636
 20
196.1300023059
 30
0.0
  0
SPLINE
  5
479
100
AcDbEntity
  8
0
100
AcDbSpline
 62
7
  6
CONTINUOUS
 70
0
 71
3
 72
15
 73
11
 74
0
 42
0.0000001
 43
0.0000001
 44
0.0000000001
 40
0.0
 40
0.0
 40
0.0
 40
0.0
 40
0.0510598346
 40
0.0827402447
 40
0.1200636981
 40
0.2134496206
 40
0.3324091133
 40
0.4749956077
 40
0.6374017192
 40
1.0
 40
1.0
 40
1.0
 40
1.0
 10
383.6620423032
 20
233.4137995735
 30
0.0
 10
383.6603530375
 20
233.4331079687
 30
0.0
 10
383.644572799
 20
233.4631687432
 30
0.0
 10
383.6106557179
 20
233.4935537412
 30
0.0
 10
383.5583537339
 20
233.5267732532
 30
0.0
 10
383.4693707577
 20
233.5612194317
 30
0.0
 10
383.3381011826
 20
233.5923797166
 30
0.0
 10
383.1784465184
 20
233.6142981537
 30
0.0
 10
382.9254169424
 20
233.6304437705
 30
0.0
 10
382.7256496008
 20
233.6248804991
 30
0.0
 10
382.5884017835
 20
233.6144822977
 30
0.0
  0
SPLINE
  5
47A
100
AcDbEntity
  8
0
100
AcDbSpline
 62
9
  6
CONTINUOUS
 70
0
 71
3
 72
11
 73
7
 74
0
 42
0.0000001
 43
0.0000001
 44
0.0000000001
 40
0.0
 40
0.0
 40
0.0
 40
0.0
 40
0.2501012644
 40
0.5000976329
 40
0.7500569993
 40
1.0
 40
1.0
 40
1.0
 40
1.0
 10
383.8825828006
 20
229.0055586703
 30
0.0
 10
383.7111138992
 20
229.075297314
 30
0.0
 10
383.3831477936
 20
229.2582157733
 30
0.0
 10
382.9923768553
 20
229.6643279452
 30
0.0
 10
382.7410126305
 20
230.1685745256
 30
0.0
 10
382.6832251255
 20
230.5410732586
 30
0.0
 10
382.6832230087
 20
230.726064368
 30
0.0
  0
SPLINE
  5
47B
100
AcDbEntity
  8
0
100
AcDbSpline
 62
7
  6
CONTINUOUS
 70
0
 71
3
 72
9
 73
5
 74
0
 42
0.0000001
 43
0.0000001
 44
0.0000000001
 40
0.0
 40
0.0
 40
0.0
 40
0.0
 40
0.2440385158
 40
1.0
 40
1.0
 40
1.0
 40
1.0
 10
369.3832230087
 20
208.6014622866
 30
0.0
 10
369.3760987055
 20
208.8876384081
 30
0.0
 10
369.3471416334
 20
210.0603121323
 30
0.0
 10
369.3190300325
 20
211.2330066954
 30
0.0
 10
369.2982037919
 20
212.1195284911
 30
0.0
  0
SPLINE
  5
47C
100
AcDbEntity
  8
0
100
AcDbSpline
 62
9
  6
CONTINUOUS
 70
0
 71
3
 72
9
 73
5
 74
0
 42
0.0000001
 43
0.0000001
 44
0.0000000001
 40
0.0
 40
0.0
 40
0.0
 40
0.0
 40
0.4697046266
 40
1.0
 40
1.0
 40
1.0
 40
1.0
 10
382.2030846284
 20
222.0988183715
 30
0.0
 10
382.1972239392
 20
222.1164453414
 30
0.0
 10
382.1681988809
 20
222.1486280599
 30
0.0
 10
382.1274866664
 20
222.1578130794
 30
0.0
 10
382.1065164124
 20
222.1575460783
 30
0.0
  0
SPLINE
  5
47D
100
AcDbEntity
  8
0
100
AcDbSpline
 62
9
  6
CONTINUOUS
 70
0
 71
3
 72
9
 73
5
 74
0
 42
0.0000001
 43
0.0000001
 44
0.0000000001
 40
0.0
 40
0.0
 40
0.0
 40
0.0
 40
0.2144740661
 40
1.0
 40
1.0
 40
1.0
 40
1.0
 10
382.1516178374
 20
223.278697685
 30
0.0
 10
382.1561689749
 20
223.1943884493
 30
0.0
 10
382.1760009933
 20
222.8012159863
 30
0.0
 10
382.1917009885
 20
222.4078466925
 30
0.0
 10
382.2030846284
 20
222.0988183715
 30
0.0
  0
SPLINE
  5
47E
100
AcDbEntity
  8
0
100
AcDbSpline
 62
7
  6
CONTINUOUS
 70
0
 71
3
 72
9
 73
5
 74
0
 42
0.0000001
 43
0.0000001
 44
0.0000000001
 40
0.0
 40
0.0
 40
0.0
 40
0.0
 40
0.2564294749
 40
1.0
 40
1.0
 40
1.0
 40
1.0
 10
369.2483485369
 20
214.2333687125
 30
0.0
 10
369.2399120248
 20
214.590260588
 30
0.0
 10
369.2069137366
 20
215.9820321483
 30
0.0
 10
369.1731379517
 20
217.3737861337
 30
0.0
 10
369.1466944551
 20
218.4086195539
 30
0.0
  0
SPLINE
  5
47F
100
AcDbEntity
  8
0
100
AcDbSpline
 62
7
  6
CONTINUOUS
 70
0
 71
3
 72
9
 73
5
 74
0
 42
0.0000001
 43
0.0000001
 44
0.0000000001
 40
0.0
 40
0.0
 40
0.0
 40
0.0
 40
0.253616011
 40
1.0
 40
1.0
 40
1.0
 40
1.0
 10
369.1466944551
 20
218.4086195539
 30
0.0
 10
369.1444918974
 20
218.4948139151
 30
0.0
 10
369.1357694663
 20
218.8346746168
 30
0.0
 10
369.1268869387
 20
219.1745312207
 30
0.0
 10
369.1201457972
 20
219.4281917772
 30
0.0
  0
LINE
  5
480
100
AcDbEntity
  8
0
100
AcDbLine
 62
7
  6
CONTINUOUS
 10
369.1201457972
 20
219.4281917772
 11
369.1176366697
 21
219.5224117785
  0
LINE
  5
481
100
AcDbEntity
  8
0
100
AcDbLine
 62
7
  6
CONTINUOUS
 10
369.1176366697
 20
219.5224117785
 11
369.1115476975
 21
219.7494073007
  0
LINE
  5
482
100
AcDbEntity
  8
0
100
AcDbLine
 62
7
  6
CONTINUOUS
 10
369.1115476975
 20
219.7494073007
 11
369.1103266067
 21
219.7946425519
  0
SPLINE
  5
483
100
AcDbEntity
  8
0
100
AcDbSpline
 62
7
  6
CONTINUOUS
 70
0
 71
3
 72
9
 73
5
 74
0
 42
0.0000001
 43
0.0000001
 44
0.0000000001
 40
0.0
 40
0.0
 40
0.0
 40
0.0
 40
0.2545467106
 40
1.0
 40
1.0
 40
1.0
 40
1.0
 10
369.1103266067
 20
219.7946425519
 30
0.0
 10
369.1082231322
 20
219.8724820221
 30
0.0
 10
369.0999135043
 20
220.1782771845
 30
0.0
 10
369.0914112313
 20
220.4840671283
 30
0.0
 10
369.084941304
 20
220.7120154855
 30
0.0
  0
SPLINE
  5
484
100
AcDbEntity
  8
0
100
AcDbSpline
 62
7
  6
CONTINUOUS
 70
0
 71
3
 72
13
 73
9
 74
0
 42
0.0000001
 43
0.0000001
 44
0.0000000001
 40
0.0
 40
0.0
 40
0.0
 40
0.0
 40
0.0594405229
 40
0.1418534827
 40
0.2456151219
 40
0.3686642167
 40
0.6624847614
 40
1.0
 40
1.0
 40
1.0
 40
1.0
 10
383.472500085
 20
203.2122031928
 30
0.0
 10
383.4585969095
 20
203.3745057405
 30
0.0
 10
383.4335594575
 20
203.7625089671
 30
0.0
 10
383.4012653924
 20
204.4348413611
 30
0.0
 10
383.3684513727
 20
205.2816476578
 30
0.0
 10
383.3214998166
 20
206.7076689128
 30
0.0
 10
383.2655932569
 20
208.7743209669
 30
0.0
 10
383.2240767561
 20
210.5039992931
 30
0.0
 10
383.202464238
 20
211.4287083733
 30
0.0
  0
SPLINE
  5
485
100
AcDbEntity
  8
0
100
AcDbSpline
 62
9
  6
CONTINUOUS
 70
0
 71
3
 72
10
 73
6
 74
0
 42
0.0000001
 43
0.0000001
 44
0.0000000001
 40
0.0
 40
0.0
 40
0.0
 40
0.0
 40
0.1995998827
 40
0.43911383
 40
1.0
 40
1.0
 40
1.0
 40
1.0
 10
382.1071690526
 20
222.1575521715
 30
0.0
 10
382.1247572717
 20
221.6767508061
 30
0.0
 10
382.1580490862
 20
220.6188068347
 30
0.0
 10
382.2220757645
 20
218.2092179592
 30
0.0
 10
382.2648890516
 20
216.2803715926
 30
0.0
 10
382.294327973
 20
214.9287113278
 30
0.0
  0
SPLINE
  5
486
100
AcDbEntity
  8
0
100
AcDbSpline
 62
9
  6
CONTINUOUS
 70
0
 71
3
 72
9
 73
5
 74
0
 42
0.0000001
 43
0.0000001
 44
0.0000000001
 40
0.0
 40
0.0
 40
0.0
 40
0.0
 40
0.2175031232
 40
1.0
 40
1.0
 40
1.0
 40
1.0
 10
382.0585839162
 20
223.2786980365
 30
0.0
 10
382.0627967814
 20
223.1974477536
 30
0.0
 10
382.0810381684
 20
222.8238301169
 30
0.0
 10
382.0958161678
 20
222.4500515512
 30
0.0
 10
382.1065164277
 20
222.1575456605
 30
0.0
  0
SPLINE
  5
487
100
AcDbEntity
  8
0
100
AcDbSpline
 62
9
  6
CONTINUOUS
 70
0
 71
3
 72
9
 73
5
 74
0
 42
0.0000001
 43
0.0000001
 44
0.0000000001
 40
0.0
 40
0.0
 40
0.0
 40
0.0
 40
0.2574111249
 40
1.0
 40
1.0
 40
1.0
 40
1.0
 10
381.9044654875
 20
214.928697779
 30
0.0
 10
381.8989491874
 20
215.1819736605
 30
0.0
 10
381.877396832
 20
216.1659061853
 30
0.0
 10
381.8551884556
 20
217.1498248216
 30
0.0
 10
381.8378403389
 20
217.8804515455
 30
0.0
  0
SPLINE
  5
488
100
AcDbEntity
  8
0
100
AcDbSpline
 62
9
  6
CONTINUOUS
 70
0
 71
3
 72
10
 73
6
 74
0
 42
0.0000001
 43
0.0000001
 44
0.0000000001
 40
0.0
 40
0.0
 40
0.0
 40
0.0
 40
0.589895734
 40
0.8211879101
 40
1.0
 40
1.0
 40
1.0
 40
1.0
 10
381.8378403389
 20
217.8804515455
 30
0.0
 10
381.8126309906
 20
218.942158927
 30
0.0
 10
381.775747154
 20
220.4201298651
 30
0.0
 10
381.716593835
 20
222.2194884278
 30
0.0
 10
381.6860431725
 20
222.9572082884
 30
0.0
 10
381.6693740512
 20
223.278697094
 30
0.0
  0
SPLINE
  5
489
100
AcDbEntity
  8
0
100
AcDbSpline
 62
7
  6
CONTINUOUS
 70
0
 71
3
 72
9
 73
5
 74
0
 42
0.0000001
 43
0.0000001
 44
0.0000000001
 40
0.0
 40
0.0
 40
0.0
 40
0.0
 40
0.4035404792
 40
1.0
 40
1.0
 40
1.0
 40
1.0
 10
381.4353278422
 20
203.0815642186
 30
0.0
 10
381.4201753412
 20
203.2217510992
 30
0.0
 10
381.3949196322
 20
203.5703850032
 30
0.0
 10
381.3763389605
 20
203.9192798539
 30
0.0
 10
381.3664051005
 20
204.1274553304
 30
0.0
  0
LINE
  5
48A
100
AcDbEntity
  8
0
100
AcDbLine
 62
7
  6
CONTINUOUS
 10
381.3664051005
 20
204.1274553304
 11
381.3649909707
 21
204.1572519273
  0
SPLINE
  5
48B
100
AcDbEntity
  8
0
100
AcDbSpline
 62
9
  6
CONTINUOUS
 70
0
 71
3
 72
12
 73
8
 74
0
 42
0.0000001
 43
0.0000001
 44
0.0000000001
 40
0.0
 40
0.0
 40
0.0
 40
0.0
 40
0.3155228379
 40
0.5985582267
 40
0.8315433196
 40
0.9245771517
 40
1.0
 40
1.0
 40
1.0
 40
1.0
 10
381.8075887639
 20
214.9286955494
 30
0.0
 10
381.7883260137
 20
215.8070688384
 30
0.0
 10
381.7511466286
 20
217.4733625955
 30
0.0
 10
381.6938270078
 20
219.7881137098
 30
0.0
 10
381.6440522668
 20
221.483338673
 30
0.0
 10
381.6019958123
 20
222.6003805333
 30
0.0
 10
381.5804940818
 20
223.0689739593
 30
0.0
 10
381.5691739382
 20
223.2786862378
 30
0.0
  0
SPLINE
  5
48C
100
AcDbEntity
  8
0
100
AcDbSpline
 62
7
  6
CONTINUOUS
 70
0
 71
3
 72
9
 73
5
 74
0
 42
0.0000001
 43
0.0000001
 44
0.0000000001
 40
0.0
 40
0.0
 40
0.0
 40
0.0
 40
0.280883572
 40
1.0
 40
1.0
 40
1.0
 40
1.0
 10
369.1423998582
 20
212.1335863694
 30
0.0
 10
369.1612568227
 20
211.3344095393
 30
0.0
 10
369.2308117495
 20
208.489247786
 30
0.0
 10
369.311727903
 20
205.6443272089
 30
0.0
 10
369.3827176421
 20
203.5989415782
 30
0.0
  0
SPLINE
  5
48D
100
AcDbEntity
  8
0
100
AcDbSpline
 62
7
  6
CONTINUOUS
 70
0
 71
3
 72
13
 73
9
 74
0
 42
0.0000001
 43
0.0000001
 44
0.0000000001
 40
0.0
 40
0.0
 40
0.0
 40
0.0
 40
0.0567616504
 40
0.1348033151
 40
0.2334488319
 40
0.3518641814
 40
0.6436740279
 40
1.0
 40
1.0
 40
1.0
 40
1.0
 10
369.3832230087
 20
200.5328598823
 30
0.0
 10
369.370832216
 20
200.6287470863
 30
0.0
 10
369.3488663505
 20
200.8573929329
 30
0.0
 10
369.3199954313
 20
201.2539798019
 30
0.0
 10
369.2907907779
 20
201.7558124428
 30
0.0
 10
369.2485773518
 20
202.6215679023
 30
0.0
 10
369.1980124074
 20
203.9263143596
 30
0.0
 10
369.1623483096
 20
205.0297355649
 30
0.0
 10
369.1438648118
 20
205.6363988723
 30
0.0
  0
SPLINE
  5
48E
100
AcDbEntity
  8
0
100
AcDbSpline
 62
7
  6
CONTINUOUS
 70
0
 71
3
 72
9
 73
5
 74
0
 42
0.0000001
 43
0.0000001
 44
0.0000000001
 40
0.0
 40
0.0
 40
0.0
 40
0.0
 40
0.24461492
 40
1.0
 40
1.0
 40
1.0
 40
1.0
 10
369.1438648118
 20
205.6363988723
 30
0.0
 10
369.141553638
 20
205.7122559622
 30
0.0
 10
369.1321796853
 20
206.0223664124
 30
0.0
 10
369.1230861725
 20
206.3324853145
 30
0.0
 10
369.1163456978
 20
206.5667481601
 30
0.0
  0
LINE
  5
48F
100
AcDbEntity
  8
0
100
AcDbLine
 62
7
  6
CONTINUOUS
 10
369.1163456978
 20
206.5667481601
 11
369.1150249965
 21
206.6127061838
  0
LINE
  5
490
100
AcDbEntity
  8
0
100
AcDbLine
 62
7
  6
CONTINUOUS
 10
369.1150249965
 20
206.6127061838
 11
369.1084446146
 21
206.8433854212
  0
LINE
  5
491
100
AcDbEntity
  8
0
100
AcDbLine
 62
7
  6
CONTINUOUS
 10
369.1079489182
 20
206.8608751584
 11
369.1059077546
 21
206.9330577908
  0
SPLINE
  5
492
100
AcDbEntity
  8
0
100
AcDbSpline
 62
7
  6
CONTINUOUS
 70
0
 71
3
 72
9
 73
5
 74
0
 42
0.0000001
 43
0.0000001
 44
0.0000000001
 40
0.0
 40
0.0
 40
0.0
 40
0.0
 40
0.2465664209
 40
1.0
 40
1.0
 40
1.0
 40
1.0
 10
369.1059077546
 20
206.9330577908
 30
0.0
 10
369.104008774
 20
207.000334301
 30
0.0
 10
369.0963458391
 20
207.2731888922
 30
0.0
 10
369.0888286164
 20
207.5460475673
 30
0.0
 10
369.083230896
 20
207.7516302385
 30
0.0
  0
SPLINE
  5
493
100
AcDbEntity
  8
0
100
AcDbSpline
 62
7
  6
CONTINUOUS
 70
0
 71
3
 72
11
 73
7
 74
0
 42
0.0000001
 43
0.0000001
 44
0.0000000001
 40
0.0
 40
0.0
 40
0.0
 40
0.0
 40
0.3042580726
 40
0.5812550675
 40
0.8170837416
 40
1.0
 40
1.0
 40
1.0
 40
1.0
 10
381.6216970642
 20
214.9286878153
 30
0.0
 10
381.6043230959
 20
215.6701693513
 30
0.0
 10
381.5713026663
 20
217.0867020626
 30
0.0
 10
381.5177009139
 20
219.0777779578
 30
0.0
 10
381.4679098206
 20
220.7730428682
 30
0.0
 10
381.4288757546
 20
221.7931066647
 30
0.0
 10
381.4071883642
 20
222.2384709835
 30
0.0
  0
SPLINE
  5
494
100
AcDbEntity
  8
0
100
AcDbSpline
 62
7
  6
CONTINUOUS
 70
0
 71
3
 72
9
 73
5
 74
0
 42
0.0000001
 43
0.0000001
 44
0.0000000001
 40
0.0
 40
0.0
 40
0.0
 40
0.0
 40
0.292488325
 40
1.0
 40
1.0
 40
1.0
 40
1.0
 10
381.4071883642
 20
222.2384709835
 30
0.0
 10
381.4033917035
 20
222.316437819
 30
0.0
 10
381.3897989478
 20
222.5829675552
 30
0.0
 10
381.3743696842
 20
222.8494311318
 30
0.0
 10
381.3602600688
 20
223.0377237877
 30
0.0
  0
SPLINE
  5
495
100
AcDbEntity
  8
0
100
AcDbSpline
 62
7
  6
CONTINUOUS
 70
0
 71
3
 72
9
 73
5
 74
0
 42
0.0000001
 43
0.0000001
 44
0.0000000001
 40
0.0
 40
0.0
 40
0.0
 40
0.0
 40
0.2820229318
 40
1.0
 40
1.0
 40
1.0
 40
1.0
 10
381.3602600688
 20
223.0377237877
 30
0.0
 10
381.358561737
 20
223.0603880063
 30
0.0
 10
381.3523227526
 20
223.1407330791
 30
0.0
 10
381.3452265253
 20
223.2210225886
 30
0.0
 10
381.338990943
 20
223.2785461896
 30
0.0
  0
LINE
  5
496
100
AcDbEntity
  8
0
100
AcDbLine
 62
7
  6
CONTINUOUS
 10
369.0832330798
 20
214.5251949674
 11
369.0908281424
 21
214.2191559613
  0
SPLINE
  5
497
100
AcDbEntity
  8
0
100
AcDbSpline
 62
7
  6
CONTINUOUS
 70
0
 71
3
 72
13
 73
9
 74
0
 42
0.0000001
 43
0.0000001
 44
0.0000000001
 40
0.0
 40
0.0
 40
0.0
 40
0.0
 40
0.3449239604
 40
0.6420203447
 40
0.7647874273
 40
0.8667677911
 40
0.945771965
 40
1.0
 40
1.0
 40
1.0
 40
1.0
 10
383.3365263323
 20
211.4286977719
 30
0.0
 10
383.347075505
 20
210.4839131005
 30
0.0
 10
383.3677703447
 20
208.7253616087
 30
0.0
 10
383.3954188395
 20
206.6305714448
 30
0.0
 10
383.4192170075
 20
205.201293091
 30
0.0
 10
383.4358769792
 20
204.3693921335
 30
0.0
 10
383.452316381
 20
203.7252948174
 30
0.0
 10
383.4649925463
 20
203.3605265114
 30
0.0
 10
383.472505041
 20
203.2121707877
 30
0.0
  0
SPLINE
  5
498
100
AcDbEntity
  8
0
100
AcDbSpline
 62
7
  6
CONTINUOUS
 70
0
 71
3
 72
14
 73
10
 74
0
 42
0.0000001
 43
0.0000001
 44
0.0000000001
 40
0.0
 40
0.0
 40
0.0
 40
0.0
 40
0.0525170642
 40
0.1303009458
 40
0.2316796305
 40
0.3544448021
 40
0.495916204
 40
0.6530025262
 40
1.0
 40
1.0
 40
1.0
 40
1.0
 10
382.9353278422
 20
203.0787388331
 30
0.0
 10
382.9197550954
 20
203.2241775753
 30
0.0
 10
382.8937778053
 20
203.5862934462
 30
0.0
 10
382.860071486
 20
204.2306513997
 30
0.0
 10
382.8260225774
 20
205.0709212798
 30
0.0
 10
382.7914395169
 20
206.0886384146
 30
0.0
 10
382.7566922922
 20
207.261594137
 30
0.0
 10
382.7086912068
 20
209.0589484661
 30
0.0
 10
382.6749651279
 20
210.4625158889
 30
0.0
 10
382.652464238
 20
211.4287083733
 30
0.0
  0
LINE
  5
499
100
AcDbEntity
  8
0
100
AcDbLine
 62
7
  6
CONTINUOUS
 10
375.1615865166
 20
211.0454820102
 11
375.1603189711
 21
211.0989143548
  0
LINE
  5
49A
100
AcDbEntity
  8
0
100
AcDbLine
 62
9
  6
CONTINUOUS
 10
374.9686082776
 20
211.3160110032
 11
374.9791291041
 21
210.839063567
  0
LINE
  5
49B
100
AcDbEntity
  8
0
100
AcDbLine
 62
9
  6
CONTINUOUS
 10
374.9932766195
 20
210.2050308385
 11
375.0004797955
 21
209.8860789173
  0
LINE
  5
49C
100
AcDbEntity
  8
0
100
AcDbLine
 62
9
  6
CONTINUOUS
 10
375.0181808627
 20
209.1155984015
 11
375.0222144039
 21
208.9430054177
  0
LINE
  5
49D
100
AcDbEntity
  8
0
100
AcDbLine
 62
9
  6
CONTINUOUS
 10
374.8695547298
 20
211.4153185477
 11
374.8841645688
 21
210.7483847173
  0
LINE
  5
49E
100
AcDbEntity
  8
0
100
AcDbLine
 62
9
  6
CONTINUOUS
 10
374.8939935623
 20
210.3046617711
 11
374.9054331343
 21
209.794402922
  0
LINE
  5
49F
100
AcDbEntity
  8
0
100
AcDbLine
 62
9
  6
CONTINUOUS
 10
374.9185680964
 20
209.2181626732
 11
374.9269227533
 21
208.8577732818
  0
LINE
  5
4A0
100
AcDbEntity
  8
0
100
AcDbLine
 62
9
  6
CONTINUOUS
 10
374.9433685162
 20
208.164277349
 11
374.9484172536
 21
207.9560005512
  0
LINE
  5
4A1
100
AcDbEntity
  8
0
100
AcDbLine
 62
9
  6
CONTINUOUS
 10
374.968646273
 20
207.1457793863
 11
374.969985005
 21
207.0936221083
  0
SPLINE
  5
4A2
100
AcDbEntity
  8
0
100
AcDbSpline
 62
9
  6
CONTINUOUS
 70
0
 71
3
 72
12
 73
8
 74
0
 42
0.0000001
 43
0.0000001
 44
0.0000000001
 40
0.0
 40
0.0
 40
0.0
 40
0.0
 40
0.3155799467
 40
0.5986057248
 40
0.8315492464
 40
0.9245763058
 40
1.0
 40
1.0
 40
1.0
 40
1.0
 10
382.4661362101
 20
211.4286977702
 30
0.0
 10
382.4854024347
 20
210.5501645202
 30
0.0
 10
382.5225848604
 20
208.8837366827
 30
0.0
 10
382.579906297
 20
206.568966528
 30
0.0
 10
382.6296777463
 20
204.8739010302
 30
0.0
 10
382.6717300102
 20
203.7569901253
 30
0.0
 10
382.6932306893
 20
203.2884126502
 30
0.0
 10
382.7045509064
 20
203.078697783
 30
0.0
  0
LINE
  5
4A3
100
AcDbEntity
  8
0
100
AcDbLine
 62
7
  6
CONTINUOUS
 10
375.0664118828
 20
215.1392815513
 11
375.0594242073
 21
215.4377629795
  0
LINE
  5
4A4
100
AcDbEntity
  8
0
100
AcDbLine
 62
7
  6
CONTINUOUS
 10
375.0411435851
 20
216.1982731313
 11
375.0353188931
 21
216.4366941042
  0
LINE
  5
4A5
100
AcDbEntity
  8
0
100
AcDbLine
 62
7
  6
CONTINUOUS
 10
375.0154601682
 20
217.2398107033
 11
375.0107939805
 21
217.4253844381
  0
LINE
  5
4A6
100
AcDbEntity
  8
0
100
AcDbLine
 62
7
  6
CONTINUOUS
 10
374.9896020391
 20
218.246090744
 11
374.9861542097
 21
218.3757494775
  0
LINE
  5
4A7
100
AcDbEntity
  8
0
100
AcDbLine
 62
7
  6
CONTINUOUS
 10
374.9633033127
 20
219.2055134043
 11
374.9613610181
 21
219.2735730442
  0
SPLINE
  5
4A8
100
AcDbEntity
  8
0
100
AcDbSpline
 62
7
  6
CONTINUOUS
 70
0
 71
3
 72
9
 73
5
 74
0
 42
0.0000001
 43
0.0000001
 44
0.0000000001
 40
0.0
 40
0.0
 40
0.0
 40
0.0
 40
0.2734290553
 40
1.0
 40
1.0
 40
1.0
 40
1.0
 10
374.815396244
 20
222.963009043
 30
0.0
 10
374.8139391379
 20
222.9832965344
 30
0.0
 10
374.8084645655
 20
223.0574822383
 30
0.0
 10
374.8023952928
 20
223.1316263608
 30
0.0
 10
374.7974270943
 20
223.185445454
 30
0.0
  0
SPLINE
  5
4A9
100
AcDbEntity
  8
0
100
AcDbSpline
 62
9
  6
CONTINUOUS
 70
0
 71
3
 72
11
 73
7
 74
0
 42
0.0000001
 43
0.0000001
 44
0.0000000001
 40
0.0
 40
0.0
 40
0.0
 40
0.0
 40
0.1709289792
 40
0.4044325313
 40
0.6864544621
 40
1.0
 40
1.0
 40
1.0
 40
1.0
 10
382.2151476289
 20
203.0787018472
 30
0.0
 10
382.1905043121
 20
203.5540142809
 30
0.0
 10
382.1481341285
 20
204.6794283074
 30
0.0
 10
382.092228592
 20
206.5900250506
 30
0.0
 10
382.0358524057
 20
208.897894281
 30
0.0
 10
381.9990670093
 20
210.5558386407
 30
0.0
 10
381.9800561545
 20
211.4286975333
 30
0.0
  0
SPLINE
  5
4AA
100
AcDbEntity
  8
0
100
AcDbSpline
 62
9
  6
CONTINUOUS
 70
0
 71
3
 72
9
 73
5
 74
0
 42
0.0000001
 43
0.0000001
 44
0.0000000001
 40
0.0
 40
0.0
 40
0.0
 40
0.0
 40
0.471154062
 40
1.0
 40
1.0
 40
1.0
 40
1.0
 10
383.1206179784
 20
222.0987387668
 30
0.0
 10
383.1264880828
 20
222.1166209461
 30
0.0
 10
383.1553132631
 20
222.1493308304
 30
0.0
 10
383.1960820104
 20
222.1597552376
 30
0.0
 10
383.2172058774
 20
222.1600263328
 30
0.0
  0
SPLINE
  5
4AB
100
AcDbEntity
  8
0
100
AcDbSpline
 62
9
  6
CONTINUOUS
 70
0
 71
3
 72
10
 73
6
 74
0
 42
0.0000001
 43
0.0000001
 44
0.0000000001
 40
0.0
 40
0.0
 40
0.0
 40
0.0
 40
0.5596182432
 40
0.7984598426
 40
1.0
 40
1.0
 40
1.0
 40
1.0
 10
383.2887641752
 20
215.7797215172
 30
0.0
 10
383.2624974962
 20
216.958599668
 30
0.0
 10
383.2239024616
 20
218.6405974997
 30
0.0
 10
383.1660931239
 20
220.7469052626
 30
0.0
 10
383.1362507181
 20
221.6743616443
 30
0.0
 10
383.1206179784
 20
222.0987387668
 30
0.0
  0
SPLINE
  5
4AC
100
AcDbEntity
  8
0
100
AcDbSpline
 62
9
  6
CONTINUOUS
 70
0
 71
3
 72
10
 73
6
 74
0
 42
0.0000001
 43
0.0000001
 44
0.0000000001
 40
0.0
 40
0.0
 40
0.0
 40
0.0
 40
0.1995994793
 40
0.4390986314
 40
1.0
 40
1.0
 40
1.0
 40
1.0
 10
382.2031278677
 20
222.098687895
 30
0.0
 10
382.2206949472
 20
221.6218022573
 30
0.0
 10
382.2539495016
 20
220.5725059725
 30
0.0
 10
382.3179087764
 20
218.1825259823
 30
0.0
 10
382.3606739348
 20
216.269372248
 30
0.0
 10
382.3900759254
 20
214.9286729194
 30
0.0
  0
SPLINE
  5
4AD
100
AcDbEntity
  8
0
100
AcDbSpline
 62
9
  6
CONTINUOUS
 70
0
 71
3
 72
11
 73
7
 74
0
 42
0.0000001
 43
0.0000001
 44
0.0000000001
 40
0.0
 40
0.0
 40
0.0
 40
0.0
 40
0.3135555642
 40
0.5955749745
 40
0.8290731271
 40
1.0
 40
1.0
 40
1.0
 40
1.0
 10
382.3692633355
 20
211.4286977929
 30
0.0
 10
382.3882746518
 20
210.5558103797
 30
0.0
 10
382.4250609534
 20
208.897843988
 30
0.0
 10
382.481436616
 20
206.5899672627
 30
0.0
 10
382.5373434128
 20
204.6793971876
 30
0.0
 10
382.5797104497
 20
203.5540031455
 30
0.0
 10
382.6043548567
 20
203.0786963104
 30
0.0
  0
SPLINE
  5
4AE
100
AcDbEntity
  8
0
100
AcDbSpline
 62
9
  6
CONTINUOUS
 70
0
 71
3
 72
12
 73
8
 74
0
 42
0.0000001
 43
0.0000001
 44
0.0000000001
 40
0.0
 40
0.0
 40
0.0
 40
0.0
 40
0.0754254924
 40
0.1684532544
 40
0.401401768
 40
0.6844299538
 40
1.0
 40
1.0
 40
1.0
 40
1.0
 10
382.122110877
 20
203.0786978575
 30
0.0
 10
382.1107908518
 20
203.2884177475
 30
0.0
 10
382.0892897968
 20
203.7570021669
 30
0.0
 10
382.047236339
 20
204.8739338995
 30
0.0
 10
381.9974650661
 20
206.5690219591
 30
0.0
 10
381.9401434975
 20
208.8837851223
 30
0.0
 10
381.902961709
 20
210.5501920903
 30
0.0
 10
381.8836960199
 20
211.4286977693
 30
0.0
  0
SPLINE
  5
4AF
100
AcDbEntity
  8
0
100
AcDbSpline
 62
7
  6
CONTINUOUS
 70
0
 71
3
 72
11
 73
7
 74
0
 42
0.0000001
 43
0.0000001
 44
0.0000000001
 40
0.0
 40
0.0
 40
0.0
 40
0.0
 40
0.2907594647
 40
0.5607323382
 40
0.7998968931
 40
1.0
 40
1.0
 40
1.0
 40
1.0
 10
382.5712645518
 20
214.9280754944
 30
0.0
 10
382.5562538536
 20
215.5692893938
 30
0.0
 10
382.5271059622
 20
216.8058710297
 30
0.0
 10
382.4816983418
 20
218.5697945812
 30
0.0
 10
382.434833587
 20
220.1336104211
 30
0.0
 10
382.4041514069
 20
221.1021240607
 30
0.0
 10
382.386864395
 20
221.5431951181
 30
0.0
  0
LINE
  5
4B0
100
AcDbEntity
  8
0
100
AcDbLine
 62
7
  6
CONTINUOUS
 10
383.2887253998
 20
215.7826548265
 11
383.298097676
 21
214.9286977719
  0
SPLINE
  5
4B1
100
AcDbEntity
  8
0
100
AcDbSpline
 62
7
  6
CONTINUOUS
 70
0
 71
3
 72
11
 73
7
 74
0
 42
0.0000001
 43
0.0000001
 44
0.0000000001
 40
0.0
 40
0.0
 40
0.0
 40
0.0
 40
0.2906975824
 40
0.5607180612
 40
0.8000977865
 40
1.0
 40
1.0
 40
1.0
 40
1.0
 10
383.1220801026
 20
214.9286795095
 30
0.0
 10
383.1069845568
 20
215.5697695767
 30
0.0
 10
383.076642647
 20
216.8063206135
 30
0.0
 10
383.0320385908
 20
218.5707415648
 30
0.0
 10
382.9881329442
 20
220.1348263851
 30
0.0
 10
382.9540839399
 20
221.1032775231
 30
0.0
 10
382.9369290001
 20
221.5439203652
 30
0.0
  0
LINE
  5
4B2
100
AcDbEntity
  8
0
100
AcDbLine
 62
7
  6
CONTINUOUS
 10
374.8094011757
 20
222.4752080689
 11
374.8137854926
 21
222.3840540259
  0
LINE
  5
4B3
100
AcDbEntity
  8
0
100
AcDbLine
 62
7
  6
CONTINUOUS
 10
374.8952992311
 20
220.161753931
 11
374.8972291445
 21
220.0981356351
  0
LINE
  5
4B4
100
AcDbEntity
  8
0
100
AcDbLine
 62
7
  6
CONTINUOUS
 10
374.9199252971
 20
219.3171724201
 11
374.9238867255
 21
219.1749876263
  0
LINE
  5
4B5
100
AcDbEntity
  8
0
100
AcDbLine
 62
7
  6
CONTINUOUS
 10
374.944366516
 20
218.4145713885
 11
374.949719973
 21
218.2091937219
  0
LINE
  5
4B6
100
AcDbEntity
  8
0
100
AcDbLine
 62
7
  6
CONTINUOUS
 10
374.9686322458
 20
217.4636776482
 11
374.9751498654
 21
217.2001745796
  0
LINE
  5
4B7
100
AcDbEntity
  8
0
100
AcDbLine
 62
7
  6
CONTINUOUS
 10
374.9925957933
 20
216.4814806057
 11
375.0003258349
 21
216.1579700905
  0
LINE
  5
4B8
100
AcDbEntity
  8
0
100
AcDbLine
 62
7
  6
CONTINUOUS
 10
375.0162768976
 20
215.4808077873
 11
375.0251404822
 21
215.0978977212
  0
SPLINE
  5
4B9
100
AcDbEntity
  8
0
100
AcDbSpline
 62
7
  6
CONTINUOUS
 70
0
 71
3
 72
10
 73
6
 74
0
 42
0.0000001
 43
0.0000001
 44
0.0000000001
 40
0.0
 40
0.0
 40
0.0
 40
0.0
 40
0.2728044144
 40
0.5329955127
 40
1.0
 40
1.0
 40
1.0
 40
1.0
 10
383.2887253998
 20
215.7826548265
 30
0.0
 10
383.283916256
 20
216.2162307219
 30
0.0
 10
383.2783758556
 20
217.0633754793
 30
0.0
 10
383.2712611745
 20
218.6527842843
 30
0.0
 10
383.2688886362
 20
219.8086097031
 30
0.0
 10
383.2688636547
 20
220.5508790105
 30
0.0
  0
SPLINE
  5
4BA
100
AcDbEntity
  8
0
100
AcDbSpline
 62
7
  6
CONTINUOUS
 70
0
 71
3
 72
14
 73
10
 74
0
 42
0.0000001
 43
0.0000001
 44
0.0000000001
 40
0.0
 40
0.0
 40
0.0
 40
0.0
 40
0.0525063459
 40
0.1302932224
 40
0.2316850733
 40
0.3544517816
 40
0.6529962589
 40
0.8222645023
 40
1.0
 40
1.0
 40
1.0
 40
1.0
 10
381.9860603261
 20
203.0789195698
 30
0.0
 10
381.970345289
 20
203.2243108179
 30
0.0
 10
381.9438216182
 20
203.5863598319
 30
0.0
 10
381.9100598952
 20
204.230728236
 30
0.0
 10
381.8768629404
 20
205.0710678679
 30
0.0
 10
381.827312609
 20
206.5260236983
 30
0.0
 10
381.7814367493
 20
208.1702579041
 30
0.0
 10
381.7379249048
 20
209.9676780646
 30
0.0
 10
381.7146947753
 20
210.9338570694
 30
0.0
 10
381.7031027682
 20
211.4287414659
 30
0.0
  0
SPLINE
  5
4BB
100
AcDbEntity
  8
0
100
AcDbSpline
 62
9
  6
CONTINUOUS
 70
0
 71
3
 72
9
 73
5
 74
0
 42
0.0000001
 43
0.0000001
 44
0.0000000001
 40
0.0
 40
0.0
 40
0.0
 40
0.0
 40
0.2818281754
 40
1.0
 40
1.0
 40
1.0
 40
1.0
 10
383.2172096661
 20
222.1600263824
 30
0.0
 10
383.2133623538
 20
222.2651435483
 30
0.0
 10
383.1992311437
 20
222.6381075459
 30
0.0
 10
383.1832472428
 20
223.0110116394
 30
0.0
 10
383.169367936
 20
223.2786974215
 30
0.0
  0
SPLINE
  5
4BC
100
AcDbEntity
  8
0
100
AcDbSpline
 62
9
  6
CONTINUOUS
 70
0
 71
3
 72
9
 73
5
 74
0
 42
0.0000001
 43
0.0000001
 44
0.0000000001
 40
0.0
 40
0.0
 40
0.0
 40
0.0
 40
0.2720055953
 40
1.0
 40
1.0
 40
1.0
 40
1.0
 10
383.2688653922
 20
220.5501047226
 30
0.0
 10
383.2646659285
 20
220.696088875
 30
0.0
 10
383.248853507
 20
221.2327730417
 30
0.0
 10
383.2315023175
 20
221.7694149964
 30
0.0
 10
383.2172058773
 20
222.1600263343
 30
0.0
  0
SPLINE
  5
4BD
100
AcDbEntity
  8
0
100
AcDbSpline
 62
9
  6
CONTINUOUS
 70
0
 71
3
 72
9
 73
5
 74
0
 42
0.0000001
 43
0.0000001
 44
0.0000000001
 40
0.0
 40
0.0
 40
0.0
 40
0.0
 40
0.284808274
 40
1.0
 40
1.0
 40
1.0
 40
1.0
 10
383.1206438676
 20
222.0988174756
 30
0.0
 10
383.1165165277
 20
222.2108618551
 30
0.0
 10
383.101470717
 20
222.604241932
 30
0.0
 10
383.0843528179
 20
222.9975577744
 30
0.0
 10
383.0691771243
 20
223.2786977606
 30
0.0
  0
SPLINE
  5
4BE
100
AcDbEntity
  8
0
100
AcDbSpline
 62
7
  6
CONTINUOUS
 70
0
 71
3
 72
11
 73
7
 74
0
 42
0.0000001
 43
0.0000001
 44
0.0000000001
 40
0.0
 40
0.0
 40
0.0
 40
0.0
 40
0.3348049881
 40
0.6148468401
 40
0.8374811933
 40
1.0
 40
1.0
 40
1.0
 40
1.0
 10
382.9375385156
 20
221.5437962693
 30
0.0
 10
382.9299379252
 20
221.7375808224
 30
0.0
 10
382.9147705076
 20
222.0934048764
 30
0.0
 10
382.8903067989
 20
222.5779084554
 30
0.0
 10
382.8666581258
 20
222.9624791158
 30
0.0
 10
382.8491828561
 20
223.1849517381
 30
0.0
 10
382.8390398878
 20
223.2785416437
 30
0.0
  0
SPLINE
  5
4BF
100
AcDbEntity
  8
0
100
AcDbSpline
 62
7
  6
CONTINUOUS
 70
0
 71
3
 72
11
 73
7
 74
0
 42
0.0000001
 43
0.0000001
 44
0.0000000001
 40
0.0
 40
0.0
 40
0.0
 40
0.0
 40
0.3354297488
 40
0.6160977469
 40
0.8382667715
 40
1.0
 40
1.0
 40
1.0
 40
1.0
 10
382.3868643949
 20
221.5418077161
 30
0.0
 10
382.3792512947
 20
221.735912274
 30
0.0
 10
382.3645016016
 20
222.0924018984
 30
0.0
 10
382.3404196587
 20
222.5772762429
 30
0.0
 10
382.3164712918
 20
222.9613913766
 30
0.0
 10
382.2984927798
 20
223.1830424106
 30
0.0
 10
382.2884009477
 20
223.2761599581
 30
0.0
  0
ELLIPSE
  5
4C0
100
AcDbEntity
  8
0
100
AcDbEllipse
 62
7
  6
CONTINUOUS
 10
373.6546708873
 20
214.4453921859
 30
0.0
 11
11.0727068063
 21
-11.0138831952
 31
0.0
 40
0.3611900989
 41
1.8126117921
 42
1.8153693492
  0
ELLIPSE
  5
4C1
100
AcDbEntity
  8
0
100
AcDbEllipse
 62
7
  6
CONTINUOUS
 10
373.6546708873
 20
214.5332083725
 30
0.0
 11
11.2332915293
 21
-11.1888245082
 31
0.0
 40
0.3127268432
 41
1.7636891791
 42
1.7724225014
  0
ELLIPSE
  5
4C2
100
AcDbEntity
  8
0
100
AcDbEllipse
 62
7
  6
CONTINUOUS
 10
373.6546708873
 20
214.6107159155
 30
0.0
 11
11.3733978859
 21
-11.3410195024
 31
0.0
 40
0.2656407375
 41
1.7152833137
 42
1.7293968345
  0
ELLIPSE
  5
4C3
100
AcDbEntity
  8
0
100
AcDbEllipse
 62
7
  6
CONTINUOUS
 10
373.6546708873
 20
214.6773249358
 30
0.0
 11
11.4925991748
 21
-11.4702536116
 31
0.0
 40
0.2196974035
 41
1.6672581521
 42
1.6863131553
  0
ELLIPSE
  5
4C4
100
AcDbEntity
  8
0
100
AcDbEllipse
 62
7
  6
CONTINUOUS
 10
373.6546708873
 20
214.7325284985
 30
0.0
 11
11.5905575138
 21
-11.576316861
 31
0.0
 40
0.1746808886
 41
1.6195103217
 42
1.6431867782
  0
ELLIPSE
  5
4C5
100
AcDbEntity
  8
0
100
AcDbEllipse
 62
7
  6
CONTINUOUS
 10
373.6546708873
 20
214.7759064711
 30
0.0
 11
11.667009152
 21
-11.6590212168
 31
0.0
 40
0.1303896938
 41
1.5718502213
 42
1.6000294518
  0
ELLIPSE
  5
4C6
100
AcDbEntity
  8
0
100
AcDbEllipse
 62
7
  6
CONTINUOUS
 10
373.6546708873
 20
214.8071287211
 30
0.0
 11
11.7217555829
 21
-11.7182116046
 31
0.0
 40
0.0866333245
 41
1.5245166222
 42
1.5568505908
  0
ELLIPSE
  5
4C7
100
AcDbEntity
  8
0
100
AcDbEllipse
 62
7
  6
CONTINUOUS
 10
373.6546708873
 20
214.8259576283
 30
0.0
 11
11.7546581246
 21
-11.7537729754
 31
0.0
 40
0.0432292275
 41
1.4790553615
 42
1.5136581106
  0
ELLIPSE
  5
4C8
100
AcDbEntity
  8
0
100
AcDbEllipse
 62
7
  6
CONTINUOUS
 10
375.3082230087
 20
213.1786977719
 30
0.0
 11
9.3265583107
 21
9.3265583106
 31
0.0
 40
0.916331174
 41
0.8346212007
 42
0.8665896313
  0
ELLIPSE
  5
4C9
100
AcDbEntity
  8
0
100
AcDbEllipse
 62
7
  6
CONTINUOUS
 10
375.3082230087
 20
213.1786977719
 30
0.0
 11
9.6904622055
 21
9.6904622055
 31
0.0
 40
0.8390996312
 41
0.878254432
 42
0.9102228626
  0
ELLIPSE
  5
4CA
100
AcDbEntity
  8
0
100
AcDbEllipse
 62
7
  6
CONTINUOUS
 10
375.3082230087
 20
213.1786977719
 30
0.0
 11
10.0359197547
 21
10.0359197547
 31
0.0
 40
0.767326988
 41
0.9218876633
 42
0.9538560939
  0
ELLIPSE
  5
4CB
100
AcDbEntity
  8
0
100
AcDbEllipse
 62
7
  6
CONTINUOUS
 10
375.3082230087
 20
213.1786977719
 30
0.0
 11
10.3622733603
 21
10.3622733603
 31
0.0
 40
0.7002075382
 41
0.9655208946
 42
0.9974893252
  0
ELLIPSE
  5
4CC
100
AcDbEntity
  8
0
100
AcDbEllipse
 62
7
  6
CONTINUOUS
 10
375.3082230087
 20
213.1786977719
 30
0.0
 11
10.6689017895
 21
10.6689017895
 31
0.0
 40
0.6370702608
 41
1.0091541259
 42
1.0411225565
  0
ELLIPSE
  5
4CD
100
AcDbEntity
  8
0
100
AcDbEllipse
 62
7
  6
CONTINUOUS
 10
375.3082230087
 20
213.1786977719
 30
0.0
 11
10.9552213579
 21
10.9552213579
 31
0.0
 40
0.5773502692
 41
1.0527873572
 42
1.0847557878
  0
ELLIPSE
  5
4CE
100
AcDbEntity
  8
0
100
AcDbEllipse
 62
7
  6
CONTINUOUS
 10
375.3082230087
 20
213.1786977719
 30
0.0
 11
11.2206870397
 21
11.2206870397
 31
0.0
 40
0.5205670506
 41
1.0964205885
 42
1.1283890191
  0
ELLIPSE
  5
4CF
100
AcDbEntity
  8
0
100
AcDbEllipse
 62
7
  6
CONTINUOUS
 10
375.3082230087
 20
213.1786977719
 30
0.0
 11
11.464793506
 21
11.464793506
 31
0.0
 40
0.4663076582
 41
1.1400538198
 42
1.1720222504
  0
ELLIPSE
  5
4D0
100
AcDbEntity
  8
0
100
AcDbEllipse
 62
7
  6
CONTINUOUS
 10
375.3082230087
 20
213.1786977719
 30
0.0
 11
11.6870760863
 21
11.6870760863
 31
0.0
 40
0.4142135624
 41
1.1836870511
 42
1.2156554817
  0
ELLIPSE
  5
4D1
100
AcDbEntity
  8
0
100
AcDbEllipse
 62
7
  6
CONTINUOUS
 10
375.3082230087
 20
213.1786977719
 30
0.0
 11
11.8871116529
 21
11.8871116529
 31
0.0
 40
0.3639702343
 41
1.2273202824
 42
1.259288713
  0
ELLIPSE
  5
4D2
100
AcDbEntity
  8
0
100
AcDbEllipse
 62
7
  6
CONTINUOUS
 10
375.3082230087
 20
213.1786977719
 30
0.0
 11
12.064519427
 21
12.064519427
 31
0.0
 40
0.3152987889
 41
1.2709535137
 42
1.3029219443
  0
ELLIPSE
  5
4D3
100
AcDbEntity
  8
0
100
AcDbEllipse
 62
7
  6
CONTINUOUS
 10
375.3082230087
 20
213.1786977719
 30
0.0
 11
12.2189617026
 21
12.2189617026
 31
0.0
 40
0.2679491924
 41
1.314586745
 42
1.3465551756
  0
ELLIPSE
  5
4D4
100
AcDbEntity
  8
0
100
AcDbEllipse
 62
7
  6
CONTINUOUS
 10
375.3082230087
 20
213.1786977719
 30
0.0
 11
12.3501444901
 21
12.3501444901
 31
0.0
 40
0.2216946626
 41
1.3582199763
 42
1.3901884069
  0
ELLIPSE
  5
4D5
100
AcDbEntity
  8
0
100
AcDbEllipse
 62
7
  6
CONTINUOUS
 10
375.3082230087
 20
213.1786977719
 30
0.0
 11
12.4578180756
 21
12.4578180756
 31
0.0
 40
0.1763269807
 41
1.4018532076
 42
1.4338216382
  0
ELLIPSE
  5
4D6
100
AcDbEntity
  8
0
100
AcDbEllipse
 62
7
  6
CONTINUOUS
 10
375.3082230087
 20
213.1786977719
 30
0.0
 11
12.5417774964
 21
12.5417774964
 31
0.0
 40
0.1316524976
 41
1.4454864389
 42
1.4774548695
  0
ELLIPSE
  5
4D7
100
AcDbEntity
  8
0
100
AcDbEllipse
 62
7
  6
CONTINUOUS
 10
375.3082230087
 20
213.1786977719
 30
0.0
 11
12.6018629309
 21
12.6018629309
 31
0.0
 40
0.0874886635
 41
1.4891196702
 42
1.5210881008
  0
ELLIPSE
  5
4D8
100
AcDbEntity
  8
0
100
AcDbEllipse
 62
7
  6
CONTINUOUS
 10
375.3082230087
 20
213.1786977719
 30
0.0
 11
12.637960003
 21
12.637960003
 31
0.0
 40
0.0436609429
 41
1.5327529015
 42
1.5647213321
  0
ELLIPSE
  5
4D9
100
AcDbEntity
  8
0
100
AcDbEllipse
 62
7
  6
CONTINUOUS
 10
375.3082230087
 20
213.1786977719
 30
0.0
 11
0.0
 21
12.65
 31
0.0
 40
1.0
 41
-3.1791508902
 42
-3.1471824596
  0
ELLIPSE
  5
4DA
100
AcDbEntity
  8
0
100
AcDbEllipse
 62
7
  6
CONTINUOUS
 10
375.3082230087
 20
213.1786977719
 30
0.0
 11
9.3265583107
 21
-9.3265583106
 31
0.0
 40
0.916331174
 41
-0.8665896313
 42
-0.8346212007
  0
ELLIPSE
  5
4DB
100
AcDbEntity
  8
0
100
AcDbEllipse
 62
7
  6
CONTINUOUS
 10
375.3082230087
 20
213.1786977719
 30
0.0
 11
9.6904622055
 21
-9.6904622055
 31
0.0
 40
0.8390996312
 41
-0.9102228626
 42
-0.878254432
  0
ELLIPSE
  5
4DC
100
AcDbEntity
  8
0
100
AcDbEllipse
 62
7
  6
CONTINUOUS
 10
375.3082230087
 20
213.1786977719
 30
0.0
 11
10.0359197547
 21
-10.0359197547
 31
0.0
 40
0.767326988
 41
-0.9538560939
 42
-0.9218876633
  0
ELLIPSE
  5
4DD
100
AcDbEntity
  8
0
100
AcDbEllipse
 62
7
  6
CONTINUOUS
 10
375.3082230087
 20
213.1786977719
 30
0.0
 11
10.3622733603
 21
-10.3622733603
 31
0.0
 40
0.7002075382
 41
-0.9974893252
 42
-0.9655208946
  0
ELLIPSE
  5
4DE
100
AcDbEntity
  8
0
100
AcDbEllipse
 62
7
  6
CONTINUOUS
 10
375.3082230087
 20
213.1786977719
 30
0.0
 11
10.6689017895
 21
-10.6689017895
 31
0.0
 40
0.6370702608
 41
-1.0411225565
 42
-1.0091541259
  0
ELLIPSE
  5
4DF
100
AcDbEntity
  8
0
100
AcDbEllipse
 62
7
  6
CONTINUOUS
 10
375.3082230087
 20
213.1786977719
 30
0.0
 11
10.9552213579
 21
-10.9552213579
 31
0.0
 40
0.5773502692
 41
-1.0847557878
 42
-1.0527873572
  0
ELLIPSE
  5
4E0
100
AcDbEntity
  8
0
100
AcDbEllipse
 62
7
  6
CONTINUOUS
 10
375.3082230087
 20
213.1786977719
 30
0.0
 11
11.2206870397
 21
-11.2206870397
 31
0.0
 40
0.5205670506
 41
-1.1283890191
 42
-1.0964205885
  0
ELLIPSE
  5
4E1
100
AcDbEntity
  8
0
100
AcDbEllipse
 62
7
  6
CONTINUOUS
 10
375.3082230087
 20
213.1786977719
 30
0.0
 11
11.464793506
 21
-11.464793506
 31
0.0
 40
0.4663076582
 41
-1.1720222504
 42
-1.1400538198
  0
ELLIPSE
  5
4E2
100
AcDbEntity
  8
0
100
AcDbEllipse
 62
7
  6
CONTINUOUS
 10
375.3082230087
 20
213.1786977719
 30
0.0
 11
11.6870760863
 21
-11.6870760863
 31
0.0
 40
0.4142135624
 41
-1.2156554817
 42
-1.1836870511
  0
ELLIPSE
  5
4E3
100
AcDbEntity
  8
0
100
AcDbEllipse
 62
7
  6
CONTINUOUS
 10
375.3082230087
 20
213.1786977719
 30
0.0
 11
11.8871116529
 21
-11.8871116529
 31
0.0
 40
0.3639702343
 41
-1.259288713
 42
-1.2273202824
  0
ELLIPSE
  5
4E4
100
AcDbEntity
  8
0
100
AcDbEllipse
 62
7
  6
CONTINUOUS
 10
375.3082230087
 20
213.1786977719
 30
0.0
 11
12.064519427
 21
-12.064519427
 31
0.0
 40
0.3152987889
 41
-1.3029219443
 42
-1.2709535137
  0
ELLIPSE
  5
4E5
100
AcDbEntity
  8
0
100
AcDbEllipse
 62
7
  6
CONTINUOUS
 10
375.3082230087
 20
213.1786977719
 30
0.0
 11
12.2189617026
 21
-12.2189617026
 31
0.0
 40
0.2679491924
 41
-1.3465551756
 42
-1.314586745
  0
ELLIPSE
  5
4E6
100
AcDbEntity
  8
0
100
AcDbEllipse
 62
7
  6
CONTINUOUS
 10
375.3082230087
 20
213.1786977719
 30
0.0
 11
0.0
 21
12.65
 31
0.0
 40
1.0
 41
0.005589806
 42
0.0375582366
  0
ELLIPSE
  5
4E7
100
AcDbEntity
  8
0
100
AcDbEllipse
 62
7
  6
CONTINUOUS
 10
375.3082230087
 20
213.1786977719
 30
0.0
 11
12.3501444901
 21
-12.3501444901
 31
0.0
 40
0.2216946626
 41
-1.3901884069
 42
-1.3582199763
  0
ELLIPSE
  5
4E8
100
AcDbEntity
  8
0
100
AcDbEllipse
 62
7
  6
CONTINUOUS
 10
373.6546708873
 20
211.5314379156
 30
0.0
 11
11.7546581246
 21
11.7537729754
 31
0.0
 40
0.0432292275
 41
-1.5136581106
 42
-1.4790553615
  0
ELLIPSE
  5
4E9
100
AcDbEntity
  8
0
100
AcDbEllipse
 62
7
  6
CONTINUOUS
 10
375.3082230087
 20
213.1786977719
 30
0.0
 11
12.4578180756
 21
-12.4578180756
 31
0.0
 40
0.1763269807
 41
-1.4338216382
 42
-1.4018532076
  0
ELLIPSE
  5
4EA
100
AcDbEntity
  8
0
100
AcDbEllipse
 62
7
  6
CONTINUOUS
 10
373.6546708873
 20
211.5502668228
 30
0.0
 11
11.7217555829
 21
11.7182116046
 31
0.0
 40
0.0866333245
 41
-1.5568505908
 42
-1.5245166222
  0
ELLIPSE
  5
4EB
100
AcDbEntity
  8
0
100
AcDbEllipse
 62
7
  6
CONTINUOUS
 10
373.6546708873
 20
211.5814890728
 30
0.0
 11
11.667009152
 21
11.6590212168
 31
0.0
 40
0.1303896938
 41
-1.6000294518
 42
-1.5718502213
  0
ELLIPSE
  5
4EC
100
AcDbEntity
  8
0
100
AcDbEllipse
 62
7
  6
CONTINUOUS
 10
373.6546708873
 20
211.6248670454
 30
0.0
 11
11.5905575138
 21
11.576316861
 31
0.0
 40
0.1746808886
 41
-1.6431867782
 42
-1.6195103217
  0
ELLIPSE
  5
4ED
100
AcDbEntity
  8
0
100
AcDbEllipse
 62
7
  6
CONTINUOUS
 10
375.3082230087
 20
213.1786977719
 30
0.0
 11
12.5417774964
 21
-12.5417774964
 31
0.0
 40
0.1316524976
 41
-1.4774548695
 42
-1.4454864389
  0
ELLIPSE
  5
4EE
100
AcDbEntity
  8
0
100
AcDbEllipse
 62
7
  6
CONTINUOUS
 10
373.6546708873
 20
211.6800706081
 30
0.0
 11
11.4925991747
 21
11.4702536116
 31
0.0
 40
0.2196974035
 41
-1.6863131553
 42
-1.6672581521
  0
ELLIPSE
  5
4EF
100
AcDbEntity
  8
0
100
AcDbEllipse
 62
7
  6
CONTINUOUS
 10
373.6546708873
 20
211.7466796283
 30
0.0
 11
11.3733978859
 21
11.3410195024
 31
0.0
 40
0.2656407375
 41
-1.7293968345
 42
-1.7152833137
  0
ELLIPSE
  5
4F0
100
AcDbEntity
  8
0
100
AcDbEllipse
 62
7
  6
CONTINUOUS
 10
375.3082230087
 20
213.1786977719
 30
0.0
 11
12.6018629309
 21
-12.6018629309
 31
0.0
 40
0.0874886635
 41
-1.5210881008
 42
-1.4891196702
  0
ELLIPSE
  5
4F1
100
AcDbEntity
  8
0
100
AcDbEllipse
 62
7
  6
CONTINUOUS
 10
373.6546708873
 20
211.8241871714
 30
0.0
 11
11.2332915293
 21
11.1888245082
 31
0.0
 40
0.3127268432
 41
-1.7724225014
 42
-1.7636891791
  0
ELLIPSE
  5
4F2
100
AcDbEntity
  8
0
100
AcDbEllipse
 62
7
  6
CONTINUOUS
 10
373.6546708873
 20
211.9120033579
 30
0.0
 11
11.0727068063
 21
11.0138831952
 31
0.0
 40
0.3611900989
 41
-1.8153693492
 42
-1.8126117921
  0
ELLIPSE
  5
4F3
100
AcDbEntity
  8
0
100
AcDbEllipse
 62
7
  6
CONTINUOUS
 10
375.3082230087
 20
213.1786977719
 30
0.0
 11
12.637960003
 21
-12.637960003
 31
0.0
 40
0.0436609429
 41
-1.5647213321
 42
-1.5327529015
  0
ELLIPSE
  5
4F4
100
AcDbEntity
  8
0
100
AcDbEllipse
 62
7
  6
CONTINUOUS
 10
375.3082230087
 20
213.1786977719
 30
0.0
 11
12.6018629309
 21
-12.6018629309
 31
0.0
 40
0.0874886635
 41
1.6636525954
 42
1.695621026
  0
ELLIPSE
  5
4F5
100
AcDbEntity
  8
0
100
AcDbEllipse
 62
7
  6
CONTINUOUS
 10
375.3082230087
 20
213.1786977719
 30
0.0
 11
12.637960003
 21
-12.637960003
 31
0.0
 40
0.0436609429
 41
1.6200193641
 42
1.6519877947
  0
ELLIPSE
  5
4F6
100
AcDbEntity
  8
0
100
AcDbEllipse
 62
7
  6
CONTINUOUS
 10
375.3082230087
 20
213.1786977719
 30
0.0
 11
9.3265583107
 21
9.3265583106
 31
0.0
 40
0.916331174
 41
-2.3501194955
 42
-2.3181510649
  0
ELLIPSE
  5
4F7
100
AcDbEntity
  8
0
100
AcDbEllipse
 62
7
  6
CONTINUOUS
 10
375.3082230087
 20
213.1786977719
 30
0.0
 11
9.6904622055
 21
9.6904622055
 31
0.0
 40
0.8390996312
 41
-2.3064862642
 42
-2.2745178336
  0
ELLIPSE
  5
4F8
100
AcDbEntity
  8
0
100
AcDbEllipse
 62
7
  6
CONTINUOUS
 10
375.3082230087
 20
213.1786977719
 30
0.0
 11
10.0359197547
 21
10.0359197547
 31
0.0
 40
0.767326988
 41
-2.2628530329
 42
-2.2308846023
  0
ELLIPSE
  5
4F9
100
AcDbEntity
  8
0
100
AcDbEllipse
 62
7
  6
CONTINUOUS
 10
375.3082230087
 20
213.1786977719
 30
0.0
 11
10.3622733603
 21
10.3622733603
 31
0.0
 40
0.7002075382
 41
-2.2192198016
 42
-2.187251371
  0
ELLIPSE
  5
4FA
100
AcDbEntity
  8
0
100
AcDbEllipse
 62
7
  6
CONTINUOUS
 10
375.3082230087
 20
213.1786977719
 30
0.0
 11
10.6689017895
 21
10.6689017895
 31
0.0
 40
0.6370702608
 41
-2.1755865703
 42
-2.1436181397
  0
ELLIPSE
  5
4FB
100
AcDbEntity
  8
0
100
AcDbEllipse
 62
7
  6
CONTINUOUS
 10
375.3082230087
 20
213.1786977719
 30
0.0
 11
10.9552213579
 21
10.9552213579
 31
0.0
 40
0.5773502692
 41
-2.131953339
 42
-2.0999849084
  0
ELLIPSE
  5
4FC
100
AcDbEntity
  8
0
100
AcDbEllipse
 62
7
  6
CONTINUOUS
 10
375.3082230087
 20
213.1786977719
 30
0.0
 11
11.2206870397
 21
11.2206870397
 31
0.0
 40
0.5205670506
 41
-2.0883201077
 42
-2.0563516771
  0
ELLIPSE
  5
4FD
100
AcDbEntity
  8
0
100
AcDbEllipse
 62
7
  6
CONTINUOUS
 10
375.3082230087
 20
213.1786977719
 30
0.0
 11
9.6904622055
 21
-9.6904622055
 31
0.0
 40
0.8390996312
 41
2.2745178336
 42
2.3064862642
  0
ELLIPSE
  5
4FE
100
AcDbEntity
  8
0
100
AcDbEllipse
 62
7
  6
CONTINUOUS
 10
375.3082230087
 20
213.1786977719
 30
0.0
 11
11.464793506
 21
11.464793506
 31
0.0
 40
0.4663076582
 41
-2.0446868764
 42
-2.0127184458
  0
ELLIPSE
  5
4FF
100
AcDbEntity
  8
0
100
AcDbEllipse
 62
7
  6
CONTINUOUS
 10
375.3082230087
 20
213.1786977719
 30
0.0
 11
10.0359197547
 21
-10.0359197547
 31
0.0
 40
0.767326988
 41
2.2308846023
 42
2.2628530329
  0
ELLIPSE
  5
500
100
AcDbEntity
  8
0
100
AcDbEllipse
 62
7
  6
CONTINUOUS
 10
375.3082230087
 20
213.1786977719
 30
0.0
 11
11.6870760863
 21
11.6870760863
 31
0.0
 40
0.4142135624
 41
-2.0010536451
 42
-1.9690852145
  0
ELLIPSE
  5
501
100
AcDbEntity
  8
0
100
AcDbEllipse
 62
7
  6
CONTINUOUS
 10
375.3082230087
 20
213.1786977719
 30
0.0
 11
11.8871116529
 21
11.8871116529
 31
0.0
 40
0.3639702343
 41
-1.9574204138
 42
-1.9254519832
  0
ELLIPSE
  5
502
100
AcDbEntity
  8
0
100
AcDbEllipse
 62
7
  6
CONTINUOUS
 10
375.3082230087
 20
213.1786977719
 30
0.0
 11
10.3622733603
 21
-10.3622733603
 31
0.0
 40
0.7002075382
 41
2.187251371
 42
2.2192198016
  0
ELLIPSE
  5
503
100
AcDbEntity
  8
0
100
AcDbEllipse
 62
7
  6
CONTINUOUS
 10
375.3082230087
 20
213.1786977719
 30
0.0
 11
12.064519427
 21
12.064519427
 31
0.0
 40
0.3152987889
 41
-1.9137871825
 42
-1.8818187519
  0
ELLIPSE
  5
504
100
AcDbEntity
  8
0
100
AcDbEllipse
 62
7
  6
CONTINUOUS
 10
375.3082230087
 20
213.1786977719
 30
0.0
 11
10.6689017895
 21
-10.6689017895
 31
0.0
 40
0.6370702608
 41
2.1436181397
 42
2.1755865703
  0
ELLIPSE
  5
505
100
AcDbEntity
  8
0
100
AcDbEllipse
 62
7
  6
CONTINUOUS
 10
375.3082230087
 20
213.1786977719
 30
0.0
 11
12.2189617026
 21
12.2189617026
 31
0.0
 40
0.2679491924
 41
-1.8701539512
 42
-1.8381855206
  0
ELLIPSE
  5
506
100
AcDbEntity
  8
0
100
AcDbEllipse
 62
7
  6
CONTINUOUS
 10
375.3082230087
 20
213.1786977719
 30
0.0
 11
10.9552213579
 21
-10.9552213579
 31
0.0
 40
0.5773502692
 41
2.0999849084
 42
2.131953339
  0
ELLIPSE
  5
507
100
AcDbEntity
  8
0
100
AcDbEllipse
 62
7
  6
CONTINUOUS
 10
375.3082230087
 20
213.1786977719
 30
0.0
 11
12.3501444901
 21
12.3501444901
 31
0.0
 40
0.2216946626
 41
-1.8265207199
 42
-1.7945522893
  0
ELLIPSE
  5
508
100
AcDbEntity
  8
0
100
AcDbEllipse
 62
7
  6
CONTINUOUS
 10
375.3082230087
 20
213.1786977719
 30
0.0
 11
11.2206870397
 21
-11.2206870397
 31
0.0
 40
0.5205670506
 41
2.0563516771
 42
2.0883201077
  0
ELLIPSE
  5
509
100
AcDbEntity
  8
0
100
AcDbEllipse
 62
7
  6
CONTINUOUS
 10
375.3082230087
 20
213.1786977719
 30
0.0
 11
12.4578180756
 21
12.4578180756
 31
0.0
 40
0.1763269807
 41
-1.7828874886
 42
-1.750919058
  0
ELLIPSE
  5
50A
100
AcDbEntity
  8
0
100
AcDbEllipse
 62
7
  6
CONTINUOUS
 10
375.3082230087
 20
213.1786977719
 30
0.0
 11
12.5417774964
 21
12.5417774964
 31
0.0
 40
0.1316524976
 41
-1.7392542573
 42
-1.7072858267
  0
ELLIPSE
  5
50B
100
AcDbEntity
  8
0
100
AcDbEllipse
 62
7
  6
CONTINUOUS
 10
375.3082230087
 20
213.1786977719
 30
0.0
 11
11.464793506
 21
-11.464793506
 31
0.0
 40
0.4663076582
 41
2.0127184458
 42
2.0446868764
  0
ELLIPSE
  5
50C
100
AcDbEntity
  8
0
100
AcDbEllipse
 62
7
  6
CONTINUOUS
 10
375.3082230087
 20
213.1786977719
 30
0.0
 11
12.6018629309
 21
12.6018629309
 31
0.0
 40
0.0874886635
 41
-1.695621026
 42
-1.6636525954
  0
ELLIPSE
  5
50D
100
AcDbEntity
  8
0
100
AcDbEllipse
 62
7
  6
CONTINUOUS
 10
375.3082230087
 20
213.1786977719
 30
0.0
 11
11.6870760863
 21
-11.6870760863
 31
0.0
 40
0.4142135624
 41
1.9690852145
 42
2.0010536451
  0
ELLIPSE
  5
50E
100
AcDbEntity
  8
0
100
AcDbEllipse
 62
7
  6
CONTINUOUS
 10
375.3082230087
 20
213.1786977719
 30
0.0
 11
12.637960003
 21
12.637960003
 31
0.0
 40
0.0436609429
 41
-1.6519877947
 42
-1.6200193641
  0
ELLIPSE
  5
50F
100
AcDbEntity
  8
0
100
AcDbEllipse
 62
7
  6
CONTINUOUS
 10
375.3082230087
 20
213.1786977719
 30
0.0
 11
11.8871116529
 21
-11.8871116529
 31
0.0
 40
0.3639702343
 41
1.9254519832
 42
1.9574204138
  0
ELLIPSE
  5
510
100
AcDbEntity
  8
0
100
AcDbEllipse
 62
7
  6
CONTINUOUS
 10
375.3082230087
 20
213.1786977719
 30
0.0
 11
12.064519427
 21
-12.064519427
 31
0.0
 40
0.3152987889
 41
1.8818187519
 42
1.9137871825
  0
ELLIPSE
  5
511
100
AcDbEntity
  8
0
100
AcDbEllipse
 62
7
  6
CONTINUOUS
 10
375.3082230087
 20
213.1786977719
 30
0.0
 11
9.3265583107
 21
-9.3265583106
 31
0.0
 40
0.916331174
 41
2.3181510649
 42
2.3501194955
  0
ELLIPSE
  5
512
100
AcDbEntity
  8
0
100
AcDbEllipse
 62
7
  6
CONTINUOUS
 10
375.3082230087
 20
213.1786977719
 30
0.0
 11
12.2189617026
 21
-12.2189617026
 31
0.0
 40
0.2679491924
 41
1.8381855206
 42
1.8701539512
  0
ELLIPSE
  5
513
100
AcDbEntity
  8
0
100
AcDbEllipse
 62
7
  6
CONTINUOUS
 10
375.3082230087
 20
213.1786977719
 30
0.0
 11
12.3501444901
 21
-12.3501444901
 31
0.0
 40
0.2216946626
 41
1.7945522893
 42
1.8265207199
  0
ELLIPSE
  5
514
100
AcDbEntity
  8
0
100
AcDbEllipse
 62
7
  6
CONTINUOUS
 10
375.3082230087
 20
213.1786977719
 30
0.0
 11
12.4578180756
 21
-12.4578180756
 31
0.0
 40
0.1763269807
 41
1.750919058
 42
1.7828874886
  0
ELLIPSE
  5
515
100
AcDbEntity
  8
0
100
AcDbEllipse
 62
7
  6
CONTINUOUS
 10
375.3082230087
 20
213.1786977719
 30
0.0
 11
12.5417774964
 21
-12.5417774964
 31
0.0
 40
0.1316524976
 41
1.7072858267
 42
1.7392542573
  0
ELLIPSE
  5
516
100
AcDbEntity
  8
0
100
AcDbEllipse
 62
7
  6
CONTINUOUS
 10
382.3737530755
 20
235.5179282565
 30
0.0
 11
-0.2488630027
 21
1.8999122159
 31
0.0
 40
0.5729892874
 41
-3.2165061064
 42
-3.1729144307
  0
ELLIPSE
  5
517
100
AcDbEntity
  8
0
100
AcDbEllipse
 62
7
  6
CONTINUOUS
 10
384.4832230087
 20
199.2204073951
 30
0.0
 11
0.0
 21
0.8082903769
 31
0.0
 40
0.8660254038
 41
1.0322263061
 42
1.5707963268
  0
ENDSEC
  0
SECTION
  2
OBJECTS
  0
DICTIONARY
  5
C
100
AcDbDictionary
280
0
281
1
  3
ACAD_GROUP
350
D
  3
ACAD_MLINESTYLE
350
17
  3
ACAD_LAYOUT
350
1A
  3
ACAD_PLOTSETTINGS
350
19
  3
ACAD_PLOTSTYLENAME
350
E
  0
DICTIONARY
  5
D
102
{ACAD_REACTORS
330
C
102
}
100
AcDbDictionary
280
0
281
1
  0
ACDBDICTIONARYWDFLT
  5
E
102
{ACAD_REACTORS
330
C
102
}
100
AcDbDictionary
281
1
  3
Normal
350
F
100
AcDbDictionaryWithDefault
340
F
  0
DICTIONARY
  5
17
102
{ACAD_REACTORS
330
C
102
}
100
AcDbDictionary
280
0
281
1
  3
Standard
350
18
  0
DICTIONARY
  5
19
102
{ACAD_REACTORS
330
C
102
}
100
AcDbDictionary
281
1
  0
DICTIONARY
  5
1A
102
{ACAD_REACTORS
330
C
102
}
100
AcDbDictionary
281
1
  3
Model
350
518
  3
Layout1
350
519
  0
ACDBPLACEHOLDER
  5
F
102
{ACAD_REACTORS
330
E
102
}
  0
MLINESTYLE
  5
18
102
{ACAD_REACTORS
330
17
102
}
100
AcDbMlineStyle
  2
STANDARD
 70
0
  3

 62
256
 51
90.0
 52
90.0
 71
2
 49
0.5
 62
256
  6
BYLAYER
 49
-0.5
 62
256
  6
BYLAYER
  0
LAYOUT
  5
518
102
{ACAD_REACTORS
330
1A
102
}
100
AcDbPlotSettings
  1

  2
none_device
  4
ANSI_C_(22.00_x_17.00_Inches)
  6

 40
0.0
 41
0.0
 42
0.0
 43
0.0
 44
558.8
 45
431.8
 46
0.0
 47
0.0
 48
0.0
 49
0.0
140
0.0
141
0.0
142
1.0
143
1.0
 70
1024
 72
1
 73
0
 74
0
  7

 75
0
147
1.0
148
0.0
149
0.0
100
AcDbLayout
  1
Model
 70
0
 71
0
 10
0.0
 20
0.0
 11
558.8
 21
431.8
 12
0.0
 22
0.0
 32
0.0
 14
0.0
 24
0.0
 34
0.0
 15
0.0
 25
0.0
 35
0.0
146
0.0
 13
0.0
 23
0.0
 33
0.0
 16
1.0
 26
0.0
 36
0.0
 17
0.0
 27
1.0
 37
0.0
 76
0
330
21A
345
0
346
0
  0
LAYOUT
  5
519
102
{ACAD_REACTORS
330
1A
102
}
100
AcDbPlotSettings
  1

  2
none_device
  4
ANSI_C_(22.00_x_17.00_Inches)
  6

 40
0.0
 41
0.0
 42
0.0
 43
0.0
 44
558.8
 45
431.8
 46
0.0
 47
0.0
 48
0.0
 49
0.0
140
0.0
141
0.0
142
1.0
143
1.0
 70
0
 72
1
 73
0
 74
0
  7

 75
0
147
1.0
148
0.0
149
0.0
100
AcDbLayout
  1
Layout1
 70
0
 71
1
 10
0.0
 20
0.0
 11
558.8
 21
431.8
 12
0.0
 22
0.0
 32
0.0
 14
0.0
 24
0.0
 34
0.0
 15
0.0
 25
0.0
 35
0.0
146
0.0
 13
0.0
 23
0.0
 33
0.0
 16
1.0
 26
0.0
 36
0.0
 17
0.0
 27
1.0
 37
0.0
 76
0
330
21B
345
0
346
0
  0
ENDSEC
  0
EOF
