999
DXF file: Y:\001_SCHNEIDER_PARIS\maxime fuentes - génération CAD 2D\TRAVAIL\XB5AA42_2D-Views\xb5aa42_2d-views_7.dxf
999
Pro/ENGINEER 2018260 by Parametric Technology Corporation
  0
SECTION
  2
HEADER
  9
$ACADVER
  1
AC1027
  9
$DWGCODEPAGE
  3
ANSI_1252
  9
$EXTMAX
 10
558.8
 20
431.8
 30
0.0
  9
$EXTMIN
 10
0.0
 20
0.0
 30
0.0
  9
$LIMMIN
 10
0.0
 20
0.0
  9
$LIMMAX
 10
558.8
 20
431.8
  9
$VIEWCTR
 10
279.4
 20
215.9
  9
$VIEWSIZE
 40
431.8
  9
$CLAYER
  8
0
  9
$LTSCALE
 40
30.734
  9
$CELTYPE
  6
BYLAYER
  9
$DIMSCALE
 40
1.0
  9
$DIMASZ
 40
3.5
  9
$DIMEXO
 40
1.0
  9
$DIMDLI
 40
21.2344
  9
$DIMEXE
 40
3.0
  9
$DIMCEN
 40
5.0292
  9
$DIMLFAC
 40
1.0
  9
$DIMBLK
  1
_FILLED
  9
$DIMALT
 70
0
  9
$DIMALTF
 40
0.0393700787
  9
$DIMTXT
 40
4.0
  9
$DIMTOL
 70
1
  9
$DIMLIM
 70
0
  9
$DIMTFAC
 40
1.0
  9
$DIMTP
 40
0.0001
  9
$DIMTM
 40
0.0001
  9
$DIMGAP
 40
0.625
  9
$DIMDSEP
 70
46
  9
$AUNITS
 70
0
  9
$PDMODE
 70
0
  9
$PDSIZE
 40
0.01
  9
$HANDSEED
  5
305
  9
$TILEMODE
 70
1
  9
$MEASUREMENT
 70
1
  9
$INSUNITS
 70
4
  0
ENDSEC
  0
SECTION
  2
CLASSES
  0
CLASS
  1
ACDBDICTIONARYWDFLT
  2
AcDbDictionaryWithDefault
  3
AutoCAD 2000
 90
0
 91
1
280
0
281
0
  0
CLASS
  1
ACDBPLACEHOLDER
  2
AcDbPlaceHolder
  3
AutoCAD 2000
 90
0
 91
1
280
0
281
0
  0
CLASS
  1
LAYOUT
  2
AcDbLayout
  3
AutoCAD 2000
 90
0
 91
0
280
0
281
0
  0
ENDSEC
  0
SECTION
  2
TABLES
  0
TABLE
  2
VPORT
  5
8
100
AcDbSymbolTable
 70
2
  0
VPORT
  5
1F4
100
AcDbSymbolTableRecord
100
AcDbViewportTableRecord
  2
*ACTIVE
 70
0
 10
0.0
 20
0.0
 11
1.0
 21
1.0
 12
279.4
 22
215.9
 13
0.0
 23
0.0
 14
1.0
 24
1.0
 15
0.0
 25
0.0
 16
0.0
 26
0.0
 36
1.0
 17
0.0
 27
0.0
 37
0.0
 40
431.8
 41
1.2941176471
 42
50.0
 43
0.0
 44
0.0
 50
0.0
 51
0.0
 71
0
 72
100
 73
1
 74
1
 75
0
 76
0
 77
0
 78
0
  0
ENDTAB
  0
TABLE
  2
LTYPE
  5
5
100
AcDbSymbolTable
 70
6
  0
LTYPE
  5
14
100
AcDbSymbolTableRecord
100
AcDbLinetypeTableRecord
  2
BYBLOCK
 70
0
  3

 72
65
 73
0
 40
0.0
  0
LTYPE
  5
15
100
AcDbSymbolTableRecord
100
AcDbLinetypeTableRecord
  2
BYLAYER
 70
0
  3

 72
65
 73
0
 40
0.0
  0
LTYPE
  5
16
100
AcDbSymbolTableRecord
100
AcDbLinetypeTableRecord
  2
CONTINUOUS
 70
64
  3
Solid line
 72
65
 73
0
 40
0.0
  0
LTYPE
  5
1F5
100
AcDbSymbolTableRecord
100
AcDbLinetypeTableRecord
  2
CENTER
 70
64
  3
____ _ ____ _ ____ _ ____ _ ____ _ ____ _ ____
 72
65
 73
4
 40
0.6
 49
0.375
 74
0
 49
-0.075
 74
0
 49
0.075
 74
0
 49
-0.075
 74
0
  0
LTYPE
  5
1F6
100
AcDbSymbolTableRecord
100
AcDbLinetypeTableRecord
  2
HIDDEN
 70
64
  3
- - - - - - - - - - - - - - - - - - - -
 72
65
 73
2
 40
0.2
 49
0.1
 74
0
 49
-0.1
 74
0
  0
LTYPE
  5
1F7
100
AcDbSymbolTableRecord
100
AcDbLinetypeTableRecord
  2
PHANTOM
 70
64
  3
_____ _ _ _____ _ _ _____ _ _ _____
 72
65
 73
6
 40
0.8
 49
0.45
 74
0
 49
-0.05
 74
0
 49
0.1
 74
0
 49
-0.05
 74
0
 49
0.1
 74
0
 49
-0.05
 74
0
  0
LTYPE
  5
1F8
100
AcDbSymbolTableRecord
100
AcDbLinetypeTableRecord
  2
DOT
 70
64
  3
. . . . . . . . . . . . . . . . . . . .
 72
65
 73
2
 40
0.2
 49
0.1
 74
0
 49
-0.1
 74
0
  0
LTYPE
  5
1F9
100
AcDbSymbolTableRecord
100
AcDbLinetypeTableRecord
  2
DASHED
 70
64
  3
- - - - - - - - - - - - - - - - - - - -
 72
65
 73
2
 40
0.2
 49
0.1
 74
0
 49
-0.1
 74
0
  0
ENDTAB
  0
TABLE
  2
LAYER
  5
2
100
AcDbSymbolTable
 70
36
  0
LAYER
  5
10
100
AcDbSymbolTableRecord
100
AcDbLayerTableRecord
  2
0
 70
0
 62
7
  6
CONTINUOUS
370
-3
390
F
  0
LAYER
  5
1FA
100
AcDbSymbolTableRecord
100
AcDbLayerTableRecord
  2
DEFAULT_1
 70
0
 62
7
  6
CENTER
370
-3
390
F
  0
LAYER
  5
1FB
100
AcDbSymbolTableRecord
100
AcDbLayerTableRecord
  2
DEFAULT_2
 70
0
 62
8
  6
HIDDEN
370
-3
390
F
  0
LAYER
  5
1FC
100
AcDbSymbolTableRecord
100
AcDbLayerTableRecord
  2
DEFAULT_3
 70
0
 62
7
  6
PHANTOM
370
-3
390
F
  0
LAYER
  5
1FD
100
AcDbSymbolTableRecord
100
AcDbLayerTableRecord
  2
01_ALL_DTM_PLN
 70
0
 62
7
  6
CONTINUOUS
370
-3
390
F
  0
LAYER
  5
1FE
100
AcDbSymbolTableRecord
100
AcDbLayerTableRecord
  2
01__ASM_ALL_DTM_PLN
 70
0
 62
7
  6
CONTINUOUS
370
-3
390
F
  0
LAYER
  5
1FF
100
AcDbSymbolTableRecord
100
AcDbLayerTableRecord
  2
01__ASM_DEF_DTM_PLN
 70
0
 62
7
  6
CONTINUOUS
370
-3
390
F
  0
LAYER
  5
200
100
AcDbSymbolTableRecord
100
AcDbLayerTableRecord
  2
01___PRT_ALL_DTM_PLN
 70
0
 62
7
  6
CONTINUOUS
370
-3
390
F
  0
LAYER
  5
201
100
AcDbSymbolTableRecord
100
AcDbLayerTableRecord
  2
01___PRT_DEF_DTM_PLN
 70
0
 62
7
  6
CONTINUOUS
370
-3
390
F
  0
LAYER
  5
202
100
AcDbSymbolTableRecord
100
AcDbLayerTableRecord
  2
02_ALL_AXES
 70
0
 62
7
  6
CONTINUOUS
370
-3
390
F
  0
LAYER
  5
203
100
AcDbSymbolTableRecord
100
AcDbLayerTableRecord
  2
02__ASM_ALL_AXES
 70
0
 62
7
  6
CONTINUOUS
370
-3
390
F
  0
LAYER
  5
204
100
AcDbSymbolTableRecord
100
AcDbLayerTableRecord
  2
02___PRT_ALL_AXES
 70
0
 62
7
  6
CONTINUOUS
370
-3
390
F
  0
LAYER
  5
205
100
AcDbSymbolTableRecord
100
AcDbLayerTableRecord
  2
03_ALL_CURVES
 70
0
 62
7
  6
CONTINUOUS
370
-3
390
F
  0
LAYER
  5
206
100
AcDbSymbolTableRecord
100
AcDbLayerTableRecord
  2
03__ASM_ALL_CURVES
 70
0
 62
7
  6
CONTINUOUS
370
-3
390
F
  0
LAYER
  5
207
100
AcDbSymbolTableRecord
100
AcDbLayerTableRecord
  2
03___PRT_ALL_CURVES
 70
0
 62
7
  6
CONTINUOUS
370
-3
390
F
  0
LAYER
  5
208
100
AcDbSymbolTableRecord
100
AcDbLayerTableRecord
  2
04_ALL_DTM_PNT
 70
0
 62
7
  6
CONTINUOUS
370
-3
390
F
  0
LAYER
  5
209
100
AcDbSymbolTableRecord
100
AcDbLayerTableRecord
  2
04__ASM_ALL_DTM_PNT
 70
0
 62
7
  6
CONTINUOUS
370
-3
390
F
  0
LAYER
  5
20A
100
AcDbSymbolTableRecord
100
AcDbLayerTableRecord
  2
04___PRT_ALL_DTM_PNT
 70
0
 62
7
  6
CONTINUOUS
370
-3
390
F
  0
LAYER
  5
20B
100
AcDbSymbolTableRecord
100
AcDbLayerTableRecord
  2
05_ALL_DTM_CSYS
 70
0
 62
7
  6
CONTINUOUS
370
-3
390
F
  0
LAYER
  5
20C
100
AcDbSymbolTableRecord
100
AcDbLayerTableRecord
  2
05__ASM_ALL_DTM_CSYS
 70
0
 62
7
  6
CONTINUOUS
370
-3
390
F
  0
LAYER
  5
20D
100
AcDbSymbolTableRecord
100
AcDbLayerTableRecord
  2
05__ASM_DEF_DTM_CSYS
 70
0
 62
7
  6
CONTINUOUS
370
-3
390
F
  0
LAYER
  5
20E
100
AcDbSymbolTableRecord
100
AcDbLayerTableRecord
  2
05___PRT_ALL_DTM_CSYS
 70
0
 62
7
  6
CONTINUOUS
370
-3
390
F
  0
LAYER
  5
20F
100
AcDbSymbolTableRecord
100
AcDbLayerTableRecord
  2
05___PRT_DEF_DTM_CSYS
 70
0
 62
7
  6
CONTINUOUS
370
-3
390
F
  0
LAYER
  5
210
100
AcDbSymbolTableRecord
100
AcDbLayerTableRecord
  2
06_ALL_SURFS
 70
0
 62
7
  6
CONTINUOUS
370
-3
390
F
  0
LAYER
  5
211
100
AcDbSymbolTableRecord
100
AcDbLayerTableRecord
  2
06__ASM_ALL_SURFS
 70
0
 62
7
  6
CONTINUOUS
370
-3
390
F
  0
LAYER
  5
212
100
AcDbSymbolTableRecord
100
AcDbLayerTableRecord
  2
06___PRT_ALL_SURFS
 70
0
 62
7
  6
CONTINUOUS
370
-3
390
F
  0
LAYER
  5
213
100
AcDbSymbolTableRecord
100
AcDbLayerTableRecord
  2
07__ASM_ALL_SKELETONS
 70
0
 62
7
  6
CONTINUOUS
370
-3
390
F
  0
LAYER
  5
214
100
AcDbSymbolTableRecord
100
AcDbLayerTableRecord
  2
CLOSED_SHELL
 70
0
 62
7
  6
CONTINUOUS
370
-3
390
F
  0
ENDTAB
  0
TABLE
  2
STYLE
  5
3
100
AcDbSymbolTable
 70
1
  0
STYLE
  5
11
100
AcDbSymbolTableRecord
100
AcDbTextStyleTableRecord
  2
STANDARD
 70
0
 40
0.0
 41
0.6
 50
0.0
 71
0
 42
0.2
  3
txt
  4

  0
STYLE
  5
215
100
AcDbSymbolTableRecord
100
AcDbTextStyleTableRecord
  2
TEXTSTYLE_1
 70
0
 40
0.0
 41
0.8
 50
0.0
 71
0
 42
0.2
  3
gdt
  4

  0
ENDTAB
  0
TABLE
  2
VIEW
  5
6
100
AcDbSymbolTable
 70
0
  0
ENDTAB
  0
TABLE
  2
UCS
  5
7
100
AcDbSymbolTable
 70
0
  0
ENDTAB
  0
TABLE
  2
APPID
  5
9
100
AcDbSymbolTable
 70
1
  0
APPID
  5
216
100
AcDbSymbolTableRecord
100
AcDbRegAppTableRecord
  2
ACAD
 70
0
  0
ENDTAB
  0
TABLE
  2
BLOCK_RECORD
  5
1
100
AcDbSymbolTable
 70
0
  0
BLOCK_RECORD
  5
217
100
AcDbSymbolTableRecord
100
AcDbBlockTableRecord
  2
*Model_Space
  0
BLOCK_RECORD
  5
218
100
AcDbSymbolTableRecord
100
AcDbBlockTableRecord
  2
*Paper_Space
  0
BLOCK_RECORD
  5
219
100
AcDbSymbolTableRecord
100
AcDbBlockTableRecord
  2
_FILLED
  0
ENDTAB
  0
TABLE
  2
DIMSTYLE
  5
A
100
AcDbSymbolTable
 70
1
100
AcDbDimStyleTable
 71
0
  0
DIMSTYLE
105
21A
100
AcDbSymbolTableRecord
100
AcDbDimStyleTableRecord
  2
STANDARD
 70
0
  3

  4

 40
1.0
 41
3.5
 42
1.0
 43
0.38
 44
3.0
 45
0.0
 46
0.0
 47
0.0001
 48
0.0001
140
4.0
141
0.09
142
0.0
143
25.4
144
1.0
145
0.0
146
1.0
147
0.625
 71
1.0
 72
0.0
 73
0
 74
0
 75
0
 76
0
 77
1
 78
8
 79
2
170
0
171
3
172
0
173
0
174
0
175
0
176
0
177
0
178
0
270
2
179
4
271
4
272
4
273
2
274
2
275
0
280
0
281
0
282
0
283
1
284
8
285
0
286
0
287
3
288
0
340
11
278
46
341
219
342
219
343
219
344
219
  0
ENDTAB
  0
ENDSEC
  0
SECTION
  2
BLOCKS
  0
BLOCK
  5
20
100
AcDbEntity
  8
0
100
AcDbBlockBegin
  2
*Model_Space
 70
0
 10
0.0
 20
0.0
 30
0.0
  3
*Model_Space
  1

  0
ENDBLK
  5
21
100
AcDbEntity
  8
0
100
AcDbBlockEnd
  0
BLOCK
  5
1C
100
AcDbEntity
  8
0
100
AcDbBlockBegin
  2
*Paper_Space
 70
0
 10
0.0
 20
0.0
 30
0.0
  3
*Paper_Space
  1

  0
ENDBLK
  5
1D
100
AcDbEntity
  8
0
100
AcDbBlockEnd
  0
BLOCK
  5
21B
100
AcDbEntity
  8
0
100
AcDbBlockBegin
  2
_FILLED
 70
64
 10
0.0
 20
0.0
  3
_FILLED
  1

  0
SOLID
  5
21C
100
AcDbEntity
  8
0
  6
BYBLOCK
 62
0
100
AcDbTrace
 10
0.0
 20
0.0
 11
-1.0
 21
0.2857142857
 12
-1.0
 22
-0.2857142857
 13
-1.0
 23
-0.2857142857
  0
ENDBLK
  5
21D
100
AcDbEntity
  8
0
  6
BYBLOCK
 62
0
100
AcDbBlockEnd
  0
ENDSEC
  0
SECTION
  2
ENTITIES
  0
LINE
  5
21E
100
AcDbEntity
  8
0
100
AcDbLine
 62
7
  6
CONTINUOUS
 10
544.7742936658
 20
182.4941499526
 11
545.2469972861
 21
180.893286351
  0
LINE
  5
21F
100
AcDbEntity
  8
0
100
AcDbLine
 62
7
  6
CONTINUOUS
 10
544.6445021304
 20
183.2475276445
 11
544.7742941022
 21
182.7932848533
  0
LINE
  5
220
100
AcDbEntity
  8
0
100
AcDbLine
 62
7
  6
CONTINUOUS
 10
544.6445021304
 20
207.0390450557
 11
544.7742941022
 21
207.4932878469
  0
LINE
  5
221
100
AcDbEntity
  8
0
100
AcDbLine
 62
7
  6
CONTINUOUS
 10
544.7742936658
 20
207.7924227476
 11
545.2469972861
 21
209.3932863492
  0
LINE
  5
222
100
AcDbEntity
  8
0
100
AcDbLine
 62
7
  6
CONTINUOUS
 10
544.2742952335
 20
185.9455027361
 11
544.2742952335
 21
204.3410699642
  0
LINE
  5
223
100
AcDbEntity
  8
0
100
AcDbLine
 62
7
  6
CONTINUOUS
 10
544.6445021304
 20
183.2475276445
 11
544.6445021304
 21
207.0390450557
  0
LINE
  5
224
100
AcDbEntity
  8
0
100
AcDbLine
 62
7
  6
CONTINUOUS
 10
544.7739998444
 20
207.7913591838
 11
544.7742922141
 21
182.4941551734
  0
LINE
  5
225
100
AcDbEntity
  8
0
100
AcDbLine
 62
7
  6
CONTINUOUS
 10
544.7742920951
 20
182.4941556378
 11
544.7742922536
 21
182.5064016867
  0
LINE
  5
226
100
AcDbEntity
  8
0
100
AcDbLine
 62
7
  6
CONTINUOUS
 10
545.2469972861
 20
180.8932863501
 11
545.2469978733
 21
209.3932863492
  0
LINE
  5
227
100
AcDbEntity
  8
0
100
AcDbLine
 62
7
  6
CONTINUOUS
 10
569.1669972852
 20
176.6432841153
 11
575.6669972854
 21
177.7894094897
  0
LINE
  5
228
100
AcDbEntity
  8
0
100
AcDbLine
 62
7
  6
CONTINUOUS
 10
567.5669972857
 20
176.6432841153
 11
569.1669972852
 21
176.6432841153
  0
LINE
  5
229
100
AcDbEntity
  8
0
100
AcDbLine
 62
7
  6
CONTINUOUS
 10
565.9669972861
 20
177.3254939124
 11
567.4669972861
 21
177.3254939124
  0
LINE
  5
22A
100
AcDbEntity
  8
0
100
AcDbLine
 62
7
  6
CONTINUOUS
 10
563.8669972861
 20
177.3432841153
 11
565.8669972861
 21
177.3432841153
  0
LINE
  5
22B
100
AcDbEntity
  8
0
100
AcDbLine
 62
7
  6
CONTINUOUS
 10
552.2469972861
 20
209.3932863501
 11
552.2469972861
 21
180.8932863501
  0
LINE
  5
22C
100
AcDbEntity
  8
0
100
AcDbLine
 62
7
  6
CONTINUOUS
 10
583.3439155547
 20
179.9487238788
 11
590.7149028346
 21
181.2484278106
  0
LINE
  5
22D
100
AcDbEntity
  8
0
100
AcDbLine
 62
7
  6
CONTINUOUS
 10
575.8669972861
 20
177.7894094897
 11
575.6669972861
 21
177.7894094897
  0
LINE
  5
22E
100
AcDbEntity
  8
0
100
AcDbLine
 62
7
  6
CONTINUOUS
 10
567.5669972861
 20
178.2223073804
 11
567.4669972861
 21
178.2223073804
  0
LINE
  5
22F
100
AcDbEntity
  8
0
100
AcDbLine
 62
7
  6
CONTINUOUS
 10
591.9457811569
 20
178.8432841153
 11
586.0799749799
 21
178.8432841153
  0
LINE
  5
230
100
AcDbEntity
  8
0
100
AcDbLine
 62
7
  6
CONTINUOUS
 10
563.8669972868
 20
178.9542387904
 11
565.8669972868
 21
178.9542387904
  0
LINE
  5
231
100
AcDbEntity
  8
0
100
AcDbLine
 62
7
  6
CONTINUOUS
 10
553.4969972861
 20
181.5682863501
 11
553.4969972861
 21
208.7182863501
  0
LINE
  5
232
100
AcDbEntity
  8
0
100
AcDbLine
 62
7
  6
CONTINUOUS
 10
553.7469972861
 20
180.6434067316
 11
553.7469972861
 21
209.6431659686
  0
LINE
  5
233
100
AcDbEntity
  8
0
100
AcDbLine
 62
9
  6
CONTINUOUS
 10
565.9669972861
 20
180.4760707209
 11
567.4669972861
 21
180.4760707209
  0
LINE
  5
234
100
AcDbEntity
  8
0
100
AcDbLine
 62
7
  6
CONTINUOUS
 10
555.2469972861
 20
180.6432863501
 11
553.7469972864
 21
180.6432863501
  0
LINE
  5
235
100
AcDbEntity
  8
0
100
AcDbLine
 62
7
  6
CONTINUOUS
 10
545.2469972861
 20
180.8932863501
 11
552.2469972861
 21
180.8932863501
  0
LINE
  5
236
100
AcDbEntity
  8
0
100
AcDbLine
 62
7
  6
CONTINUOUS
 10
575.8669972861
 20
181.1908028157
 11
575.6669972849
 21
181.1908028157
  0
LINE
  5
237
100
AcDbEntity
  8
0
100
AcDbLine
 62
7
  6
CONTINUOUS
 10
552.2469972861
 20
181.5682863501
 11
553.4969972861
 21
181.5682863501
  0
LINE
  5
238
100
AcDbEntity
  8
0
100
AcDbLine
 62
7
  6
CONTINUOUS
 10
559.4469972861
 20
181.9183141898
 11
555.2469972861
 21
181.9183141898
  0
LINE
  5
239
100
AcDbEntity
  8
0
100
AcDbLine
 62
7
  6
CONTINUOUS
 10
567.4669972861
 20
181.9932841149
 11
567.5669972861
 21
181.9932841149
  0
LINE
  5
23A
100
AcDbEntity
  8
0
100
AcDbLine
 62
9
  6
CONTINUOUS
 10
555.2469972868
 20
182.0654327867
 11
559.4469972861
 21
182.0654327867
  0
LINE
  5
23B
100
AcDbEntity
  8
0
100
AcDbLine
 62
7
  6
CONTINUOUS
 10
555.2469972861
 20
209.6431919095
 11
555.2469972861
 21
208.2211399133
  0
LINE
  5
23C
100
AcDbEntity
  8
0
100
AcDbLine
 62
7
  6
CONTINUOUS
 10
555.2469972861
 20
207.1057552984
 11
555.2469972861
 21
196.2586709658
  0
LINE
  5
23D
100
AcDbEntity
  8
0
100
AcDbLine
 62
7
  6
CONTINUOUS
 10
555.2469972861
 20
194.0279017344
 11
555.2469972861
 21
183.1808174021
  0
LINE
  5
23E
100
AcDbEntity
  8
0
100
AcDbLine
 62
7
  6
CONTINUOUS
 10
555.2469972861
 20
182.065432787
 11
555.2469972861
 21
180.6433807907
  0
LINE
  5
23F
100
AcDbEntity
  8
0
100
AcDbLine
 62
7
  6
CONTINUOUS
 10
565.8669972868
 20
182.1432841153
 11
563.8669972868
 21
182.1432841153
  0
LINE
  5
240
100
AcDbEntity
  8
0
100
AcDbLine
 62
9
  6
CONTINUOUS
 10
567.4669972861
 20
182.4178888832
 11
565.9669972861
 21
182.4178888832
  0
LINE
  5
241
100
AcDbEntity
  8
0
100
AcDbLine
 62
7
  6
CONTINUOUS
 10
572.5669972861
 20
182.4432841153
 11
567.5669972861
 21
182.4432841153
  0
LINE
  5
242
100
AcDbEntity
  8
0
100
AcDbLine
 62
7
  6
CONTINUOUS
 10
575.6669972861
 20
183.0432841146
 11
575.6846101962
 21
183.0432841146
  0
LINE
  5
243
100
AcDbEntity
  8
0
100
AcDbLine
 62
9
  6
CONTINUOUS
 10
555.2469972861
 20
183.1808174021
 11
559.4469972861
 21
183.1808174021
  0
LINE
  5
244
100
AcDbEntity
  8
0
100
AcDbLine
 62
7
  6
CONTINUOUS
 10
553.4969972861
 20
184.2682863501
 11
553.7469972861
 21
184.2682863501
  0
LINE
  5
245
100
AcDbEntity
  8
0
100
AcDbLine
 62
7
  6
CONTINUOUS
 10
570.5526379316
 20
210.4164891963
 11
568.9669972869
 21
209.501019142
  0
LINE
  5
246
100
AcDbEntity
  8
0
100
AcDbLine
 62
7
  6
CONTINUOUS
 10
559.7469972861
 20
185.0432863501
 11
565.6230946154
 21
185.0432863501
  0
LINE
  5
247
100
AcDbEntity
  8
0
100
AcDbLine
 62
9
  6
CONTINUOUS
 10
559.4469972861
 20
185.1683141898
 11
558.5347711467
 21
185.1683141898
  0
LINE
  5
248
100
AcDbEntity
  8
0
100
AcDbLine
 62
7
  6
CONTINUOUS
 10
565.6469972861
 20
185.4872001865
 11
565.8669972868
 21
185.4872001865
  0
LINE
  5
249
100
AcDbEntity
  8
0
100
AcDbLine
 62
7
  6
CONTINUOUS
 10
572.5669972861
 20
182.4432841153
 11
575.6669972861
 21
181.1908028152
  0
LINE
  5
24A
100
AcDbEntity
  8
0
100
AcDbLine
 62
7
  6
CONTINUOUS
 10
575.6669972861
 20
183.050400192
 11
586.0799749802
 21
178.8432841153
  0
LINE
  5
24B
100
AcDbEntity
  8
0
100
AcDbLine
 62
9
  6
CONTINUOUS
 10
559.4469972861
 20
208.3682585104
 11
559.4469972861
 21
204.8239087474
  0
LINE
  5
24C
100
AcDbEntity
  8
0
100
AcDbLine
 62
9
  6
CONTINUOUS
 10
559.4469972861
 20
197.6432863501
 11
559.4469972861
 21
192.6432863501
  0
LINE
  5
24D
100
AcDbEntity
  8
0
100
AcDbLine
 62
9
  6
CONTINUOUS
 10
559.4469972861
 20
185.4626639523
 11
559.4469972861
 21
181.9183141898
  0
LINE
  5
24E
100
AcDbEntity
  8
0
100
AcDbLine
 62
9
  6
CONTINUOUS
 10
559.5496033292
 20
204.4000706032
 11
559.5496033292
 21
197.8818769094
  0
LINE
  5
24F
100
AcDbEntity
  8
0
100
AcDbLine
 62
9
  6
CONTINUOUS
 10
559.5496033292
 20
192.4046957908
 11
559.5496033292
 21
185.8865020971
  0
LINE
  5
250
100
AcDbEntity
  8
0
100
AcDbLine
 62
7
  6
CONTINUOUS
 10
559.7469972861
 20
208.0682053327
 11
559.7469972861
 21
182.2183672282
  0
LINE
  5
251
100
AcDbEntity
  8
0
100
AcDbLine
 62
7
  6
CONTINUOUS
 10
560.0469972863
 20
205.3432863497
 11
560.0469972863
 21
205.2432863501
  0
LINE
  5
252
100
AcDbEntity
  8
0
100
AcDbLine
 62
7
  6
CONTINUOUS
 10
565.8669972861
 20
188.1432841153
 11
565.9669972861
 21
188.1432841153
  0
LINE
  5
253
100
AcDbEntity
  8
0
100
AcDbLine
 62
7
  6
CONTINUOUS
 10
567.4669972861
 20
188.1432841153
 11
567.5669972861
 21
188.1432841153
  0
LINE
  5
254
100
AcDbEntity
  8
0
100
AcDbLine
 62
7
  6
CONTINUOUS
 10
586.0799749799
 20
210.8432841153
 11
574.8669972856
 21
207.143284116
  0
LINE
  5
255
100
AcDbEntity
  8
0
100
AcDbLine
 62
7
  6
CONTINUOUS
 10
565.6472740096
 20
189.8735884506
 11
565.9669972861
 21
189.8738581031
  0
LINE
  5
256
100
AcDbEntity
  8
0
100
AcDbLine
 62
7
  6
CONTINUOUS
 10
567.4669972861
 20
189.8751231931
 11
567.5669972857
 21
189.8752075324
  0
LINE
  5
257
100
AcDbEntity
  8
0
100
AcDbLine
 62
7
  6
CONTINUOUS
 10
553.4969972861
 20
190.0914921144
 11
552.2469972861
 21
190.0914921144
  0
LINE
  5
258
100
AcDbEntity
  8
0
100
AcDbLine
 62
7
  6
CONTINUOUS
 10
563.8669972861
 20
216.4432841153
 11
563.8669972861
 21
208.6432841153
  0
LINE
  5
259
100
AcDbEntity
  8
0
100
AcDbLine
 62
7
  6
CONTINUOUS
 10
563.8669972861
 20
177.3432841146
 11
563.8669972868
 21
182.1432841153
  0
LINE
  5
25A
100
AcDbEntity
  8
0
100
AcDbLine
 62
7
  6
CONTINUOUS
 10
565.4433558999
 20
205.2432851887
 11
565.4433558999
 21
196.8932863501
  0
LINE
  5
25B
100
AcDbEntity
  8
0
100
AcDbLine
 62
7
  6
CONTINUOUS
 10
565.4433559291
 20
193.39328635
 11
565.4433559291
 21
185.0432871445
  0
LINE
  5
25C
100
AcDbEntity
  8
0
100
AcDbLine
 62
7
  6
CONTINUOUS
 10
565.6469972861
 20
185.1355093745
 11
565.6469972861
 21
205.2432764684
  0
LINE
  5
25D
100
AcDbEntity
  8
0
100
AcDbLine
 62
7
  6
CONTINUOUS
 10
565.8669972861
 20
208.6432841153
 11
565.8669972861
 21
202.1432841153
  0
LINE
  5
25E
100
AcDbEntity
  8
0
100
AcDbLine
 62
7
  6
CONTINUOUS
 10
565.8669972868
 20
188.1432841153
 11
565.8669972868
 21
182.1432841153
  0
LINE
  5
25F
100
AcDbEntity
  8
0
100
AcDbLine
 62
7
  6
CONTINUOUS
 10
565.8669972861
 20
181.1849937384
 11
565.8669972861
 21
177.3432841146
  0
LINE
  5
260
100
AcDbEntity
  8
0
100
AcDbLine
 62
7
  6
CONTINUOUS
 10
565.8669972861
 20
211.9932841153
 11
565.8669972861
 21
216.4432841153
  0
LINE
  5
261
100
AcDbEntity
  8
0
100
AcDbLine
 62
7
  6
CONTINUOUS
 10
565.9669972861
 20
177.3254939124
 11
565.9669972861
 21
214.627336372
  0
LINE
  5
262
100
AcDbEntity
  8
0
100
AcDbLine
 62
7
  6
CONTINUOUS
 10
575.366997286
 20
210.8432841153
 11
574.8669972857
 21
210.3432841149
  0
LINE
  5
263
100
AcDbEntity
  8
0
100
AcDbLine
 62
7
  6
CONTINUOUS
 10
572.4669972861
 20
191.0432841153
 11
572.9669972861
 21
191.0432841153
  0
LINE
  5
264
100
AcDbEntity
  8
0
100
AcDbLine
 62
7
  6
CONTINUOUS
 10
558.5347711458
 20
192.6432863501
 11
559.4469972861
 21
192.6432863501
  0
LINE
  5
265
100
AcDbEntity
  8
0
100
AcDbLine
 62
7
  6
CONTINUOUS
 10
572.4669972857
 20
192.6932841153
 11
572.9669972853
 21
192.6932841153
  0
LINE
  5
266
100
AcDbEntity
  8
0
100
AcDbLine
 62
7
  6
CONTINUOUS
 10
572.4669972861
 20
192.8432841153
 11
572.9669972861
 21
192.8432841153
  0
LINE
  5
267
100
AcDbEntity
  8
0
100
AcDbLine
 62
7
  6
CONTINUOUS
 10
575.6669972861
 20
187.7878377538
 11
572.4669972861
 21
190.2432841153
  0
LINE
  5
268
100
AcDbEntity
  8
0
100
AcDbLine
 62
7
  6
CONTINUOUS
 10
567.4669972861
 20
177.3254939124
 11
567.4669972861
 21
214.627336372
  0
LINE
  5
269
100
AcDbEntity
  8
0
100
AcDbLine
 62
7
  6
CONTINUOUS
 10
567.5469972861
 20
192.1432863503
 11
567.5469972861
 21
193.7432863501
  0
LINE
  5
26A
100
AcDbEntity
  8
0
100
AcDbLine
 62
7
  6
CONTINUOUS
 10
567.5469972861
 20
196.5432863501
 11
567.5469972861
 21
198.1432880573
  0
LINE
  5
26B
100
AcDbEntity
  8
0
100
AcDbLine
 62
7
  6
CONTINUOUS
 10
567.5669972857
 20
176.6432841153
 11
567.5669972861
 21
217.8931658796
  0
LINE
  5
26C
100
AcDbEntity
  8
0
100
AcDbLine
 62
7
  6
CONTINUOUS
 10
565.6482099624
 20
189.8749966799
 11
565.9670199903
 21
192.1434478993
  0
LINE
  5
26D
100
AcDbEntity
  8
0
100
AcDbLine
 62
7
  6
CONTINUOUS
 10
567.546997526
 20
198.1432880573
 11
567.5669972857
 21
198.2855937419
  0
LINE
  5
26E
100
AcDbEntity
  8
0
100
AcDbLine
 62
7
  6
CONTINUOUS
 10
571.1965461586
 20
206.0262469217
 11
571.2907991455
 21
206.1962838042
  0
LINE
  5
26F
100
AcDbEntity
  8
0
100
AcDbLine
 62
7
  6
CONTINUOUS
 10
565.6469972861
 20
193.3932863501
 11
559.7469972861
 21
193.3932863501
  0
LINE
  5
270
100
AcDbEntity
  8
0
100
AcDbLine
 62
7
  6
CONTINUOUS
 10
567.5469972861
 20
193.7432863501
 11
567.5669972861
 21
193.7432863501
  0
LINE
  5
271
100
AcDbEntity
  8
0
100
AcDbLine
 62
9
  6
CONTINUOUS
 10
555.2469972868
 20
194.0279017347
 11
559.4469972861
 21
194.0279017347
  0
LINE
  5
272
100
AcDbEntity
  8
0
100
AcDbLine
 62
7
  6
CONTINUOUS
 10
572.4669972853
 20
190.643284116
 11
575.8826587619
 21
187.9746768997
  0
LINE
  5
273
100
AcDbEntity
  8
0
100
AcDbLine
 62
7
  6
CONTINUOUS
 10
565.9670164094
 20
198.1431502802
 11
565.6482140618
 21
200.4115468524
  0
LINE
  5
274
100
AcDbEntity
  8
0
100
AcDbLine
 62
7
  6
CONTINUOUS
 10
567.5669972857
 20
192.0009789585
 11
567.5469972861
 21
192.1432863503
  0
LINE
  5
275
100
AcDbEntity
  8
0
100
AcDbLine
 62
7
  6
CONTINUOUS
 10
568.8669972853
 20
209.3278140606
 11
568.8669972853
 21
208.221995137
  0
LINE
  5
276
100
AcDbEntity
  8
0
100
AcDbLine
 62
7
  6
CONTINUOUS
 10
569.8669972861
 20
217.8931658796
 11
569.8669972861
 21
214.6164891956
  0
LINE
  5
277
100
AcDbEntity
  8
0
100
AcDbLine
 62
7
  6
CONTINUOUS
 10
571.6185236397
 20
207.6432841153
 11
571.2658696781
 21
205.6432841153
  0
LINE
  5
278
100
AcDbEntity
  8
0
100
AcDbLine
 62
7
  6
CONTINUOUS
 10
571.3443028839
 20
206.3432841148
 11
571.6432912504
 21
207.8814459139
  0
LINE
  5
279
100
AcDbEntity
  8
0
100
AcDbLine
 62
9
  6
CONTINUOUS
 10
555.2469972861
 20
196.2586709655
 11
559.4469972861
 21
196.2586709655
  0
LINE
  5
27A
100
AcDbEntity
  8
0
100
AcDbLine
 62
7
  6
CONTINUOUS
 10
567.5669972861
 20
196.5432863501
 11
567.5469972857
 21
196.5432863501
  0
LINE
  5
27B
100
AcDbEntity
  8
0
100
AcDbLine
 62
7
  6
CONTINUOUS
 10
572.4669972861
 20
196.8432841153
 11
572.9669972861
 21
196.8432841153
  0
LINE
  5
27C
100
AcDbEntity
  8
0
100
AcDbLine
 62
7
  6
CONTINUOUS
 10
559.7469972861
 20
196.8932863501
 11
565.6469972861
 21
196.8932863501
  0
LINE
  5
27D
100
AcDbEntity
  8
0
100
AcDbLine
 62
7
  6
CONTINUOUS
 10
572.4669972853
 20
196.9932841157
 11
572.9669972853
 21
196.9932841157
  0
LINE
  5
27E
100
AcDbEntity
  8
0
100
AcDbLine
 62
7
  6
CONTINUOUS
 10
572.4669972861
 20
212.9421734154
 11
572.4669972861
 21
210.443284116
  0
LINE
  5
27F
100
AcDbEntity
  8
0
100
AcDbLine
 62
7
  6
CONTINUOUS
 10
572.4669972861
 20
207.6432841153
 11
572.4669972861
 21
190.243284115
  0
LINE
  5
280
100
AcDbEntity
  8
0
100
AcDbLine
 62
7
  6
CONTINUOUS
 10
559.4469972861
 20
197.6432863501
 11
558.5347711467
 21
197.6432863501
  0
LINE
  5
281
100
AcDbEntity
  8
0
100
AcDbLine
 62
7
  6
CONTINUOUS
 10
572.9669972861
 20
198.6432841153
 11
572.4669972861
 21
198.6432841153
  0
LINE
  5
282
100
AcDbEntity
  8
0
100
AcDbLine
 62
7
  6
CONTINUOUS
 10
572.9669972861
 20
191.0432841153
 11
572.9669972861
 21
198.643284116
  0
LINE
  5
283
100
AcDbEntity
  8
0
100
AcDbLine
 62
7
  6
CONTINUOUS
 10
573.1669972861
 20
213.0432841154
 11
573.1669972861
 21
210.5432841153
  0
LINE
  5
284
100
AcDbEntity
  8
0
100
AcDbLine
 62
7
  6
CONTINUOUS
 10
573.6669972861
 20
210.4432841153
 11
573.6669972861
 21
210.2932841157
  0
LINE
  5
285
100
AcDbEntity
  8
0
100
AcDbLine
 62
9
  6
CONTINUOUS
 10
573.6669972861
 20
210.2932841157
 11
573.6669972861
 21
207.7432841153
  0
LINE
  5
286
100
AcDbEntity
  8
0
100
AcDbLine
 62
7
  6
CONTINUOUS
 10
573.6669972861
 20
207.7432841153
 11
573.6669972861
 21
207.6432841153
  0
LINE
  5
287
100
AcDbEntity
  8
0
100
AcDbLine
 62
7
  6
CONTINUOUS
 10
573.9669972861
 20
207.1432841153
 11
573.9669972861
 21
207.7432841153
  0
LINE
  5
288
100
AcDbEntity
  8
0
100
AcDbLine
 62
7
  6
CONTINUOUS
 10
573.9669972861
 20
210.2932841153
 11
573.9669972861
 21
210.4432841153
  0
LINE
  5
289
100
AcDbEntity
  8
0
100
AcDbLine
 62
7
  6
CONTINUOUS
 10
574.7669972868
 20
207.1432841153
 11
574.7669972861
 21
210.4432841153
  0
LINE
  5
28A
100
AcDbEntity
  8
0
100
AcDbLine
 62
7
  6
CONTINUOUS
 10
574.8669972861
 20
207.143284116
 11
574.8669972861
 21
210.3432841153
  0
LINE
  5
28B
100
AcDbEntity
  8
0
100
AcDbLine
 62
7
  6
CONTINUOUS
 10
552.2469972861
 20
200.1950805858
 11
553.4969972861
 21
200.1950805858
  0
LINE
  5
28C
100
AcDbEntity
  8
0
100
AcDbLine
 62
7
  6
CONTINUOUS
 10
567.5669972857
 20
200.4114752868
 11
567.4669972861
 21
200.4115515935
  0
LINE
  5
28D
100
AcDbEntity
  8
0
100
AcDbLine
 62
7
  6
CONTINUOUS
 10
565.9669972861
 20
200.4126961942
 11
565.6472776787
 21
200.4129401618
  0
LINE
  5
28E
100
AcDbEntity
  8
0
100
AcDbLine
 62
9
  6
CONTINUOUS
 10
558.5347711458
 20
205.118258511
 11
559.4469972861
 21
204.8239087474
  0
LINE
  5
28F
100
AcDbEntity
  8
0
100
AcDbLine
 62
7
  6
CONTINUOUS
 10
575.6669972861
 20
187.7878377543
 11
575.6669972861
 21
181.1908028157
  0
LINE
  5
290
100
AcDbEntity
  8
0
100
AcDbLine
 62
7
  6
CONTINUOUS
 10
575.8669972861
 20
181.1908028157
 11
575.8669972861
 21
177.7894094897
  0
LINE
  5
291
100
AcDbEntity
  8
0
100
AcDbLine
 62
7
  6
CONTINUOUS
 10
576.2669972861
 20
182.8079844568
 11
576.2669972861
 21
187.186666146
  0
LINE
  5
292
100
AcDbEntity
  8
0
100
AcDbLine
 62
7
  6
CONTINUOUS
 10
565.8669972861
 20
202.1432841153
 11
565.9669972861
 21
202.1432841153
  0
LINE
  5
293
100
AcDbEntity
  8
0
100
AcDbLine
 62
7
  6
CONTINUOUS
 10
567.4669972861
 20
202.1432841153
 11
567.5669972861
 21
202.1432841153
  0
LINE
  5
294
100
AcDbEntity
  8
0
100
AcDbLine
 62
7
  6
CONTINUOUS
 10
557.755152646
 20
208.3682585104
 11
555.2469972861
 21
209.2811524043
  0
LINE
  5
295
100
AcDbEntity
  8
0
100
AcDbLine
 62
7
  6
CONTINUOUS
 10
568.9206426409
 20
208.0856854966
 11
570.8753093001
 21
205.9869744754
  0
LINE
  5
296
100
AcDbEntity
  8
0
100
AcDbLine
 62
9
  6
CONTINUOUS
 10
559.4469972861
 20
185.4626639523
 11
558.5347711467
 21
185.1683141898
  0
LINE
  5
297
100
AcDbEntity
  8
0
100
AcDbLine
 62
9
  6
CONTINUOUS
 10
558.5347711458
 20
205.118258511
 11
559.4469972861
 21
205.118258511
  0
LINE
  5
298
100
AcDbEntity
  8
0
100
AcDbLine
 62
7
  6
CONTINUOUS
 10
565.6469972861
 20
205.1432863501
 11
565.8669972861
 21
205.1432863501
  0
LINE
  5
299
100
AcDbEntity
  8
0
100
AcDbLine
 62
7
  6
CONTINUOUS
 10
565.6470091785
 20
205.2432863501
 11
559.7469972861
 21
205.2432863501
  0
LINE
  5
29A
100
AcDbEntity
  8
0
100
AcDbLine
 62
7
  6
CONTINUOUS
 10
559.7469972861
 20
205.3432863501
 11
560.0469972861
 21
205.3432863501
  0
LINE
  5
29B
100
AcDbEntity
  8
0
100
AcDbLine
 62
7
  6
CONTINUOUS
 10
567.5669972853
 20
205.6432841153
 11
571.2658696783
 21
205.6432841153
  0
LINE
  5
29C
100
AcDbEntity
  8
0
100
AcDbLine
 62
7
  6
CONTINUOUS
 10
592.0669972861
 20
205.8432841153
 11
594.7754268224
 21
205.8432841153
  0
LINE
  5
29D
100
AcDbEntity
  8
0
100
AcDbLine
 62
7
  6
CONTINUOUS
 10
553.4969972861
 20
206.0182863501
 11
553.7469972861
 21
206.0182863501
  0
LINE
  5
29E
100
AcDbEntity
  8
0
100
AcDbLine
 62
7
  6
CONTINUOUS
 10
557.755152646
 20
181.9183141898
 11
555.2469972861
 21
181.0054202959
  0
LINE
  5
29F
100
AcDbEntity
  8
0
100
AcDbLine
 62
9
  6
CONTINUOUS
 10
555.2469972868
 20
207.1057552981
 11
559.4469972861
 21
207.1057552981
  0
LINE
  5
2A0
100
AcDbEntity
  8
0
100
AcDbLine
 62
7
  6
CONTINUOUS
 10
572.4669972861
 20
207.1432841153
 11
574.8669972864
 21
207.1432841153
  0
LINE
  5
2A1
100
AcDbEntity
  8
0
100
AcDbLine
 62
7
  6
CONTINUOUS
 10
595.0669972861
 20
207.3432841153
 11
595.5902958495
 21
207.3432841153
  0
LINE
  5
2A2
100
AcDbEntity
  8
0
100
AcDbLine
 62
7
  6
CONTINUOUS
 10
571.6185236403
 20
207.6432841153
 11
573.6669972861
 21
207.6432841153
  0
LINE
  5
2A3
100
AcDbEntity
  8
0
100
AcDbLine
 62
7
  6
CONTINUOUS
 10
574.7669972861
 20
207.7432841153
 11
573.6669972861
 21
207.7432841153
  0
LINE
  5
2A4
100
AcDbEntity
  8
0
100
AcDbLine
 62
7
  6
CONTINUOUS
 10
571.9896166869
 20
208.0432841153
 11
571.8396166869
 21
208.0432841153
  0
LINE
  5
2A5
100
AcDbEntity
  8
0
100
AcDbLine
 62
9
  6
CONTINUOUS
 10
555.2469972861
 20
208.2211399135
 11
559.4469972861
 21
208.2211399135
  0
LINE
  5
2A6
100
AcDbEntity
  8
0
100
AcDbLine
 62
7
  6
CONTINUOUS
 10
559.4469972861
 20
208.3682585104
 11
555.2469972861
 21
208.3682585104
  0
LINE
  5
2A7
100
AcDbEntity
  8
0
100
AcDbLine
 62
7
  6
CONTINUOUS
 10
565.8669972861
 20
208.6432841153
 11
563.8669972861
 21
208.6432841153
  0
LINE
  5
2A8
100
AcDbEntity
  8
0
100
AcDbLine
 62
7
  6
CONTINUOUS
 10
552.2469972861
 20
208.7182863501
 11
553.4969972861
 21
208.7182863501
  0
LINE
  5
2A9
100
AcDbEntity
  8
0
100
AcDbLine
 62
7
  6
CONTINUOUS
 10
545.2469972861
 20
209.3932863501
 11
552.2469972866
 21
209.3932863501
  0
LINE
  5
2AA
100
AcDbEntity
  8
0
100
AcDbLine
 62
7
  6
CONTINUOUS
 10
555.2469972861
 20
209.6432863501
 11
553.7469972868
 21
209.6432863501
  0
LINE
  5
2AB
100
AcDbEntity
  8
0
100
AcDbLine
 62
7
  6
CONTINUOUS
 10
573.6669972861
 20
210.2932841153
 11
574.7669972861
 21
210.2932841153
  0
LINE
  5
2AC
100
AcDbEntity
  8
0
100
AcDbLine
 62
7
  6
CONTINUOUS
 10
574.7669972861
 20
210.4432841153
 11
573.9669972868
 21
210.4432841153
  0
LINE
  5
2AD
100
AcDbEntity
  8
0
100
AcDbLine
 62
7
  6
CONTINUOUS
 10
573.6669972861
 20
210.443284116
 11
570.652637933
 21
210.443284116
  0
LINE
  5
2AE
100
AcDbEntity
  8
0
100
AcDbLine
 62
7
  6
CONTINUOUS
 10
573.1669972853
 20
210.5432841153
 11
572.4669972861
 21
210.5432841153
  0
LINE
  5
2AF
100
AcDbEntity
  8
0
100
AcDbLine
 62
7
  6
CONTINUOUS
 10
575.3669972854
 20
210.8432841153
 11
591.9457811566
 21
210.8432841153
  0
LINE
  5
2B0
100
AcDbEntity
  8
0
100
AcDbLine
 62
9
  6
CONTINUOUS
 10
565.9669972861
 20
211.0768955962
 11
567.4669972861
 21
211.0768955962
  0
LINE
  5
2B1
100
AcDbEntity
  8
0
100
AcDbLine
 62
7
  6
CONTINUOUS
 10
567.5669972861
 20
211.9932841153
 11
567.4669972864
 21
211.9932841153
  0
LINE
  5
2B2
100
AcDbEntity
  8
0
100
AcDbLine
 62
7
  6
CONTINUOUS
 10
565.9669972864
 20
211.9932841153
 11
565.8669972861
 21
211.9932841153
  0
LINE
  5
2B3
100
AcDbEntity
  8
0
100
AcDbLine
 62
7
  6
CONTINUOUS
 10
590.7149028341
 20
208.43814042
 11
582.943740937
 21
209.808405934
  0
LINE
  5
2B4
100
AcDbEntity
  8
0
100
AcDbLine
 62
7
  6
CONTINUOUS
 10
573.1669972861
 20
213.0432841153
 11
570.0498323319
 21
214.3657177322
  0
LINE
  5
2B5
100
AcDbEntity
  8
0
100
AcDbLine
 62
7
  6
CONTINUOUS
 10
572.4669972861
 20
212.9421734153
 11
570.016997286
 21
214.3566815749
  0
LINE
  5
2B6
100
AcDbEntity
  8
0
100
AcDbLine
 62
7
  6
CONTINUOUS
 10
567.4669972861
 20
213.8432841153
 11
565.9669972861
 21
213.8432841153
  0
LINE
  5
2B7
100
AcDbEntity
  8
0
100
AcDbLine
 62
9
  6
CONTINUOUS
 10
567.5669972857
 20
214.0659338453
 11
570.5205871259
 21
214.0659338453
  0
LINE
  5
2B8
100
AcDbEntity
  8
0
100
AcDbLine
 62
7
  6
CONTINUOUS
 10
565.9669972861
 20
214.6273363722
 11
567.4669972861
 21
214.6273363722
  0
LINE
  5
2B9
100
AcDbEntity
  8
0
100
AcDbLine
 62
9
  6
CONTINUOUS
 10
569.8669972868
 20
214.9319592496
 11
567.5669972861
 21
214.9319592496
  0
LINE
  5
2BA
100
AcDbEntity
  8
0
100
AcDbLine
 62
9
  6
CONTINUOUS
 10
567.5669972861
 20
216.3093095194
 11
569.8669972868
 21
216.3093095194
  0
LINE
  5
2BB
100
AcDbEntity
  8
0
100
AcDbLine
 62
7
  6
CONTINUOUS
 10
569.8669972861
 20
216.4432841153
 11
567.5669972853
 21
216.4432841153
  0
LINE
  5
2BC
100
AcDbEntity
  8
0
100
AcDbLine
 62
7
  6
CONTINUOUS
 10
565.8669972861
 20
216.4432841153
 11
563.8669972861
 21
216.4432841153
  0
LINE
  5
2BD
100
AcDbEntity
  8
0
100
AcDbLine
 62
9
  6
CONTINUOUS
 10
569.8669972861
 20
216.8165426488
 11
567.5669972855
 21
216.8165426488
  0
LINE
  5
2BE
100
AcDbEntity
  8
0
100
AcDbLine
 62
7
  6
CONTINUOUS
 10
591.0669972861
 20
178.8432841153
 11
591.0669972861
 21
180.9529854838
  0
LINE
  5
2BF
100
AcDbEntity
  8
0
100
AcDbLine
 62
7
  6
CONTINUOUS
 10
591.0669972861
 20
208.7335827468
 11
591.0669972861
 21
210.8432841148
  0
LINE
  5
2C0
100
AcDbEntity
  8
0
100
AcDbLine
 62
7
  6
CONTINUOUS
 10
592.0669972861
 20
210.7991650515
 11
592.0669972861
 21
205.8432841153
  0
LINE
  5
2C1
100
AcDbEntity
  8
0
100
AcDbLine
 62
7
  6
CONTINUOUS
 10
569.8669972861
 20
217.8932841153
 11
567.5669972861
 21
217.8932841153
  0
LINE
  5
2C2
100
AcDbEntity
  8
0
100
AcDbLine
 62
7
  6
CONTINUOUS
 10
596.0669972868
 20
209.3432841153
 11
591.9457811573
 21
210.8432841153
  0
LINE
  5
2C3
100
AcDbEntity
  8
0
100
AcDbLine
 62
7
  6
CONTINUOUS
 10
595.0669972868
 20
207.3432841153
 11
594.7754268227
 21
205.8432841153
  0
LINE
  5
2C4
100
AcDbEntity
  8
0
100
AcDbLine
 62
7
  6
CONTINUOUS
 10
596.0669972868
 20
206.9432841149
 11
595.5902958483
 21
207.3432841153
  0
LINE
  5
2C5
100
AcDbEntity
  8
0
100
AcDbLine
 62
7
  6
CONTINUOUS
 10
596.0669972861
 20
209.3432841153
 11
596.0669972861
 21
180.3432841153
  0
LINE
  5
2C6
100
AcDbEntity
  8
0
100
AcDbLine
 62
7
  6
CONTINUOUS
 10
591.9457811573
 20
178.8432841153
 11
596.0669972868
 21
180.3432841153
  0
ARC
  5
2C7
100
AcDbEntity
  8
0
100
AcDbCircle
 62
7
  6
CONTINUOUS
 10
554.2743644645
 20
204.3432824424
 40
10.0000692311
100
AcDbArc
 50
164.3610578625
 51
180.0
  0
ARC
  5
2C8
100
AcDbEntity
  8
0
100
AcDbCircle
 62
7
  6
CONTINUOUS
 10
554.2743644645
 20
185.9432902579
 40
10.0000692311
100
AcDbArc
 50
180.0
 51
195.6389421375
  0
ARC
  5
2C9
100
AcDbEntity
  8
0
100
AcDbCircle
 62
7
  6
CONTINUOUS
 10
575.2669875746
 20
187.1866614095
 40
1.0000097115
100
AcDbArc
 50
0.0002713818
 51
51.9997285906
  0
ARC
  5
2CA
100
AcDbEntity
  8
0
100
AcDbCircle
 62
7
  6
CONTINUOUS
 10
570.8534892925
 20
206.438688613
 40
0.5
100
AcDbArc
 50
331.0000000972
 51
348.9999999401
  0
ARC
  5
2CB
100
AcDbEntity
  8
0
100
AcDbCircle
 62
7
  6
CONTINUOUS
 10
590.7669763419
 20
180.9529645395
 40
0.300020945
100
AcDbArc
 50
359.9833366779
 51
99.9968301497
  0
ARC
  5
2CC
100
AcDbEntity
  8
0
100
AcDbCircle
 62
7
  6
CONTINUOUS
 10
590.7669763419
 20
208.733603691
 40
0.300020945
100
AcDbArc
 50
260.0031699854
 51
359.987996871
  0
ARC
  5
2CD
100
AcDbEntity
  8
0
100
AcDbCircle
 62
7
  6
CONTINUOUS
 10
559.4469972861
 20
197.3432863501
 40
0.3
100
AcDbArc
 50
0.0
 51
90.0
  0
ARC
  5
2CE
100
AcDbEntity
  8
0
100
AcDbCircle
 62
7
  6
CONTINUOUS
 10
559.4469972861
 20
192.9432863501
 40
0.3
100
AcDbArc
 50
270.0000000057
 51
360.0
  0
ARC
  5
2CF
100
AcDbEntity
  8
0
100
AcDbCircle
 62
7
  6
CONTINUOUS
 10
559.4469972861
 20
208.0682585104
 40
0.3
100
AcDbArc
 50
0.0
 51
90.0
  0
ARC
  5
2D0
100
AcDbEntity
  8
0
100
AcDbCircle
 62
7
  6
CONTINUOUS
 10
559.4469972861
 20
182.2183141898
 40
0.3
100
AcDbArc
 50
270.0
 51
360.0
  0
ARC
  5
2D1
100
AcDbEntity
  8
0
100
AcDbCircle
 62
7
  6
CONTINUOUS
 10
570.1669972861
 20
214.6164891961
 40
0.3
100
AcDbArc
 50
180.0000000955
 51
239.9999999966
  0
ARC
  5
2D2
100
AcDbEntity
  8
0
100
AcDbCircle
 62
7
  6
CONTINUOUS
 10
570.1669972861
 20
214.6418922667
 40
0.3
100
AcDbArc
 50
213.5056415905
 51
247.01128318
  0
ARC
  5
2D3
100
AcDbEntity
  8
0
100
AcDbCircle
 62
7
  6
CONTINUOUS
 10
570.6526379321
 20
210.2432841153
 40
0.2
100
AcDbArc
 50
89.9999997594
 51
120.0000000919
  0
ARC
  5
2D4
100
AcDbEntity
  8
0
100
AcDbCircle
 62
7
  6
CONTINUOUS
 10
569.0669972861
 20
209.3278140615
 40
0.2
100
AcDbArc
 50
119.9999998306
 51
180.0000002578
  0
ARC
  5
2D5
100
AcDbEntity
  8
0
100
AcDbCircle
 62
7
  6
CONTINUOUS
 10
569.0669972861
 20
208.2219951372
 40
0.2
100
AcDbArc
 50
180.0000000573
 51
222.9647436697
  0
ARC
  5
2D6
100
AcDbEntity
  8
0
100
AcDbCircle
 62
7
  6
CONTINUOUS
 10
571.0216639449
 20
206.1232841153
 40
0.2
100
AcDbArc
 50
222.9647436083
 51
330.9753449962
  0
ARC
  5
2D7
100
AcDbEntity
  8
0
100
AcDbCircle
 62
7
  6
CONTINUOUS
 10
571.8396166869
 20
207.8432841153
 40
0.2
100
AcDbArc
 50
89.9999999205
 51
169.0000001129
  0
ARC
  5
2D8
100
AcDbEntity
  8
0
100
AcDbCircle
 62
7
  6
CONTINUOUS
 10
571.9896166869
 20
207.8432841153
 40
0.2
100
AcDbArc
 50
359.9999939123
 51
89.9999995416
  0
ARC
  5
2D9
100
AcDbEntity
  8
0
100
AcDbCircle
 62
7
  6
CONTINUOUS
 10
572.3896166869
 20
207.8432841153
 40
0.2
100
AcDbArc
 50
180.0000060877
 51
270.0000001352
  0
SPLINE
  5
2DA
100
AcDbEntity
  8
0
100
AcDbSpline
 62
9
  6
CONTINUOUS
 70
0
 71
3
 72
12
 73
8
 74
0
 42
0.0000001
 43
0.0000001
 44
0.0000000001
 40
0.0
 40
0.0
 40
0.0
 40
0.0
 40
0.2510833749
 40
0.5013667096
 40
0.7508936427
 40
0.8754769499
 40
1.0
 40
1.0
 40
1.0
 40
1.0
 10
558.5347711467
 20
197.6432863501
 30
0.0
 10
558.255204167
 20
197.6432863167
 30
0.0
 10
557.6967879361
 20
197.6283849924
 30
0.0
 10
556.8634674689
 20
197.5543533735
 30
0.0
 10
556.176655384
 20
197.4389001467
 30
0.0
 10
555.6387202772
 20
197.3002768953
 30
0.0
 10
555.3756837395
 20
197.2108083538
 30
0.0
 10
555.2469972861
 20
197.1591999842
 30
0.0
  0
SPLINE
  5
2DB
100
AcDbEntity
  8
0
100
AcDbSpline
 62
9
  6
CONTINUOUS
 70
0
 71
3
 72
12
 73
8
 74
0
 42
0.0000001
 43
0.0000001
 44
0.0000000001
 40
0.0
 40
0.0
 40
0.0
 40
0.0
 40
0.1153800411
 40
0.2114361869
 40
0.3344369172
 40
0.6452314817
 40
1.0
 40
1.0
 40
1.0
 40
1.0
 10
559.7469972861
 20
197.8204674687
 30
0.0
 10
559.7469972861
 20
197.8286822992
 30
0.0
 10
559.7337736673
 20
197.8411814688
 30
0.0
 10
559.7130430751
 20
197.8511010717
 30
0.0
 10
559.677000289
 20
197.863685972
 30
0.0
 10
559.6219544236
 20
197.8745230498
 30
0.0
 10
559.5747831268
 20
197.8798805158
 30
0.0
 10
559.5496033293
 20
197.8818769094
 30
0.0
  0
SPLINE
  5
2DC
100
AcDbEntity
  8
0
100
AcDbSpline
 62
9
  6
CONTINUOUS
 70
0
 71
3
 72
11
 73
7
 74
0
 42
0.0000001
 43
0.0000001
 44
0.0000000001
 40
0.0
 40
0.0
 40
0.0
 40
0.0
 40
0.2866908769
 40
0.555607942
 40
0.7930256809
 40
1.0
 40
1.0
 40
1.0
 40
1.0
 10
559.5496033293
 20
204.4000706033
 30
0.0
 10
559.5778817527
 20
204.3924921223
 30
0.0
 10
559.6312795554
 20
204.3713347436
 30
0.0
 10
559.6966376919
 20
204.3214500533
 30
0.0
 10
559.7377707363
 20
204.259413947
 30
0.0
 10
559.7469972861
 20
204.2136347015
 30
0.0
 10
559.7469972861
 20
204.1924988866
 30
0.0
  0
SPLINE
  5
2DD
100
AcDbEntity
  8
0
100
AcDbSpline
 62
9
  6
CONTINUOUS
 70
0
 71
3
 72
14
 73
10
 74
0
 42
0.0000001
 43
0.0000001
 44
0.0000000001
 40
0.0
 40
0.0
 40
0.0
 40
0.0
 40
0.3793779899
 40
0.5508445028
 40
0.7012917131
 40
0.8251212986
 40
0.917647315
 40
0.9758248697
 40
1.0
 40
1.0
 40
1.0
 40
1.0
 10
559.4469972861
 20
194.0279017347
 30
0.0
 10
559.4852745434
 20
194.0279017347
 30
0.0
 10
559.5408885955
 20
194.028684434
 30
0.0
 10
559.6115201859
 20
194.0315026647
 30
0.0
 10
559.6565839211
 20
194.034288724
 30
0.0
 10
559.6929760177
 20
194.0374991107
 30
0.0
 10
559.7215909596
 20
194.0413910619
 30
0.0
 10
559.7366998427
 20
194.0446967278
 30
0.0
 10
559.7469972861
 20
194.0485395134
 30
0.0
 10
559.7469972861
 20
194.0509786578
 30
0.0
  0
SPLINE
  5
2DE
100
AcDbEntity
  8
0
100
AcDbSpline
 62
9
  6
CONTINUOUS
 70
0
 71
3
 72
13
 73
9
 74
0
 42
0.0000001
 43
0.0000001
 44
0.0000000001
 40
0.0
 40
0.0
 40
0.0
 40
0.0
 40
0.0766660535
 40
0.1654469467
 40
0.2723869755
 40
0.3984500212
 40
0.6938695571
 40
1.0
 40
1.0
 40
1.0
 40
1.0
 10
559.7469972861
 20
204.9739087474
 30
0.0
 10
559.7469972861
 20
204.9646485049
 30
0.0
 10
559.7430820429
 20
204.9445331781
 30
0.0
 10
559.7258481585
 20
204.9158788942
 30
0.0
 10
559.6969927928
 20
204.8892622932
 30
0.0
 10
559.6420010653
 20
204.8562307812
 30
0.0
 10
559.556702897
 20
204.8305383512
 30
0.0
 10
559.4839737835
 20
204.8239087474
 30
0.0
 10
559.4469972861
 20
204.8239087474
 30
0.0
  0
SPLINE
  5
2DF
100
AcDbEntity
  8
0
100
AcDbSpline
 62
9
  6
CONTINUOUS
 70
0
 71
3
 72
14
 73
10
 74
0
 42
0.0000001
 43
0.0000001
 44
0.0000000001
 40
0.0
 40
0.0
 40
0.0
 40
0.0
 40
0.3793779899
 40
0.5508445028
 40
0.7012917131
 40
0.8251212986
 40
0.917647315
 40
0.9758248697
 40
1.0
 40
1.0
 40
1.0
 40
1.0
 10
559.4469972861
 20
196.2586709655
 30
0.0
 10
559.4852745434
 20
196.2586709655
 30
0.0
 10
559.5408885955
 20
196.2578882662
 30
0.0
 10
559.6115201859
 20
196.2550700355
 30
0.0
 10
559.6565839211
 20
196.2522839762
 30
0.0
 10
559.6929760177
 20
196.2490735895
 30
0.0
 10
559.7215909596
 20
196.2451816383
 30
0.0
 10
559.7366998427
 20
196.2418759724
 30
0.0
 10
559.7469972861
 20
196.2380331868
 30
0.0
 10
559.7469972861
 20
196.2355940424
 30
0.0
  0
SPLINE
  5
2E0
100
AcDbEntity
  8
0
100
AcDbSpline
 62
9
  6
CONTINUOUS
 70
0
 71
3
 72
10
 73
6
 74
0
 42
0.0000001
 43
0.0000001
 44
0.0000000001
 40
0.0
 40
0.0
 40
0.0
 40
0.0
 40
0.5328137273
 40
0.7963925884
 40
1.0
 40
1.0
 40
1.0
 40
1.0
 10
558.5347707997
 20
205.1182577017
 30
0.0
 10
558.5085208671
 20
205.0572071394
 30
0.0
 10
558.4759173741
 20
204.9629976838
 30
0.0
 10
558.4450785771
 20
204.8421314339
 30
0.0
 10
558.4348506666
 20
204.7846398689
 30
0.0
 10
558.4321651766
 20
204.7593875082
 30
0.0
  0
SPLINE
  5
2E1
100
AcDbEntity
  8
0
100
AcDbSpline
 62
9
  6
CONTINUOUS
 70
0
 71
3
 72
11
 73
7
 74
0
 42
0.0000001
 43
0.0000001
 44
0.0000000001
 40
0.0
 40
0.0
 40
0.0
 40
0.0
 40
0.2227769329
 40
0.4848277835
 40
0.7507870245
 40
1.0
 40
1.0
 40
1.0
 40
1.0
 10
559.5497727726
 20
204.4004150843
 30
0.0
 10
559.5464403517
 20
204.4326616697
 30
0.0
 10
559.5345328077
 20
204.5023196641
 30
0.0
 10
559.5102612551
 20
204.608857103
 30
0.0
 10
559.4807123121
 20
204.7180447138
 30
0.0
 10
559.4589793197
 20
204.7898409749
 30
0.0
 10
559.4469969008
 20
204.8240694914
 30
0.0
  0
SPLINE
  5
2E2
100
AcDbEntity
  8
0
100
AcDbSpline
 62
9
  6
CONTINUOUS
 70
0
 71
3
 72
12
 73
8
 74
0
 42
0.0000001
 43
0.0000001
 44
0.0000000001
 40
0.0
 40
0.0
 40
0.0
 40
0.0
 40
0.3833828393
 40
0.6943541097
 40
0.8097622428
 40
0.8967929731
 40
1.0
 40
1.0
 40
1.0
 40
1.0
 10
559.5496033293
 20
192.4046957908
 30
0.0
 10
559.5768331411
 20
192.4068547209
 30
0.0
 10
559.626056577
 20
192.412573841
 30
0.0
 10
559.6825913002
 20
192.4242686084
 30
0.0
 10
559.717199549
 20
192.43726458
 30
0.0
 10
559.7359800478
 20
192.4470294802
 30
0.0
 10
559.7469972861
 20
192.4587519364
 30
0.0
 10
559.7469972861
 20
192.4661052315
 30
0.0
  0
SPLINE
  5
2E3
100
AcDbEntity
  8
0
100
AcDbSpline
 62
9
  6
CONTINUOUS
 70
0
 71
3
 72
13
 73
9
 74
0
 42
0.0000001
 43
0.0000001
 44
0.0000000001
 40
0.0
 40
0.0
 40
0.0
 40
0.0
 40
0.3061304427
 40
0.6015499785
 40
0.7276130242
 40
0.8345530531
 40
0.9233339464
 40
1.0
 40
1.0
 40
1.0
 40
1.0
 10
559.4469972861
 20
185.4626639522
 30
0.0
 10
559.4839737835
 20
185.4626639522
 30
0.0
 10
559.556702897
 20
185.4560343484
 30
0.0
 10
559.6420010653
 20
185.4303419184
 30
0.0
 10
559.6969927928
 20
185.3973104063
 30
0.0
 10
559.7258481585
 20
185.3706938051
 30
0.0
 10
559.7430820429
 20
185.3420395211
 30
0.0
 10
559.7469972861
 20
185.3219241943
 30
0.0
 10
559.7469972861
 20
185.3126639518
 30
0.0
  0
SPLINE
  5
2E4
100
AcDbEntity
  8
0
100
AcDbSpline
 62
9
  6
CONTINUOUS
 70
0
 71
3
 72
11
 73
7
 74
0
 42
0.0000001
 43
0.0000001
 44
0.0000000001
 40
0.0
 40
0.0
 40
0.0
 40
0.0
 40
0.2256680456
 40
0.4723712251
 40
0.7358538724
 40
1.0
 40
1.0
 40
1.0
 40
1.0
 10
559.7469972861
 20
186.0940738136
 30
0.0
 10
559.7469972861
 20
186.0710323072
 30
0.0
 10
559.7362186154
 20
186.0223196886
 30
0.0
 10
559.6914532647
 20
185.9599252446
 30
0.0
 10
559.626423684
 20
185.9130822158
 30
0.0
 10
559.5756542955
 20
185.8934836301
 30
0.0
 10
559.5496033293
 20
185.8865020969
 30
0.0
  0
SPLINE
  5
2E5
100
AcDbEntity
  8
0
100
AcDbSpline
 62
9
  6
CONTINUOUS
 70
0
 71
3
 72
13
 73
9
 74
0
 42
0.0000001
 43
0.0000001
 44
0.0000000001
 40
0.0
 40
0.0
 40
0.0
 40
0.0
 40
0.0822452088
 40
0.1731402532
 40
0.2778863345
 40
0.39845992
 40
0.6815811013
 40
1.0
 40
1.0
 40
1.0
 40
1.0
 10
559.7469972861
 20
185.0183141898
 30
0.0
 10
559.7469972861
 20
185.0282485341
 30
0.0
 10
559.7425808854
 20
185.0493154178
 30
0.0
 10
559.7242846448
 20
185.0780778608
 30
0.0
 10
559.6956877418
 20
185.1039121012
 30
0.0
 10
559.6425882679
 20
185.1353491313
 30
0.0
 10
559.5582585129
 20
185.1614798943
 30
0.0
 10
559.4854588941
 20
185.1683141898
 30
0.0
 10
559.4469972861
 20
185.1683141898
 30
0.0
  0
SPLINE
  5
2E6
100
AcDbEntity
  8
0
100
AcDbSpline
 62
9
  6
CONTINUOUS
 70
0
 71
3
 72
11
 73
7
 74
0
 42
0.0000001
 43
0.0000001
 44
0.0000000001
 40
0.0
 40
0.0
 40
0.0
 40
0.0
 40
0.2717115033
 40
0.5311941033
 40
0.7724584064
 40
1.0
 40
1.0
 40
1.0
 40
1.0
 10
559.4469972861
 20
183.1808174021
 30
0.0
 10
559.4857819969
 20
183.1808174021
 30
0.0
 10
559.5622239232
 20
183.1929848703
 30
0.0
 10
559.6613349724
 20
183.2462204324
 30
0.0
 10
559.7301180693
 20
183.3280456515
 30
0.0
 10
559.7469972861
 20
183.395836961
 30
0.0
 10
559.7469972861
 20
183.4283167596
 30
0.0
  0
SPLINE
  5
2E7
100
AcDbEntity
  8
0
100
AcDbSpline
 62
9
  6
CONTINUOUS
 70
0
 71
3
 72
10
 73
6
 74
0
 42
0.0000001
 43
0.0000001
 44
0.0000000001
 40
0.0
 40
0.0
 40
0.0
 40
0.0
 40
0.5107608888
 40
0.7591941527
 40
1.0
 40
1.0
 40
1.0
 40
1.0
 10
559.4469972861
 20
182.0654327867
 30
0.0
 10
559.5082477642
 20
182.0654327867
 30
0.0
 10
559.6023571687
 20
182.0921304512
 30
0.0
 10
559.6927266737
 20
182.1731396279
 30
0.0
 10
559.7225372269
 20
182.2252244045
 30
0.0
 10
559.732314241
 20
182.2523963984
 30
0.0
  0
SPLINE
  5
2E8
100
AcDbEntity
  8
0
100
AcDbSpline
 62
9
  6
CONTINUOUS
 70
0
 71
3
 72
8
 73
4
 74
0
 42
0.0000001
 43
0.0000001
 44
0.0000000001
 40
0.0
 40
0.0
 40
0.0
 40
0.0
 40
1.0
 40
1.0
 40
1.0
 40
1.0
 10
559.732314241
 20
182.2523963984
 30
0.0
 10
559.741894857
 20
182.2790225685
 30
0.0
 10
559.7469972861
 20
182.3077116976
 30
0.0
 10
559.7469972861
 20
182.3360090673
 30
0.0
  0
SPLINE
  5
2E9
100
AcDbEntity
  8
0
100
AcDbSpline
 62
9
  6
CONTINUOUS
 70
0
 71
3
 72
9
 73
5
 74
0
 42
0.0000001
 43
0.0000001
 44
0.0000000001
 40
0.0
 40
0.0
 40
0.0
 40
0.0
 40
0.2487024717
 40
1.0
 40
1.0
 40
1.0
 40
1.0
 10
558.4321651071
 20
204.7593868551
 30
0.0
 10
558.3018743835
 20
204.8012565593
 30
0.0
 10
557.7794937467
 20
204.974204669
 30
0.0
 10
557.2635717044
 20
205.1669843966
 30
0.0
 10
556.8814920023
 20
205.3248673765
 30
0.0
  0
SPLINE
  5
2EA
100
AcDbEntity
  8
0
100
AcDbSpline
 62
9
  6
CONTINUOUS
 70
0
 71
3
 72
9
 73
5
 74
0
 42
0.0000001
 43
0.0000001
 44
0.0000000001
 40
0.0
 40
0.0
 40
0.0
 40
0.0
 40
0.4998559109
 40
1.0
 40
1.0
 40
1.0
 40
1.0
 10
556.8814920023
 20
205.3248673765
 30
0.0
 10
556.601162969
 20
205.4407049436
 30
0.0
 10
556.0460571628
 20
205.6864336652
 30
0.0
 10
555.5076968738
 20
205.968428305
 30
0.0
 10
555.2469720098
 20
206.1237710485
 30
0.0
  0
SPLINE
  5
2EB
100
AcDbEntity
  8
0
100
AcDbSpline
 62
9
  6
CONTINUOUS
 70
0
 71
3
 72
10
 73
6
 74
0
 42
0.0000001
 43
0.0000001
 44
0.0000000001
 40
0.0
 40
0.0
 40
0.0
 40
0.0
 40
0.5107608888
 40
0.7591941527
 40
1.0
 40
1.0
 40
1.0
 40
1.0
 10
559.4469972861
 20
208.2211399135
 30
0.0
 10
559.5082477642
 20
208.2211399135
 30
0.0
 10
559.6023571687
 20
208.1944422489
 30
0.0
 10
559.6927266737
 20
208.1134330723
 30
0.0
 10
559.7225372269
 20
208.0613482957
 30
0.0
 10
559.732314241
 20
208.0341763018
 30
0.0
  0
SPLINE
  5
2EC
100
AcDbEntity
  8
0
100
AcDbSpline
 62
9
  6
CONTINUOUS
 70
0
 71
3
 72
8
 73
4
 74
0
 42
0.0000001
 43
0.0000001
 44
0.0000000001
 40
0.0
 40
0.0
 40
0.0
 40
0.0
 40
1.0
 40
1.0
 40
1.0
 40
1.0
 10
559.732314241
 20
208.0341763018
 30
0.0
 10
559.741894857
 20
208.0075501317
 30
0.0
 10
559.7469972861
 20
207.9788610026
 30
0.0
 10
559.7469972861
 20
207.9505636329
 30
0.0
  0
SPLINE
  5
2ED
100
AcDbEntity
  8
0
100
AcDbSpline
 62
9
  6
CONTINUOUS
 70
0
 71
3
 72
11
 73
7
 74
0
 42
0.0000001
 43
0.0000001
 44
0.0000000001
 40
0.0
 40
0.0
 40
0.0
 40
0.0
 40
0.2717115033
 40
0.5311941033
 40
0.7724584064
 40
1.0
 40
1.0
 40
1.0
 40
1.0
 10
559.4469972861
 20
207.1057552982
 30
0.0
 10
559.4857819969
 20
207.1057552982
 30
0.0
 10
559.5622239232
 20
207.09358783
 30
0.0
 10
559.6613349724
 20
207.0403522678
 30
0.0
 10
559.7301180693
 20
206.9585270487
 30
0.0
 10
559.7469972861
 20
206.8907357393
 30
0.0
 10
559.7469972861
 20
206.8582559406
 30
0.0
  0
SPLINE
  5
2EE
100
AcDbEntity
  8
0
100
AcDbSpline
 62
9
  6
CONTINUOUS
 70
0
 71
3
 72
13
 73
9
 74
0
 42
0.0000001
 43
0.0000001
 44
0.0000000001
 40
0.0
 40
0.0
 40
0.0
 40
0.0
 40
0.3184188987
 40
0.60154008
 40
0.7221136655
 40
0.8268597468
 40
0.9177547912
 40
1.0
 40
1.0
 40
1.0
 40
1.0
 10
559.4469972861
 20
205.1182585097
 30
0.0
 10
559.4854588941
 20
205.1182585097
 30
0.0
 10
559.5582585129
 20
205.1250928053
 30
0.0
 10
559.6425882679
 20
205.1512235682
 30
0.0
 10
559.6956877418
 20
205.1826605983
 30
0.0
 10
559.7242846448
 20
205.2084948387
 30
0.0
 10
559.7425808854
 20
205.2372572818
 30
0.0
 10
559.7469972861
 20
205.2583241654
 30
0.0
 10
559.7469972861
 20
205.2682585097
 30
0.0
  0
SPLINE
  5
2EF
100
AcDbEntity
  8
0
100
AcDbSpline
 62
9
  6
CONTINUOUS
 70
0
 71
3
 72
10
 73
6
 74
0
 42
0.0000001
 43
0.0000001
 44
0.0000000001
 40
0.0
 40
0.0
 40
0.0
 40
0.0
 40
0.2501054585
 40
0.5009985254
 40
1.0
 40
1.0
 40
1.0
 40
1.0
 10
555.2469972861
 20
206.3160420431
 30
0.0
 10
555.5061811132
 20
206.1811952806
 30
0.0
 10
556.0403139103
 20
205.939840394
 30
0.0
 10
557.1326164228
 20
205.5250248597
 30
0.0
 10
557.9718279725
 20
205.269538033
 30
0.0
 10
558.5347711447
 20
205.118258511
 30
0.0
  0
SPLINE
  5
2F0
100
AcDbEntity
  8
0
100
AcDbSpline
 62
9
  6
CONTINUOUS
 70
0
 71
3
 72
10
 73
6
 74
0
 42
0.0000001
 43
0.0000001
 44
0.0000000001
 40
0.0
 40
0.0
 40
0.0
 40
0.0
 40
0.5328137272
 40
0.7963925884
 40
1.0
 40
1.0
 40
1.0
 40
1.0
 10
558.5347707996
 20
185.1683149988
 30
0.0
 10
558.508520867
 20
185.229365561
 30
0.0
 10
558.475917374
 20
185.3235750165
 30
0.0
 10
558.4450785771
 20
185.4444412664
 30
0.0
 10
558.4348506665
 20
185.5019328313
 30
0.0
 10
558.4321651767
 20
185.527185192
 30
0.0
  0
SPLINE
  5
2F1
100
AcDbEntity
  8
0
100
AcDbSpline
 62
9
  6
CONTINUOUS
 70
0
 71
3
 72
10
 73
6
 74
0
 42
0.0000001
 43
0.0000001
 44
0.0000000001
 40
0.0
 40
0.0
 40
0.0
 40
0.0
 40
0.5328821751
 40
0.7902503997
 40
1.0
 40
1.0
 40
1.0
 40
1.0
 10
559.4469973265
 20
185.4626640726
 30
0.0
 10
559.4717573195
 20
185.5361679186
 30
0.0
 10
559.5036131382
 20
185.6468996753
 30
0.0
 10
559.5351795653
 20
185.7889800502
 30
0.0
 10
559.5465066373
 20
185.8561293312
 30
0.0
 10
559.549603253
 20
185.8865013497
 30
0.0
  0
SPLINE
  5
2F2
100
AcDbEntity
  8
0
100
AcDbSpline
 62
9
  6
CONTINUOUS
 70
0
 71
3
 72
9
 73
5
 74
0
 42
0.0000001
 43
0.0000001
 44
0.0000000001
 40
0.0
 40
0.0
 40
0.0
 40
0.0
 40
0.5001440711
 40
1.0
 40
1.0
 40
1.0
 40
1.0
 10
555.2469721995
 20
184.1628017665
 30
0.0
 10
555.507698673
 20
184.3181453382
 30
0.0
 10
556.0460621971
 20
184.6001416453
 30
0.0
 10
556.6011714938
 20
184.8458714823
 30
0.0
 10
556.8815022909
 20
184.9617095658
 30
0.0
  0
SPLINE
  5
2F3
100
AcDbEntity
  8
0
100
AcDbSpline
 62
9
  6
CONTINUOUS
 70
0
 71
3
 72
9
 73
5
 74
0
 42
0.0000001
 43
0.0000001
 44
0.0000000001
 40
0.0
 40
0.0
 40
0.0
 40
0.0
 40
0.2512718647
 40
1.0
 40
1.0
 40
1.0
 40
1.0
 10
556.8815022909
 20
184.9617095658
 30
0.0
 10
557.0092900191
 20
185.0145139159
 30
0.0
 10
557.5202561275
 20
185.2188345411
 30
0.0
 10
558.0399171307
 20
185.401134609
 30
0.0
 10
558.4321651071
 20
185.5271858451
 30
0.0
  0
LINE
  5
2F4
100
AcDbEntity
  8
0
100
AcDbLine
 62
9
  6
CONTINUOUS
 10
558.4319923579
 20
185.5275376694
 11
559.5497727725
 21
185.8861576159
  0
SPLINE
  5
2F5
100
AcDbEntity
  8
0
100
AcDbSpline
 62
9
  6
CONTINUOUS
 70
0
 71
3
 72
8
 73
4
 74
0
 42
0.0000001
 43
0.0000001
 44
0.0000000001
 40
0.0
 40
0.0
 40
0.0
 40
0.0
 40
1.0
 40
1.0
 40
1.0
 40
1.0
 10
559.549772729
 20
192.4045951301
 30
0.0
 10
559.1771802118
 20
192.4035825691
 30
0.0
 10
558.8045849687
 20
192.403874533
 30
0.0
 10
558.4319923143
 20
192.4029137659
 30
0.0
  0
SPLINE
  5
2F6
100
AcDbEntity
  8
0
100
AcDbSpline
 62
9
  6
CONTINUOUS
 70
0
 71
3
 72
11
 73
7
 74
0
 42
0.0000001
 43
0.0000001
 44
0.0000000001
 40
0.0
 40
0.0
 40
0.0
 40
0.0
 40
0.2509466701
 40
0.5009623261
 40
0.7504236763
 40
1.0
 40
1.0
 40
1.0
 40
1.0
 10
558.4321651071
 20
192.4028123291
 30
0.0
 10
558.1606201751
 20
192.40236873
 30
0.0
 10
557.6183149912
 20
192.4173835971
 30
0.0
 10
556.8094779945
 20
192.4986886804
 30
0.0
 10
556.0120765388
 20
192.649144103
 30
0.0
 10
555.4947351063
 20
192.8136555351
 30
0.0
 10
555.2469720096
 20
192.9211133542
 30
0.0
  0
LINE
  5
2F7
100
AcDbEntity
  8
0
100
AcDbLine
 62
9
  6
CONTINUOUS
 10
559.5497727726
 20
204.4004150843
 11
558.4319923579
 21
204.7590350308
  0
SPLINE
  5
2F8
100
AcDbEntity
  8
0
100
AcDbSpline
 62
9
  6
CONTINUOUS
 70
0
 71
3
 72
11
 73
7
 74
0
 42
0.0000001
 43
0.0000001
 44
0.0000000001
 40
0.0
 40
0.0
 40
0.0
 40
0.0
 40
0.3857789237
 40
0.5454215951
 40
0.6803916243
 40
1.0
 40
1.0
 40
1.0
 40
1.0
 10
559.549772729
 20
192.4045951301
 30
0.0
 10
559.5472043112
 20
192.4393533559
 30
0.0
 10
559.5409186395
 20
192.4882228732
 30
0.0
 10
559.5240759629
 20
192.5481328646
 30
0.0
 10
559.505434624
 20
192.5980102805
 30
0.0
 10
559.4758717357
 20
192.6435592745
 30
0.0
 10
559.4469969151
 20
192.6435995587
 30
0.0
  0
SPLINE
  5
2F9
100
AcDbEntity
  8
0
100
AcDbSpline
 62
9
  6
CONTINUOUS
 70
0
 71
3
 72
12
 73
8
 74
0
 42
0.0000001
 43
0.0000001
 44
0.0000000001
 40
0.0
 40
0.0
 40
0.0
 40
0.0
 40
0.1374452959
 40
0.2360702699
 40
0.3580368933
 40
0.6608941273
 40
1.0
 40
1.0
 40
1.0
 40
1.0
 10
558.5347707872
 20
192.6432863501
 30
0.0
 10
558.5221368246
 20
192.6432862228
 30
0.0
 10
558.5012337076
 20
192.6305674864
 30
0.0
 10
558.482123217
 20
192.604071728
 30
0.0
 10
558.460368285
 20
192.5607856495
 30
0.0
 10
558.4419124774
 20
192.4925538435
 30
0.0
 10
558.4343617851
 20
192.4339064081
 30
0.0
 10
558.4321651767
 20
192.4028133129
 30
0.0
  0
SPLINE
  5
2FA
100
AcDbEntity
  8
0
100
AcDbSpline
 62
9
  6
CONTINUOUS
 70
0
 71
3
 72
12
 73
8
 74
0
 42
0.0000001
 43
0.0000001
 44
0.0000000001
 40
0.0
 40
0.0
 40
0.0
 40
0.0
 40
0.1245230565
 40
0.2491063647
 40
0.4986332938
 40
0.7489166248
 40
1.0
 40
1.0
 40
1.0
 40
1.0
 10
555.2469972861
 20
193.127372716
 30
0.0
 10
555.3756837478
 20
193.0757643481
 30
0.0
 10
555.6387202916
 20
192.9862958007
 30
0.0
 10
556.1766554012
 20
192.8476725445
 30
0.0
 10
556.86346748
 20
192.7322193284
 30
0.0
 10
557.6967879382
 20
192.65818771
 30
0.0
 10
558.2552041649
 20
192.6432863836
 30
0.0
 10
558.5347711448
 20
192.6432863501
 30
0.0
  0
SPLINE
  5
2FB
100
AcDbEntity
  8
0
100
AcDbSpline
 62
9
  6
CONTINUOUS
 70
0
 71
3
 72
10
 73
6
 74
0
 42
0.0000001
 43
0.0000001
 44
0.0000000001
 40
0.0
 40
0.0
 40
0.0
 40
0.0
 40
0.4990014781
 40
0.749894549
 40
1.0
 40
1.0
 40
1.0
 40
1.0
 10
558.5347711467
 20
185.1683141898
 30
0.0
 10
557.9718279703
 20
185.0170346667
 30
0.0
 10
557.1326164099
 20
184.7615478413
 30
0.0
 10
556.0403139019
 20
184.3467322953
 30
0.0
 10
555.5061811022
 20
184.1053774223
 30
0.0
 10
555.2469972861
 20
183.9705306571
 30
0.0
  0
SPLINE
  5
2FC
100
AcDbEntity
  8
0
100
AcDbSpline
 62
9
  6
CONTINUOUS
 70
0
 71
3
 72
8
 73
4
 74
0
 42
0.0000001
 43
0.0000001
 44
0.0000000001
 40
0.0
 40
0.0
 40
0.0
 40
0.0
 40
1.0
 40
1.0
 40
1.0
 40
1.0
 10
558.4319923143
 20
197.8836589343
 30
0.0
 10
558.8045849686
 20
197.8826981672
 30
0.0
 10
559.1771802118
 20
197.8829901311
 30
0.0
 10
559.549772729
 20
197.8819775701
 30
0.0
  0
SPLINE
  5
2FD
100
AcDbEntity
  8
0
100
AcDbSpline
 62
9
  6
CONTINUOUS
 70
0
 71
3
 72
11
 73
7
 74
0
 42
0.0000001
 43
0.0000001
 44
0.0000000001
 40
0.0
 40
0.0
 40
0.0
 40
0.0
 40
0.2495763111
 40
0.4990376668
 40
0.7490533298
 40
1.0
 40
1.0
 40
1.0
 40
1.0
 10
555.2469721997
 20
197.3654594313
 30
0.0
 10
555.494735292
 20
197.4729171832
 30
0.0
 10
556.0120766584
 20
197.6374286578
 30
0.0
 10
556.8094780794
 20
197.7878840192
 30
0.0
 10
557.6183150347
 20
197.8691891015
 30
0.0
 10
558.1606201923
 20
197.8842039702
 30
0.0
 10
558.4321651071
 20
197.8837603711
 30
0.0
  0
SPLINE
  5
2FE
100
AcDbEntity
  8
0
100
AcDbSpline
 62
9
  6
CONTINUOUS
 70
0
 71
3
 72
12
 73
8
 74
0
 42
0.0000001
 43
0.0000001
 44
0.0000000001
 40
0.0
 40
0.0
 40
0.0
 40
0.0
 40
0.136916254
 40
0.2301347514
 40
0.344562793
 40
0.6379651708
 40
1.0
 40
1.0
 40
1.0
 40
1.0
 10
559.4469973229
 20
197.6432863501
 30
0.0
 10
559.4595001734
 20
197.6432863628
 30
0.0
 10
559.4797712391
 20
197.6554877821
 30
0.0
 10
559.4984897684
 20
197.6804852209
 30
0.0
 10
559.5197123662
 20
197.721382993
 30
0.0
 10
559.5390244894
 20
197.7894488607
 30
0.0
 10
559.5471932307
 20
197.848903711
 30
0.0
 10
559.549603253
 20
197.8818758678
 30
0.0
  0
SPLINE
  5
2FF
100
AcDbEntity
  8
0
100
AcDbSpline
 62
9
  6
CONTINUOUS
 70
0
 71
3
 72
12
 73
8
 74
0
 42
0.0000001
 43
0.0000001
 44
0.0000000001
 40
0.0
 40
0.0
 40
0.0
 40
0.0
 40
0.137445296
 40
0.2360702699
 40
0.3580368934
 40
0.6608941272
 40
1.0
 40
1.0
 40
1.0
 40
1.0
 10
558.5347707871
 20
197.6432863501
 30
0.0
 10
558.5221368245
 20
197.6432864775
 30
0.0
 10
558.5012337075
 20
197.6560052139
 30
0.0
 10
558.4821232168
 20
197.6825009722
 30
0.0
 10
558.4603682851
 20
197.7257870508
 30
0.0
 10
558.4419124773
 20
197.7940188567
 30
0.0
 10
558.434361785
 20
197.8526662921
 30
0.0
 10
558.4321651767
 20
197.8837593873
 30
0.0
  0
SPLINE
  5
300
100
AcDbEntity
  8
0
100
AcDbSpline
 62
7
  6
CONTINUOUS
 70
0
 71
3
 72
9
 73
5
 74
0
 42
0.0000001
 43
0.0000001
 44
0.0000000001
 40
0.0
 40
0.0
 40
0.0
 40
0.0
 40
0.4546871226
 40
1.0
 40
1.0
 40
1.0
 40
1.0
 10
565.8669972861
 20
177.9404405724
 30
0.0
 10
565.8669972861
 20
177.9690482319
 30
0.0
 10
565.888075674
 20
178.0326476115
 30
0.0
 10
565.9370761044
 20
178.0753307894
 30
0.0
 10
565.9654861484
 20
178.0945666105
 30
0.0
  0
SPLINE
  5
301
100
AcDbEntity
  8
0
100
AcDbSpline
 62
7
  6
CONTINUOUS
 70
0
 71
3
 72
9
 73
5
 74
0
 42
0.0000001
 43
0.0000001
 44
0.0000000001
 40
0.0
 40
0.0
 40
0.0
 40
0.0
 40
0.2508387051
 40
1.0
 40
1.0
 40
1.0
 40
1.0
 10
565.9669972864
 20
181.6013337691
 30
0.0
 10
565.9503791736
 20
181.5694014363
 30
0.0
 10
565.8922832132
 20
181.4379558437
 30
0.0
 10
565.8669972868
 20
181.292505447
 30
0.0
 10
565.8669972868
 20
181.1849937475
 30
0.0
  0
LINE
  5
302
100
AcDbEntity
  8
0
100
AcDbLine
 62
7
  6
CONTINUOUS
 10
565.6469972861
 20
185.1355093772
 11
565.6230928572
 21
185.0432863501
  0
ENDSEC
  0
SECTION
  2
OBJECTS
  0
DICTIONARY
  5
C
100
AcDbDictionary
280
0
281
1
  3
ACAD_GROUP
350
D
  3
ACAD_MLINESTYLE
350
17
  3
ACAD_LAYOUT
350
1A
  3
ACAD_PLOTSETTINGS
350
19
  3
ACAD_PLOTSTYLENAME
350
E
  0
DICTIONARY
  5
D
102
{ACAD_REACTORS
330
C
102
}
100
AcDbDictionary
280
0
281
1
  0
ACDBDICTIONARYWDFLT
  5
E
102
{ACAD_REACTORS
330
C
102
}
100
AcDbDictionary
281
1
  3
Normal
350
F
100
AcDbDictionaryWithDefault
340
F
  0
DICTIONARY
  5
17
102
{ACAD_REACTORS
330
C
102
}
100
AcDbDictionary
280
0
281
1
  3
Standard
350
18
  0
DICTIONARY
  5
19
102
{ACAD_REACTORS
330
C
102
}
100
AcDbDictionary
281
1
  0
DICTIONARY
  5
1A
102
{ACAD_REACTORS
330
C
102
}
100
AcDbDictionary
281
1
  3
Model
350
303
  3
Layout1
350
304
  0
ACDBPLACEHOLDER
  5
F
102
{ACAD_REACTORS
330
E
102
}
  0
MLINESTYLE
  5
18
102
{ACAD_REACTORS
330
17
102
}
100
AcDbMlineStyle
  2
STANDARD
 70
0
  3

 62
256
 51
90.0
 52
90.0
 71
2
 49
0.5
 62
256
  6
BYLAYER
 49
-0.5
 62
256
  6
BYLAYER
  0
LAYOUT
  5
303
102
{ACAD_REACTORS
330
1A
102
}
100
AcDbPlotSettings
  1

  2
none_device
  4
ANSI_C_(22.00_x_17.00_Inches)
  6

 40
0.0
 41
0.0
 42
0.0
 43
0.0
 44
558.8
 45
431.8
 46
0.0
 47
0.0
 48
0.0
 49
0.0
140
0.0
141
0.0
142
1.0
143
1.0
 70
1024
 72
1
 73
0
 74
0
  7

 75
0
147
1.0
148
0.0
149
0.0
100
AcDbLayout
  1
Model
 70
0
 71
0
 10
0.0
 20
0.0
 11
558.8
 21
431.8
 12
0.0
 22
0.0
 32
0.0
 14
0.0
 24
0.0
 34
0.0
 15
0.0
 25
0.0
 35
0.0
146
0.0
 13
0.0
 23
0.0
 33
0.0
 16
1.0
 26
0.0
 36
0.0
 17
0.0
 27
1.0
 37
0.0
 76
0
330
217
345
0
346
0
  0
LAYOUT
  5
304
102
{ACAD_REACTORS
330
1A
102
}
100
AcDbPlotSettings
  1

  2
none_device
  4
ANSI_C_(22.00_x_17.00_Inches)
  6

 40
0.0
 41
0.0
 42
0.0
 43
0.0
 44
558.8
 45
431.8
 46
0.0
 47
0.0
 48
0.0
 49
0.0
140
0.0
141
0.0
142
1.0
143
1.0
 70
0
 72
1
 73
0
 74
0
  7

 75
0
147
1.0
148
0.0
149
0.0
100
AcDbLayout
  1
Layout1
 70
0
 71
1
 10
0.0
 20
0.0
 11
558.8
 21
431.8
 12
0.0
 22
0.0
 32
0.0
 14
0.0
 24
0.0
 34
0.0
 15
0.0
 25
0.0
 35
0.0
146
0.0
 13
0.0
 23
0.0
 33
0.0
 16
1.0
 26
0.0
 36
0.0
 17
0.0
 27
1.0
 37
0.0
 76
0
330
218
345
0
346
0
  0
ENDSEC
  0
EOF
