999
DXF file: Y:\001_SCHNEIDER_PARIS\maxime fuentes - génération CAD 2D\TRAVAIL\XB4BW33G5_2D-Views\xb4bw33g5_2d-views_3.dxf
999
Pro/ENGINEER 2018260 by Parametric Technology Corporation
  0
SECTION
  2
HEADER
  9
$ACADVER
  1
AC1027
  9
$DWGCODEPAGE
  3
ANSI_1252
  9
$EXTMAX
 10
558.8
 20
431.8
 30
0.0
  9
$EXTMIN
 10
0.0
 20
0.0
 30
0.0
  9
$LIMMIN
 10
0.0
 20
0.0
  9
$LIMMAX
 10
558.8
 20
431.8
  9
$VIEWCTR
 10
279.4
 20
215.9
  9
$VIEWSIZE
 40
431.8
  9
$CLAYER
  8
0
  9
$LTSCALE
 40
30.734
  9
$CELTYPE
  6
BYLAYER
  9
$DIMSCALE
 40
1.0
  9
$DIMASZ
 40
3.5
  9
$DIMEXO
 40
1.0
  9
$DIMDLI
 40
21.2344
  9
$DIMEXE
 40
3.0
  9
$DIMCEN
 40
5.0292
  9
$DIMLFAC
 40
1.0
  9
$DIMBLK
  1
_FILLED
  9
$DIMALT
 70
0
  9
$DIMALTF
 40
0.0393700787
  9
$DIMTXT
 40
4.0
  9
$DIMTOL
 70
1
  9
$DIMLIM
 70
0
  9
$DIMTFAC
 40
1.0
  9
$DIMTP
 40
0.0001
  9
$DIMTM
 40
0.0001
  9
$DIMGAP
 40
0.625
  9
$DIMDSEP
 70
46
  9
$AUNITS
 70
0
  9
$PDMODE
 70
0
  9
$PDSIZE
 40
0.01
  9
$HANDSEED
  5
321
  9
$TILEMODE
 70
1
  9
$MEASUREMENT
 70
1
  9
$INSUNITS
 70
4
  0
ENDSEC
  0
SECTION
  2
CLASSES
  0
CLASS
  1
ACDBDICTIONARYWDFLT
  2
AcDbDictionaryWithDefault
  3
AutoCAD 2000
 90
0
 91
1
280
0
281
0
  0
CLASS
  1
ACDBPLACEHOLDER
  2
AcDbPlaceHolder
  3
AutoCAD 2000
 90
0
 91
1
280
0
281
0
  0
CLASS
  1
LAYOUT
  2
AcDbLayout
  3
AutoCAD 2000
 90
0
 91
0
280
0
281
0
  0
ENDSEC
  0
SECTION
  2
TABLES
  0
TABLE
  2
VPORT
  5
8
100
AcDbSymbolTable
 70
2
  0
VPORT
  5
1F4
100
AcDbSymbolTableRecord
100
AcDbViewportTableRecord
  2
*ACTIVE
 70
0
 10
0.0
 20
0.0
 11
1.0
 21
1.0
 12
279.4
 22
215.9
 13
0.0
 23
0.0
 14
1.0
 24
1.0
 15
0.0
 25
0.0
 16
0.0
 26
0.0
 36
1.0
 17
0.0
 27
0.0
 37
0.0
 40
431.8
 41
1.2941176471
 42
50.0
 43
0.0
 44
0.0
 50
0.0
 51
0.0
 71
0
 72
100
 73
1
 74
1
 75
0
 76
0
 77
0
 78
0
  0
ENDTAB
  0
TABLE
  2
LTYPE
  5
5
100
AcDbSymbolTable
 70
6
  0
LTYPE
  5
14
100
AcDbSymbolTableRecord
100
AcDbLinetypeTableRecord
  2
BYBLOCK
 70
0
  3

 72
65
 73
0
 40
0.0
  0
LTYPE
  5
15
100
AcDbSymbolTableRecord
100
AcDbLinetypeTableRecord
  2
BYLAYER
 70
0
  3

 72
65
 73
0
 40
0.0
  0
LTYPE
  5
16
100
AcDbSymbolTableRecord
100
AcDbLinetypeTableRecord
  2
CONTINUOUS
 70
64
  3
Solid line
 72
65
 73
0
 40
0.0
  0
LTYPE
  5
1F5
100
AcDbSymbolTableRecord
100
AcDbLinetypeTableRecord
  2
CENTER
 70
64
  3
____ _ ____ _ ____ _ ____ _ ____ _ ____ _ ____
 72
65
 73
4
 40
0.6
 49
0.375
 74
0
 49
-0.075
 74
0
 49
0.075
 74
0
 49
-0.075
 74
0
  0
LTYPE
  5
1F6
100
AcDbSymbolTableRecord
100
AcDbLinetypeTableRecord
  2
HIDDEN
 70
64
  3
- - - - - - - - - - - - - - - - - - - -
 72
65
 73
2
 40
0.2
 49
0.1
 74
0
 49
-0.1
 74
0
  0
LTYPE
  5
1F7
100
AcDbSymbolTableRecord
100
AcDbLinetypeTableRecord
  2
PHANTOM
 70
64
  3
_____ _ _ _____ _ _ _____ _ _ _____
 72
65
 73
6
 40
0.8
 49
0.45
 74
0
 49
-0.05
 74
0
 49
0.1
 74
0
 49
-0.05
 74
0
 49
0.1
 74
0
 49
-0.05
 74
0
  0
LTYPE
  5
1F8
100
AcDbSymbolTableRecord
100
AcDbLinetypeTableRecord
  2
DOT
 70
64
  3
. . . . . . . . . . . . . . . . . . . .
 72
65
 73
2
 40
0.2
 49
0.1
 74
0
 49
-0.1
 74
0
  0
LTYPE
  5
1F9
100
AcDbSymbolTableRecord
100
AcDbLinetypeTableRecord
  2
DASHED
 70
64
  3
- - - - - - - - - - - - - - - - - - - -
 72
65
 73
2
 40
0.2
 49
0.1
 74
0
 49
-0.1
 74
0
  0
ENDTAB
  0
TABLE
  2
LAYER
  5
2
100
AcDbSymbolTable
 70
36
  0
LAYER
  5
10
100
AcDbSymbolTableRecord
100
AcDbLayerTableRecord
  2
0
 70
0
 62
7
  6
CONTINUOUS
370
-3
390
F
  0
LAYER
  5
1FA
100
AcDbSymbolTableRecord
100
AcDbLayerTableRecord
  2
DEFAULT_1
 70
0
 62
7
  6
CENTER
370
-3
390
F
  0
LAYER
  5
1FB
100
AcDbSymbolTableRecord
100
AcDbLayerTableRecord
  2
DEFAULT_2
 70
0
 62
8
  6
HIDDEN
370
-3
390
F
  0
LAYER
  5
1FC
100
AcDbSymbolTableRecord
100
AcDbLayerTableRecord
  2
DEFAULT_3
 70
0
 62
7
  6
PHANTOM
370
-3
390
F
  0
LAYER
  5
1FD
100
AcDbSymbolTableRecord
100
AcDbLayerTableRecord
  2
01_ALL_DTM_PLN
 70
0
 62
7
  6
CONTINUOUS
370
-3
390
F
  0
LAYER
  5
1FE
100
AcDbSymbolTableRecord
100
AcDbLayerTableRecord
  2
01__ASM_ALL_DTM_PLN
 70
0
 62
7
  6
CONTINUOUS
370
-3
390
F
  0
LAYER
  5
1FF
100
AcDbSymbolTableRecord
100
AcDbLayerTableRecord
  2
01__ASM_DEF_DTM_PLN
 70
0
 62
7
  6
CONTINUOUS
370
-3
390
F
  0
LAYER
  5
200
100
AcDbSymbolTableRecord
100
AcDbLayerTableRecord
  2
01___PRT_ALL_DTM_PLN
 70
0
 62
7
  6
CONTINUOUS
370
-3
390
F
  0
LAYER
  5
201
100
AcDbSymbolTableRecord
100
AcDbLayerTableRecord
  2
01___PRT_DEF_DTM_PLN
 70
0
 62
7
  6
CONTINUOUS
370
-3
390
F
  0
LAYER
  5
202
100
AcDbSymbolTableRecord
100
AcDbLayerTableRecord
  2
02_ALL_AXES
 70
0
 62
7
  6
CONTINUOUS
370
-3
390
F
  0
LAYER
  5
203
100
AcDbSymbolTableRecord
100
AcDbLayerTableRecord
  2
02__ASM_ALL_AXES
 70
0
 62
7
  6
CONTINUOUS
370
-3
390
F
  0
LAYER
  5
204
100
AcDbSymbolTableRecord
100
AcDbLayerTableRecord
  2
02___PRT_ALL_AXES
 70
0
 62
7
  6
CONTINUOUS
370
-3
390
F
  0
LAYER
  5
205
100
AcDbSymbolTableRecord
100
AcDbLayerTableRecord
  2
03_ALL_CURVES
 70
0
 62
7
  6
CONTINUOUS
370
-3
390
F
  0
LAYER
  5
206
100
AcDbSymbolTableRecord
100
AcDbLayerTableRecord
  2
03__ASM_ALL_CURVES
 70
0
 62
7
  6
CONTINUOUS
370
-3
390
F
  0
LAYER
  5
207
100
AcDbSymbolTableRecord
100
AcDbLayerTableRecord
  2
03___PRT_ALL_CURVES
 70
0
 62
7
  6
CONTINUOUS
370
-3
390
F
  0
LAYER
  5
208
100
AcDbSymbolTableRecord
100
AcDbLayerTableRecord
  2
04_ALL_DTM_PNT
 70
0
 62
7
  6
CONTINUOUS
370
-3
390
F
  0
LAYER
  5
209
100
AcDbSymbolTableRecord
100
AcDbLayerTableRecord
  2
04__ASM_ALL_DTM_PNT
 70
0
 62
7
  6
CONTINUOUS
370
-3
390
F
  0
LAYER
  5
20A
100
AcDbSymbolTableRecord
100
AcDbLayerTableRecord
  2
04___PRT_ALL_DTM_PNT
 70
0
 62
7
  6
CONTINUOUS
370
-3
390
F
  0
LAYER
  5
20B
100
AcDbSymbolTableRecord
100
AcDbLayerTableRecord
  2
05_ALL_DTM_CSYS
 70
0
 62
7
  6
CONTINUOUS
370
-3
390
F
  0
LAYER
  5
20C
100
AcDbSymbolTableRecord
100
AcDbLayerTableRecord
  2
05__ASM_ALL_DTM_CSYS
 70
0
 62
7
  6
CONTINUOUS
370
-3
390
F
  0
LAYER
  5
20D
100
AcDbSymbolTableRecord
100
AcDbLayerTableRecord
  2
05__ASM_DEF_DTM_CSYS
 70
0
 62
7
  6
CONTINUOUS
370
-3
390
F
  0
LAYER
  5
20E
100
AcDbSymbolTableRecord
100
AcDbLayerTableRecord
  2
05___PRT_ALL_DTM_CSYS
 70
0
 62
7
  6
CONTINUOUS
370
-3
390
F
  0
LAYER
  5
20F
100
AcDbSymbolTableRecord
100
AcDbLayerTableRecord
  2
05___PRT_DEF_DTM_CSYS
 70
0
 62
7
  6
CONTINUOUS
370
-3
390
F
  0
LAYER
  5
210
100
AcDbSymbolTableRecord
100
AcDbLayerTableRecord
  2
06_ALL_SURFS
 70
0
 62
7
  6
CONTINUOUS
370
-3
390
F
  0
LAYER
  5
211
100
AcDbSymbolTableRecord
100
AcDbLayerTableRecord
  2
06__ASM_ALL_SURFS
 70
0
 62
7
  6
CONTINUOUS
370
-3
390
F
  0
LAYER
  5
212
100
AcDbSymbolTableRecord
100
AcDbLayerTableRecord
  2
06___PRT_ALL_SURFS
 70
0
 62
7
  6
CONTINUOUS
370
-3
390
F
  0
LAYER
  5
213
100
AcDbSymbolTableRecord
100
AcDbLayerTableRecord
  2
07__ASM_ALL_SKELETONS
 70
0
 62
7
  6
CONTINUOUS
370
-3
390
F
  0
LAYER
  5
214
100
AcDbSymbolTableRecord
100
AcDbLayerTableRecord
  2
AXIS_1
 70
0
 62
7
  6
CONTINUOUS
370
-3
390
F
  0
LAYER
  5
215
100
AcDbSymbolTableRecord
100
AcDbLayerTableRecord
  2
CLOSED_SHELL
 70
0
 62
7
  6
CONTINUOUS
370
-3
390
F
  0
LAYER
  5
216
100
AcDbSymbolTableRecord
100
AcDbLayerTableRecord
  2
Colour
 70
0
 62
7
  6
CONTINUOUS
370
-3
390
F
  0
LAYER
  5
217
100
AcDbSymbolTableRecord
100
AcDbLayerTableRecord
  2
ORIENTED_CLOSED_SHE
 70
0
 62
7
  6
CONTINUOUS
370
-3
390
F
  0
LAYER
  5
218
100
AcDbSymbolTableRecord
100
AcDbLayerTableRecord
  2
white
 70
0
 62
7
  6
CONTINUOUS
370
-3
390
F
  0
ENDTAB
  0
TABLE
  2
STYLE
  5
3
100
AcDbSymbolTable
 70
1
  0
STYLE
  5
11
100
AcDbSymbolTableRecord
100
AcDbTextStyleTableRecord
  2
STANDARD
 70
0
 40
0.0
 41
0.6
 50
0.0
 71
0
 42
0.2
  3
txt
  4

  0
STYLE
  5
219
100
AcDbSymbolTableRecord
100
AcDbTextStyleTableRecord
  2
TEXTSTYLE_1
 70
0
 40
0.0
 41
0.8
 50
0.0
 71
0
 42
0.2
  3
gdt
  4

  0
ENDTAB
  0
TABLE
  2
VIEW
  5
6
100
AcDbSymbolTable
 70
0
  0
ENDTAB
  0
TABLE
  2
UCS
  5
7
100
AcDbSymbolTable
 70
0
  0
ENDTAB
  0
TABLE
  2
APPID
  5
9
100
AcDbSymbolTable
 70
1
  0
APPID
  5
21A
100
AcDbSymbolTableRecord
100
AcDbRegAppTableRecord
  2
ACAD
 70
0
  0
ENDTAB
  0
TABLE
  2
BLOCK_RECORD
  5
1
100
AcDbSymbolTable
 70
0
  0
BLOCK_RECORD
  5
21B
100
AcDbSymbolTableRecord
100
AcDbBlockTableRecord
  2
*Model_Space
  0
BLOCK_RECORD
  5
21C
100
AcDbSymbolTableRecord
100
AcDbBlockTableRecord
  2
*Paper_Space
  0
BLOCK_RECORD
  5
21D
100
AcDbSymbolTableRecord
100
AcDbBlockTableRecord
  2
_FILLED
  0
ENDTAB
  0
TABLE
  2
DIMSTYLE
  5
A
100
AcDbSymbolTable
 70
1
100
AcDbDimStyleTable
 71
0
  0
DIMSTYLE
105
21E
100
AcDbSymbolTableRecord
100
AcDbDimStyleTableRecord
  2
STANDARD
 70
0
  3

  4

 40
1.0
 41
3.5
 42
1.0
 43
0.38
 44
3.0
 45
0.0
 46
0.0
 47
0.0001
 48
0.0001
140
4.0
141
0.09
142
0.0
143
25.4
144
1.0
145
0.0
146
1.0
147
0.625
 71
1.0
 72
0.0
 73
0
 74
0
 75
0
 76
0
 77
1
 78
8
 79
2
170
0
171
3
172
0
173
0
174
0
175
0
176
0
177
0
178
0
270
2
179
4
271
4
272
4
273
2
274
2
275
0
280
0
281
0
282
0
283
1
284
8
285
0
286
0
287
3
288
0
340
11
278
46
341
21D
342
21D
343
21D
344
21D
  0
ENDTAB
  0
ENDSEC
  0
SECTION
  2
BLOCKS
  0
BLOCK
  5
20
100
AcDbEntity
  8
0
100
AcDbBlockBegin
  2
*Model_Space
 70
0
 10
0.0
 20
0.0
 30
0.0
  3
*Model_Space
  1

  0
ENDBLK
  5
21
100
AcDbEntity
  8
0
100
AcDbBlockEnd
  0
BLOCK
  5
1C
100
AcDbEntity
  8
0
100
AcDbBlockBegin
  2
*Paper_Space
 70
0
 10
0.0
 20
0.0
 30
0.0
  3
*Paper_Space
  1

  0
ENDBLK
  5
1D
100
AcDbEntity
  8
0
100
AcDbBlockEnd
  0
BLOCK
  5
21F
100
AcDbEntity
  8
0
100
AcDbBlockBegin
  2
_FILLED
 70
64
 10
0.0
 20
0.0
  3
_FILLED
  1

  0
SOLID
  5
220
100
AcDbEntity
  8
0
  6
BYBLOCK
 62
0
100
AcDbTrace
 10
0.0
 20
0.0
 11
-1.0
 21
0.2857142857
 12
-1.0
 22
-0.2857142857
 13
-1.0
 23
-0.2857142857
  0
ENDBLK
  5
221
100
AcDbEntity
  8
0
  6
BYBLOCK
 62
0
100
AcDbBlockEnd
  0
ENDSEC
  0
SECTION
  2
ENTITIES
  0
LINE
  5
222
100
AcDbEntity
  8
0
100
AcDbLine
 62
7
  6
CONTINUOUS
 10
242.8309536637
 20
206.9583402493
 11
242.8309536637
 21
235.9583402493
  0
LINE
  5
223
100
AcDbEntity
  8
0
100
AcDbLine
 62
7
  6
CONTINUOUS
 10
243.3076551014
 20
233.9583402493
 11
242.830953663
 21
233.5583402489
  0
LINE
  5
224
100
AcDbEntity
  8
0
100
AcDbLine
 62
7
  6
CONTINUOUS
 10
246.830953663
 20
237.4142211855
 11
246.830953663
 21
232.4583402493
  0
LINE
  5
225
100
AcDbEntity
  8
0
100
AcDbLine
 62
7
  6
CONTINUOUS
 10
242.830953663
 20
206.9583402493
 11
247.4517881562
 21
205.2764940365
  0
LINE
  5
226
100
AcDbEntity
  8
0
100
AcDbLine
 62
7
  6
CONTINUOUS
 10
244.1225241271
 20
232.4583402493
 11
243.8309536629
 21
233.9583402493
  0
LINE
  5
227
100
AcDbEntity
  8
0
100
AcDbLine
 62
7
  6
CONTINUOUS
 10
247.8309536637
 20
237.4583402488
 11
247.8309536637
 21
235.3486388799
  0
LINE
  5
228
100
AcDbEntity
  8
0
100
AcDbLine
 62
7
  6
CONTINUOUS
 10
247.830953663
 20
205.4583402493
 11
247.830953663
 21
207.5680416183
  0
LINE
  5
229
100
AcDbEntity
  8
0
100
AcDbLine
 62
7
  6
CONTINUOUS
 10
247.4517881577
 20
237.6401864625
 11
242.830953663
 21
235.9583402493
  0
LINE
  5
22A
100
AcDbEntity
  8
0
100
AcDbLine
 62
7
  6
CONTINUOUS
 10
275.6423695687
 20
199.2198074773
 11
279.0423695686
 21
199.935596951
  0
LINE
  5
22B
100
AcDbEntity
  8
0
100
AcDbLine
 62
7
  6
CONTINUOUS
 10
273.1423695694
 20
199.2198074775
 11
275.6423695687
 21
199.2198074775
  0
LINE
  5
22C
100
AcDbEntity
  8
0
100
AcDbLine
 62
7
  6
CONTINUOUS
 10
273.4423695694
 20
203.3708088206
 11
269.7309536637
 21
202.6182061953
  0
LINE
  5
22D
100
AcDbEntity
  8
0
100
AcDbLine
 62
7
  6
CONTINUOUS
 10
265.9309536637
 20
201.8476404466
 11
263.1107145293
 21
201.2757510571
  0
LINE
  5
22E
100
AcDbEntity
  8
0
100
AcDbLine
 62
7
  6
CONTINUOUS
 10
258.9015093878
 20
199.8086512921
 11
260.5971578147
 21
200.0007378399
  0
LWPOLYLINE
  5
22F
100
AcDbEntity
  8
0
100
AcDbPolyline
 62
7
  6
CONTINUOUS
 90
3
 70
0
 10
266.4152484523
 20
201.2254341561
 10
267.1379917664
 20
201.2874893309
 10
267.9291222092
 20
201.2974899136
  0
LINE
  5
230
100
AcDbEntity
  8
0
100
AcDbLine
 62
7
  6
CONTINUOUS
 10
265.9309536637
 20
201.2087218627
 11
266.4152484438
 21
201.2254341533
  0
LINE
  5
231
100
AcDbEntity
  8
0
100
AcDbLine
 62
7
  6
CONTINUOUS
 10
273.1423695687
 20
201.7198074775
 11
273.4423695694
 21
201.7198074775
  0
LINE
  5
232
100
AcDbEntity
  8
0
100
AcDbLine
 62
7
  6
CONTINUOUS
 10
265.7629160034
 20
202.1991291799
 11
265.7808903439
 21
202.1991291799
  0
LINE
  5
233
100
AcDbEntity
  8
0
100
AcDbLine
 62
7
  6
CONTINUOUS
 10
279.042369569
 20
202.7198074775
 11
279.4423695694
 21
202.7198074775
  0
LINE
  5
234
100
AcDbEntity
  8
0
100
AcDbLine
 62
9
  6
CONTINUOUS
 10
279.4423695694
 20
203.0198074782
 11
273.4423695694
 21
203.0198074782
  0
LINE
  5
235
100
AcDbEntity
  8
0
100
AcDbLine
 62
7
  6
CONTINUOUS
 10
253.4309536637
 20
237.4583402493
 11
253.4309536637
 21
237.6583402486
  0
LINE
  5
236
100
AcDbEntity
  8
0
100
AcDbLine
 62
7
  6
CONTINUOUS
 10
260.4976342411
 20
201.2463041
 11
263.0132441319
 21
201.7564206313
  0
LINE
  5
237
100
AcDbEntity
  8
0
100
AcDbLine
 62
7
  6
CONTINUOUS
 10
279.4423695694
 20
205.087926248
 11
280.0776158071
 21
205.2167417724
  0
LINE
  5
238
100
AcDbEntity
  8
0
100
AcDbLine
 62
7
  6
CONTINUOUS
 10
275.7908546374
 20
204.7921942977
 11
277.3907813137
 21
205.1166281654
  0
LINE
  5
239
100
AcDbEntity
  8
0
100
AcDbLine
 62
7
  6
CONTINUOUS
 10
277.2962684713
 20
205.5827127296
 11
275.3361621977
 21
205.1852414774
  0
LINE
  5
23A
100
AcDbEntity
  8
0
100
AcDbLine
 62
7
  6
CONTINUOUS
 10
277.0748999082
 20
204.9198074775
 11
277.7385177091
 21
204.9198074775
  0
LINE
  5
23B
100
AcDbEntity
  8
0
100
AcDbLine
 62
7
  6
CONTINUOUS
 10
264.1700077802
 20
204.9583402493
 11
267.6432118287
 21
204.9583402493
  0
LINE
  5
23C
100
AcDbEntity
  8
0
100
AcDbLine
 62
7
  6
CONTINUOUS
 10
268.8477549782
 20
205.4583402493
 11
264.9897993905
 21
205.4583402493
  0
LINE
  5
23D
100
AcDbEntity
  8
0
100
AcDbLine
 62
7
  6
CONTINUOUS
 10
252.8179759699
 20
205.4583402493
 11
246.9521697929
 21
205.4583402493
  0
LINE
  5
23E
100
AcDbEntity
  8
0
100
AcDbLine
 62
7
  6
CONTINUOUS
 10
248.1830481152
 20
207.8634839446
 11
255.554035395
 21
206.5637800128
  0
LINE
  5
23F
100
AcDbEntity
  8
0
100
AcDbLine
 62
7
  6
CONTINUOUS
 10
258.0844468749
 20
199.8124990106
 11
257.1165571271
 21
204.5855907911
  0
LINE
  5
240
100
AcDbEntity
  8
0
100
AcDbLine
 62
7
  6
CONTINUOUS
 10
277.058550369
 20
206.7550056631
 11
275.0984440971
 21
206.3575344113
  0
LINE
  5
241
100
AcDbEntity
  8
0
100
AcDbLine
 62
7
  6
CONTINUOUS
 10
275.3127742677
 20
206.8360602978
 11
276.973812331
 21
207.1728863606
  0
LINE
  5
242
100
AcDbEntity
  8
0
100
AcDbLine
 62
7
  6
CONTINUOUS
 10
259.8976513859
 20
204.20508452
 11
262.4132612767
 21
204.7152010513
  0
LINE
  5
243
100
AcDbEntity
  8
0
100
AcDbLine
 62
7
  6
CONTINUOUS
 10
279.4423695694
 20
208.1683714674
 11
279.477632952
 21
208.1755221923
  0
LINE
  5
244
100
AcDbEntity
  8
0
100
AcDbLine
 62
7
  6
CONTINUOUS
 10
273.4423695694
 20
207.4521233725
 11
269.7309536639
 21
206.6995207472
  0
LINE
  5
245
100
AcDbEntity
  8
0
100
AcDbLine
 62
7
  6
CONTINUOUS
 10
263.8529140792
 20
205.5075691753
 11
262.3157908793
 21
205.1958706255
  0
LINE
  5
246
100
AcDbEntity
  8
0
100
AcDbLine
 62
7
  6
CONTINUOUS
 10
276.2484098912
 20
207.1198074775
 11
275.5763441656
 21
207.1198074775
  0
LINE
  5
247
100
AcDbEntity
  8
0
100
AcDbLine
 62
7
  6
CONTINUOUS
 10
286.3309536637
 20
207.4083402493
 11
297.9206015989
 21
207.4083402493
  0
LINE
  5
248
100
AcDbEntity
  8
0
100
AcDbLine
 62
7
  6
CONTINUOUS
 10
269.0809536637
 20
207.6833402493
 11
268.8477549782
 21
207.6833402493
  0
LINE
  5
249
100
AcDbEntity
  8
0
100
AcDbLine
 62
7
  6
CONTINUOUS
 10
269.1848687348
 20
207.9900944122
 11
269.6548237563
 21
207.9900944122
  0
LINE
  5
24A
100
AcDbEntity
  8
0
100
AcDbLine
 62
7
  6
CONTINUOUS
 10
286.3309536637
 20
208.0833402493
 11
285.0809536637
 21
208.0833402493
  0
LINE
  5
24B
100
AcDbEntity
  8
0
100
AcDbLine
 62
7
  6
CONTINUOUS
 10
269.7309536637
 20
207.9072952114
 11
269.6690326942
 21
207.9095115179
  0
LINE
  5
24C
100
AcDbEntity
  8
0
100
AcDbLine
 62
7
  6
CONTINUOUS
 10
263.4309536629
 20
206.2384347382
 11
265.7629175976
 21
202.1991264186
  0
LINE
  5
24D
100
AcDbEntity
  8
0
100
AcDbLine
 62
7
  6
CONTINUOUS
 10
258.9015042033
 20
199.8086768588
 11
258.8898218502
 21
199.8662877014
  0
LINE
  5
24E
100
AcDbEntity
  8
0
100
AcDbLine
 62
7
  6
CONTINUOUS
 10
257.8792671706
 20
204.8497791021
 11
257.8675848175
 21
204.9073899447
  0
LINE
  5
24F
100
AcDbEntity
  8
0
100
AcDbLine
 62
7
  6
CONTINUOUS
 10
259.5041307038
 20
205.3909372208
 11
260.5971381784
 21
200.0008346751
  0
LINE
  5
250
100
AcDbEntity
  8
0
100
AcDbLine
 62
9
  6
CONTINUOUS
 10
260.4976342411
 20
201.2463041
 11
259.8976513859
 21
204.20508452
  0
LINE
  5
251
100
AcDbEntity
  8
0
100
AcDbLine
 62
9
  6
CONTINUOUS
 10
273.4423695694
 20
209.0198074782
 11
279.4423695694
 21
209.0198074782
  0
LINE
  5
252
100
AcDbEntity
  8
0
100
AcDbLine
 62
7
  6
CONTINUOUS
 10
298.4109096556
 20
209.4083402493
 11
298.4809536633
 21
209.4083402493
  0
LINE
  5
253
100
AcDbEntity
  8
0
100
AcDbLine
 62
7
  6
CONTINUOUS
 10
273.4423695694
 20
209.5198074775
 11
279.4423695694
 21
209.5198074775
  0
LINE
  5
254
100
AcDbEntity
  8
0
100
AcDbLine
 62
7
  6
CONTINUOUS
 10
263.4309536637
 20
209.6583402493
 11
263.2133407549
 21
209.6583402493
  0
LINE
  5
255
100
AcDbEntity
  8
0
100
AcDbLine
 62
7
  6
CONTINUOUS
 10
271.230965043
 20
210.2583402493
 11
273.4423695694
 21
210.2583402493
  0
LINE
  5
256
100
AcDbEntity
  8
0
100
AcDbLine
 62
7
  6
CONTINUOUS
 10
269.04133292
 20
209.1368837329
 11
269.2309536644
 21
209.0583402486
  0
LINE
  5
257
100
AcDbEntity
  8
0
100
AcDbLine
 62
7
  6
CONTINUOUS
 10
263.4309536637
 20
208.1583402492
 11
264.9897993905
 21
205.4583402493
  0
LINE
  5
258
100
AcDbEntity
  8
0
100
AcDbLine
 62
7
  6
CONTINUOUS
 10
263.1107145294
 20
201.2757510567
 11
262.3157908792
 21
205.1958706261
  0
LINE
  5
259
100
AcDbEntity
  8
0
100
AcDbLine
 62
7
  6
CONTINUOUS
 10
273.2309536634
 20
210.6260983422
 11
271.2309536644
 21
210.6260983422
  0
LINE
  5
25A
100
AcDbEntity
  8
0
100
AcDbLine
 62
7
  6
CONTINUOUS
 10
285.0809536637
 20
210.7833402493
 11
282.1309536637
 21
210.7833402493
  0
LINE
  5
25B
100
AcDbEntity
  8
0
100
AcDbLine
 62
7
  6
CONTINUOUS
 10
273.2309536644
 20
210.9310352134
 11
269.6416476078
 21
210.9310352134
  0
LINE
  5
25C
100
AcDbEntity
  8
0
100
AcDbLine
 62
7
  6
CONTINUOUS
 10
280.5309536637
 20
211.1583402493
 11
282.1309536637
 21
211.1583402493
  0
LINE
  5
25D
100
AcDbEntity
  8
0
100
AcDbLine
 62
7
  6
CONTINUOUS
 10
279.4423695694
 20
211.5583402493
 11
280.5309536637
 21
211.5583402493
  0
LINE
  5
25E
100
AcDbEntity
  8
0
100
AcDbLine
 62
7
  6
CONTINUOUS
 10
262.6309536637
 20
213.80172228
 11
262.6309536637
 21
209.4230405905
  0
LINE
  5
25F
100
AcDbEntity
  8
0
100
AcDbLine
 62
7
  6
CONTINUOUS
 10
263.4309536637
 20
206.2383638714
 11
263.4309536637
 21
213.964936372
  0
LINE
  5
260
100
AcDbEntity
  8
0
100
AcDbLine
 62
7
  6
CONTINUOUS
 10
276.6437932109
 20
244.9932698228
 11
273.6231376494
 21
240.6780475907
  0
LINE
  5
261
100
AcDbEntity
  8
0
100
AcDbLine
 62
7
  6
CONTINUOUS
 10
268.0226416494
 20
232.6020306094
 11
269.9773083086
 21
234.7007416306
  0
LINE
  5
262
100
AcDbEntity
  8
0
100
AcDbLine
 62
7
  6
CONTINUOUS
 10
271.7054615406
 20
235.4939816116
 11
268.3530255402
 21
232.3583402493
  0
LINE
  5
263
100
AcDbEntity
  8
0
100
AcDbLine
 62
9
  6
CONTINUOUS
 10
279.4423695694
 20
213.3198074782
 11
273.4423695694
 21
213.3198074782
  0
LINE
  5
264
100
AcDbEntity
  8
0
100
AcDbLine
 62
7
  6
CONTINUOUS
 10
270.5541911077
 20
213.6583402493
 11
273.4423695694
 21
213.6583402493
  0
LINE
  5
265
100
AcDbEntity
  8
0
100
AcDbLine
 62
7
  6
CONTINUOUS
 10
279.4423695694
 20
214.8583402493
 11
281.7309536637
 21
214.8583402493
  0
LINE
  5
266
100
AcDbEntity
  8
0
100
AcDbLine
 62
7
  6
CONTINUOUS
 10
264.0309536641
 20
233.7583402491
 11
264.0309536641
 21
236.9583402489
  0
LINE
  5
267
100
AcDbEntity
  8
0
100
AcDbLine
 62
7
  6
CONTINUOUS
 10
264.1309536637
 20
237.0583402493
 11
264.1309536637
 21
233.7583402493
  0
LINE
  5
268
100
AcDbEntity
  8
0
100
AcDbLine
 62
7
  6
CONTINUOUS
 10
264.9309536637
 20
237.0583402493
 11
264.9309536637
 21
236.9083402493
  0
LINE
  5
269
100
AcDbEntity
  8
0
100
AcDbLine
 62
7
  6
CONTINUOUS
 10
264.9309536637
 20
234.3583402493
 11
264.9309536637
 21
233.7583402493
  0
LINE
  5
26A
100
AcDbEntity
  8
0
100
AcDbLine
 62
7
  6
CONTINUOUS
 10
265.2309536634
 20
237.05834025
 11
265.2309536635
 21
236.9083402497
  0
LINE
  5
26B
100
AcDbEntity
  8
0
100
AcDbLine
 62
7
  6
CONTINUOUS
 10
265.2309536635
 20
234.3583402489
 11
265.2309536634
 21
234.2583402493
  0
LINE
  5
26C
100
AcDbEntity
  8
0
100
AcDbLine
 62
9
  6
CONTINUOUS
 10
265.2309536635
 20
234.3583402489
 11
265.2309536635
 21
236.9083402497
  0
LINE
  5
26D
100
AcDbEntity
  8
0
100
AcDbLine
 62
7
  6
CONTINUOUS
 10
265.4309536637
 20
234.2583402493
 11
265.4309536637
 21
234.1337624173
  0
LINE
  5
26E
100
AcDbEntity
  8
0
100
AcDbLine
 62
7
  6
CONTINUOUS
 10
265.9309536637
 20
225.25834025
 11
265.9309536637
 21
217.6583402493
  0
LINE
  5
26F
100
AcDbEntity
  8
0
100
AcDbLine
 62
7
  6
CONTINUOUS
 10
265.9309536637
 20
201.208346834
 11
265.9309536637
 21
202.1414981036
  0
LINE
  5
270
100
AcDbEntity
  8
0
100
AcDbLine
 62
7
  6
CONTINUOUS
 10
286.3309536637
 20
216.6065460136
 11
285.0809536637
 21
216.6065460136
  0
LINE
  5
271
100
AcDbEntity
  8
0
100
AcDbLine
 62
7
  6
CONTINUOUS
 10
266.4309536637
 20
217.4583402493
 11
266.8527791696
 21
217.4583402493
  0
LINE
  5
272
100
AcDbEntity
  8
0
100
AcDbLine
 62
7
  6
CONTINUOUS
 10
266.4309536644
 20
217.6583402485
 11
265.9309536644
 21
217.6583402485
  0
LINE
  5
273
100
AcDbEntity
  8
0
100
AcDbLine
 62
7
  6
CONTINUOUS
 10
266.4309536637
 20
216.7583402493
 11
266.4309536637
 21
234.2583402493
  0
LINE
  5
274
100
AcDbEntity
  8
0
100
AcDbLine
 62
7
  6
CONTINUOUS
 10
266.4309536637
 20
237.05834025
 11
266.4309536637
 21
240.1583402493
  0
LINE
  5
275
100
AcDbEntity
  8
0
100
AcDbLine
 62
7
  6
CONTINUOUS
 10
267.4309536644
 20
219.5059304208
 11
267.4309536644
 21
218.07234025
  0
LINE
  5
276
100
AcDbEntity
  8
0
100
AcDbLine
 62
7
  6
CONTINUOUS
 10
267.4309536637
 20
223.4107500779
 11
267.4309536637
 21
225.0118968147
  0
LINE
  5
277
100
AcDbEntity
  8
0
100
AcDbLine
 62
7
  6
CONTINUOUS
 10
267.4309536637
 20
231.8583402486
 11
267.4309536637
 21
232.1583402493
  0
LINE
  5
278
100
AcDbEntity
  8
0
100
AcDbLine
 62
7
  6
CONTINUOUS
 10
267.4309536637
 20
238.20834025
 11
267.4309536637
 21
240.1583402493
  0
LINE
  5
279
100
AcDbEntity
  8
0
100
AcDbLine
 62
7
  6
CONTINUOUS
 10
267.6309536637
 20
224.3266730619
 11
267.6309536637
 21
224.7917592039
  0
LINE
  5
27A
100
AcDbEntity
  8
0
100
AcDbLine
 62
7
  6
CONTINUOUS
 10
267.9309536637
 20
223.9083402493
 11
267.9309536637
 21
218.1550421883
  0
LINE
  5
27B
100
AcDbEntity
  8
0
100
AcDbLine
 62
7
  6
CONTINUOUS
 10
267.1610563898
 20
219.4583402493
 11
267.9309536637
 21
219.594093911
  0
LINE
  5
27C
100
AcDbEntity
  8
0
100
AcDbLine
 62
7
  6
CONTINUOUS
 10
267.4309536644
 20
218.3583402493
 11
267.2309536637
 21
218.3583402493
  0
LINE
  5
27D
100
AcDbEntity
  8
0
100
AcDbLine
 62
7
  6
CONTINUOUS
 10
281.7309536637
 20
218.4583402493
 11
279.4423695694
 21
218.4583402493
  0
LINE
  5
27E
100
AcDbEntity
  8
0
100
AcDbLine
 62
7
  6
CONTINUOUS
 10
267.1610563898
 20
219.4583402493
 11
266.4309536637
 21
219.4583402493
  0
LINE
  5
27F
100
AcDbEntity
  8
0
100
AcDbLine
 62
7
  6
CONTINUOUS
 10
247.6845406968
 20
237.4583402493
 11
247.4517881577
 21
237.6401864625
  0
LINE
  5
280
100
AcDbEntity
  8
0
100
AcDbLine
 62
7
  6
CONTINUOUS
 10
280.6317507155
 20
206.8693321138
 11
279.477632952
 21
208.1755221923
  0
LINE
  5
281
100
AcDbEntity
  8
0
100
AcDbLine
 62
7
  6
CONTINUOUS
 10
269.7309536641
 20
207.5583402496
 11
269.6018115532
 21
208.2907415529
  0
LINE
  5
282
100
AcDbEntity
  8
0
100
AcDbLine
 62
7
  6
CONTINUOUS
 10
268.8477549782
 20
208.5583402493
 11
268.8477549782
 21
205.4583402497
  0
LINE
  5
283
100
AcDbEntity
  8
0
100
AcDbLine
 62
7
  6
CONTINUOUS
 10
269.0809536637
 20
208.9083402493
 11
269.0809536637
 21
207.6833785609
  0
LINE
  5
284
100
AcDbEntity
  8
0
100
AcDbLine
 62
7
  6
CONTINUOUS
 10
269.2309536637
 20
209.7036003983
 11
269.2309536637
 21
209.0583402486
  0
LINE
  5
285
100
AcDbEntity
  8
0
100
AcDbLine
 62
7
  6
CONTINUOUS
 10
269.7309536637
 20
204.6541019827
 11
269.7309536637
 21
202.0083402495
  0
LINE
  5
286
100
AcDbEntity
  8
0
100
AcDbLine
 62
7
  6
CONTINUOUS
 10
269.7309536641
 20
204.6583085335
 11
269.7309536637
 21
207.9091971092
  0
LINE
  5
287
100
AcDbEntity
  8
0
100
AcDbLine
 62
7
  6
CONTINUOUS
 10
270.0309536637
 20
235.9428701955
 11
270.0309536637
 21
234.8370512712
  0
LINE
  5
288
100
AcDbEntity
  8
0
100
AcDbLine
 62
7
  6
CONTINUOUS
 10
247.4517881562
 20
205.2764940365
 11
247.6845406942
 21
205.4583402489
  0
LINE
  5
289
100
AcDbEntity
  8
0
100
AcDbLine
 62
7
  6
CONTINUOUS
 10
267.6308382206
 20
232.3583402493
 11
267.2809536637
 21
234.1583402493
  0
LINE
  5
28A
100
AcDbEntity
  8
0
100
AcDbLine
 62
7
  6
CONTINUOUS
 10
267.2546596991
 20
234.4965020479
 11
267.5536480655
 21
232.9583402488
  0
LINE
  5
28B
100
AcDbEntity
  8
0
100
AcDbLine
 62
7
  6
CONTINUOUS
 10
271.2309536637
 20
210.6260983422
 11
271.2309536637
 21
210.2583294128
  0
LINE
  5
28C
100
AcDbEntity
  8
0
100
AcDbLine
 62
7
  6
CONTINUOUS
 10
271.3309536637
 20
238.2083402493
 11
271.3309536637
 21
244.6583402493
  0
LINE
  5
28D
100
AcDbEntity
  8
0
100
AcDbLine
 62
7
  6
CONTINUOUS
 10
271.7054615406
 20
235.4939816116
 11
271.7054615406
 21
238.2083402487
  0
LINE
  5
28E
100
AcDbEntity
  8
0
100
AcDbLine
 62
7
  6
CONTINUOUS
 10
272.8309536637
 20
238.20834025
 11
272.8309536637
 21
244.6583402493
  0
LINE
  5
28F
100
AcDbEntity
  8
0
100
AcDbLine
 62
7
  6
CONTINUOUS
 10
273.1423695694
 20
201.7198074775
 11
273.1423695694
 21
199.2198074775
  0
LINE
  5
290
100
AcDbEntity
  8
0
100
AcDbLine
 62
7
  6
CONTINUOUS
 10
273.2309536637
 20
238.20834025
 11
273.2309536637
 21
221.6583402485
  0
LINE
  5
291
100
AcDbEntity
  8
0
100
AcDbLine
 62
7
  6
CONTINUOUS
 10
273.2309536637
 20
210.6260983367
 11
273.2309536637
 21
210.9310352148
  0
LINE
  5
292
100
AcDbEntity
  8
0
100
AcDbLine
 62
7
  6
CONTINUOUS
 10
273.4423695694
 20
199.2198074768
 11
273.4423695694
 21
240.1045852462
  0
LINE
  5
293
100
AcDbEntity
  8
0
100
AcDbLine
 62
7
  6
CONTINUOUS
 10
266.6690716252
 20
202.0469420736
 11
267.8105094881
 21
205.4583402493
  0
LINE
  5
294
100
AcDbEntity
  8
0
100
AcDbLine
 62
7
  6
CONTINUOUS
 10
268.8477549782
 20
208.5583402493
 11
273.2309536637
 21
221.6583402493
  0
LINE
  5
295
100
AcDbEntity
  8
0
100
AcDbLine
 62
7
  6
CONTINUOUS
 10
267.9309536637
 20
218.5723402493
 11
267.0167401013
 21
217.658126687
  0
LINE
  5
296
100
AcDbEntity
  8
0
100
AcDbLine
 62
7
  6
CONTINUOUS
 10
263.0152921878
 20
214.5897330337
 11
266.4309536644
 21
217.25834025
  0
LINE
  5
297
100
AcDbEntity
  8
0
100
AcDbLine
 62
7
  6
CONTINUOUS
 10
267.7351694358
 20
217.7582390079
 11
263.8225221201
 21
214.7585427325
  0
LINE
  5
298
100
AcDbEntity
  8
0
100
AcDbLine
 62
7
  6
CONTINUOUS
 10
267.1610563899
 20
223.4583402493
 11
266.4309536637
 21
223.4583402493
  0
LINE
  5
299
100
AcDbEntity
  8
0
100
AcDbLine
 62
7
  6
CONTINUOUS
 10
267.6309536636
 20
224.3266730618
 11
267.8647793405
 21
224.3266730618
  0
LINE
  5
29A
100
AcDbEntity
  8
0
100
AcDbLine
 62
7
  6
CONTINUOUS
 10
267.230953663
 20
224.5583402493
 11
267.4309536637
 21
224.5583402493
  0
LINE
  5
29B
100
AcDbEntity
  8
0
100
AcDbLine
 62
7
  6
CONTINUOUS
 10
267.9309536637
 20
223.3225865875
 11
267.1610563899
 21
223.4583402493
  0
LINE
  5
29C
100
AcDbEntity
  8
0
100
AcDbLine
 62
7
  6
CONTINUOUS
 10
267.6071518041
 20
232.8113399381
 11
267.701422211
 21
232.6412716291
  0
LINE
  5
29D
100
AcDbEntity
  8
0
100
AcDbLine
 62
7
  6
CONTINUOUS
 10
275.3387971216
 20
205.1722475043
 11
275.0940634995
 21
206.3791370729
  0
LINE
  5
29E
100
AcDbEntity
  8
0
100
AcDbLine
 62
9
  6
CONTINUOUS
 10
269.1848687348
 20
207.9900944122
 11
268.8477549782
 21
206.9825694895
  0
LINE
  5
29F
100
AcDbEntity
  8
0
100
AcDbLine
 62
9
  6
CONTINUOUS
 10
268.3377540507
 20
205.4583402493
 11
268.0703008747
 21
204.6590084653
  0
LINE
  5
2A0
100
AcDbEntity
  8
0
100
AcDbLine
 62
7
  6
CONTINUOUS
 10
269.6018115534
 20
208.290741553
 11
269.7309484195
 21
208.6766909629
  0
LINE
  5
2A1
100
AcDbEntity
  8
0
100
AcDbLine
 62
7
  6
CONTINUOUS
 10
266.4309536637
 20
225.2583402493
 11
265.9309536637
 21
225.2583402493
  0
LINE
  5
2A2
100
AcDbEntity
  8
0
100
AcDbLine
 62
7
  6
CONTINUOUS
 10
285.0809536637
 20
226.710134485
 11
286.3309536637
 21
226.710134485
  0
LINE
  5
2A3
100
AcDbEntity
  8
0
100
AcDbLine
 62
9
  6
CONTINUOUS
 10
276.9738123307
 20
207.1728863605
 11
277.0585503707
 21
206.7550056634
  0
LINE
  5
2A4
100
AcDbEntity
  8
0
100
AcDbLine
 62
9
  6
CONTINUOUS
 10
277.2962684713
 20
205.5827127296
 11
277.3907813137
 21
205.1166281654
  0
LINE
  5
2A5
100
AcDbEntity
  8
0
100
AcDbLine
 62
7
  6
CONTINUOUS
 10
277.8935515281
 20
205.1531514324
 11
277.4412174395
 21
207.3838105804
  0
LINE
  5
2A6
100
AcDbEntity
  8
0
100
AcDbLine
 62
7
  6
CONTINUOUS
 10
281.7309536637
 20
229.4845781705
 11
279.4423695694
 21
229.48457635
  0
LINE
  5
2A7
100
AcDbEntity
  8
0
100
AcDbLine
 62
7
  6
CONTINUOUS
 10
266.6784623491
 20
231.8583402493
 11
266.4309536644
 21
231.958340249
  0
LINE
  5
2A8
100
AcDbEntity
  8
0
100
AcDbLine
 62
7
  6
CONTINUOUS
 10
264.0309536641
 20
236.9583402489
 11
263.5309536637
 21
237.4583402493
  0
LINE
  5
2A9
100
AcDbEntity
  8
0
100
AcDbLine
 62
7
  6
CONTINUOUS
 10
279.477632952
 20
208.1755221923
 11
280.0776158074
 21
205.2167417724
  0
LINE
  5
2AA
100
AcDbEntity
  8
0
100
AcDbLine
 62
7
  6
CONTINUOUS
 10
279.0423695694
 20
202.7198074775
 11
279.0423695694
 21
199.935596951
  0
LINE
  5
2AB
100
AcDbEntity
  8
0
100
AcDbLine
 62
7
  6
CONTINUOUS
 10
279.4423695694
 20
244.9198074779
 11
279.4423695694
 21
202.7198074768
  0
LINE
  5
2AC
100
AcDbEntity
  8
0
100
AcDbLine
 62
7
  6
CONTINUOUS
 10
280.5309536637
 20
211.1583437768
 11
280.5309536637
 21
211.5583402493
  0
LINE
  5
2AD
100
AcDbEntity
  8
0
100
AcDbLine
 62
7
  6
CONTINUOUS
 10
280.5309536637
 20
231.7583402493
 11
280.5309536637
 21
231.9661043138
  0
LINE
  5
2AE
100
AcDbEntity
  8
0
100
AcDbLine
 62
7
  6
CONTINUOUS
 10
269.7309820571
 20
208.6766797079
 11
271.2309650897
 21
210.2583294128
  0
LINE
  5
2AF
100
AcDbEntity
  8
0
100
AcDbLine
 62
7
  6
CONTINUOUS
 10
269.2309536633
 20
209.0583402489
 11
268.9064879182
 21
208.7338745038
  0
LINE
  5
2B0
100
AcDbEntity
  8
0
100
AcDbLine
 62
7
  6
CONTINUOUS
 10
252.8179759696
 20
205.4583402493
 11
263.4309536637
 21
209.7462615712
  0
LINE
  5
2B1
100
AcDbEntity
  8
0
100
AcDbLine
 62
7
  6
CONTINUOUS
 10
279.4423695694
 20
230.1436216235
 11
281.7309536637
 21
230.1436216235
  0
LINE
  5
2B2
100
AcDbEntity
  8
0
100
AcDbLine
 62
7
  6
CONTINUOUS
 10
281.7309536629
 20
231.7583402493
 11
279.4423695694
 21
231.7583402493
  0
LINE
  5
2B3
100
AcDbEntity
  8
0
100
AcDbLine
 62
7
  6
CONTINUOUS
 10
266.4309536637
 20
231.8583402493
 11
267.4309536637
 21
231.8583402493
  0
LINE
  5
2B4
100
AcDbEntity
  8
0
100
AcDbLine
 62
7
  6
CONTINUOUS
 10
267.4309536637
 20
232.1583402493
 11
266.4309536637
 21
232.1583402493
  0
LINE
  5
2B5
100
AcDbEntity
  8
0
100
AcDbLine
 62
7
  6
CONTINUOUS
 10
279.4423695694
 20
232.1583402493
 11
282.1309536637
 21
232.1583402493
  0
LINE
  5
2B6
100
AcDbEntity
  8
0
100
AcDbLine
 62
7
  6
CONTINUOUS
 10
264.0309536641
 20
233.75834025
 11
252.8179759699
 21
237.4583402493
  0
LINE
  5
2B7
100
AcDbEntity
  8
0
100
AcDbLine
 62
7
  6
CONTINUOUS
 10
281.7309536637
 20
218.4583402493
 11
281.7309536637
 21
214.8583402493
  0
LINE
  5
2B8
100
AcDbEntity
  8
0
100
AcDbLine
 62
7
  6
CONTINUOUS
 10
281.7309536637
 20
229.4845781705
 11
281.7309536637
 21
231.7583402493
  0
LINE
  5
2B9
100
AcDbEntity
  8
0
100
AcDbLine
 62
7
  6
CONTINUOUS
 10
282.1309536637
 20
210.7833402493
 11
282.1309536637
 21
232.5333402493
  0
LINE
  5
2BA
100
AcDbEntity
  8
0
100
AcDbLine
 62
7
  6
CONTINUOUS
 10
267.6308382206
 20
232.3583402493
 11
268.3530255402
 21
232.3583402493
  0
LINE
  5
2BB
100
AcDbEntity
  8
0
100
AcDbLine
 62
7
  6
CONTINUOUS
 10
244.1225241275
 20
232.4583402493
 11
246.8309536637
 21
232.4583402493
  0
LINE
  5
2BC
100
AcDbEntity
  8
0
100
AcDbLine
 62
7
  6
CONTINUOUS
 10
285.0809536637
 20
232.5333402493
 11
282.1309536637
 21
232.5333402493
  0
LINE
  5
2BD
100
AcDbEntity
  8
0
100
AcDbLine
 62
7
  6
CONTINUOUS
 10
264.0309536642
 20
233.7583402493
 11
266.4309536637
 21
233.7583402493
  0
LINE
  5
2BE
100
AcDbEntity
  8
0
100
AcDbLine
 62
7
  6
CONTINUOUS
 10
298.4109096556
 20
233.9083402493
 11
298.4809536633
 21
233.9083402493
  0
LINE
  5
2BF
100
AcDbEntity
  8
0
100
AcDbLine
 62
7
  6
CONTINUOUS
 10
243.3076551009
 20
233.9583402493
 11
243.8309536637
 21
233.9583402493
  0
LINE
  5
2C0
100
AcDbEntity
  8
0
100
AcDbLine
 62
7
  6
CONTINUOUS
 10
267.2809536637
 20
234.1583402493
 11
266.4309536637
 21
234.1583402493
  0
LINE
  5
2C1
100
AcDbEntity
  8
0
100
AcDbLine
 62
7
  6
CONTINUOUS
 10
266.5083342632
 20
234.2583402493
 11
265.2309536637
 21
234.2583402493
  0
LINE
  5
2C2
100
AcDbEntity
  8
0
100
AcDbLine
 62
7
  6
CONTINUOUS
 10
265.2309536637
 20
234.3583402493
 11
264.1309536637
 21
234.3583402493
  0
LINE
  5
2C3
100
AcDbEntity
  8
0
100
AcDbLine
 62
7
  6
CONTINUOUS
 10
266.9083342643
 20
234.6583402497
 11
267.0583342623
 21
234.6583402497
  0
LINE
  5
2C4
100
AcDbEntity
  8
0
100
AcDbLine
 62
7
  6
CONTINUOUS
 10
264.0309536637
 20
234.4313416029
 11
264.1309536637
 21
234.4100859468
  0
LINE
  5
2C5
100
AcDbEntity
  8
0
100
AcDbLine
 62
7
  6
CONTINUOUS
 10
264.9309536637
 20
234.2400406975
 11
266.4309536637
 21
233.9212058554
  0
LINE
  5
2C6
100
AcDbEntity
  8
0
100
AcDbLine
 62
7
  6
CONTINUOUS
 10
264.1309536637
 20
236.1220062101
 11
264.0309536637
 21
236.1488011293
  0
LINE
  5
2C7
100
AcDbEntity
  8
0
100
AcDbLine
 62
7
  6
CONTINUOUS
 10
269.9309536645
 20
236.1160752759
 11
268.3453130179
 21
237.0315453303
  0
LINE
  5
2C8
100
AcDbEntity
  8
0
100
AcDbLine
 62
7
  6
CONTINUOUS
 10
285.0809536637
 20
208.0833402493
 11
285.0809536637
 21
235.2333402493
  0
LINE
  5
2C9
100
AcDbEntity
  8
0
100
AcDbLine
 62
7
  6
CONTINUOUS
 10
280.6317507155
 20
206.8693321138
 11
280.0776158072
 21
205.2167417725
  0
LINE
  5
2CA
100
AcDbEntity
  8
0
100
AcDbLine
 62
7
  6
CONTINUOUS
 10
257.867579633
 20
204.9074155114
 11
259.5041118712
 21
205.3910300922
  0
LINE
  5
2CB
100
AcDbEntity
  8
0
100
AcDbLine
 62
7
  6
CONTINUOUS
 10
286.3309536637
 20
235.2333402493
 11
285.0809536637
 21
235.2333402493
  0
LINE
  5
2CC
100
AcDbEntity
  8
0
100
AcDbLine
 62
7
  6
CONTINUOUS
 10
286.3309536637
 20
235.9083402493
 11
297.9206015989
 21
235.9083402493
  0
LINE
  5
2CD
100
AcDbEntity
  8
0
100
AcDbLine
 62
7
  6
CONTINUOUS
 10
264.1309536637
 20
236.9083402493
 11
265.2309536637
 21
236.9083402493
  0
LINE
  5
2CE
100
AcDbEntity
  8
0
100
AcDbLine
 62
7
  6
CONTINUOUS
 10
268.2453130184
 20
237.05834025
 11
265.2309536634
 21
237.05834025
  0
LINE
  5
2CF
100
AcDbEntity
  8
0
100
AcDbLine
 62
7
  6
CONTINUOUS
 10
264.1309536637
 20
237.0583402493
 11
264.9309536637
 21
237.0583402493
  0
LINE
  5
2D0
100
AcDbEntity
  8
0
100
AcDbLine
 62
7
  6
CONTINUOUS
 10
286.3309536637
 20
207.4084545682
 11
286.3309536637
 21
235.9083171511
  0
LINE
  5
2D1
100
AcDbEntity
  8
0
100
AcDbLine
 62
7
  6
CONTINUOUS
 10
276.2484098902
 20
207.1198074779
 11
277.2841282546
 21
207.4967781322
  0
LINE
  5
2D2
100
AcDbEntity
  8
0
100
AcDbLine
 62
7
  6
CONTINUOUS
 10
255.9542100128
 20
236.423462068
 11
248.1830481157
 21
235.053196554
  0
LINE
  5
2D3
100
AcDbEntity
  8
0
100
AcDbLine
 62
7
  6
CONTINUOUS
 10
246.9521697925
 20
237.4583402493
 11
263.530953663
 21
237.4583402493
  0
LINE
  5
2D4
100
AcDbEntity
  8
0
100
AcDbLine
 62
7
  6
CONTINUOUS
 10
253.7309536637
 20
237.9583402493
 11
254.622998513
 21
237.9583402493
  0
LINE
  5
2D5
100
AcDbEntity
  8
0
100
AcDbLine
 62
7
  6
CONTINUOUS
 10
266.4309536637
 20
238.2083402493
 11
273.4423695694
 21
238.2083402493
  0
LINE
  5
2D6
100
AcDbEntity
  8
0
100
AcDbLine
 62
7
  6
CONTINUOUS
 10
255.2146064908
 20
238.4583402493
 11
257.2525418658
 21
238.4583402493
  0
LINE
  5
2D7
100
AcDbEntity
  8
0
100
AcDbLine
 62
9
  6
CONTINUOUS
 10
273.4423695694
 20
238.70834025
 11
272.8309536637
 21
238.70834025
  0
LINE
  5
2D8
100
AcDbEntity
  8
0
100
AcDbLine
 62
9
  6
CONTINUOUS
 10
271.3309536637
 20
238.70834025
 11
267.4309536637
 21
238.70834025
  0
LINE
  5
2D9
100
AcDbEntity
  8
0
100
AcDbLine
 62
7
  6
CONTINUOUS
 10
271.3309536637
 20
238.9583402493
 11
272.8309536637
 21
238.9583402493
  0
LINE
  5
2DA
100
AcDbEntity
  8
0
100
AcDbLine
 62
7
  6
CONTINUOUS
 10
269.7309536642
 20
202.0083402495
 11
267.9292685661
 21
201.2975476537
  0
LINE
  5
2DB
100
AcDbEntity
  8
0
100
AcDbLine
 62
7
  6
CONTINUOUS
 10
277.0748999086
 20
204.9198074768
 11
276.2774410927
 21
204.6295562063
  0
LINE
  5
2DC
100
AcDbEntity
  8
0
100
AcDbLine
 62
9
  6
CONTINUOUS
 10
267.4309536637
 20
239.6583402493
 11
271.3309536637
 21
239.6583402493
  0
LINE
  5
2DD
100
AcDbEntity
  8
0
100
AcDbLine
 62
9
  6
CONTINUOUS
 10
272.8309536637
 20
239.6583402493
 11
273.4423695694
 21
239.6583402493
  0
LINE
  5
2DE
100
AcDbEntity
  8
0
100
AcDbLine
 62
7
  6
CONTINUOUS
 10
273.4423695694
 20
240.1583402493
 11
272.8309536637
 21
240.1583402493
  0
LINE
  5
2DF
100
AcDbEntity
  8
0
100
AcDbLine
 62
7
  6
CONTINUOUS
 10
271.3309536637
 20
240.1583402493
 11
266.4309536637
 21
240.1583402493
  0
LINE
  5
2E0
100
AcDbEntity
  8
0
100
AcDbLine
 62
9
  6
CONTINUOUS
 10
271.3309536637
 20
242.6955506704
 11
272.8309536637
 21
242.6955506704
  0
LINE
  5
2E1
100
AcDbEntity
  8
0
100
AcDbLine
 62
7
  6
CONTINUOUS
 10
271.3309536637
 20
242.95834025
 11
272.8309536637
 21
242.95834025
  0
LINE
  5
2E2
100
AcDbEntity
  8
0
100
AcDbLine
 62
7
  6
CONTINUOUS
 10
293.8309536637
 20
235.9083111174
 11
293.8309536637
 21
207.4083693811
  0
LINE
  5
2E3
100
AcDbEntity
  8
0
100
AcDbLine
 62
7
  6
CONTINUOUS
 10
271.3309536637
 20
244.6583402493
 11
272.8309536637
 21
244.6583402493
  0
LINE
  5
2E4
100
AcDbEntity
  8
0
100
AcDbLine
 62
7
  6
CONTINUOUS
 10
277.463025131
 20
245.4198074775
 11
278.9423695694
 21
245.4198074775
  0
LINE
  5
2E5
100
AcDbEntity
  8
0
100
AcDbLine
 62
7
  6
CONTINUOUS
 10
297.9206015989
 20
235.9083402493
 11
297.9206015989
 21
207.4083402493
  0
LINE
  5
2E6
100
AcDbEntity
  8
0
100
AcDbLine
 62
7
  6
CONTINUOUS
 10
298.4109096556
 20
209.1583402493
 11
298.4109096556
 21
234.1583402493
  0
LINE
  5
2E7
100
AcDbEntity
  8
0
100
AcDbLine
 62
7
  6
CONTINUOUS
 10
298.4809536637
 20
233.9083402493
 11
298.4809536637
 21
209.4083402493
  0
LINE
  5
2E8
100
AcDbEntity
  8
0
100
AcDbLine
 62
9
  6
CONTINUOUS
 10
298.6238436713
 20
209.9183410756
 11
298.6238436701
 21
233.3983394227
  0
LINE
  5
2E9
100
AcDbEntity
  8
0
100
AcDbLine
 62
7
  6
CONTINUOUS
 10
298.9786166455
 20
230.7583402499
 11
298.9786166455
 21
212.5583402487
  0
LINE
  5
2EA
100
AcDbEntity
  8
0
100
AcDbLine
 62
7
  6
CONTINUOUS
 10
298.4109096556
 20
209.1583402493
 11
297.9206015989
 21
207.4083402493
  0
LINE
  5
2EB
100
AcDbEntity
  8
0
100
AcDbLine
 62
7
  6
CONTINUOUS
 10
298.4109096556
 20
234.1583402493
 11
297.9206015989
 21
235.9083402493
  0
ARC
  5
2EC
100
AcDbEntity
  8
0
100
AcDbCircle
 62
7
  6
CONTINUOUS
 10
256.0883927866
 20
221.7559431456
 40
44.0999996944
100
AcDbArc
 50
15.3075362027
 51
15.9956611934
  0
ARC
  5
2ED
100
AcDbEntity
  8
0
100
AcDbCircle
 62
7
  6
CONTINUOUS
 10
256.0883927866
 20
221.5607373529
 40
44.0999996944
100
AcDbArc
 50
344.0043388066
 51
344.6924637973
  0
ARC
  5
2EE
100
AcDbEntity
  8
0
100
AcDbCircle
 62
7
  6
CONTINUOUS
 10
268.4309536637
 20
216.2439131245
 40
2.0
100
AcDbArc
 50
134.9999999981
 51
162.7430140605
  0
ARC
  5
2EF
100
AcDbEntity
  8
0
100
AcDbCircle
 62
7
  6
CONTINUOUS
 10
263.6309536637
 20
213.80172228
 40
1.0
100
AcDbArc
 50
128.0000000214
 51
179.9999999989
  0
ARC
  5
2F0
100
AcDbEntity
  8
0
100
AcDbCircle
 62
7
  6
CONTINUOUS
 10
264.4309536637
 20
213.9649363712
 40
1.0
100
AcDbArc
 50
127.4761795541
 51
179.9999999553
  0
ARC
  5
2F1
100
AcDbEntity
  8
0
100
AcDbCircle
 62
7
  6
CONTINUOUS
 10
267.2309536637
 20
217.5583402493
 40
0.8
100
AcDbArc
 50
89.9999998183
 51
172.808468202
  0
ARC
  5
2F2
100
AcDbEntity
  8
0
100
AcDbCircle
 62
7
  6
CONTINUOUS
 10
267.4309536637
 20
218.1550421883
 40
0.5
100
AcDbArc
 50
307.4761796057
 51
359.9999999977
  0
ARC
  5
2F3
100
AcDbEntity
  8
0
100
AcDbCircle
 62
7
  6
CONTINUOUS
 10
248.1309536637
 20
207.5680416178
 40
0.3
100
AcDbArc
 50
80.0000003772
 51
179.9999999045
  0
ARC
  5
2F4
100
AcDbEntity
  8
0
100
AcDbCircle
 62
7
  6
CONTINUOUS
 10
260.527444585
 20
201.0992961295
 40
0.15
100
AcDbArc
 50
101.4630316251
 51
191.4628868654
  0
ARC
  5
2F5
100
AcDbEntity
  8
0
100
AcDbCircle
 62
7
  6
CONTINUOUS
 10
259.867841042
 20
204.3520924905
 40
0.15
100
AcDbArc
 50
191.4631763827
 51
281.4630316251
  0
ARC
  5
2F6
100
AcDbEntity
  8
0
100
AcDbCircle
 62
7
  6
CONTINUOUS
 10
261.3309536637
 20
240.6894580274
 40
4.5
100
AcDbArc
 50
211.8243002303
 51
226.103749222
  0
ARC
  5
2F7
100
AcDbEntity
  8
0
100
AcDbCircle
 62
7
  6
CONTINUOUS
 10
266.4309536637
 20
223.9083402493
 40
1.5
100
AcDbArc
 50
0.0
 51
90.0
  0
ARC
  5
2F8
100
AcDbEntity
  8
0
100
AcDbCircle
 62
7
  6
CONTINUOUS
 10
267.2309536637
 20
225.3583402493
 40
0.8
100
AcDbArc
 50
187.1915925821
 51
270.0000000539
  0
ARC
  5
2F9
100
AcDbEntity
  8
0
100
AcDbCircle
 62
7
  6
CONTINUOUS
 10
268.0444616573
 20
233.053744747
 40
0.5
100
AcDbArc
 50
191.0000000576
 51
208.999999899
  0
ARC
  5
2FA
100
AcDbEntity
  8
0
100
AcDbCircle
 62
7
  6
CONTINUOUS
 10
248.1309536637
 20
235.3486388808
 40
0.3
100
AcDbArc
 50
180.0000000955
 51
279.9999997245
  0
ARC
  5
2FB
100
AcDbEntity
  8
0
100
AcDbCircle
 62
7
  6
CONTINUOUS
 10
257.2525418658
 20
238.1583402493
 40
0.3
100
AcDbArc
 50
31.824300249
 51
90.0000001241
  0
ARC
  5
2FC
100
AcDbEntity
  8
0
100
AcDbCircle
 62
7
  6
CONTINUOUS
 10
255.2146064913
 20
238.1583402493
 40
0.3
100
AcDbArc
 50
90.0000000955
 51
170.4059317572
  0
ARC
  5
2FD
100
AcDbEntity
  8
0
100
AcDbCircle
 62
7
  6
CONTINUOUS
 10
254.622998513
 20
238.2583402493
 40
0.3
100
AcDbArc
 50
269.9999998717
 51
350.4059317888
  0
ARC
  5
2FE
100
AcDbEntity
  8
0
100
AcDbCircle
 62
7
  6
CONTINUOUS
 10
253.7309536637
 20
237.6583402493
 40
0.3
100
AcDbArc
 50
89.9999998663
 51
180.0000001337
  0
ARC
  5
2FF
100
AcDbEntity
  8
0
100
AcDbCircle
 62
7
  6
CONTINUOUS
 10
266.5083342629
 20
234.4583402493
 40
0.2
100
AcDbArc
 50
270.0000253926
 51
0.0000062596
  0
ARC
  5
300
100
AcDbEntity
  8
0
100
AcDbCircle
 62
7
  6
CONTINUOUS
 10
266.9083342629
 20
234.4583402493
 40
0.2
100
AcDbArc
 50
89.9999995967
 51
179.9999937404
  0
ARC
  5
301
100
AcDbEntity
  8
0
100
AcDbCircle
 62
7
  6
CONTINUOUS
 10
267.0583342629
 20
234.4583402493
 40
0.2
100
AcDbArc
 50
10.9999999034
 51
90.0000001649
  0
ARC
  5
302
100
AcDbEntity
  8
0
100
AcDbCircle
 62
7
  6
CONTINUOUS
 10
267.8762870049
 20
232.7383402493
 40
0.2
100
AcDbArc
 50
209.0349486637
 51
317.0352563331
  0
ARC
  5
303
100
AcDbEntity
  8
0
100
AcDbCircle
 62
7
  6
CONTINUOUS
 10
268.2453130176
 20
236.8583402493
 40
0.2
100
AcDbArc
 50
59.9999999829
 51
89.9999997937
  0
ARC
  5
304
100
AcDbEntity
  8
0
100
AcDbCircle
 62
7
  6
CONTINUOUS
 10
277.7558123234
 20
221.3490975216
 40
10.5536116557
100
AcDbArc
 50
163.6121475343
 51
168.0488949665
  0
ARC
  5
305
100
AcDbEntity
  8
0
100
AcDbCircle
 62
7
  6
CONTINUOUS
 10
288.9786166456
 20
212.5583402506
 40
9.9999999999
100
AcDbArc
 50
344.6924637938
 51
359.9999999887
  0
ARC
  5
306
100
AcDbEntity
  8
0
100
AcDbCircle
 62
7
  6
CONTINUOUS
 10
276.4423695694
 20
206.0198074775
 40
1.7
100
AcDbArc
 50
319.6797849185
 51
60.320215042
  0
ARC
  5
307
100
AcDbEntity
  8
0
100
AcDbCircle
 62
7
  6
CONTINUOUS
 10
276.4423695694
 20
206.0198074775
 40
1.4
100
AcDbArc
 50
128.2132106786
 51
263.2344993764
  0
ARC
  5
308
100
AcDbEntity
  8
0
100
AcDbCircle
 62
7
  6
CONTINUOUS
 10
281.7410479247
 20
224.3744004762
 40
16.8988175536
100
AcDbArc
 50
205.0314928103
 51
206.080497254
  0
ARC
  5
309
100
AcDbEntity
  8
0
100
AcDbCircle
 62
7
  6
CONTINUOUS
 10
288.9786166456
 20
230.7583402479
 40
9.9999999999
100
AcDbArc
 50
0.0000000113
 51
15.3075362062
  0
ARC
  5
30A
100
AcDbEntity
  8
0
100
AcDbCircle
 62
7
  6
CONTINUOUS
 10
277.463025131
 20
244.4198074775
 40
1.0
100
AcDbArc
 50
90.0000000266
 51
145.0079797407
  0
ARC
  5
30B
100
AcDbEntity
  8
0
100
AcDbCircle
 62
7
  6
CONTINUOUS
 10
274.4423695694
 20
240.1045852467
 40
1.0
100
AcDbArc
 50
145.0079797988
 51
180.0000000286
  0
ARC
  5
30C
100
AcDbEntity
  8
0
100
AcDbCircle
 62
7
  6
CONTINUOUS
 10
278.9423695694
 20
244.9198074775
 40
0.5
100
AcDbArc
 50
0.0000000458
 51
90.0000001955
  0
ARC
  5
30D
100
AcDbEntity
  8
0
100
AcDbCircle
 62
7
  6
CONTINUOUS
 10
269.8309536637
 20
234.8370512712
 40
0.2
100
AcDbArc
 50
317.0352562717
 51
359.9999999427
  0
ARC
  5
30E
100
AcDbEntity
  8
0
100
AcDbCircle
 62
7
  6
CONTINUOUS
 10
269.8309536637
 20
235.9428701955
 40
0.2
100
AcDbArc
 50
359.9999997422
 51
59.9999997692
  0
SPLINE
  5
30F
100
AcDbEntity
  8
0
100
AcDbSpline
 62
7
  6
CONTINUOUS
 70
0
 71
3
 72
11
 73
7
 74
0
 42
0.0000001
 43
0.0000001
 44
0.0000000001
 40
0.0
 40
0.0
 40
0.0
 40
0.0
 40
0.1532675971
 40
0.3815434407
 40
0.6744779155
 40
1.0
 40
1.0
 40
1.0
 40
1.0
 10
265.9309539444
 20
202.1412923125
 30
0.0
 10
265.9309532767
 20
202.1499792687
 30
0.0
 10
265.9165009653
 20
202.1698951866
 30
0.0
 10
265.8814178122
 20
202.1852688827
 30
0.0
 10
265.8344217252
 20
202.1963269987
 30
0.0
 10
265.7993376682
 20
202.1990513448
 30
0.0
 10
265.7808877801
 20
202.1991305914
 30
0.0
  0
SPLINE
  5
310
100
AcDbEntity
  8
0
100
AcDbSpline
 62
7
  6
CONTINUOUS
 70
0
 71
3
 72
18
 73
14
 74
0
 42
0.0000001
 43
0.0000001
 44
0.0000000001
 40
0.0
 40
0.0
 40
0.0
 40
0.0
 40
0.2283191236
 40
0.4377445042
 40
0.6200502013
 40
0.7645128839
 40
0.8707243816
 40
0.9109305047
 40
0.9432237457
 40
0.9680698392
 40
0.9857944891
 40
0.99643865
 40
1.0
 40
1.0
 40
1.0
 40
1.0
 10
266.5288932647
 20
201.5094749855
 30
0.0
 10
266.5253778052
 20
201.4866108026
 30
0.0
 10
266.5140010123
 20
201.4434307922
 30
0.0
 10
266.4892861434
 20
201.3855613561
 30
0.0
 10
266.4641533541
 20
201.3373937193
 30
0.0
 10
266.4451941845
 20
201.2978078833
 30
0.0
 10
266.4346376387
 20
201.2702423125
 30
0.0
 10
266.4290669479
 20
201.253033463
 30
0.0
 10
266.4263971602
 20
201.2434903966
 30
0.0
 10
266.4243000711
 20
201.2363218197
 30
0.0
 10
266.4232487711
 20
201.2307462977
 30
0.0
 10
266.4218170849
 20
201.2282640337
 30
0.0
 10
266.4220558064
 20
201.226208599
 30
0.0
 10
266.421702319
 20
201.2261361807
 30
0.0
  0
SPLINE
  5
311
100
AcDbEntity
  8
0
100
AcDbSpline
 62
7
  6
CONTINUOUS
 70
0
 71
3
 72
8
 73
4
 74
0
 42
0.0000001
 43
0.0000001
 44
0.0000000001
 40
0.0
 40
0.0
 40
0.0
 40
0.0
 40
1.0
 40
1.0
 40
1.0
 40
1.0
 10
267.3086210893
 20
203.9583987848
 30
0.0
 10
266.4548498721
 20
203.9581486893
 30
0.0
 10
265.6010785614
 20
203.9581321038
 30
0.0
 10
264.7473073289
 20
203.958323133
 30
0.0
  0
SPLINE
  5
312
100
AcDbEntity
  8
0
100
AcDbSpline
 62
9
  6
CONTINUOUS
 70
0
 71
3
 72
21
 73
17
 74
0
 42
0.0000001
 43
0.0000001
 44
0.0000000001
 40
0.0
 40
0.0
 40
0.0
 40
0.0
 40
0.1950103754
 40
0.3829587207
 40
0.5557593912
 40
0.7071537616
 40
0.7730403668
 40
0.8314824367
 40
0.8818935875
 40
0.9238356294
 40
0.9568854552
 40
0.9807131838
 40
0.9891110624
 40
0.9951370189
 40
0.9987709651
 40
1.0
 40
1.0
 40
1.0
 40
1.0
 10
268.0703051896
 20
204.6590182329
 30
0.0
 10
268.0394014313
 20
204.6690874339
 30
0.0
 10
267.9787281045
 20
204.6889075892
 30
0.0
 10
267.890877286
 20
204.7182808507
 30
0.0
 10
267.8102023383
 20
204.7461718869
 30
0.0
 10
267.7486158625
 20
204.7670127889
 30
0.0
 10
267.704974733
 20
204.7814094722
 30
0.0
 10
267.6772864003
 20
204.7904495939
 30
0.0
 10
267.6533883321
 20
204.7982080492
 30
0.0
 10
267.6334800377
 20
204.8046425493
 30
0.0
 10
267.617888934
 20
204.8097793185
 30
0.0
 10
267.6074356337
 20
204.8131878284
 30
0.0
 10
267.601591225
 20
204.8153221137
 30
0.0
 10
267.5984523541
 20
204.8162380009
 30
0.0
 10
267.5972912585
 20
204.817038602
 30
0.0
 10
267.5959812689
 20
204.8171829874
 30
0.0
 10
267.5960462674
 20
204.8173772475
 30
0.0
  0
SPLINE
  5
313
100
AcDbEntity
  8
0
100
AcDbSpline
 62
7
  6
CONTINUOUS
 70
0
 71
3
 72
10
 73
6
 74
0
 42
0.0000001
 43
0.0000001
 44
0.0000000001
 40
0.0
 40
0.0
 40
0.0
 40
0.0
 40
0.205014925
 40
0.4421810347
 40
1.0
 40
1.0
 40
1.0
 40
1.0
 10
266.5292018731
 20
201.5100466652
 30
0.0
 10
266.5421889325
 20
201.5444365158
 30
0.0
 10
266.573591475
 20
201.6172980915
 30
0.0
 10
266.6491443569
 20
201.7799043405
 30
0.0
 10
266.7148656907
 20
201.9064915485
 30
0.0
 10
266.7623429243
 20
201.9945253826
 30
0.0
  0
SPLINE
  5
314
100
AcDbEntity
  8
0
100
AcDbSpline
 62
7
  6
CONTINUOUS
 70
0
 71
3
 72
13
 73
9
 74
0
 42
0.0000001
 43
0.0000001
 44
0.0000000001
 40
0.0
 40
0.0
 40
0.0
 40
0.0
 40
0.1039833002
 40
0.2175645301
 40
0.4642181837
 40
0.7274770314
 40
0.8631001352
 40
1.0
 40
1.0
 40
1.0
 40
1.0
 10
266.7623429243
 20
201.9945253826
 30
0.0
 10
266.8112513415
 20
202.0852129641
 30
0.0
 10
266.9160853829
 20
202.2736001042
 30
0.0
 10
267.1411714932
 20
202.6747423833
 30
0.0
 10
267.4410313236
 20
203.2149468764
 30
0.0
 10
267.7261827551
 20
203.7880188158
 30
0.0
 10
267.9351678359
 20
204.2762870994
 30
0.0
 10
268.0269921441
 20
204.5303818868
 30
0.0
 10
268.0708002094
 20
204.6587651095
 30
0.0
  0
SPLINE
  5
315
100
AcDbEntity
  8
0
100
AcDbSpline
 62
7
  6
CONTINUOUS
 70
0
 71
3
 72
13
 73
9
 74
0
 42
0.0000001
 43
0.0000001
 44
0.0000000001
 40
0.0
 40
0.0
 40
0.0
 40
0.0
 40
0.2501886922
 40
0.3740645239
 40
0.4971370144
 40
0.6210245233
 40
0.7472394396
 40
1.0
 40
1.0
 40
1.0
 40
1.0
 10
266.6684554084
 20
202.0470798206
 30
0.0
 10
266.6570206421
 20
202.0022115373
 30
0.0
 10
266.6381767961
 20
201.9355776545
 30
0.0
 10
266.6173658827
 20
201.8459327066
 30
0.0
 10
266.604082138
 20
201.7785993706
 30
0.0
 10
266.5900932416
 20
201.7109561982
 30
0.0
 10
266.5669074696
 20
201.6207864265
 30
0.0
 10
266.5449080708
 20
201.5541095332
 30
0.0
 10
266.5292018731
 20
201.5100466652
 30
0.0
  0
SPLINE
  5
316
100
AcDbEntity
  8
0
100
AcDbSpline
 62
7
  6
CONTINUOUS
 70
0
 71
3
 72
8
 73
4
 74
0
 42
0.0000001
 43
0.0000001
 44
0.0000000001
 40
0.0
 40
0.0
 40
0.0
 40
0.0
 40
1.0
 40
1.0
 40
1.0
 40
1.0
 10
269.1848676293
 20
207.9900942367
 30
0.0
 10
269.1496879324
 20
207.990094117
 30
0.0
 10
269.1143231038
 20
207.9841452618
 30
0.0
 10
269.0804820428
 20
207.9745330993
 30
0.0
  0
SPLINE
  5
317
100
AcDbEntity
  8
0
100
AcDbSpline
 62
7
  6
CONTINUOUS
 70
0
 71
3
 72
8
 73
4
 74
0
 42
0.0000001
 43
0.0000001
 44
0.0000000001
 40
0.0
 40
0.0
 40
0.0
 40
0.0
 40
1.0
 40
1.0
 40
1.0
 40
1.0
 10
269.7309536641
 20
204.6583085335
 30
0.0
 10
269.1774031992
 20
204.6590629223
 30
0.0
 10
268.6238509548
 20
204.6580108898
 30
0.0
 10
268.0703008747
 20
204.6590084653
 30
0.0
  0
ELLIPSE
  5
318
100
AcDbEntity
  8
0
100
AcDbEllipse
 62
7
  6
CONTINUOUS
 10
276.5309536637
 20
221.6583402493
 30
0.0
 11
21.0
 21
-0.0
 31
0.0
 40
0.5
 41
1.3791491318
 42
1.4317070746
  0
ELLIPSE
  5
319
100
AcDbEntity
  8
0
100
AcDbEllipse
 62
7
  6
CONTINUOUS
 10
271.956600341
 20
205.1101811287
 30
0.0
 11
21.1923502607
 21
4.2973945382
 31
0.0
 40
0.153091273
 41
-2.3150444015
 42
-2.265844451
  0
ELLIPSE
  5
31A
100
AcDbEntity
  8
0
100
AcDbEllipse
 62
7
  6
CONTINUOUS
 10
271.956600341
 20
205.1101811287
 30
0.0
 11
21.1923502607
 21
4.2973945382
 31
0.0
 40
0.153091273
 41
2.265844451
 42
2.3150444015
  0
ELLIPSE
  5
31B
100
AcDbEntity
  8
0
100
AcDbEllipse
 62
7
  6
CONTINUOUS
 10
277.1614235006
 20
206.2476928294
 30
0.0
 11
-0.1028731299
 21
0.507312834
 31
0.0
 40
0.9659258263
 41
-1.5707963263
 42
0.0000000035
  0
ELLIPSE
  5
31C
100
AcDbEntity
  8
0
100
AcDbEllipse
 62
7
  6
CONTINUOUS
 10
277.0743290947
 20
206.6771938074
 30
0.0
 11
-0.100516764
 21
0.4956925531
 31
0.0
 40
0.9885695586
 41
-1.5707963281
 42
-0.0000000007
  0
ELLIPSE
  5
31D
100
AcDbEntity
  8
0
100
AcDbEllipse
 62
7
  6
CONTINUOUS
 10
277.2854386875
 20
205.636119176
 30
0.0
 11
-0.1053426262
 21
0.5194910107
 31
0.0
 40
0.9432820939
 41
-3.1415926521
 42
-1.5707963273
  0
ELLIPSE
  5
31E
100
AcDbEntity
  8
0
100
AcDbEllipse
 62
7
  6
CONTINUOUS
 10
277.1933953414
 20
206.0900255635
 30
0.0
 11
-0.1028731299
 21
0.507312834
 31
0.0
 40
0.9659258263
 41
-3.1415926524
 42
-1.5707963262
  0
ENDSEC
  0
SECTION
  2
OBJECTS
  0
DICTIONARY
  5
C
100
AcDbDictionary
280
0
281
1
  3
ACAD_GROUP
350
D
  3
ACAD_MLINESTYLE
350
17
  3
ACAD_LAYOUT
350
1A
  3
ACAD_PLOTSETTINGS
350
19
  3
ACAD_PLOTSTYLENAME
350
E
  0
DICTIONARY
  5
D
102
{ACAD_REACTORS
330
C
102
}
100
AcDbDictionary
280
0
281
1
  0
ACDBDICTIONARYWDFLT
  5
E
102
{ACAD_REACTORS
330
C
102
}
100
AcDbDictionary
281
1
  3
Normal
350
F
100
AcDbDictionaryWithDefault
340
F
  0
DICTIONARY
  5
17
102
{ACAD_REACTORS
330
C
102
}
100
AcDbDictionary
280
0
281
1
  3
Standard
350
18
  0
DICTIONARY
  5
19
102
{ACAD_REACTORS
330
C
102
}
100
AcDbDictionary
281
1
  0
DICTIONARY
  5
1A
102
{ACAD_REACTORS
330
C
102
}
100
AcDbDictionary
281
1
  3
Model
350
31F
  3
Layout1
350
320
  0
ACDBPLACEHOLDER
  5
F
102
{ACAD_REACTORS
330
E
102
}
  0
MLINESTYLE
  5
18
102
{ACAD_REACTORS
330
17
102
}
100
AcDbMlineStyle
  2
STANDARD
 70
0
  3

 62
256
 51
90.0
 52
90.0
 71
2
 49
0.5
 62
256
  6
BYLAYER
 49
-0.5
 62
256
  6
BYLAYER
  0
LAYOUT
  5
31F
102
{ACAD_REACTORS
330
1A
102
}
100
AcDbPlotSettings
  1

  2
none_device
  4
ANSI_C_(22.00_x_17.00_Inches)
  6

 40
0.0
 41
0.0
 42
0.0
 43
0.0
 44
558.8
 45
431.8
 46
0.0
 47
0.0
 48
0.0
 49
0.0
140
0.0
141
0.0
142
1.0
143
1.0
 70
1024
 72
1
 73
0
 74
0
  7

 75
0
147
1.0
148
0.0
149
0.0
100
AcDbLayout
  1
Model
 70
0
 71
0
 10
0.0
 20
0.0
 11
558.8
 21
431.8
 12
0.0
 22
0.0
 32
0.0
 14
0.0
 24
0.0
 34
0.0
 15
0.0
 25
0.0
 35
0.0
146
0.0
 13
0.0
 23
0.0
 33
0.0
 16
1.0
 26
0.0
 36
0.0
 17
0.0
 27
1.0
 37
0.0
 76
0
330
21B
345
0
346
0
  0
LAYOUT
  5
320
102
{ACAD_REACTORS
330
1A
102
}
100
AcDbPlotSettings
  1

  2
none_device
  4
ANSI_C_(22.00_x_17.00_Inches)
  6

 40
0.0
 41
0.0
 42
0.0
 43
0.0
 44
558.8
 45
431.8
 46
0.0
 47
0.0
 48
0.0
 49
0.0
140
0.0
141
0.0
142
1.0
143
1.0
 70
0
 72
1
 73
0
 74
0
  7

 75
0
147
1.0
148
0.0
149
0.0
100
AcDbLayout
  1
Layout1
 70
0
 71
1
 10
0.0
 20
0.0
 11
558.8
 21
431.8
 12
0.0
 22
0.0
 32
0.0
 14
0.0
 24
0.0
 34
0.0
 15
0.0
 25
0.0
 35
0.0
146
0.0
 13
0.0
 23
0.0
 33
0.0
 16
1.0
 26
0.0
 36
0.0
 17
0.0
 27
1.0
 37
0.0
 76
0
330
21C
345
0
346
0
  0
ENDSEC
  0
EOF
