999
DXF file: C:\Users\sesa63760\Dev\_Creo\CAD\MCADID0005762_3D-CAD\mcadid0005762_3d-simplified_1.dxf
999
Pro/ENGINEER 2019471 by Parametric Technology Corporation
  0
SECTION
  2
HEADER
  9
$ACADVER
  1
AC1024
  9
$DWGCODEPAGE
  3
ANSI_1252
  9
$EXTMAX
 10
49.4562580489
 20
69.9452792405
 30
0.0
  9
$EXTMIN
 10
0.0
 20
0.0
 30
0.0
  9
$LIMMIN
 10
0.0
 20
0.0
  9
$LIMMAX
 10
49.4562580489
 20
69.9452792405
  9
$VIEWCTR
 10
24.7281290244
 20
34.9726396203
  9
$VIEWSIZE
 40
69.9452792405
  9
$CLAYER
  8
0
  9
$LTSCALE
 40
4.5593959801
  9
$CELTYPE
  6
BYLAYER
  9
$DIMSCALE
 40
1.0
  9
$DIMASZ
 40
0.5887649768
  9
$DIMEXO
 40
1.0
  9
$DIMDLI
 40
3.1501281317
  9
$DIMEXE
 40
1.0
  9
$DIMCEN
 40
0.7460829786
  9
$DIMLFAC
 40
1.0
  9
$DIMBLK
  1
_FILLED
  9
$DIMALT
 70
0
  9
$DIMALTF
 40
0.0393700787
  9
$DIMTXT
 40
0.8242709675
  9
$DIMTOL
 70
1
  9
$DIMLIM
 70
0
  9
$DIMTFAC
 40
1.0
  9
$DIMTP
 40
0.01
  9
$DIMTM
 40
0.01
  9
$DIMGAP
 40
0.625
  9
$DIMDSEP
 70
46
  9
$AUNITS
 70
0
  9
$PDMODE
 70
3
  9
$PDSIZE
 40
0.3125
  9
$HANDSEED
  5
237
  9
$TILEMODE
 70
1
  9
$MEASUREMENT
 70
1
  9
$INSUNITS
 70
4
  0
ENDSEC
  0
SECTION
  2
CLASSES
  0
CLASS
  1
ACDBDICTIONARYWDFLT
  2
AcDbDictionaryWithDefault
  3
AutoCAD 2000
 90
0
 91
1
280
0
281
0
  0
CLASS
  1
ACDBPLACEHOLDER
  2
AcDbPlaceHolder
  3
AutoCAD 2000
 90
0
 91
1
280
0
281
0
  0
CLASS
  1
LAYOUT
  2
AcDbLayout
  3
AutoCAD 2000
 90
0
 91
0
280
0
281
0
  0
ENDSEC
  0
SECTION
  2
TABLES
  0
TABLE
  2
VPORT
  5
8
100
AcDbSymbolTable
 70
2
  0
VPORT
  5
1F4
100
AcDbSymbolTableRecord
100
AcDbViewportTableRecord
  2
*ACTIVE
 70
0
 10
0.0
 20
0.0
 11
1.0
 21
1.0
 12
24.7281290244
 22
34.9726396203
 13
0.0
 23
0.0
 14
1.0
 24
1.0
 15
0.0
 25
0.0
 16
0.0
 26
0.0
 36
1.0
 17
0.0
 27
0.0
 37
0.0
 40
69.9452792405
 41
0.7070707071
 42
50.0
 43
0.0
 44
0.0
 50
0.0
 51
0.0
 71
0
 72
100
 73
1
 74
1
 75
0
 76
0
 77
0
 78
0
  0
ENDTAB
  0
TABLE
  2
LTYPE
  5
5
100
AcDbSymbolTable
 70
6
  0
LTYPE
  5
14
100
AcDbSymbolTableRecord
100
AcDbLinetypeTableRecord
  2
BYBLOCK
 70
0
  3

 72
65
 73
0
 40
0.0
  0
LTYPE
  5
15
100
AcDbSymbolTableRecord
100
AcDbLinetypeTableRecord
  2
BYLAYER
 70
0
  3

 72
65
 73
0
 40
0.0
  0
LTYPE
  5
16
100
AcDbSymbolTableRecord
100
AcDbLinetypeTableRecord
  2
CONTINUOUS
 70
64
  3
Solid line
 72
65
 73
0
 40
0.0
  0
LTYPE
  5
1F5
100
AcDbSymbolTableRecord
100
AcDbLinetypeTableRecord
  2
CENTER
 70
64
  3
____ _ ____ _ ____ _ ____ _ ____ _ ____ _ ____
 72
65
 73
4
 40
0.6
 49
0.375
 74
0
 49
-0.075
 74
0
 49
0.075
 74
0
 49
-0.075
 74
0
  0
LTYPE
  5
1F6
100
AcDbSymbolTableRecord
100
AcDbLinetypeTableRecord
  2
HIDDEN
 70
64
  3
- - - - - - - - - - - - - - - - - - - -
 72
65
 73
2
 40
0.2
 49
0.1
 74
0
 49
-0.1
 74
0
  0
LTYPE
  5
1F7
100
AcDbSymbolTableRecord
100
AcDbLinetypeTableRecord
  2
PHANTOM
 70
64
  3
_____ _ _ _____ _ _ _____ _ _ _____
 72
65
 73
6
 40
0.8
 49
0.45
 74
0
 49
-0.05
 74
0
 49
0.1
 74
0
 49
-0.05
 74
0
 49
0.1
 74
0
 49
-0.05
 74
0
  0
LTYPE
  5
1F8
100
AcDbSymbolTableRecord
100
AcDbLinetypeTableRecord
  2
DOT
 70
64
  3
. . . . . . . . . . . . . . . . . . . .
 72
65
 73
2
 40
0.2
 49
0.1
 74
0
 49
-0.1
 74
0
  0
LTYPE
  5
1F9
100
AcDbSymbolTableRecord
100
AcDbLinetypeTableRecord
  2
DASHED
 70
64
  3
- - - - - - - - - - - - - - - - - - - -
 72
65
 73
2
 40
0.2
 49
0.1
 74
0
 49
-0.1
 74
0
  0
ENDTAB
  0
TABLE
  2
LAYER
  5
2
100
AcDbSymbolTable
 70
36
  0
LAYER
  5
10
100
AcDbSymbolTableRecord
100
AcDbLayerTableRecord
  2
0
 70
0
 62
7
  6
CONTINUOUS
370
-3
390
F
  0
LAYER
  5
1FA
100
AcDbSymbolTableRecord
100
AcDbLayerTableRecord
  2
DEFAULT_1
 70
0
 62
7
  6
CENTER
370
-3
390
F
  0
LAYER
  5
1FB
100
AcDbSymbolTableRecord
100
AcDbLayerTableRecord
  2
DEFAULT_2
 70
0
 62
7
  6
HIDDEN
370
-3
390
F
  0
LAYER
  5
1FC
100
AcDbSymbolTableRecord
100
AcDbLayerTableRecord
  2
DEFAULT_3
 70
0
 62
7
  6
PHANTOM
370
-3
390
F
  0
LAYER
  5
1FD
100
AcDbSymbolTableRecord
100
AcDbLayerTableRecord
  2
00_COMPONENTS
 70
0
 62
7
  6
CONTINUOUS
370
-3
390
F
  0
LAYER
  5
1FE
100
AcDbSymbolTableRecord
100
AcDbLayerTableRecord
  2
01_1_DEFAULT_DATUMS
 70
0
 62
7
  6
CONTINUOUS
370
-3
390
F
  0
LAYER
  5
1FF
100
AcDbSymbolTableRecord
100
AcDbLayerTableRecord
  2
01_PLANES
 70
0
 62
7
  6
CONTINUOUS
370
-3
390
F
  0
LAYER
  5
200
100
AcDbSymbolTableRecord
100
AcDbLayerTableRecord
  2
02_COORD_SYS
 70
0
 62
7
  6
CONTINUOUS
370
-3
390
F
  0
LAYER
  5
201
100
AcDbSymbolTableRecord
100
AcDbLayerTableRecord
  2
03_AXES
 70
0
 62
7
  6
CONTINUOUS
370
-3
390
F
  0
LAYER
  5
202
100
AcDbSymbolTableRecord
100
AcDbLayerTableRecord
  2
04_POINTS
 70
0
 62
7
  6
CONTINUOUS
370
-3
390
F
  0
LAYER
  5
203
100
AcDbSymbolTableRecord
100
AcDbLayerTableRecord
  2
05_CURVES
 70
0
 62
7
  6
CONTINUOUS
370
-3
390
F
  0
LAYER
  5
204
100
AcDbSymbolTableRecord
100
AcDbLayerTableRecord
  2
06_SURFS
 70
0
 62
7
  6
CONTINUOUS
370
-3
390
F
  0
LAYER
  5
205
100
AcDbSymbolTableRecord
100
AcDbLayerTableRecord
  2
07_COSMETICS
 70
0
 62
7
  6
CONTINUOUS
370
-3
390
F
  0
LAYER
  5
206
100
AcDbSymbolTableRecord
100
AcDbLayerTableRecord
  2
10_NOTES
 70
0
 62
7
  6
CONTINUOUS
370
-3
390
F
  0
LAYER
  5
207
100
AcDbSymbolTableRecord
100
AcDbLayerTableRecord
  2
11_NOTES_PUB
 70
0
 62
7
  6
CONTINUOUS
370
-3
390
F
  0
LAYER
  5
208
100
AcDbSymbolTableRecord
100
AcDbLayerTableRecord
  2
13_REF_GTOL
 70
0
 62
7
  6
CONTINUOUS
370
-3
390
F
  0
LAYER
  5
209
100
AcDbSymbolTableRecord
100
AcDbLayerTableRecord
  2
16_MISC
 70
0
 62
7
  6
CONTINUOUS
370
-3
390
F
  0
LAYER
  5
20A
100
AcDbSymbolTableRecord
100
AcDbLayerTableRecord
  2
17_NO_PRINT
 70
0
 62
7
  6
CONTINUOUS
370
-3
390
F
  0
LAYER
  5
20B
100
AcDbSymbolTableRecord
100
AcDbLayerTableRecord
  2
18_DATUM_CAMS_JOINTS
 70
0
 62
7
  6
CONTINUOUS
370
-3
390
F
  0
LAYER
  5
20C
100
AcDbSymbolTableRecord
100
AcDbLayerTableRecord
  2
19_DATUM_FUNCTIONAL
 70
0
 62
7
  6
CONTINUOUS
370
-3
390
F
  0
LAYER
  5
20D
100
AcDbSymbolTableRecord
100
AcDbLayerTableRecord
  2
20_DATUM_KINEMATIC_SCHEME
 70
0
 62
7
  6
CONTINUOUS
370
-3
390
F
  0
ENDTAB
  0
TABLE
  2
STYLE
  5
3
100
AcDbSymbolTable
 70
1
  0
STYLE
  5
11
100
AcDbSymbolTableRecord
100
AcDbTextStyleTableRecord
  2
STANDARD
 70
0
 40
0.0
 41
1.0
 50
0.0
 71
0
 42
0.2
  3
ARIAL.TTF
  4

  0
STYLE
  5
20E
100
AcDbSymbolTableRecord
100
AcDbTextStyleTableRecord
  2
TEXTSTYLE_1
 70
0
 40
0.0
 41
0.8
 50
0.0
 71
0
 42
0.2
  3
gdt
  4

  0
ENDTAB
  0
TABLE
  2
VIEW
  5
6
100
AcDbSymbolTable
 70
0
  0
ENDTAB
  0
TABLE
  2
UCS
  5
7
100
AcDbSymbolTable
 70
0
  0
ENDTAB
  0
TABLE
  2
APPID
  5
9
100
AcDbSymbolTable
 70
1
  0
APPID
  5
20F
100
AcDbSymbolTableRecord
100
AcDbRegAppTableRecord
  2
ACAD
 70
0
  0
ENDTAB
  0
TABLE
  2
BLOCK_RECORD
  5
1
100
AcDbSymbolTable
 70
0
  0
BLOCK_RECORD
  5
210
100
AcDbSymbolTableRecord
100
AcDbBlockTableRecord
  2
*Model_Space
  0
BLOCK_RECORD
  5
211
100
AcDbSymbolTableRecord
100
AcDbBlockTableRecord
  2
*Paper_Space
  0
BLOCK_RECORD
  5
212
100
AcDbSymbolTableRecord
100
AcDbBlockTableRecord
  2
_FILLED
  0
ENDTAB
  0
TABLE
  2
DIMSTYLE
  5
A
100
AcDbSymbolTable
 70
1
100
AcDbDimStyleTable
 71
0
  0
DIMSTYLE
105
213
100
AcDbSymbolTableRecord
100
AcDbDimStyleTableRecord
  2
STANDARD
 70
0
  3

  4

 40
1.0
 41
0.5887649768
 42
1.0
 43
0.38
 44
1.0
 45
0.0
 46
0.0
 47
0.01
 48
0.01
140
0.8242709675
141
0.09
142
0.0
143
25.4
144
1.0
145
0.0
146
1.0
147
0.625
 71
1
 72
0
 73
0
 74
0
 75
0
 76
0
 77
1
 78
8
 79
2
170
0
171
1
172
0
173
0
174
0
175
0
176
0
177
0
178
0
270
2
179
2
271
2
272
2
273
2
274
2
275
0
280
0
281
0
282
0
283
1
284
8
285
0
286
0
287
3
288
0
340
11
278
46
341
212
342
212
343
212
344
212
  0
ENDTAB
  0
ENDSEC
  0
SECTION
  2
BLOCKS
  0
BLOCK
  5
20
100
AcDbEntity
  8
0
100
AcDbBlockBegin
  2
*Model_Space
 70
0
 10
0.0
 20
0.0
 30
0.0
  3
*Model_Space
  1

  0
ENDBLK
  5
21
100
AcDbEntity
  8
0
100
AcDbBlockEnd
  0
BLOCK
  5
1C
100
AcDbEntity
  8
0
100
AcDbBlockBegin
  2
*Paper_Space
 70
0
 10
0.0
 20
0.0
 30
0.0
  3
*Paper_Space
  1

  0
ENDBLK
  5
1D
100
AcDbEntity
  8
0
100
AcDbBlockEnd
  0
BLOCK
  5
214
100
AcDbEntity
  8
0
100
AcDbBlockBegin
  2
_FILLED
 70
64
 10
0.0
 20
0.0
  3
_FILLED
  1

  0
SOLID
  5
215
100
AcDbEntity
  8
0
  6
BYBLOCK
 62
0
100
AcDbTrace
 10
0.0
 20
0.0
 11
-1.0
 21
0.25
 12
-1.0
 22
-0.25
 13
-1.0
 23
-0.25
  0
ENDBLK
  5
216
100
AcDbEntity
  8
0
  6
BYBLOCK
 62
0
100
AcDbBlockEnd
  0
ENDSEC
  0
SECTION
  2
ENTITIES
  0
LINE
  5
217
100
AcDbEntity
  8
0
100
AcDbLine
 62
7
  6
BYLAYER
 10
24.7381934218
 20
54.2655127455
 11
22.0038613944
 21
52.6868548368
  0
LINE
  5
218
100
AcDbEntity
  8
0
100
AcDbLine
 62
7
  6
BYLAYER
 10
17.9715034433
 20
46.9501451472
 11
22.0038613944
 21
52.6868548368
  0
LINE
  5
219
100
AcDbEntity
  8
0
100
AcDbLine
 62
7
  6
BYLAYER
 10
18.9582688612
 20
47.5198510262
 11
8.7406184134
 21
41.6207230027
  0
LINE
  5
21A
100
AcDbEntity
  8
0
100
AcDbLine
 62
7
  6
BYLAYER
 10
33.6229562068
 20
49.6356181901
 11
33.1902754285
 21
49.3858113174
  0
LINE
  5
21B
100
AcDbEntity
  8
0
100
AcDbLine
 62
7
  6
BYLAYER
 10
31.4910790242
 20
21.2693635139
 11
34.9739064779
 21
19.2585976356
  0
LINE
  5
21C
100
AcDbEntity
  8
0
100
AcDbLine
 62
7
  6
BYLAYER
 10
37.7082385053
 20
46.7774231284
 11
34.9739064779
 21
45.1987652196
  0
LWPOLYLINE
  5
21D
100
AcDbEntity
  8
0
100
AcDbPolyline
 62
7
  6
BYLAYER
 90
10
 70
0
 10
36.4613274184
 20
29.0429729915
 10
36.0047977989
 20
32.8000235335
 10
34.6800179319
 20
36.7402161263
 10
32.5991516002
 20
40.5307107774
 10
29.9545925272
 20
43.8202070994
 10
26.9781919111
 20
46.3237875829
 10
25.4469453177
 20
47.2085823604
 10
22.4697154813
 20
48.1450520139
 10
19.824336215
 20
47.9125377028
 10
18.9583100947
 20
47.5197795854
  0
LINE
  5
21E
100
AcDbEntity
  8
0
100
AcDbLine
 62
7
  6
BYLAYER
 10
34.9739064779
 20
45.1987652196
 11
41.4589290196
 21
28.4846366191
  0
LINE
  5
21F
100
AcDbEntity
  8
0
100
AcDbLine
 62
7
  6
BYLAYER
 10
41.4589290196
 20
28.4846366191
 11
44.193261047
 21
30.0632945279
  0
LINE
  5
220
100
AcDbEntity
  8
0
100
AcDbLine
 62
7
  6
BYLAYER
 10
34.9739064779
 20
45.1987652196
 11
22.0038613944
 21
52.6868548368
  0
LINE
  5
221
100
AcDbEntity
  8
0
100
AcDbLine
 62
7
  6
BYLAYER
 10
33.4582039464
 20
22.405076838
 11
23.2405534987
 21
16.5059488145
  0
LINE
  5
222
100
AcDbEntity
  8
0
100
AcDbLine
 62
7
  6
BYLAYER
 10
24.7381934218
 20
54.2655127455
 11
37.7082385053
 21
46.7774231284
  0
LINE
  5
223
100
AcDbEntity
  8
0
100
AcDbLine
 62
7
  6
BYLAYER
 10
44.193261047
 20
30.0632945279
 11
37.7082385053
 21
46.7774231284
  0
LWPOLYLINE
  5
224
100
AcDbEntity
  8
0
100
AcDbPolyline
 62
7
  6
BYLAYER
 90
3
 70
0
 10
42.7191639941
 20
37.1466007495
 10
42.6326162458
 20
35.9887651608
 10
42.2778492713
 20
34.9999679991
  0
LINE
  5
225
100
AcDbEntity
  8
0
100
AcDbLine
 62
7
  6
BYLAYER
 10
41.4589290196
 20
28.4846366191
 11
34.9739064779
 21
19.2585976356
  0
LINE
  5
226
100
AcDbEntity
  8
0
100
AcDbLine
 62
7
  6
BYLAYER
 10
37.7082385053
 20
20.8372555444
 11
44.193261047
 21
30.0632945279
  0
LINE
  5
227
100
AcDbEntity
  8
0
100
AcDbLine
 62
7
  6
BYLAYER
 10
37.7082385053
 20
20.8372555444
 11
34.9739064779
 21
19.2585976356
  0
SPLINE
  5
228
100
AcDbEntity
  8
0
100
AcDbSpline
 62
7
  6
BYLAYER
 70
0
 71
3
 72
17
 73
13
 74
0
 42
0.0000001
 43
0.0000001
 44
0.0000000001
 40
0.0
 40
0.0
 40
0.0
 40
0.0
 40
0.1485512851
 40
0.2894534165
 40
0.4226433101
 40
0.5485364948
 40
0.6678746485
 40
0.7817912152
 40
0.837226183
 40
0.8919105956
 40
0.9460846508
 40
1.0
 40
1.0
 40
1.0
 40
1.0
 10
5.7374949414
 20
34.9828268492
 30
0.0
 10
5.7374949414
 20
35.360439521
 30
0.0
 10
5.7679575807
 20
36.0967268376
 30
0.0
 10
5.9128660841
 20
37.1629629072
 30
0.0
 10
6.1549750253
 20
38.1526195147
 30
0.0
 10
6.4923995145
 20
39.0560951856
 30
0.0
 10
6.9223835344
 20
39.8646366423
 30
0.0
 10
7.3593923131
 20
40.4580821943
 30
0.0
 10
7.749900999
 20
40.8733330838
 30
0.0
 10
8.0602128256
 20
41.1535738107
 30
0.0
 10
8.3897085566
 20
41.4046061416
 30
0.0
 10
8.621930597
 20
41.5521941037
 30
0.0
 10
8.7406236107
 20
41.6207140005
 30
0.0
  0
SPLINE
  5
229
100
AcDbEntity
  8
0
100
AcDbSpline
 62
7
  6
BYLAYER
 70
0
 71
3
 72
15
 73
11
 74
0
 42
0.0000001
 43
0.0000001
 44
0.0000000001
 40
0.0
 40
0.0
 40
0.0
 40
0.0
 40
0.1079713812
 40
0.2180444561
 40
0.3320404921
 40
0.4514651961
 40
0.5774164001
 40
0.7106378535
 40
0.8515364109
 40
1.0
 40
1.0
 40
1.0
 40
1.0
 10
42.6438340464
 20
34.0593479189
 30
0.0
 10
42.7898907395
 20
34.1452649046
 30
0.0
 10
43.0706192423
 20
34.3442996298
 30
0.0
 10
43.4412461671
 20
34.7137264422
 30
0.0
 10
43.7599899409
 20
35.151069807
 30
0.0
 10
44.0238034726
 20
35.6515724633
 30
0.0
 10
44.2308113138
 20
36.2101248822
 30
0.0
 10
44.3793489074
 20
36.821499096
 30
0.0
 10
44.4682080781
 20
37.479770106
 30
0.0
 10
44.4869235872
 20
37.9342087796
 30
0.0
 10
44.4869235872
 20
38.1672111341
 30
0.0
  0
SPLINE
  5
22A
100
AcDbEntity
  8
0
100
AcDbSpline
 62
7
  6
BYLAYER
 70
0
 71
3
 72
27
 73
23
 74
0
 42
0.0000001
 43
0.0000001
 44
0.0000000001
 40
0.0
 40
0.0
 40
0.0
 40
0.0
 40
0.0623741832
 40
0.1287096835
 40
0.1982929653
 40
0.2702616924
 40
0.3436304435
 40
0.4173550123
 40
0.4903720229
 40
0.5616512227
 40
0.6302411327
 40
0.6953214357
 40
0.7562620235
 40
0.8126928165
 40
0.8392154595
 40
0.8646353859
 40
0.8890198188
 40
0.9124664149
 40
0.9351089361
 40
0.9571117658
 40
0.9786701005
 40
1.0
 40
1.0
 40
1.0
 40
1.0
 10
44.4869235872
 20
38.1672111341
 30
0.0
 10
44.4869235872
 20
38.5405731404
 30
0.0
 10
44.436328248
 20
39.3115218957
 30
0.0
 10
44.22820584
 20
40.4820938636
 30
0.0
 10
43.8897712439
 20
41.6815549719
 30
0.0
 10
43.42836701
 20
42.8842399942
 30
0.0
 10
42.8537330679
 20
44.06467307
 30
0.0
 10
42.1781703884
 20
45.1976712326
 30
0.0
 10
41.416067293
 20
46.2590601061
 30
0.0
 10
40.5836669968
 20
47.2262171289
 30
0.0
 10
39.6986463602
 20
48.078571615
 30
0.0
 10
38.7795624223
 20
48.7980815734
 30
0.0
 10
37.8457378443
 20
49.3694123319
 30
0.0
 10
37.0548053153
 20
49.7189386924
 30
0.0
 10
36.433698978
 20
49.9084463997
 30
0.0
 10
35.9862764683
 20
50.0039434937
 30
0.0
 10
35.5501291776
 20
50.0552701351
 30
0.0
 10
35.1275569902
 20
50.0618820358
 30
0.0
 10
34.7208860181
 20
50.0237847115
 30
0.0
 10
34.3323849852
 20
49.9408812634
 30
0.0
 10
33.9643574335
 20
49.8136870634
 30
0.0
 10
33.7335322507
 20
49.6994498245
 30
0.0
 10
33.6229643175
 20
49.6356042867
 30
0.0
  0
SPLINE
  5
22B
100
AcDbEntity
  8
0
100
AcDbSpline
 62
7
  6
BYLAYER
 70
0
 71
3
 72
17
 73
13
 74
0
 42
0.0000001
 43
0.0000001
 44
0.0000000001
 40
0.0
 40
0.0
 40
0.0
 40
0.0
 40
0.053915187
 40
0.1080891244
 40
0.16277337
 40
0.2182080857
 40
0.3321238612
 40
0.4514617751
 40
0.5773550388
 40
0.7105455314
 40
0.8514486576
 40
1.0
 40
1.0
 40
1.0
 40
1.0
 10
33.4581960997
 20
22.4050904488
 30
0.0
 10
33.5768887901
 20
22.4736099758
 30
0.0
 10
33.8091096177
 20
22.6211983515
 30
0.0
 10
34.1386046376
 20
22.872229328
 30
0.0
 10
34.4489166991
 20
23.1524675839
 30
0.0
 10
34.8394228742
 20
23.5677162737
 30
0.0
 10
35.2764331206
 20
24.1611563219
 30
0.0
 10
35.7064146661
 20
24.9696960516
 30
0.0
 10
36.0438440575
 20
25.8731705094
 30
0.0
 10
36.2859549651
 20
26.8628308437
 30
0.0
 10
36.4308637571
 20
27.929070643
 30
0.0
 10
36.4613274184
 20
28.6653603188
 30
0.0
 10
36.4613274184
 20
29.0429729915
 30
0.0
  0
SPLINE
  5
22C
100
AcDbEntity
  8
0
100
AcDbSpline
 62
7
  6
BYLAYER
 70
0
 71
3
 72
33
 73
29
 74
0
 42
0.0000001
 43
0.0000001
 44
0.0000000001
 40
0.0
 40
0.0
 40
0.0
 40
0.0
 40
0.021326484
 40
0.0428812374
 40
0.0648808567
 40
0.0875195451
 40
0.1109629253
 40
0.1353432199
 40
0.160759656
 40
0.1872779755
 40
0.2149346266
 40
0.2437375143
 40
0.2736714097
 40
0.3046983354
 40
0.3367630186
 40
0.3697926056
 40
0.438371253
 40
0.5096383897
 40
0.5826428561
 40
0.656354388
 40
0.7297115717
 40
0.8016686674
 40
0.8368211538
 40
0.8712620791
 40
0.9048859661
 40
0.9376059588
 40
0.969340664
 40
1.0
 40
1.0
 40
1.0
 40
1.0
 10
23.2405483014
 20
16.5059578168
 30
0.0
 10
23.0623994696
 20
16.4031148678
 30
0.0
 10
22.6905244543
 20
16.2190551563
 30
0.0
 10
22.097594354
 20
16.0140995961
 30
0.0
 10
21.4716653208
 20
15.8805896633
 30
0.0
 10
20.8164716528
 20
15.8191356911
 30
0.0
 10
20.135660609
 20
15.8298699757
 30
0.0
 10
19.4329565122
 20
15.9124872918
 30
0.0
 10
18.712136996
 20
16.0664120469
 30
0.0
 10
17.9770166944
 20
16.290629638
 30
0.0
 10
17.231511665
 20
16.5839008123
 30
0.0
 10
16.4795433861
 20
16.9445296836
 30
0.0
 10
15.7251414709
 20
17.3706051549
 30
0.0
 10
14.9722887363
 20
17.8597509919
 30
0.0
 10
14.2250337938
 20
18.409394825
 30
0.0
 10
13.2291159633
 20
19.2290801586
 30
0.0
 10
12.0259729098
 20
20.3878650348
 30
0.0
 10
10.6849665003
 20
21.9459629719
 30
0.0
 10
9.45712964
 20
23.6559797879
 30
0.0
 10
8.3687154238
 20
25.4813639603
 30
0.0
 10
7.4429780573
 20
27.383094309
 30
0.0
 10
6.8185197089
 20
29.0106293625
 30
0.0
 10
6.4186966108
 20
30.3165325646
 30
0.0
 10
6.1727617756
 20
31.281672964
 30
0.0
 10
5.9798806253
 20
32.2348818327
 30
0.0
 10
5.8410059527
 20
33.1711162405
 30
0.0
 10
5.7570499627
 20
34.0851538499
 30
0.0
 10
5.7374949414
 20
34.6871046851
 30
0.0
 10
5.7374949414
 20
34.9828268492
 30
0.0
  0
SPLINE
  5
22D
100
AcDbEntity
  8
0
100
AcDbSpline
 62
7
  6
BYLAYER
 70
0
 71
3
 72
41
 73
37
 74
0
 42
0.0000001
 43
0.0000001
 44
0.0000000001
 40
0.0
 40
0.0
 40
0.0
 40
0.0
 40
0.0309906065
 40
0.0603724905
 40
0.0881550293
 40
0.101473477
 40
0.1144272445
 40
0.1393183481
 40
0.1630791526
 40
0.1860286225
 40
0.2085531425
 40
0.231077823
 40
0.2540273525
 40
0.2777881412
 40
0.30267908
 40
0.3156327228
 40
0.3289511482
 40
0.3567338708
 40
0.386115712
 40
0.4171051717
 40
0.4496522242
 40
0.4836581512
 40
0.5189834585
 40
0.5554541109
 40
0.5928721271
 40
0.6310182777
 40
0.6696577603
 40
0.7085464733
 40
0.7474354793
 40
0.7860764833
 40
0.8242246383
 40
0.8616451656
 40
0.8981182883
 40
0.9334448738
 40
0.9674516247
 40
1.0
 40
1.0
 40
1.0
 40
1.0
 10
24.3171583362
 20
23.8076369392
 30
0.0
 10
24.317144856
 20
23.4866152541
 30
0.0
 10
24.2913130905
 20
22.8607883183
 30
0.0
 10
24.1680841977
 20
21.9545814108
 30
0.0
 10
23.9941924194
 20
21.2437543573
 30
0.0
 10
23.8130065679
 20
20.7135970224
 30
0.0
 10
23.6106627085
 20
20.2234631233
 30
0.0
 10
23.3099722401
 20
19.6581228563
 30
0.0
 10
22.8685384767
 20
19.0585703027
 30
0.0
 10
22.3550637122
 20
18.5532692779
 30
0.0
 10
21.7746503592
 20
18.1481899625
 30
0.0
 10
21.1336427482
 20
17.8480580482
 30
0.0
 10
20.4393047401
 20
17.6560074468
 30
0.0
 10
19.6993631546
 20
17.5734740138
 30
0.0
 10
19.059421426
 20
17.5957258987
 30
0.0
 10
18.5337832614
 20
17.6655477018
 30
0.0
 10
17.9840574713
 20
17.7737078025
 30
0.0
 10
17.2815224448
 20
17.97850752
 30
0.0
 10
16.4350736385
 20
18.3249190471
 30
0.0
 10
15.581211062
 20
18.7719368173
 30
0.0
 10
14.727979741
 20
19.3151975481
 30
0.0
 10
13.8833519621
 20
19.9495049923
 30
0.0
 10
13.055317125
 20
20.6687993311
 30
0.0
 10
12.2517297231
 20
21.4662210258
 30
0.0
 10
11.480239738
 20
22.3341597499
 30
0.0
 10
10.7481995755
 20
23.2643313476
 30
0.0
 10
10.0626066796
 20
24.2478458736
 30
0.0
 10
9.4300208906
 20
25.2752959785
 30
0.0
 10
8.8564868004
 20
26.3368585745
 30
0.0
 10
8.3474963354
 20
27.4223825328
 30
0.0
 10
7.9079191569
 20
28.5214827964
 30
0.0
 10
7.5419688374
 20
29.6236471329
 30
0.0
 10
7.2531425087
 20
30.7183385623
 30
0.0
 10
7.0442158834
 20
31.7951483102
 30
0.0
 10
6.9171766403
 20
32.8437382799
 30
0.0
 10
6.8872572884
 20
33.5334141158
 30
0.0
 10
6.8872488393
 20
33.8705722252
 30
0.0
  0
SPLINE
  5
22E
100
AcDbEntity
  8
0
100
AcDbSpline
 62
7
  6
BYLAYER
 70
0
 71
3
 72
37
 73
33
 74
0
 42
0.0000001
 43
0.0000001
 44
0.0000000001
 40
0.0
 40
0.0
 40
0.0
 40
0.0
 40
0.0309942106
 40
0.0603800152
 40
0.0881660299
 40
0.1014863202
 40
0.1144416832
 40
0.139335988
 40
0.1630997932
 40
0.1860524685
 40
0.2085805843
 40
0.2311086333
 40
0.254061389
 40
0.2778251654
 40
0.3027193439
 40
0.3156746711
 40
0.32899487
 40
0.3567806192
 40
0.3861665442
 40
0.4171604484
 40
0.4497121161
 40
0.48372346
 40
0.5190533469
 40
0.5555300918
 40
0.631071701
 40
0.7085797045
 40
0.7860875691
 40
0.8616293
 40
0.8981061348
 40
0.9334365011
 40
0.9674476344
 40
1.0
 40
1.0
 40
1.0
 40
1.0
 10
20.7016162798
 20
25.5939841249
 30
0.0
 10
20.7016149919
 20
25.3965430665
 30
0.0
 10
20.685715615
 20
25.0116316904
 30
0.0
 10
20.6099325038
 20
24.4542730775
 30
0.0
 10
20.5029770064
 20
24.0170805596
 30
0.0
 10
20.3915427277
 20
23.6910078581
 30
0.0
 10
20.2670901569
 20
23.3895525048
 30
0.0
 10
20.082152622
 20
23.0418421794
 30
0.0
 10
19.8106539252
 20
22.673084321
 30
0.0
 10
19.4948376212
 20
22.3622974551
 30
0.0
 10
19.1378509847
 20
22.1131453927
 30
0.0
 10
18.7435900796
 20
21.9285517197
 30
0.0
 10
18.3165361366
 20
21.8104270929
 30
0.0
 10
17.8614345966
 20
21.7596728991
 30
0.0
 10
17.4678402956
 20
21.773357341
 30
0.0
 10
17.1445480041
 20
21.8163061441
 30
0.0
 10
16.8064423341
 20
21.8828228672
 30
0.0
 10
16.3743541693
 20
22.0087938481
 30
0.0
 10
15.853741768
 20
22.2218414033
 30
0.0
 10
15.3285771519
 20
22.4967967781
 30
0.0
 10
14.8037802345
 20
22.8309217398
 30
0.0
 10
14.284298996
 20
23.2210668423
 30
0.0
 10
13.7749875387
 20
23.6634791162
 30
0.0
 10
13.1083414733
 20
24.3250693872
 30
0.0
 10
12.333449683
 20
25.2550742665
 30
0.0
 10
11.5272935214
 20
26.4863994703
 30
0.0
 10
10.864008074
 20
27.8002109764
 30
0.0
 10
10.4460362871
 20
28.9362887641
 30
0.0
 10
10.2064043514
 20
29.844416337
 30
0.0
 10
10.0779068122
 20
30.5067106642
 30
0.0
 10
9.9997767646
 20
31.1516330377
 30
0.0
 10
9.9813688299
 20
31.5758158572
 30
0.0
 10
9.9813672633
 20
31.783182762
 30
0.0
  0
SPLINE
  5
22F
100
AcDbEntity
  8
0
100
AcDbSpline
 62
7
  6
BYLAYER
 70
0
 71
3
 72
37
 73
33
 74
0
 42
0.0000001
 43
0.0000001
 44
0.0000000001
 40
0.0
 40
0.0
 40
0.0
 40
0.0
 40
0.0309942091
 40
0.060380014
 40
0.0881660291
 40
0.1014863223
 40
0.1144416806
 40
0.1393359911
 40
0.1630997866
 40
0.1860524765
 40
0.2085805747
 40
0.2311086529
 40
0.2540613911
 40
0.2778251869
 40
0.3027193729
 40
0.3156747288
 40
0.3289948835
 40
0.3567806744
 40
0.3861665489
 40
0.417160506
 40
0.4497121245
 40
0.483723499
 40
0.5190533633
 40
0.5555301131
 40
0.6310717142
 40
0.7085797142
 40
0.7860875757
 40
0.8616293032
 40
0.8981061366
 40
0.9334365023
 40
0.9674476358
 40
1.0
 40
1.0
 40
1.0
 40
1.0
 10
9.9813672633
 20
31.783182762
 30
0.0
 10
9.9813687549
 20
31.9806238183
 30
0.0
 10
9.997267807
 20
32.3655352058
 30
0.0
 10
10.0730511137
 20
32.9228938195
 30
0.0
 10
10.1800065458
 20
33.3600863958
 30
0.0
 10
10.2914409755
 20
33.6861590466
 30
0.0
 10
10.4158933947
 20
33.987614504
 30
0.0
 10
10.6008311182
 20
34.3353246845
 30
0.0
 10
10.8723296862
 20
34.7040827337
 30
0.0
 10
11.1881460772
 20
35.0148694424
 30
0.0
 10
11.5451328164
 20
35.264021633
 30
0.0
 10
11.9393936773
 20
35.4486154202
 30
0.0
 10
12.3664478664
 20
35.5667398505
 30
0.0
 10
12.8215494699
 20
35.6174945121
 30
0.0
 10
13.2151440597
 20
35.6038095238
 30
0.0
 10
13.5384365157
 20
35.5608620036
 30
0.0
 10
13.8765419556
 20
35.4943432732
 30
0.0
 10
14.3086306349
 20
35.3683751902
 30
0.0
 10
14.82924188
 20
35.1553239992
 30
0.0
 10
15.3544083527
 20
34.8803728094
 30
0.0
 10
15.8792029334
 20
34.5462436204
 30
0.0
 10
16.3986864181
 20
34.1561020472
 30
0.0
 10
16.907995918
 20
33.7136872083
 30
0.0
 10
17.5746432894
 20
33.0520985784
 30
0.0
 10
18.34953379
 20
32.1220924081
 30
0.0
 10
19.1556900433
 20
30.8907674584
 30
0.0
 10
19.8189754995
 20
29.5769559248
 30
0.0
 10
20.2369473474
 20
28.4408781728
 30
0.0
 10
20.4765792904
 20
27.5327506013
 30
0.0
 10
20.6050768229
 20
26.8704562497
 30
0.0
 10
20.683206648
 20
26.2255338539
 30
0.0
 10
20.7016149272
 20
25.8013510288
 30
0.0
 10
20.7016162798
 20
25.5939841249
 30
0.0
  0
SPLINE
  5
230
100
AcDbEntity
  8
0
100
AcDbSpline
 62
7
  6
BYLAYER
 70
0
 71
3
 72
23
 73
19
 74
0
 42
0.0000001
 43
0.0000001
 44
0.0000000001
 40
0.0
 40
0.0
 40
0.0
 40
0.0
 40
0.0470599568
 40
0.0975869937
 40
0.1517571968
 40
0.2095131052
 40
0.2706073264
 40
0.3346413732
 40
0.4011015359
 40
0.469388001
 40
0.5388398771
 40
0.6087591476
 40
0.6784322591
 40
0.7471550819
 40
0.814254407
 40
0.8791015898
 40
0.9411741649
 40
1.0
 40
1.0
 40
1.0
 40
1.0
 10
33.8183412648
 20
49.0248066275
 30
0.0
 10
34.067419908
 20
49.0060137196
 30
0.0
 10
34.5811235318
 20
48.9218076017
 30
0.0
 10
35.3506300053
 20
48.6760578008
 30
0.0
 10
36.1341624274
 20
48.3111584573
 30
0.0
 10
36.9200806846
 20
47.8328901494
 30
0.0
 10
37.6969583321
 20
47.248522954
 30
0.0
 10
38.4532574556
 20
46.566898208
 30
0.0
 10
39.1776714659
 20
45.7982938906
 30
0.0
 10
39.8592883796
 20
44.9543050904
 30
0.0
 10
40.4877926317
 20
44.0476809759
 30
0.0
 10
41.0536760747
 20
43.0921647915
 30
0.0
 10
41.5483836152
 20
42.1022459158
 30
0.0
 10
41.9644109516
 20
41.0928961563
 30
0.0
 10
42.29541532
 20
40.0794083041
 30
0.0
 10
42.5365065045
 20
39.0769703772
 30
0.0
 10
42.6838405645
 20
38.1008808957
 30
0.0
 10
42.7191639941
 20
37.4588387144
 30
0.0
 10
42.7191639941
 20
37.1466007495
 30
0.0
  0
SPLINE
  5
231
100
AcDbEntity
  8
0
100
AcDbSpline
 62
7
  6
BYLAYER
 70
0
 71
3
 72
17
 73
13
 74
0
 42
0.0000001
 43
0.0000001
 44
0.0000000001
 40
0.0
 40
0.0
 40
0.0
 40
0.0
 40
0.1485512851
 40
0.2894534165
 40
0.4226433101
 40
0.5485364948
 40
0.6678746485
 40
0.7817912152
 40
0.837226183
 40
0.8919105956
 40
0.9460846508
 40
1.0
 40
1.0
 40
1.0
 40
1.0
 10
26.2436769707
 20
23.1438449681
 30
0.0
 10
26.2436769707
 20
22.7662322963
 30
0.0
 10
26.2132143315
 20
22.0299449796
 30
0.0
 10
26.068305828
 20
20.9637089101
 30
0.0
 10
25.8261968868
 20
19.9740523025
 30
0.0
 10
25.4887723976
 20
19.0705766317
 30
0.0
 10
25.0587883777
 20
18.262035175
 30
0.0
 10
24.6217795991
 20
17.6685896229
 30
0.0
 10
24.2312709131
 20
17.2533387335
 30
0.0
 10
23.9209590866
 20
16.9730980066
 30
0.0
 10
23.5914633555
 20
16.7220656757
 30
0.0
 10
23.3592413152
 20
16.5744777136
 30
0.0
 10
23.2405483014
 20
16.5059578168
 30
0.0
  0
SPLINE
  5
232
100
AcDbEntity
  8
0
100
AcDbSpline
 62
7
  6
BYLAYER
 70
0
 71
3
 72
23
 73
19
 74
0
 42
0.0000001
 43
0.0000001
 44
0.0000000001
 40
0.0
 40
0.0
 40
0.0
 40
0.0
 40
0.0561294871
 40
0.114874947
 40
0.1759345375
 40
0.2390051698
 40
0.3037136824
 40
0.3696482407
 40
0.4363752561
 40
0.5034414201
 40
0.5703860948
 40
0.636751636
 40
0.7020934591
 40
0.765987777
 40
0.8280436618
 40
0.8879143592
 40
0.9453069813
 40
1.0
 40
1.0
 40
1.0
 40
1.0
 10
36.2491756595
 20
31.7781969247
 30
0.0
 10
36.2491756595
 20
32.0895433506
 30
0.0
 10
36.2205089544
 20
32.7269902959
 30
0.0
 10
36.0993485836
 20
33.6962211238
 30
0.0
 10
35.9000789539
 20
34.6917310723
 30
0.0
 10
35.62484379
 20
35.7031829705
 30
0.0
 10
35.2764966206
 20
36.720414611
 30
0.0
 10
34.8585331041
 20
37.7330120646
 30
0.0
 10
34.375223665
 20
38.7306239477
 30
0.0
 10
33.8315608662
 20
39.703084819
 30
0.0
 10
33.2330557232
 20
40.6404146455
 30
0.0
 10
32.5858385487
 20
41.5330271847
 30
0.0
 10
31.896561381
 20
42.3718277412
 30
0.0
 10
31.1722073404
 20
43.1482111475
 30
0.0
 10
30.4201886648
 20
43.8542707237
 30
0.0
 10
29.6481330129
 20
44.4828502872
 30
0.0
 10
28.8639008385
 20
45.0274280479
 30
0.0
 10
28.3245854187
 20
45.338695599
 30
0.0
 10
28.0549232218
 20
45.4776947841
 30
0.0
  0
SPLINE
  5
233
100
AcDbEntity
  8
0
100
AcDbSpline
 62
7
  6
BYLAYER
 70
0
 71
3
 72
33
 73
29
 74
0
 42
0.0000001
 43
0.0000001
 44
0.0000000001
 40
0.0
 40
0.0
 40
0.0
 40
0.0
 40
0.021326484
 40
0.0428812374
 40
0.0648808567
 40
0.0875195451
 40
0.1109629253
 40
0.1353432199
 40
0.160759656
 40
0.1872779755
 40
0.2149346266
 40
0.2437375143
 40
0.2736714097
 40
0.3046983354
 40
0.3367630186
 40
0.3697926056
 40
0.438371253
 40
0.5096383897
 40
0.5826428561
 40
0.656354388
 40
0.7297115717
 40
0.8016686674
 40
0.8368211538
 40
0.8712620791
 40
0.9048859661
 40
0.9376059588
 40
0.969340664
 40
1.0
 40
1.0
 40
1.0
 40
1.0
 10
8.7406236107
 20
41.6207140005
 30
0.0
 10
8.9187724426
 20
41.7235569495
 30
0.0
 10
9.2906474578
 20
41.907616661
 30
0.0
 10
9.8835775582
 20
42.1125722212
 30
0.0
 10
10.5095065913
 20
42.246082154
 30
0.0
 10
11.1647002593
 20
42.3075361262
 30
0.0
 10
11.8455113032
 20
42.2968018416
 30
0.0
 10
12.5482154
 20
42.2141845254
 30
0.0
 10
13.2690349161
 20
42.0602597704
 30
0.0
 10
14.0041552177
 20
41.8360421792
 30
0.0
 10
14.7496602471
 20
41.542771005
 30
0.0
 10
15.501628526
 20
41.1821421337
 30
0.0
 10
16.2560304412
 20
40.7560666623
 30
0.0
 10
17.0088831758
 20
40.2669208254
 30
0.0
 10
17.7561381183
 20
39.7172769922
 30
0.0
 10
18.7520559489
 20
38.8975916587
 30
0.0
 10
19.9551990023
 20
37.7388067825
 30
0.0
 10
21.2962054118
 20
36.1807088454
 30
0.0
 10
22.5240422722
 20
34.4706920294
 30
0.0
 10
23.6124564884
 20
32.645307857
 30
0.0
 10
24.5381938548
 20
30.7435775083
 30
0.0
 10
25.1626522032
 20
29.1160424547
 30
0.0
 10
25.5624753013
 20
27.8101392527
 30
0.0
 10
25.8084101365
 20
26.8449988533
 30
0.0
 10
26.0012912868
 20
25.8917899846
 30
0.0
 10
26.1401659595
 20
24.9555555767
 30
0.0
 10
26.2241219495
 20
24.0415179674
 30
0.0
 10
26.2436769707
 20
23.4395671321
 30
0.0
 10
26.2436769707
 20
23.1438449681
 30
0.0
  0
SPLINE
  5
234
100
AcDbEntity
  8
0
100
AcDbSpline
 62
7
  6
BYLAYER
 70
0
 71
3
 72
41
 73
37
 74
0
 42
0.0000001
 43
0.0000001
 44
0.0000000001
 40
0.0
 40
0.0
 40
0.0
 40
0.0
 40
0.0309906173
 40
0.0603724854
 40
0.0881550289
 40
0.1014734756
 40
0.1144272434
 40
0.1393183469
 40
0.1630791515
 40
0.1860286213
 40
0.2085531413
 40
0.2310778219
 40
0.2540273514
 40
0.2777881401
 40
0.3026790789
 40
0.3156327217
 40
0.3289511471
 40
0.3567338697
 40
0.3861157109
 40
0.4171051706
 40
0.4496522231
 40
0.4836581502
 40
0.5189834575
 40
0.5554541098
 40
0.592872126
 40
0.6310182766
 40
0.6696577592
 40
0.7085464722
 40
0.7474354782
 40
0.7860764822
 40
0.8242246372
 40
0.8616451645
 40
0.8981182869
 40
0.9334448748
 40
0.9674516153
 40
1.0
 40
1.0
 40
1.0
 40
1.0
 10
6.8872488393
 20
33.8705722252
 30
0.0
 10
6.8872568843
 20
34.1915940224
 30
0.0
 10
6.9130975161
 20
34.8174208302
 30
0.0
 10
7.0363219038
 20
35.7236279248
 30
0.0
 10
7.2102149129
 20
36.4344547473
 30
0.0
 10
7.391400568
 20
36.9646121539
 30
0.0
 10
7.5937444867
 20
37.454746033
 30
0.0
 10
7.8944349276
 20
38.0200863095
 30
0.0
 10
8.3358687006
 20
38.619638861
 30
0.0
 10
8.8493434628
 20
39.1249398867
 30
0.0
 10
9.4297568164
 20
39.5300192018
 30
0.0
 10
10.0707644272
 20
39.8301511162
 30
0.0
 10
10.7651024354
 20
40.0222017176
 30
0.0
 10
11.5050440208
 20
40.1047351506
 30
0.0
 10
12.1449857495
 20
40.0824832658
 30
0.0
 10
12.6706239141
 20
40.0126614626
 30
0.0
 10
13.2203497042
 20
39.9045013619
 30
0.0
 10
13.9228847306
 20
39.6997016444
 30
0.0
 10
14.7693335369
 20
39.3532901173
 30
0.0
 10
15.6231961134
 20
38.9062723472
 30
0.0
 10
16.4764274344
 20
38.3630116163
 30
0.0
 10
17.3210552134
 20
37.7287041721
 30
0.0
 10
18.1490900504
 20
37.0094098333
 30
0.0
 10
18.9526774524
 20
36.2119881386
 30
0.0
 10
19.7241674375
 20
35.3440494145
 30
0.0
 10
20.4562075999
 20
34.4138778169
 30
0.0
 10
21.141800496
 20
33.4303632909
 30
0.0
 10
21.7743862842
 20
32.4029131859
 30
0.0
 10
22.3479203776
 20
31.3413505901
 30
0.0
 10
22.8569108304
 20
30.2558266308
 30
0.0
 10
23.2964880552
 20
29.1567263712
 30
0.0
 10
23.6624382041
 20
28.0545620215
 30
0.0
 10
23.951265125
 20
26.9598706224
 30
0.0
 10
24.1601898679
 20
25.8830608352
 30
0.0
 10
24.2872344379
 20
24.8344710438
 30
0.0
 10
24.3171441789
 20
24.1447951458
 30
0.0
 10
24.3171583362
 20
23.8076369392
 30
0.0
  0
ENDSEC
  0
SECTION
  2
OBJECTS
  0
DICTIONARY
  5
C
100
AcDbDictionary
280
0
281
1
  3
ACAD_GROUP
350
D
  3
ACAD_MLINESTYLE
350
17
  3
ACAD_LAYOUT
350
1A
  3
ACAD_PLOTSETTINGS
350
19
  3
ACAD_PLOTSTYLENAME
350
E
  0
DICTIONARY
  5
D
102
{ACAD_REACTORS
330
C
102
}
100
AcDbDictionary
280
0
281
1
  0
ACDBDICTIONARYWDFLT
  5
E
102
{ACAD_REACTORS
330
C
102
}
100
AcDbDictionary
281
1
  3
Normal
350
F
100
AcDbDictionaryWithDefault
340
F
  0
DICTIONARY
  5
17
102
{ACAD_REACTORS
330
C
102
}
100
AcDbDictionary
280
0
281
1
  3
Standard
350
18
  0
DICTIONARY
  5
19
102
{ACAD_REACTORS
330
C
102
}
100
AcDbDictionary
281
1
  0
DICTIONARY
  5
1A
102
{ACAD_REACTORS
330
C
102
}
100
AcDbDictionary
281
1
  3
Model
350
235
  3
Layout1
350
236
  0
ACDBPLACEHOLDER
  5
F
102
{ACAD_REACTORS
330
E
102
}
  0
MLINESTYLE
  5
18
102
{ACAD_REACTORS
330
17
102
}
100
AcDbMlineStyle
  2
STANDARD
 70
0
  3

 62
256
 51
90.0
 52
90.0
 71
2
 49
0.5
 62
256
  6
BYLAYER
 49
-0.5
 62
256
  6
BYLAYER
  0
LAYOUT
  5
235
102
{ACAD_REACTORS
330
1A
102
}
100
AcDbPlotSettings
  1

  2
none_device
  4

  6

 40
0.0
 41
0.0
 42
0.0
 43
0.0
 44
210.0
 45
297.0
 46
0.0
 47
0.0
 48
0.0
 49
0.0
140
0.0
141
0.0
142
1.0
143
1.0
 70
1024
 72
1
 73
0
 74
0
  7

 75
0
147
1.0
148
0.0
149
0.0
100
AcDbLayout
  1
Model
 70
0
 71
0
 10
0.0
 20
0.0
 11
210.0
 21
297.0
 12
0.0
 22
0.0
 32
0.0
 14
0.0
 24
0.0
 34
0.0
 15
0.0
 25
0.0
 35
0.0
146
0.0
 13
0.0
 23
0.0
 33
0.0
 16
1.0
 26
0.0
 36
0.0
 17
0.0
 27
1.0
 37
0.0
 76
0
330
210
345
0
346
0
  0
LAYOUT
  5
236
102
{ACAD_REACTORS
330
1A
102
}
100
AcDbPlotSettings
  1

  2
none_device
  4

  6

 40
0.0
 41
0.0
 42
0.0
 43
0.0
 44
210.0
 45
297.0
 46
0.0
 47
0.0
 48
0.0
 49
0.0
140
0.0
141
0.0
142
1.0
143
1.0
 70
0
 72
1
 73
0
 74
0
  7

 75
0
147
1.0
148
0.0
149
0.0
100
AcDbLayout
  1
Layout1
 70
0
 71
1
 10
0.0
 20
0.0
 11
210.0
 21
297.0
 12
0.0
 22
0.0
 32
0.0
 14
0.0
 24
0.0
 34
0.0
 15
0.0
 25
0.0
 35
0.0
146
0.0
 13
0.0
 23
0.0
 33
0.0
 16
1.0
 26
0.0
 36
0.0
 17
0.0
 27
1.0
 37
0.0
 76
0
330
211
345
0
346
0
  0
ENDSEC
  0
EOF
