999
DXF file: Y:\001_SCHNEIDER_PARIS\maxime fuentes - génération CAD 2D\TRAVAIL\XAPA2100_2D-Views\xapa2100_2d-views_5.dxf
999
Pro/ENGINEER 2018260 by Parametric Technology Corporation
  0
SECTION
  2
HEADER
  9
$ACADVER
  1
AC1027
  9
$DWGCODEPAGE
  3
ANSI_1252
  9
$EXTMAX
 10
558.8
 20
431.8
 30
0.0
  9
$EXTMIN
 10
0.0
 20
0.0
 30
0.0
  9
$LIMMIN
 10
0.0
 20
0.0
  9
$LIMMAX
 10
558.8
 20
431.8
  9
$VIEWCTR
 10
279.4
 20
215.9
  9
$VIEWSIZE
 40
431.8
  9
$CLAYER
  8
0
  9
$LTSCALE
 40
30.734
  9
$CELTYPE
  6
BYLAYER
  9
$DIMSCALE
 40
1.0
  9
$DIMASZ
 40
3.5
  9
$DIMEXO
 40
1.0
  9
$DIMDLI
 40
21.2344
  9
$DIMEXE
 40
3.0
  9
$DIMCEN
 40
5.0292
  9
$DIMLFAC
 40
1.0
  9
$DIMBLK
  1
_FILLED
  9
$DIMALT
 70
0
  9
$DIMALTF
 40
0.0393700787
  9
$DIMTXT
 40
4.0
  9
$DIMTOL
 70
1
  9
$DIMLIM
 70
0
  9
$DIMTFAC
 40
1.0
  9
$DIMTP
 40
0.0001
  9
$DIMTM
 40
0.0001
  9
$DIMGAP
 40
0.625
  9
$DIMDSEP
 70
46
  9
$AUNITS
 70
0
  9
$PDMODE
 70
0
  9
$PDSIZE
 40
0.01
  9
$HANDSEED
  5
282
  9
$TILEMODE
 70
1
  9
$MEASUREMENT
 70
1
  9
$INSUNITS
 70
4
  0
ENDSEC
  0
SECTION
  2
CLASSES
  0
CLASS
  1
ACDBDICTIONARYWDFLT
  2
AcDbDictionaryWithDefault
  3
AutoCAD 2000
 90
0
 91
1
280
0
281
0
  0
CLASS
  1
ACDBPLACEHOLDER
  2
AcDbPlaceHolder
  3
AutoCAD 2000
 90
0
 91
1
280
0
281
0
  0
CLASS
  1
LAYOUT
  2
AcDbLayout
  3
AutoCAD 2000
 90
0
 91
0
280
0
281
0
  0
ENDSEC
  0
SECTION
  2
TABLES
  0
TABLE
  2
VPORT
  5
8
100
AcDbSymbolTable
 70
2
  0
VPORT
  5
1F4
100
AcDbSymbolTableRecord
100
AcDbViewportTableRecord
  2
*ACTIVE
 70
0
 10
0.0
 20
0.0
 11
1.0
 21
1.0
 12
279.4
 22
215.9
 13
0.0
 23
0.0
 14
1.0
 24
1.0
 15
0.0
 25
0.0
 16
0.0
 26
0.0
 36
1.0
 17
0.0
 27
0.0
 37
0.0
 40
431.8
 41
1.2941176471
 42
50.0
 43
0.0
 44
0.0
 50
0.0
 51
0.0
 71
0
 72
100
 73
1
 74
1
 75
0
 76
0
 77
0
 78
0
  0
ENDTAB
  0
TABLE
  2
LTYPE
  5
5
100
AcDbSymbolTable
 70
6
  0
LTYPE
  5
14
100
AcDbSymbolTableRecord
100
AcDbLinetypeTableRecord
  2
BYBLOCK
 70
0
  3

 72
65
 73
0
 40
0.0
  0
LTYPE
  5
15
100
AcDbSymbolTableRecord
100
AcDbLinetypeTableRecord
  2
BYLAYER
 70
0
  3

 72
65
 73
0
 40
0.0
  0
LTYPE
  5
16
100
AcDbSymbolTableRecord
100
AcDbLinetypeTableRecord
  2
CONTINUOUS
 70
64
  3
Solid line
 72
65
 73
0
 40
0.0
  0
LTYPE
  5
1F5
100
AcDbSymbolTableRecord
100
AcDbLinetypeTableRecord
  2
CENTER
 70
64
  3
____ _ ____ _ ____ _ ____ _ ____ _ ____ _ ____
 72
65
 73
4
 40
0.6
 49
0.375
 74
0
 49
-0.075
 74
0
 49
0.075
 74
0
 49
-0.075
 74
0
  0
LTYPE
  5
1F6
100
AcDbSymbolTableRecord
100
AcDbLinetypeTableRecord
  2
HIDDEN
 70
64
  3
- - - - - - - - - - - - - - - - - - - -
 72
65
 73
2
 40
0.2
 49
0.1
 74
0
 49
-0.1
 74
0
  0
LTYPE
  5
1F7
100
AcDbSymbolTableRecord
100
AcDbLinetypeTableRecord
  2
PHANTOM
 70
64
  3
_____ _ _ _____ _ _ _____ _ _ _____
 72
65
 73
6
 40
0.8
 49
0.45
 74
0
 49
-0.05
 74
0
 49
0.1
 74
0
 49
-0.05
 74
0
 49
0.1
 74
0
 49
-0.05
 74
0
  0
LTYPE
  5
1F8
100
AcDbSymbolTableRecord
100
AcDbLinetypeTableRecord
  2
DOT
 70
64
  3
. . . . . . . . . . . . . . . . . . . .
 72
65
 73
2
 40
0.2
 49
0.1
 74
0
 49
-0.1
 74
0
  0
LTYPE
  5
1F9
100
AcDbSymbolTableRecord
100
AcDbLinetypeTableRecord
  2
DASHED
 70
64
  3
- - - - - - - - - - - - - - - - - - - -
 72
65
 73
2
 40
0.2
 49
0.1
 74
0
 49
-0.1
 74
0
  0
ENDTAB
  0
TABLE
  2
LAYER
  5
2
100
AcDbSymbolTable
 70
36
  0
LAYER
  5
10
100
AcDbSymbolTableRecord
100
AcDbLayerTableRecord
  2
0
 70
0
 62
7
  6
CONTINUOUS
370
-3
390
F
  0
LAYER
  5
1FA
100
AcDbSymbolTableRecord
100
AcDbLayerTableRecord
  2
DEFAULT_1
 70
0
 62
7
  6
CENTER
370
-3
390
F
  0
LAYER
  5
1FB
100
AcDbSymbolTableRecord
100
AcDbLayerTableRecord
  2
DEFAULT_2
 70
0
 62
8
  6
HIDDEN
370
-3
390
F
  0
LAYER
  5
1FC
100
AcDbSymbolTableRecord
100
AcDbLayerTableRecord
  2
DEFAULT_3
 70
0
 62
7
  6
PHANTOM
370
-3
390
F
  0
LAYER
  5
1FD
100
AcDbSymbolTableRecord
100
AcDbLayerTableRecord
  2
01_ALL_DTM_PLN
 70
0
 62
7
  6
CONTINUOUS
370
-3
390
F
  0
LAYER
  5
1FE
100
AcDbSymbolTableRecord
100
AcDbLayerTableRecord
  2
01__ASM_ALL_DTM_PLN
 70
0
 62
7
  6
CONTINUOUS
370
-3
390
F
  0
LAYER
  5
1FF
100
AcDbSymbolTableRecord
100
AcDbLayerTableRecord
  2
01__ASM_DEF_DTM_PLN
 70
0
 62
7
  6
CONTINUOUS
370
-3
390
F
  0
LAYER
  5
200
100
AcDbSymbolTableRecord
100
AcDbLayerTableRecord
  2
01___PRT_ALL_DTM_PLN
 70
0
 62
7
  6
CONTINUOUS
370
-3
390
F
  0
LAYER
  5
201
100
AcDbSymbolTableRecord
100
AcDbLayerTableRecord
  2
01___PRT_DEF_DTM_PLN
 70
0
 62
7
  6
CONTINUOUS
370
-3
390
F
  0
LAYER
  5
202
100
AcDbSymbolTableRecord
100
AcDbLayerTableRecord
  2
02_ALL_AXES
 70
0
 62
7
  6
CONTINUOUS
370
-3
390
F
  0
LAYER
  5
203
100
AcDbSymbolTableRecord
100
AcDbLayerTableRecord
  2
02__ASM_ALL_AXES
 70
0
 62
7
  6
CONTINUOUS
370
-3
390
F
  0
LAYER
  5
204
100
AcDbSymbolTableRecord
100
AcDbLayerTableRecord
  2
02___PRT_ALL_AXES
 70
0
 62
7
  6
CONTINUOUS
370
-3
390
F
  0
LAYER
  5
205
100
AcDbSymbolTableRecord
100
AcDbLayerTableRecord
  2
03_ALL_CURVES
 70
0
 62
7
  6
CONTINUOUS
370
-3
390
F
  0
LAYER
  5
206
100
AcDbSymbolTableRecord
100
AcDbLayerTableRecord
  2
03__ASM_ALL_CURVES
 70
0
 62
7
  6
CONTINUOUS
370
-3
390
F
  0
LAYER
  5
207
100
AcDbSymbolTableRecord
100
AcDbLayerTableRecord
  2
03___PRT_ALL_CURVES
 70
0
 62
7
  6
CONTINUOUS
370
-3
390
F
  0
LAYER
  5
208
100
AcDbSymbolTableRecord
100
AcDbLayerTableRecord
  2
04_ALL_DTM_PNT
 70
0
 62
7
  6
CONTINUOUS
370
-3
390
F
  0
LAYER
  5
209
100
AcDbSymbolTableRecord
100
AcDbLayerTableRecord
  2
04__ASM_ALL_DTM_PNT
 70
0
 62
7
  6
CONTINUOUS
370
-3
390
F
  0
LAYER
  5
20A
100
AcDbSymbolTableRecord
100
AcDbLayerTableRecord
  2
04___PRT_ALL_DTM_PNT
 70
0
 62
7
  6
CONTINUOUS
370
-3
390
F
  0
LAYER
  5
20B
100
AcDbSymbolTableRecord
100
AcDbLayerTableRecord
  2
05_ALL_DTM_CSYS
 70
0
 62
7
  6
CONTINUOUS
370
-3
390
F
  0
LAYER
  5
20C
100
AcDbSymbolTableRecord
100
AcDbLayerTableRecord
  2
05__ASM_ALL_DTM_CSYS
 70
0
 62
7
  6
CONTINUOUS
370
-3
390
F
  0
LAYER
  5
20D
100
AcDbSymbolTableRecord
100
AcDbLayerTableRecord
  2
05__ASM_DEF_DTM_CSYS
 70
0
 62
7
  6
CONTINUOUS
370
-3
390
F
  0
LAYER
  5
20E
100
AcDbSymbolTableRecord
100
AcDbLayerTableRecord
  2
05___PRT_ALL_DTM_CSYS
 70
0
 62
7
  6
CONTINUOUS
370
-3
390
F
  0
LAYER
  5
20F
100
AcDbSymbolTableRecord
100
AcDbLayerTableRecord
  2
05___PRT_DEF_DTM_CSYS
 70
0
 62
7
  6
CONTINUOUS
370
-3
390
F
  0
LAYER
  5
210
100
AcDbSymbolTableRecord
100
AcDbLayerTableRecord
  2
06_ALL_SURFS
 70
0
 62
7
  6
CONTINUOUS
370
-3
390
F
  0
LAYER
  5
211
100
AcDbSymbolTableRecord
100
AcDbLayerTableRecord
  2
06__ASM_ALL_SURFS
 70
0
 62
7
  6
CONTINUOUS
370
-3
390
F
  0
LAYER
  5
212
100
AcDbSymbolTableRecord
100
AcDbLayerTableRecord
  2
06___PRT_ALL_SURFS
 70
0
 62
7
  6
CONTINUOUS
370
-3
390
F
  0
LAYER
  5
213
100
AcDbSymbolTableRecord
100
AcDbLayerTableRecord
  2
07__ASM_ALL_SKELETONS
 70
0
 62
7
  6
CONTINUOUS
370
-3
390
F
  0
LAYER
  5
214
100
AcDbSymbolTableRecord
100
AcDbLayerTableRecord
  2
CLOSED_SHELL
 70
0
 62
7
  6
CONTINUOUS
370
-3
390
F
  0
ENDTAB
  0
TABLE
  2
STYLE
  5
3
100
AcDbSymbolTable
 70
1
  0
STYLE
  5
11
100
AcDbSymbolTableRecord
100
AcDbTextStyleTableRecord
  2
STANDARD
 70
0
 40
0.0
 41
0.6
 50
0.0
 71
0
 42
0.2
  3
txt
  4

  0
STYLE
  5
215
100
AcDbSymbolTableRecord
100
AcDbTextStyleTableRecord
  2
TEXTSTYLE_1
 70
0
 40
0.0
 41
0.8
 50
0.0
 71
0
 42
0.2
  3
gdt
  4

  0
ENDTAB
  0
TABLE
  2
VIEW
  5
6
100
AcDbSymbolTable
 70
0
  0
ENDTAB
  0
TABLE
  2
UCS
  5
7
100
AcDbSymbolTable
 70
0
  0
ENDTAB
  0
TABLE
  2
APPID
  5
9
100
AcDbSymbolTable
 70
1
  0
APPID
  5
216
100
AcDbSymbolTableRecord
100
AcDbRegAppTableRecord
  2
ACAD
 70
0
  0
ENDTAB
  0
TABLE
  2
BLOCK_RECORD
  5
1
100
AcDbSymbolTable
 70
0
  0
BLOCK_RECORD
  5
217
100
AcDbSymbolTableRecord
100
AcDbBlockTableRecord
  2
*Model_Space
  0
BLOCK_RECORD
  5
218
100
AcDbSymbolTableRecord
100
AcDbBlockTableRecord
  2
*Paper_Space
  0
BLOCK_RECORD
  5
219
100
AcDbSymbolTableRecord
100
AcDbBlockTableRecord
  2
_FILLED
  0
ENDTAB
  0
TABLE
  2
DIMSTYLE
  5
A
100
AcDbSymbolTable
 70
1
100
AcDbDimStyleTable
 71
0
  0
DIMSTYLE
105
21A
100
AcDbSymbolTableRecord
100
AcDbDimStyleTableRecord
  2
STANDARD
 70
0
  3

  4

 40
1.0
 41
3.5
 42
1.0
 43
0.38
 44
3.0
 45
0.0
 46
0.0
 47
0.0001
 48
0.0001
140
4.0
141
0.09
142
0.0
143
25.4
144
1.0
145
0.0
146
1.0
147
0.625
 71
1.0
 72
0.0
 73
0
 74
0
 75
0
 76
0
 77
1
 78
8
 79
2
170
0
171
3
172
0
173
0
174
0
175
0
176
0
177
0
178
0
270
2
179
4
271
4
272
4
273
2
274
2
275
0
280
0
281
0
282
0
283
1
284
8
285
0
286
0
287
3
288
0
340
11
278
46
341
219
342
219
343
219
344
219
  0
ENDTAB
  0
ENDSEC
  0
SECTION
  2
BLOCKS
  0
BLOCK
  5
20
100
AcDbEntity
  8
0
100
AcDbBlockBegin
  2
*Model_Space
 70
0
 10
0.0
 20
0.0
 30
0.0
  3
*Model_Space
  1

  0
ENDBLK
  5
21
100
AcDbEntity
  8
0
100
AcDbBlockEnd
  0
BLOCK
  5
1C
100
AcDbEntity
  8
0
100
AcDbBlockBegin
  2
*Paper_Space
 70
0
 10
0.0
 20
0.0
 30
0.0
  3
*Paper_Space
  1

  0
ENDBLK
  5
1D
100
AcDbEntity
  8
0
100
AcDbBlockEnd
  0
BLOCK
  5
21B
100
AcDbEntity
  8
0
100
AcDbBlockBegin
  2
_FILLED
 70
64
 10
0.0
 20
0.0
  3
_FILLED
  1

  0
SOLID
  5
21C
100
AcDbEntity
  8
0
  6
BYBLOCK
 62
0
100
AcDbTrace
 10
0.0
 20
0.0
 11
-1.0
 21
0.2857142857
 12
-1.0
 22
-0.2857142857
 13
-1.0
 23
-0.2857142857
  0
ENDBLK
  5
21D
100
AcDbEntity
  8
0
  6
BYBLOCK
 62
0
100
AcDbBlockEnd
  0
ENDSEC
  0
SECTION
  2
ENTITIES
  0
LINE
  5
21E
100
AcDbEntity
  8
0
100
AcDbLine
 62
7
  6
CONTINUOUS
 10
250.5154008529
 20
305.2179825552
 11
250.0693567351
 21
304.9362451578
  0
LINE
  5
21F
100
AcDbEntity
  8
0
100
AcDbLine
 62
7
  6
CONTINUOUS
 10
250.7435060175
 20
305.2900254603
 11
250.6945911297
 21
305.2748621095
  0
LINE
  5
220
100
AcDbEntity
  8
0
100
AcDbLine
 62
7
  6
CONTINUOUS
 10
334.3510926145
 20
82.2371848563
 11
306.0813013151
 21
81.2499795482
  0
LINE
  5
221
100
AcDbEntity
  8
0
100
AcDbLine
 62
7
  6
CONTINUOUS
 10
306.0813013297
 20
81.2499791306
 11
251.0289417751
 21
83.1724498957
  0
LINE
  5
222
100
AcDbEntity
  8
0
100
AcDbLine
 62
7
  6
CONTINUOUS
 10
250.4346852664
 20
83.3180387612
 11
250.5346907765
 21
83.2762660092
  0
LWPOLYLINE
  5
223
100
AcDbEntity
  8
0
100
AcDbPolyline
 62
7
  6
CONTINUOUS
 90
3
 70
0
 10
250.0706543639
 20
83.5626413423
 10
250.5166609253
 20
83.2816074976
 10
251.0280504987
 20
83.1724953461
  0
LWPOLYLINE
  5
224
100
AcDbEntity
  8
0
100
AcDbPolyline
 62
7
  6
CONTINUOUS
 90
3
 70
0
 10
250.1870249867
 20
83.4671760822
 10
250.3059321202
 20
83.3874204032
 10
250.4346852664
 20
83.3180387612
  0
LWPOLYLINE
  5
225
100
AcDbEntity
  8
0
100
AcDbPolyline
 62
7
  6
CONTINUOUS
 90
5
 70
0
 10
250.0245166626
 20
304.8933035728
 10
249.9363346758
 20
304.7978603474
 10
249.8582670109
 20
304.6972833665
 10
249.7904185999
 20
304.5928242455
 10
249.7327383162
 20
304.4856941541
  0
LINE
  5
226
100
AcDbEntity
  8
0
100
AcDbLine
 62
9
  6
CONTINUOUS
 10
306.0812912384
 20
90.2472154907
 11
334.3510822858
 21
91.2316795887
  0
LINE
  5
227
100
AcDbEntity
  8
0
100
AcDbLine
 62
9
  6
CONTINUOUS
 10
250.8359041953
 20
90.2499613117
 11
306.081291253
 21
90.2472154638
  0
LWPOLYLINE
  5
228
100
AcDbEntity
  8
0
100
AcDbPolyline
 62
7
  6
CONTINUOUS
 90
3
 70
0
 10
250.0060164352
 20
83.6272773197
 10
250.0786016976
 20
83.5558078405
 10
250.1870249867
 20
83.4671760822
  0
LINE
  5
229
100
AcDbEntity
  8
0
100
AcDbLine
 62
7
  6
CONTINUOUS
 10
250.0693567351
 20
304.9362451578
 11
249.7464443148
 21
304.5133537849
  0
LINE
  5
22A
100
AcDbEntity
  8
0
100
AcDbLine
 62
9
  6
CONTINUOUS
 10
334.3510822858
 20
91.2318857108
 11
336.2812886106
 21
91.2318907483
  0
LINE
  5
22B
100
AcDbEntity
  8
0
100
AcDbLine
 62
7
  6
CONTINUOUS
 10
249.7469647178
 20
83.9856378316
 11
250.0706543639
 21
83.5626413423
  0
LWPOLYLINE
  5
22C
100
AcDbEntity
  8
0
100
AcDbPolyline
 62
7
  6
CONTINUOUS
 90
9
 70
0
 10
249.7327383162
 20
304.4856941541
 10
249.6850412426
 20
304.377067671
 10
249.6470152448
 20
304.268070116
 10
249.6182303379
 20
304.1597710904
 10
249.5983364674
 20
304.0544274746
 10
249.5868794445
 20
303.9582739111
 10
249.5824201255
 20
303.8869927027
 10
249.5815540125
 20
303.8566508823
 10
249.5813881665
 20
303.8453233463
  0
LINE
  5
22D
100
AcDbEntity
  8
0
100
AcDbLine
 62
7
  6
CONTINUOUS
 10
251.0289572337
 20
305.3275435829
 11
251.0289912702
 21
305.3276201751
  0
LINE
  5
22E
100
AcDbEntity
  8
0
100
AcDbLine
 62
9
  6
CONTINUOUS
 10
250.835897766
 20
110.2499615262
 11
251.3289381628
 21
110.2499614828
  0
LINE
  5
22F
100
AcDbEntity
  8
0
100
AcDbLine
 62
7
  6
CONTINUOUS
 10
249.8812919478
 20
114.2499716975
 11
249.5812919588
 21
114.2499717238
  0
LINE
  5
230
100
AcDbEntity
  8
0
100
AcDbLine
 62
9
  6
CONTINUOUS
 10
249.581293363
 20
114.2499717239
 11
249.5861964577
 21
114.249954626
  0
LINE
  5
231
100
AcDbEntity
  8
0
100
AcDbLine
 62
7
  6
CONTINUOUS
 10
249.5861964577
 20
114.249954626
 11
249.6915521574
 21
114.2409096537
  0
LINE
  5
232
100
AcDbEntity
  8
0
100
AcDbLine
 62
7
  6
CONTINUOUS
 10
249.7043672403
 20
84.0763356742
 11
249.7568326784
 21
83.9672402276
  0
LINE
  5
233
100
AcDbEntity
  8
0
100
AcDbLine
 62
7
  6
CONTINUOUS
 10
249.6622704728
 20
84.185211071
 11
249.7043672403
 21
84.0763356742
  0
LINE
  5
234
100
AcDbEntity
  8
0
100
AcDbLine
 62
7
  6
CONTINUOUS
 10
249.7464443148
 20
304.5133537849
 11
249.5910632107
 21
303.9997462149
  0
LINE
  5
235
100
AcDbEntity
  8
0
100
AcDbLine
 62
7
  6
CONTINUOUS
 10
249.5909868961
 20
84.5005017566
 11
249.7469647178
 21
83.9856378316
  0
LINE
  5
236
100
AcDbEntity
  8
0
100
AcDbLine
 62
7
  6
CONTINUOUS
 10
249.629881235
 20
84.292748489
 11
249.6622704728
 21
84.185211071
  0
LINE
  5
237
100
AcDbEntity
  8
0
100
AcDbLine
 62
7
  6
CONTINUOUS
 10
249.60744172
 20
84.3935095494
 11
249.629881235
 21
84.292748489
  0
LINE
  5
238
100
AcDbEntity
  8
0
100
AcDbLine
 62
7
  6
CONTINUOUS
 10
249.5827091085
 20
84.6067802435
 11
249.5864845065
 21
84.5796316172
  0
LINE
  5
239
100
AcDbEntity
  8
0
100
AcDbLine
 62
7
  6
CONTINUOUS
 10
249.5812997316
 20
84.6706491114
 11
249.5909868961
 21
84.5005017566
  0
LINE
  5
23A
100
AcDbEntity
  8
0
100
AcDbLine
 62
7
  6
CONTINUOUS
 10
249.5812953462
 20
84.6717400529
 11
249.5812919588
 21
114.2499717239
  0
LINE
  5
23B
100
AcDbEntity
  8
0
100
AcDbLine
 62
7
  6
CONTINUOUS
 10
249.8812890867
 20
275.4729307733
 11
249.8812890867
 21
113.0269994944
  0
LINE
  5
23C
100
AcDbEntity
  8
0
100
AcDbLine
 62
9
  6
CONTINUOUS
 10
251.3289381628
 20
110.2499614828
 11
251.3289381627
 21
278.2499614816
  0
LINE
  5
23D
100
AcDbEntity
  8
0
100
AcDbLine
 62
7
  6
CONTINUOUS
 10
249.5813015366
 20
303.8315236904
 11
249.5812919587
 21
274.2499717237
  0
LINE
  5
23E
100
AcDbEntity
  8
0
100
AcDbLine
 62
7
  6
CONTINUOUS
 10
249.5813370496
 20
303.8396222356
 11
249.5813170358
 21
303.836259111
  0
LINE
  5
23F
100
AcDbEntity
  8
0
100
AcDbLine
 62
7
  6
CONTINUOUS
 10
306.081291253
 20
90.2472154638
 11
306.0812912529
 21
298.2526978633
  0
LINE
  5
240
100
AcDbEntity
  8
0
100
AcDbLine
 62
9
  6
CONTINUOUS
 10
334.3510822857
 20
297.2682386931
 11
334.3510822858
 21
91.2316795887
  0
LINE
  5
241
100
AcDbEntity
  8
0
100
AcDbLine
 62
7
  6
CONTINUOUS
 10
336.2812964464
 20
84.2359666106
 11
336.2812964466
 21
304.263997035
  0
LINE
  5
242
100
AcDbEntity
  8
0
100
AcDbLine
 62
7
  6
CONTINUOUS
 10
249.5812919599
 20
274.2499717237
 11
249.881291947
 21
274.2499716972
  0
LINE
  5
243
100
AcDbEntity
  8
0
100
AcDbLine
 62
7
  6
CONTINUOUS
 10
249.6886642187
 20
274.2585520255
 11
249.5861964397
 21
274.2499887617
  0
LINE
  5
244
100
AcDbEntity
  8
0
100
AcDbLine
 62
9
  6
CONTINUOUS
 10
251.3289381627
 20
278.2499614816
 11
250.8359180811
 21
278.249961525
  0
LINE
  5
245
100
AcDbEntity
  8
0
100
AcDbLine
 62
9
  6
CONTINUOUS
 10
336.2812886105
 20
297.2682437301
 11
334.3510822857
 21
297.2682386926
  0
LINE
  5
246
100
AcDbEntity
  8
0
100
AcDbLine
 62
9
  6
CONTINUOUS
 10
306.0812912529
 20
298.2526978633
 11
250.8359180811
 21
298.2499617407
  0
LINE
  5
247
100
AcDbEntity
  8
0
100
AcDbLine
 62
9
  6
CONTINUOUS
 10
334.3510822857
 20
297.2682386931
 11
306.0812912383
 21
298.2526978247
  0
LINE
  5
248
100
AcDbEntity
  8
0
100
AcDbLine
 62
7
  6
CONTINUOUS
 10
251.0281130322
 20
305.3276321928
 11
250.5223158564
 21
305.2194614115
  0
LINE
  5
249
100
AcDbEntity
  8
0
100
AcDbLine
 62
7
  6
CONTINUOUS
 10
250.9179287429
 20
305.3196294993
 11
250.8681245959
 21
305.3132006776
  0
LWPOLYLINE
  5
24A
100
AcDbEntity
  8
0
100
AcDbPolyline
 62
7
  6
CONTINUOUS
 90
9
 70
0
 10
251.0258878298
 20
305.3274127108
 10
250.8756323751
 20
305.314328319
 10
250.7378734709
 20
305.288701491
 10
250.6006868523
 20
305.2495105525
 10
250.4694620431
 20
305.1981800597
 10
250.345471506
 20
305.1357925
 10
250.2295657016
 20
305.0634385025
 10
250.1224065062
 20
304.982230602
 10
250.0245166626
 20
304.8933035728
  0
LWPOLYLINE
  5
24B
100
AcDbEntity
  8
0
100
AcDbPolyline
 62
7
  6
CONTINUOUS
 90
5
 70
0
 10
250.9914407327
 20
305.3258591714
 10
250.9828341278
 20
305.3253174907
 10
250.9697252386
 20
305.3243971852
 10
250.9499240887
 20
305.3227882393
 10
250.9179287429
 20
305.3196294993
  0
LINE
  5
24C
100
AcDbEntity
  8
0
100
AcDbLine
 62
7
  6
CONTINUOUS
 10
250.9967717025
 20
305.3261699575
 11
250.9955483469
 21
305.3261002956
  0
LINE
  5
24D
100
AcDbEntity
  8
0
100
AcDbLine
 62
7
  6
CONTINUOUS
 10
251.0230810052
 20
305.3274498234
 11
306.0813013296
 21
307.2499795482
  0
LINE
  5
24E
100
AcDbEntity
  8
0
100
AcDbLine
 62
7
  6
CONTINUOUS
 10
251.0349734812
 20
305.3278791464
 11
251.0307624675
 21
305.3277382195
  0
LINE
  5
24F
100
AcDbEntity
  8
0
100
AcDbLine
 62
7
  6
CONTINUOUS
 10
306.081301315
 20
307.2499791306
 11
334.3510923593
 21
306.2627787935
  0
ARC
  5
250
100
AcDbEntity
  8
0
100
AcDbCircle
 62
9
  6
CONTINUOUS
 10
-757.9562528852
 20
82.7477935832
 40
1092.3402850228
100
AcDbArc
 50
0.2644441124
 51
0.4450039631
  0
ARC
  5
251
100
AcDbEntity
  8
0
100
AcDbCircle
 62
9
  6
CONTINUOUS
 10
-701.2178392106
 20
305.4008735415
 40
1035.6008550201
100
AcDbArc
 50
359.5500482252
 51
359.7405007539
  0
ARC
  5
252
100
AcDbEntity
  8
0
100
AcDbCircle
 62
9
  6
CONTINUOUS
 10
-349.0930914304
 20
84.5743403774
 40
683.4730508133
100
AcDbArc
 50
0.0282628073
 51
0.269519315
  0
ARC
  5
253
100
AcDbEntity
  8
0
100
AcDbCircle
 62
9
  6
CONTINUOUS
 10
-274.2063286606
 20
303.7309267208
 40
608.5862180078
100
AcDbArc
 50
359.7156417236
 51
359.9903105898
  0
ARC
  5
254
100
AcDbEntity
  8
0
100
AcDbCircle
 62
9
  6
CONTINUOUS
 10
249.7861519916
 20
296.7386510636
 40
186.4916777169
100
AcDbArc
 50
270.0491591568
 51
270.3225148267
  0
ARC
  5
255
100
AcDbEntity
  8
0
100
AcDbCircle
 62
7
  6
CONTINUOUS
 10
334.2812964458
 20
304.2639970329
 40
2.0
100
AcDbArc
 50
0.0
 51
88.0000882728
  0
ARC
  5
256
100
AcDbEntity
  8
0
100
AcDbCircle
 62
7
  6
CONTINUOUS
 10
334.2812964455
 20
84.2359666086
 40
2.0
100
AcDbArc
 50
271.9999190388
 51
359.9999999824
  0
ARC
  5
257
100
AcDbEntity
  8
0
100
AcDbCircle
 62
7
  6
CONTINUOUS
 10
251.6265240233
 20
112.9937322687
 40
1.7430580962
100
AcDbArc
 50
188.2275042661
 51
197.387588705
  0
ARC
  5
258
100
AcDbEntity
  8
0
100
AcDbCircle
 62
7
  6
CONTINUOUS
 10
251.0812954231
 20
84.6715486055
 40
1.5000116204
100
AcDbArc
 50
179.9688030943
 51
267.9998485485
  0
ARC
  5
259
100
AcDbEntity
  8
0
100
AcDbCircle
 62
7
  6
CONTINUOUS
 10
251.081295225
 20
303.8284227459
 40
1.4999999253
100
AcDbArc
 50
92.0052123469
 51
180.0218050746
  0
ARC
  5
25A
100
AcDbEntity
  8
0
100
AcDbCircle
 62
9
  6
CONTINUOUS
 10
249.5832744254
 20
274.8834038331
 40
0.6339807284
100
AcDbArc
 50
288.7165226667
 51
298.0390270333
  0
ARC
  5
25B
100
AcDbEntity
  8
0
100
AcDbCircle
 62
9
  6
CONTINUOUS
 10
249.5881926744
 20
274.8716742852
 40
0.6212939108
100
AcDbArc
 50
279.3054539663
 51
288.6340491199
  0
ARC
  5
25C
100
AcDbEntity
  8
0
100
AcDbCircle
 62
9
  6
CONTINUOUS
 10
249.5882795818
 20
113.6286337328
 40
0.6209182013
100
AcDbArc
 50
64.5994870146
 51
80.4269152562
  0
SPLINE
  5
25D
100
AcDbEntity
  8
0
100
AcDbSpline
 62
9
  6
CONTINUOUS
 70
0
 71
3
 72
12
 73
8
 74
0
 42
0.0000001
 43
0.0000001
 44
0.0000000001
 40
0.0
 40
0.0
 40
0.0
 40
0.0
 40
0.0300612308
 40
0.0887689143
 40
0.3107418729
 40
0.6410745291
 40
1.0
 40
1.0
 40
1.0
 40
1.0
 10
249.5813089875
 20
277.6653891339
 30
0.0
 10
249.5813081452
 20
277.6525711396
 30
0.0
 10
249.6111082691
 20
277.6207760627
 30
0.0
 10
249.7285880677
 20
277.5671823727
 30
0.0
 10
249.9855971245
 20
277.5009150118
 30
0.0
 10
250.3670309287
 20
277.4376910342
 30
0.0
 10
250.6598493489
 20
277.40523985
 30
0.0
 10
250.8123233675
 20
277.3920383906
 30
0.0
  0
SPLINE
  5
25E
100
AcDbEntity
  8
0
100
AcDbSpline
 62
9
  6
CONTINUOUS
 70
0
 71
3
 72
18
 73
14
 74
0
 42
0.0000001
 43
0.0000001
 44
0.0000000001
 40
0.0
 40
0.0
 40
0.0
 40
0.0
 40
0.1843391168
 40
0.3710429796
 40
0.5496465964
 40
0.7085399972
 40
0.8370613278
 40
0.8880653539
 40
0.9294829504
 40
0.9609378125
 40
0.9827911147
 40
0.9955979041
 40
1.0
 40
1.0
 40
1.0
 40
1.0
 10
250.8358977972
 20
278.2499615312
 30
0.0
 10
250.758775232
 20
278.2510591505
 30
0.0
 10
250.6035368502
 20
278.2530679264
 30
0.0
 10
250.3735721946
 20
278.2554206227
 30
0.0
 10
250.1542282857
 20
278.2569475902
 30
0.0
 10
249.9592850924
 20
278.2575070063
 30
0.0
 10
249.8175735128
 20
278.2571816594
 30
0.0
 10
249.7253037841
 20
278.2561580293
 30
0.0
 10
249.6731212219
 20
278.25549042
 30
0.0
 10
249.6343949074
 20
278.2539521442
 30
0.0
 10
249.6047996584
 20
278.2538033413
 30
0.0
 10
249.5918476393
 20
278.2507756729
 30
0.0
 10
249.5812290618
 20
278.2515369844
 30
0.0
 10
249.5810452298
 20
278.2497042752
 30
0.0
  0
SPLINE
  5
25F
100
AcDbEntity
  8
0
100
AcDbSpline
 62
9
  6
CONTINUOUS
 70
0
 71
3
 72
9
 73
5
 74
0
 42
0.0000001
 43
0.0000001
 44
0.0000000001
 40
0.0
 40
0.0
 40
0.0
 40
0.0
 40
0.2200123546
 40
1.0
 40
1.0
 40
1.0
 40
1.0
 10
249.5812911542
 20
274.6202694957
 30
0.0
 10
249.5812914969
 20
274.5988978215
 30
0.0
 10
249.5982128895
 20
274.5022516633
 30
0.0
 10
249.6656812772
 20
274.4169923259
 30
0.0
 10
249.7299861384
 20
274.3769236405
 30
0.0
  0
SPLINE
  5
260
100
AcDbEntity
  8
0
100
AcDbSpline
 62
9
  6
CONTINUOUS
 70
0
 71
3
 72
9
 73
5
 74
0
 42
0.0000001
 43
0.0000001
 44
0.0000000001
 40
0.0
 40
0.0
 40
0.0
 40
0.0
 40
0.2681347781
 40
1.0
 40
1.0
 40
1.0
 40
1.0
 10
249.7299861384
 20
274.3769236405
 30
0.0
 10
249.7422088552
 20
274.3693076036
 30
0.0
 10
249.7893556826
 20
274.3436624995
 30
0.0
 10
249.8421096895
 20
274.3269871093
 30
0.0
 10
249.8812910978
 20
274.3238347693
 30
0.0
  0
LINE
  5
261
100
AcDbEntity
  8
0
100
AcDbLine
 62
9
  6
CONTINUOUS
 10
334.3798773584
 20
303.6672839451
 11
334.3798806447
 21
303.6280074213
  0
SPLINE
  5
262
100
AcDbEntity
  8
0
100
AcDbSpline
 62
9
  6
CONTINUOUS
 70
0
 71
3
 72
9
 73
5
 74
0
 42
0.0000001
 43
0.0000001
 44
0.0000000001
 40
0.0
 40
0.0
 40
0.0
 40
0.0
 40
0.1941215655
 40
1.0
 40
1.0
 40
1.0
 40
1.0
 10
334.3724037523
 20
305.5775068024
 30
0.0
 10
334.373757777
 20
305.4539077749
 30
0.0
 10
334.3790612933
 20
304.8171802414
 30
0.0
 10
334.3798277861
 20
304.1804251142
 30
0.0
 10
334.3798773584
 20
303.6672839451
 30
0.0
  0
SPLINE
  5
263
100
AcDbEntity
  8
0
100
AcDbSpline
 62
9
  6
CONTINUOUS
 70
0
 71
3
 72
14
 73
10
 74
0
 42
0.0000001
 43
0.0000001
 44
0.0000000001
 40
0.0
 40
0.0
 40
0.0
 40
0.0
 40
0.0166551731
 40
0.0643680261
 40
0.1433820034
 40
0.2535623194
 40
0.3946739973
 40
0.5664493452
 40
1.0
 40
1.0
 40
1.0
 40
1.0
 10
334.3510955672
 20
306.2627786814
 30
0.0
 10
334.3549040613
 20
306.2627020668
 30
0.0
 10
334.353431748
 20
306.2402993862
 30
0.0
 10
334.3596773117
 20
306.2149831887
 30
0.0
 10
334.3604033442
 20
306.1567053848
 30
0.0
 10
334.3639450661
 20
306.0830335612
 30
0.0
 10
334.366103105
 20
305.9855982148
 30
0.0
 10
334.3696160666
 20
305.8152500844
 30
0.0
 10
334.3713175335
 20
305.6766597843
 30
0.0
 10
334.3724037523
 20
305.5775068024
 30
0.0
  0
SPLINE
  5
264
100
AcDbEntity
  8
0
100
AcDbSpline
 62
7
  6
CONTINUOUS
 70
0
 71
3
 72
23
 73
19
 74
0
 42
0.0000001
 43
0.0000001
 44
0.0000000001
 40
0.0
 40
0.0
 40
0.0
 40
0.0
 40
0.001258715
 40
0.0048888061
 40
0.010902172
 40
0.0192902447
 40
0.0300332545
 40
0.0431066953
 40
0.0761300745
 40
0.1180444054
 40
0.1684627856
 40
0.2268872316
 40
0.2927689126
 40
0.365462435
 40
0.4442816676
 40
0.6171691823
 40
0.8048621644
 40
1.0
 40
1.0
 40
1.0
 40
1.0
 10
306.081290904
 20
81.2499796018
 30
0.0
 10
306.085066238
 20
81.2499403003
 30
0.0
 10
306.08370751
 20
81.2724741563
 30
0.0
 10
306.0909179669
 20
81.2973701028
 30
0.0
 10
306.0925323573
 20
81.3556428862
 30
0.0
 10
306.0969775742
 20
81.4290911393
 30
0.0
 10
306.099880136
 20
81.5263655828
 30
0.0
 10
306.104446311
 20
81.696456834
 30
0.0
 10
306.1090692799
 20
81.9606326006
 30
0.0
 10
306.1136330785
 20
82.3365182678
 30
0.0
 10
306.1169189289
 20
82.7887404855
 30
0.0
 10
306.1189491788
 20
83.3128152283
 30
0.0
 10
306.1195814887
 20
83.9037231873
 30
0.0
 10
306.1188187395
 20
84.5558006289
 30
0.0
 10
306.1157668693
 20
85.5288411568
 30
0.0
 10
306.1088311799
 20
86.8468117243
 30
0.0
 10
306.0962399509
 20
88.5136522425
 30
0.0
 10
306.0852525799
 20
89.6619093497
 30
0.0
 10
306.0812882703
 20
90.2472153877
 30
0.0
  0
SPLINE
  5
265
100
AcDbEntity
  8
0
100
AcDbSpline
 62
9
  6
CONTINUOUS
 70
0
 71
3
 72
24
 73
20
 74
0
 42
0.0000001
 43
0.0000001
 44
0.0000000001
 40
0.0
 40
0.0
 40
0.0
 40
0.0
 40
0.1931387858
 40
0.3792644783
 40
0.5514792349
 40
0.6303345797
 40
0.7032890935
 40
0.7695774779
 40
0.8285727607
 40
0.8796822797
 40
0.9223130584
 40
0.9559314308
 40
0.9692650463
 40
0.9802423848
 40
0.988834003
 40
0.9950104406
 40
0.9971837592
 40
0.9987422343
 40
1.0
 40
1.0
 40
1.0
 40
1.0
 10
250.8359187673
 20
90.2487695375
 30
0.0
 10
250.8361828154
 20
89.792973803
 30
0.0
 10
250.8418819002
 20
88.8979302826
 30
0.0
 10
250.8628075403
 20
87.5966244498
 30
0.0
 10
250.8884820627
 20
86.5651750352
 30
0.0
 10
250.9121159343
 20
85.8008605659
 30
0.0
 10
250.9299633004
 20
85.2864700129
 30
0.0
 10
250.9479230951
 20
84.8189843456
 30
0.0
 10
250.965388143
 20
84.403071021
 30
0.0
 10
250.9817756046
 20
84.0430016402
 30
0.0
 10
250.9964601403
 20
83.7427861527
 30
0.0
 10
251.0076251191
 20
83.5317056879
 30
0.0
 10
251.0151661407
 20
83.3951502357
 30
0.0
 10
251.0198041127
 20
83.3177544043
 30
0.0
 10
251.0230420368
 20
83.2567863158
 30
0.0
 10
251.0263844673
 20
83.2175517938
 30
0.0
 10
251.0267738073
 20
83.1933157443
 30
0.0
 10
251.0296001856
 20
83.1831656533
 30
0.0
 10
251.0261499431
 20
83.173425321
 30
0.0
 10
251.0289535791
 20
83.1724505715
 30
0.0
  0
SPLINE
  5
266
100
AcDbEntity
  8
0
100
AcDbSpline
 62
9
  6
CONTINUOUS
 70
0
 71
3
 72
14
 73
10
 74
0
 42
0.0000001
 43
0.0000001
 44
0.0000000001
 40
0.0
 40
0.0
 40
0.0
 40
0.0
 40
0.4335526
 40
0.6053282298
 40
0.7464407436
 40
0.8566200323
 40
0.9356292059
 40
0.9833384303
 40
1.0
 40
1.0
 40
1.0
 40
1.0
 10
334.3723989944
 20
82.9224378499
 30
0.0
 10
334.3713131182
 20
82.8232867871
 30
0.0
 10
334.3696217325
 20
82.6846996691
 30
0.0
 10
334.3661239299
 20
82.5143535438
 30
0.0
 10
334.3639698857
 20
82.416922583
 30
0.0
 10
334.3604274081
 20
82.3432479433
 30
0.0
 10
334.3596922227
 20
82.2849873107
 30
0.0
 10
334.3534382395
 20
82.2596496133
 30
0.0
 10
334.3549022799
 20
82.2372708633
 30
0.0
 10
334.351092614
 20
82.2371848563
 30
0.0
  0
SPLINE
  5
267
100
AcDbEntity
  8
0
100
AcDbSpline
 62
9
  6
CONTINUOUS
 70
0
 71
3
 72
9
 73
5
 74
0
 42
0.0000001
 43
0.0000001
 44
0.0000000001
 40
0.0
 40
0.0
 40
0.0
 40
0.0
 40
0.3039811948
 40
1.0
 40
1.0
 40
1.0
 40
1.0
 10
334.3798796048
 20
84.8719625525
 30
0.0
 10
334.3798800398
 20
84.6744210782
 30
0.0
 10
334.3793429517
 20
84.0245757384
 30
0.0
 10
334.3773522349
 20
83.3747169336
 30
0.0
 10
334.3723989944
 20
82.9224378499
 30
0.0
  0
LINE
  5
268
100
AcDbEntity
  8
0
100
AcDbLine
 62
9
  6
CONTINUOUS
 10
334.3798762302
 20
84.9114832959
 11
334.3798796048
 21
84.8719625525
  0
SPLINE
  5
269
100
AcDbEntity
  8
0
100
AcDbSpline
 62
7
  6
CONTINUOUS
 70
0
 71
3
 72
9
 73
5
 74
0
 42
0.0000001
 43
0.0000001
 44
0.0000000001
 40
0.0
 40
0.0
 40
0.0
 40
0.0
 40
0.5056708747
 40
1.0
 40
1.0
 40
1.0
 40
1.0
 10
250.1556276863
 20
276.4443746443
 30
0.0
 10
250.0668257719
 20
276.2971944583
 30
0.0
 10
249.9222287316
 20
275.9838325781
 30
0.0
 10
249.8812889256
 20
275.6409699749
 30
0.0
 10
249.8812890867
 20
275.4729307227
 30
0.0
  0
SPLINE
  5
26A
100
AcDbEntity
  8
0
100
AcDbSpline
 62
7
  6
CONTINUOUS
 70
0
 71
3
 72
9
 73
5
 74
0
 42
0.0000001
 43
0.0000001
 44
0.0000000001
 40
0.0
 40
0.0
 40
0.0
 40
0.0
 40
0.2618468968
 40
1.0
 40
1.0
 40
1.0
 40
1.0
 10
250.479399765
 20
276.9070076319
 30
0.0
 10
250.4499437608
 20
276.8674839709
 30
0.0
 10
250.337715566
 20
276.7164195945
 30
0.0
 10
250.2274140544
 20
276.5633532845
 30
0.0
 10
250.1556276863
 20
276.4443746443
 30
0.0
  0
SPLINE
  5
26B
100
AcDbEntity
  8
0
100
AcDbSpline
 62
7
  6
CONTINUOUS
 70
0
 71
3
 72
9
 73
5
 74
0
 42
0.0000001
 43
0.0000001
 44
0.0000000001
 40
0.0
 40
0.0
 40
0.0
 40
0.0
 40
0.2562280804
 40
1.0
 40
1.0
 40
1.0
 40
1.0
 10
250.8123249926
 20
277.3920571588
 30
0.0
 10
250.7869140398
 20
277.3486860568
 30
0.0
 10
250.6833812444
 20
277.1819367159
 30
0.0
 10
250.5665937535
 20
277.0240033256
 30
0.0
 10
250.479399765
 20
276.9070076319
 30
0.0
  0
SPLINE
  5
26C
100
AcDbEntity
  8
0
100
AcDbSpline
 62
9
  6
CONTINUOUS
 70
0
 71
3
 72
12
 73
8
 74
0
 42
0.0000001
 43
0.0000001
 44
0.0000000001
 40
0.0
 40
0.0
 40
0.0
 40
0.0
 40
0.0289752191
 40
0.0853804845
 40
0.3019975256
 40
0.6327383047
 40
1.0
 40
1.0
 40
1.0
 40
1.0
 10
249.5812889257
 20
110.8345204002
 30
0.0
 10
249.5812899392
 20
110.8468762298
 30
0.0
 10
249.6092523794
 20
110.877844122
 30
0.0
 10
249.7233679513
 20
110.9310035387
 30
0.0
 10
249.9768690128
 20
110.9972221387
 30
0.0
 10
250.3597780192
 20
111.0613675855
 30
0.0
 10
250.6562999624
 20
111.0943592921
 30
0.0
 10
250.8123273462
 20
111.1078610522
 30
0.0
  0
SPLINE
  5
26D
100
AcDbEntity
  8
0
100
AcDbSpline
 62
7
  6
CONTINUOUS
 70
0
 71
3
 72
8
 73
4
 74
0
 42
0.0000001
 43
0.0000001
 44
0.0000000001
 40
0.0
 40
0.0
 40
0.0
 40
0.0
 40
1.0
 40
1.0
 40
1.0
 40
1.0
 10
249.9014060924
 20
112.7442935968
 30
0.0
 10
249.8877807033
 20
112.8377794757
 30
0.0
 10
249.8812889962
 20
112.9325259466
 30
0.0
 10
249.8812890867
 20
113.0269995449
 30
0.0
  0
SPLINE
  5
26E
100
AcDbEntity
  8
0
100
AcDbSpline
 62
7
  6
CONTINUOUS
 70
0
 71
3
 72
8
 73
4
 74
0
 42
0.0000001
 43
0.0000001
 44
0.0000000001
 40
0.0
 40
0.0
 40
0.0
 40
0.0
 40
1.0
 40
1.0
 40
1.0
 40
1.0
 10
250.059789221
 20
112.2310049872
 30
0.0
 10
250.0218354161
 20
112.3090855216
 30
0.0
 10
249.9891734727
 20
112.3900340171
 30
0.0
 10
249.9631148209
 20
112.4728471068
 30
0.0
  0
SPLINE
  5
26F
100
AcDbEntity
  8
0
100
AcDbSpline
 62
7
  6
CONTINUOUS
 70
0
 71
3
 72
8
 73
4
 74
0
 42
0.0000001
 43
0.0000001
 44
0.0000000001
 40
0.0
 40
0.0
 40
0.0
 40
0.0
 40
1.0
 40
1.0
 40
1.0
 40
1.0
 10
250.1841889524
 20
112.0092649897
 30
0.0
 10
250.1389906429
 20
112.0809571828
 30
0.0
 10
250.0968399611
 20
112.1547822846
 30
0.0
 10
250.059789221
 20
112.2310049872
 30
0.0
  0
SPLINE
  5
270
100
AcDbEntity
  8
0
100
AcDbSpline
 62
7
  6
CONTINUOUS
 70
0
 71
3
 72
9
 73
5
 74
0
 42
0.0000001
 43
0.0000001
 44
0.0000000001
 40
0.0
 40
0.0
 40
0.0
 40
0.0
 40
0.2556962559
 40
1.0
 40
1.0
 40
1.0
 40
1.0
 10
250.3315892602
 20
111.7930579812
 30
0.0
 10
250.3185305949
 20
111.8111403616
 30
0.0
 10
250.2677535696
 20
111.8820659197
 30
0.0
 10
250.2188149676
 20
111.9543422504
 30
0.0
 10
250.1841889524
 20
112.0092649897
 30
0.0
  0
SPLINE
  5
271
100
AcDbEntity
  8
0
100
AcDbSpline
 62
7
  6
CONTINUOUS
 70
0
 71
3
 72
9
 73
5
 74
0
 42
0.0000001
 43
0.0000001
 44
0.0000000001
 40
0.0
 40
0.0
 40
0.0
 40
0.0
 40
0.7552516779
 40
1.0
 40
1.0
 40
1.0
 40
1.0
 10
250.4969969488
 20
111.5693048548
 30
0.0
 10
250.4551819752
 20
111.6255068433
 30
0.0
 10
250.3995310757
 20
111.6997115775
 30
0.0
 10
250.3448798623
 20
111.7746544374
 30
0.0
 10
250.3315892602
 20
111.7930579812
 30
0.0
  0
SPLINE
  5
272
100
AcDbEntity
  8
0
100
AcDbSpline
 62
7
  6
CONTINUOUS
 70
0
 71
3
 72
9
 73
5
 74
0
 42
0.0000001
 43
0.0000001
 44
0.0000000001
 40
0.0
 40
0.0
 40
0.0
 40
0.0
 40
0.255754255
 40
1.0
 40
1.0
 40
1.0
 40
1.0
 10
250.8123266994
 20
111.1078623567
 30
0.0
 10
250.7882320483
 20
111.1489871121
 30
0.0
 10
250.6897261523
 20
111.3072845389
 30
0.0
 10
250.5797902573
 20
111.4580253736
 30
0.0
 10
250.4969969488
 20
111.5693048548
 30
0.0
  0
SPLINE
  5
273
100
AcDbEntity
  8
0
100
AcDbSpline
 62
9
  6
CONTINUOUS
 70
0
 71
3
 72
9
 73
5
 74
0
 42
0.0000001
 43
0.0000001
 44
0.0000000001
 40
0.0
 40
0.0
 40
0.0
 40
0.0
 40
0.2467233134
 40
1.0
 40
1.0
 40
1.0
 40
1.0
 10
250.8123273592
 20
111.1078611542
 30
0.0
 10
250.8161347313
 20
111.0373785871
 30
0.0
 10
250.8294371494
 20
110.7515900696
 30
0.0
 10
250.8350138276
 20
110.4654658977
 30
0.0
 10
250.835771348
 20
110.2499615262
 30
0.0
  0
SPLINE
  5
274
100
AcDbEntity
  8
0
100
AcDbSpline
 62
7
  6
CONTINUOUS
 70
0
 71
3
 72
9
 73
5
 74
0
 42
0.0000001
 43
0.0000001
 44
0.0000000001
 40
0.0
 40
0.0
 40
0.0
 40
0.0
 40
0.251660233
 40
1.0
 40
1.0
 40
1.0
 40
1.0
 10
251.3289381628
 20
110.2499614828
 30
0.0
 10
251.2850858814
 20
110.3216156148
 30
0.0
 10
251.1110315795
 20
110.6064591714
 30
0.0
 10
250.9386076056
 20
110.8923228587
 30
0.0
 10
250.8123273289
 20
111.107861362
 30
0.0
  0
SPLINE
  5
275
100
AcDbEntity
  8
0
100
AcDbSpline
 62
9
  6
CONTINUOUS
 70
0
 71
3
 72
14
 73
10
 74
0
 42
0.0000001
 43
0.0000001
 44
0.0000000001
 40
0.0
 40
0.0
 40
0.0
 40
0.0
 40
0.4420688457
 40
0.6172678951
 40
0.7594367669
 40
0.8673332512
 40
0.9421664586
 40
0.9857637629
 40
1.0
 40
1.0
 40
1.0
 40
1.0
 10
249.9461598245
 20
110.2470314891
 30
0.0
 10
249.8923808531
 20
110.2470326162
 30
0.0
 10
249.8171900738
 20
110.2470276245
 30
0.0
 10
249.7250195732
 20
110.2475505086
 30
0.0
 10
249.6728451624
 20
110.2475286287
 30
0.0
 10
249.6344238528
 20
110.2488018155
 30
0.0
 10
249.6044945619
 20
110.2473633652
 30
0.0
 10
249.5924293614
 20
110.2510440708
 30
0.0
 10
249.5812854316
 20
110.2482103171
 30
0.0
 10
249.5812549847
 20
110.2499419295
 30
0.0
  0
SPLINE
  5
276
100
AcDbEntity
  8
0
100
AcDbSpline
 62
9
  6
CONTINUOUS
 70
0
 71
3
 72
15
 73
11
 74
0
 42
0.0000001
 43
0.0000001
 44
0.0000000001
 40
0.0
 40
0.0
 40
0.0
 40
0.0
 40
0.2499999818
 40
0.4999998521
 40
0.6249999202
 40
0.7499997399
 40
0.8124994969
 40
0.8749996636
 40
0.9374997384
 40
1.0
 40
1.0
 40
1.0
 40
1.0
 10
250.8359041976
 20
90.2499613117
 30
0.0
 10
250.8324022742
 20
91.9166242343
 30
0.0
 10
250.8380762669
 20
95.2499620466
 30
0.0
 10
250.8364759455
 20
99.4166265522
 30
0.0
 10
250.8355912531
 20
102.7499582636
 30
0.0
 10
250.8359082452
 20
104.833289946
 30
0.0
 10
250.8371069494
 20
106.4999534183
 30
0.0
 10
250.8368598647
 20
107.7499572473
 30
0.0
 10
250.8338488752
 20
108.9999459711
 30
0.0
 10
250.8404449915
 20
109.8333179148
 30
0.0
 10
250.8358977542
 20
110.2499615261
 30
0.0
  0
SPLINE
  5
277
100
AcDbEntity
  8
0
100
AcDbSpline
 62
9
  6
CONTINUOUS
 70
0
 71
3
 72
18
 73
14
 74
0
 42
0.0000001
 43
0.0000001
 44
0.0000000001
 40
0.0
 40
0.0
 40
0.0
 40
0.0
 40
0.18444561
 40
0.3713337673
 40
0.5501535677
 40
0.7092272062
 40
0.8378266954
 40
0.8888213106
 40
0.9301931979
 40
0.9615625908
 40
0.9832895442
 40
0.99591953
 40
1.0
 40
1.0
 40
1.0
 40
1.0
 10
250.8359180833
 20
90.2499615464
 30
0.0
 10
250.7587807719
 20
90.2498015432
 30
0.0
 10
250.6034832201
 20
90.2495072219
 30
0.0
 10
250.3734084443
 20
90.2491670688
 30
0.0
 10
250.1539174793
 20
90.2489251644
 30
0.0
 10
249.9588886989
 20
90.2488889362
 30
0.0
 10
249.8170978202
 20
90.2488115577
 30
0.0
 10
249.7249287601
 20
90.2491428638
 30
0.0
 10
249.6726799289
 20
90.2488507071
 30
0.0
 10
249.6344250142
 20
90.2500375817
 30
0.0
 10
249.6042144464
 20
90.2479567415
 30
0.0
 10
249.592742897
 20
90.2519378696
 30
0.0
 10
249.5811245125
 20
90.24826514
 30
0.0
 10
249.5812887505
 20
90.2499637222
 30
0.0
  0
SPLINE
  5
278
100
AcDbEntity
  8
0
100
AcDbSpline
 62
9
  6
CONTINUOUS
 70
0
 71
3
 72
9
 73
5
 74
0
 42
0.0000001
 43
0.0000001
 44
0.0000000001
 40
0.0
 40
0.0
 40
0.0
 40
0.0
 40
0.2205582923
 40
1.0
 40
1.0
 40
1.0
 40
1.0
 10
249.5812912887
 20
113.879687825
 30
0.0
 10
249.5812933636
 20
113.901114158
 30
0.0
 10
249.5983177886
 20
113.9977538302
 30
0.0
 10
249.6657245357
 20
114.0830161881
 30
0.0
 10
249.7299877603
 20
114.1230622903
 30
0.0
  0
SPLINE
  5
279
100
AcDbEntity
  8
0
100
AcDbSpline
 62
9
  6
CONTINUOUS
 70
0
 71
3
 72
9
 73
5
 74
0
 42
0.0000001
 43
0.0000001
 44
0.0000000001
 40
0.0
 40
0.0
 40
0.0
 40
0.0
 40
0.2684130579
 40
1.0
 40
1.0
 40
1.0
 40
1.0
 10
249.7299877603
 20
114.1230622903
 30
0.0
 10
249.7422217286
 20
114.1306859779
 30
0.0
 10
249.7893720684
 20
114.156317914
 30
0.0
 10
249.8421285374
 20
114.1729535917
 30
0.0
 10
249.8812913762
 20
114.1761044542
 30
0.0
  0
SPLINE
  5
27A
100
AcDbEntity
  8
0
100
AcDbSpline
 62
7
  6
CONTINUOUS
 70
0
 71
3
 72
24
 73
20
 74
0
 42
0.0000001
 43
0.0000001
 44
0.0000000001
 40
0.0
 40
0.0
 40
0.0
 40
0.0
 40
0.1949373116
 40
0.382412799
 40
0.5552732364
 40
0.6341075286
 40
0.7068335481
 40
0.7727610914
 40
0.8312396072
 40
0.8817201488
 40
0.9237025686
 40
0.9413796488
 40
0.9567933658
 40
0.9699038051
 40
0.9806726137
 40
0.9890766048
 40
0.9951029302
 40
0.998741038
 40
1.0
 40
1.0
 40
1.0
 40
1.0
 10
306.0812808296
 20
298.2526981868
 30
0.0
 10
306.0852412011
 20
298.8374018572
 30
0.0
 10
306.0970312264
 20
299.984396858
 30
0.0
 10
306.1084135813
 20
301.6499084841
 30
0.0
 10
306.1158359127
 20
302.9671858168
 30
0.0
 10
306.1188018726
 20
303.940286154
 30
0.0
 10
306.1195831049
 20
304.5926441681
 30
0.0
 10
306.118956086
 20
305.1839437517
 30
0.0
 10
306.116915649
 20
305.7085185579
 30
0.0
 10
306.1135909901
 20
306.1612488123
 30
0.0
 10
306.1098060653
 20
306.4916185966
 30
0.0
 10
306.1060316108
 20
306.7167325398
 30
0.0
 10
306.1031364665
 20
306.8553738028
 30
0.0
 10
306.0997798474
 20
306.972923504
 30
0.0
 10
306.0966222757
 20
307.070437874
 30
0.0
 10
306.0919457388
 20
307.144020132
 30
0.0
 10
306.0905222223
 20
307.2024519198
 30
0.0
 10
306.0834284677
 20
307.2273596294
 30
0.0
 10
306.0850744436
 20
307.2500153185
 30
0.0
 10
306.0812983466
 20
307.2499788169
 30
0.0
  0
SPLINE
  5
27B
100
AcDbEntity
  8
0
100
AcDbSpline
 62
7
  6
CONTINUOUS
 70
0
 71
3
 72
9
 73
5
 74
0
 42
0.0000001
 43
0.0000001
 44
0.0000000001
 40
0.0
 40
0.0
 40
0.0
 40
0.0
 40
0.2477791845
 40
1.0
 40
1.0
 40
1.0
 40
1.0
 10
250.8123249103
 20
277.3920569609
 30
0.0
 10
250.8541374803
 20
277.46342349
 30
0.0
 10
251.0241199878
 20
277.750726808
 30
0.0
 10
251.1978609761
 20
278.0357828645
 30
0.0
 10
251.3289381627
 20
278.2499614826
 30
0.0
  0
SPLINE
  5
27C
100
AcDbEntity
  8
0
100
AcDbSpline
 62
9
  6
CONTINUOUS
 70
0
 71
3
 72
9
 73
5
 74
0
 42
0.0000001
 43
0.0000001
 44
0.0000000001
 40
0.0
 40
0.0
 40
0.0
 40
0.0
 40
0.2518703989
 40
1.0
 40
1.0
 40
1.0
 40
1.0
 10
250.83589775
 20
278.249961526
 30
0.0
 10
250.8356550088
 20
278.1779035939
 30
0.0
 10
250.8332320653
 20
277.8918218424
 30
0.0
 10
250.823935743
 20
277.605776391
 30
0.0
 10
250.8123249103
 20
277.3920569609
 30
0.0
  0
SPLINE
  5
27D
100
AcDbEntity
  8
0
100
AcDbSpline
 62
9
  6
CONTINUOUS
 70
0
 71
3
 72
26
 73
22
 74
0
 42
0.0000001
 43
0.0000001
 44
0.0000000001
 40
0.0
 40
0.0
 40
0.0
 40
0.0
 40
0.0003187884
 40
0.0012593372
 40
0.0028182465
 40
0.0049918796
 40
0.011168658
 40
0.019760324
 40
0.030737511
 40
0.0440708618
 40
0.0597310335
 40
0.0776886993
 40
0.1203192599
 40
0.1714288136
 40
0.2304241977
 40
0.2967125866
 40
0.3696669113
 40
0.448521949
 40
0.6207360954
 40
0.8068613572
 40
1.0
 40
1.0
 40
1.0
 40
1.0
 10
251.0289797919
 20
305.3275099921
 30
0.0
 10
251.0282515861
 20
305.3273210205
 30
0.0
 10
251.0294192306
 20
305.3230267563
 30
0.0
 10
251.0275374436
 20
305.3176701511
 30
0.0
 10
251.0275388154
 20
305.3059520839
 30
0.0
 10
251.0255205247
 20
305.283050915
 30
0.0
 10
251.0233648681
 20
305.242826487
 30
0.0
 10
251.019567395
 20
305.1823298829
 30
0.0
 10
251.015171521
 20
305.1047510756
 30
0.0
 10
251.0099231436
 20
305.0105880927
 30
0.0
 10
251.0040042507
 20
304.8999368327
 30
0.0
 10
250.9947054992
 20
304.7202373835
 30
0.0
 10
250.9818265798
 20
304.4569482979
 30
0.0
 10
250.9654380619
 20
304.0968724334
 30
0.0
 10
250.9479552619
 20
303.6809585775
 30
0.0
 10
250.9299866909
 20
303.2134701412
 30
0.0
 10
250.9121505364
 20
302.6990774302
 30
0.0
 10
250.8885385618
 20
301.9347602715
 30
0.0
 10
250.8628573535
 20
300.9033084299
 30
0.0
 10
250.841759803
 20
299.6020006255
 30
0.0
 10
250.8360812348
 20
298.7069517814
 30
0.0
 10
250.8359213717
 20
298.2511536218
 30
0.0
  0
SPLINE
  5
27E
100
AcDbEntity
  8
0
100
AcDbSpline
 62
9
  6
CONTINUOUS
 70
0
 71
3
 72
18
 73
14
 74
0
 42
0.0000001
 43
0.0000001
 44
0.0000000001
 40
0.0
 40
0.0
 40
0.0
 40
0.0
 40
0.0040610273
 40
0.016672375
 40
0.0383824768
 40
0.069737294
 40
0.1110982635
 40
0.1620864602
 40
0.2906851003
 40
0.4497729726
 40
0.6286172335
 40
0.815531986
 40
1.0
 40
1.0
 40
1.0
 40
1.0
 10
249.5812867765
 20
298.2499684805
 30
0.0
 10
249.5809726704
 20
298.2516375599
 30
0.0
 10
249.5929339945
 20
298.2480921839
 30
0.0
 10
249.6040160214
 20
298.2519908775
 30
0.0
 10
249.6344252857
 20
298.2499874391
 30
0.0
 10
249.6725609106
 20
298.2511647796
 30
0.0
 10
249.7248373434
 20
298.2508964915
 30
0.0
 10
249.816979333
 20
298.2512370406
 30
0.0
 10
249.958786335
 20
298.2511676477
 30
0.0
 10
250.1538262847
 20
298.2511185583
 30
0.0
 10
250.3733469393
 20
298.2508500438
 30
0.0
 10
250.6034526105
 20
298.2504690185
 30
0.0
 10
250.7587711979
 20
298.2501404121
 30
0.0
 10
250.8359180859
 20
298.249961741
 30
0.0
  0
SPLINE
  5
27F
100
AcDbEntity
  8
0
100
AcDbSpline
 62
9
  6
CONTINUOUS
 70
0
 71
3
 72
15
 73
11
 74
0
 42
0.0000001
 43
0.0000001
 44
0.0000000001
 40
0.0
 40
0.0
 40
0.0
 40
0.0
 40
0.0625093412
 40
0.1250071152
 40
0.1875048755
 40
0.2500061819
 40
0.3750062423
 40
0.500003865
 40
0.7500017717
 40
1.0
 40
1.0
 40
1.0
 40
1.0
 10
250.8374771569
 20
278.2499469001
 30
0.0
 10
250.8413813002
 20
278.6666579664
 30
0.0
 10
250.8318296445
 20
279.5000627987
 30
0.0
 10
250.8364871315
 20
280.7500868979
 30
0.0
 10
250.8369266558
 20
282.0000693021
 30
0.0
 10
250.8351881779
 20
283.6667304688
 30
0.0
 10
250.8348435633
 20
285.7500596444
 30
0.0
 10
250.8362022591
 20
289.0833667408
 30
0.0
 10
250.8377493999
 20
293.2499937738
 30
0.0
 10
250.8314324745
 20
296.5833111537
 30
0.0
 10
250.8352970322
 20
298.2499631826
 30
0.0
  0
ENDSEC
  0
SECTION
  2
OBJECTS
  0
DICTIONARY
  5
C
100
AcDbDictionary
280
0
281
1
  3
ACAD_GROUP
350
D
  3
ACAD_MLINESTYLE
350
17
  3
ACAD_LAYOUT
350
1A
  3
ACAD_PLOTSETTINGS
350
19
  3
ACAD_PLOTSTYLENAME
350
E
  0
DICTIONARY
  5
D
102
{ACAD_REACTORS
330
C
102
}
100
AcDbDictionary
280
0
281
1
  0
ACDBDICTIONARYWDFLT
  5
E
102
{ACAD_REACTORS
330
C
102
}
100
AcDbDictionary
281
1
  3
Normal
350
F
100
AcDbDictionaryWithDefault
340
F
  0
DICTIONARY
  5
17
102
{ACAD_REACTORS
330
C
102
}
100
AcDbDictionary
280
0
281
1
  3
Standard
350
18
  0
DICTIONARY
  5
19
102
{ACAD_REACTORS
330
C
102
}
100
AcDbDictionary
281
1
  0
DICTIONARY
  5
1A
102
{ACAD_REACTORS
330
C
102
}
100
AcDbDictionary
281
1
  3
Model
350
280
  3
Layout1
350
281
  0
ACDBPLACEHOLDER
  5
F
102
{ACAD_REACTORS
330
E
102
}
  0
MLINESTYLE
  5
18
102
{ACAD_REACTORS
330
17
102
}
100
AcDbMlineStyle
  2
STANDARD
 70
0
  3

 62
256
 51
90.0
 52
90.0
 71
2
 49
0.5
 62
256
  6
BYLAYER
 49
-0.5
 62
256
  6
BYLAYER
  0
LAYOUT
  5
280
102
{ACAD_REACTORS
330
1A
102
}
100
AcDbPlotSettings
  1

  2
none_device
  4
ANSI_C_(22.00_x_17.00_Inches)
  6

 40
0.0
 41
0.0
 42
0.0
 43
0.0
 44
558.8
 45
431.8
 46
0.0
 47
0.0
 48
0.0
 49
0.0
140
0.0
141
0.0
142
1.0
143
1.0
 70
1024
 72
1
 73
0
 74
0
  7

 75
0
147
1.0
148
0.0
149
0.0
100
AcDbLayout
  1
Model
 70
0
 71
0
 10
0.0
 20
0.0
 11
558.8
 21
431.8
 12
0.0
 22
0.0
 32
0.0
 14
0.0
 24
0.0
 34
0.0
 15
0.0
 25
0.0
 35
0.0
146
0.0
 13
0.0
 23
0.0
 33
0.0
 16
1.0
 26
0.0
 36
0.0
 17
0.0
 27
1.0
 37
0.0
 76
0
330
217
345
0
346
0
  0
LAYOUT
  5
281
102
{ACAD_REACTORS
330
1A
102
}
100
AcDbPlotSettings
  1

  2
none_device
  4
ANSI_C_(22.00_x_17.00_Inches)
  6

 40
0.0
 41
0.0
 42
0.0
 43
0.0
 44
558.8
 45
431.8
 46
0.0
 47
0.0
 48
0.0
 49
0.0
140
0.0
141
0.0
142
1.0
143
1.0
 70
0
 72
1
 73
0
 74
0
  7

 75
0
147
1.0
148
0.0
149
0.0
100
AcDbLayout
  1
Layout1
 70
0
 71
1
 10
0.0
 20
0.0
 11
558.8
 21
431.8
 12
0.0
 22
0.0
 32
0.0
 14
0.0
 24
0.0
 34
0.0
 15
0.0
 25
0.0
 35
0.0
146
0.0
 13
0.0
 23
0.0
 33
0.0
 16
1.0
 26
0.0
 36
0.0
 17
0.0
 27
1.0
 37
0.0
 76
0
330
218
345
0
346
0
  0
ENDSEC
  0
EOF
